  0
SECTION
  2
HEADER
  9
$ACADVER
  1
AC1009
  9
$DWGCODEPAGE
  3
ansi_1252
  9
$INSBASE
 10
0.0
 20
0.0
 30
0.0
  9
$EXTMIN
 10
0.0
 20
0.0
 30
0.0
  9
$EXTMAX
 10
420.0
 20
297.0
 30
0.0
  9
$LIMMIN
 10
0.0
 20
0.0
  9
$LIMMAX
 10
420.0
 20
297.0
  9
$ORTHOMODE
 70
     0
  9
$REGENMODE
 70
     1
  9
$FILLMODE
 70
     1
  9
$QTEXTMODE
 70
     0
  9
$MIRRTEXT
 70
     1
  9
$DRAGMODE
 70
     2
  9
$LTSCALE
 40
1.0
  9
$OSMODE
 70
    37
  9
$ATTMODE
 70
     1
  9
$TEXTSIZE
 40
3.5
  9
$TRACEWID
 40
1.0
  9
$TEXTSTYLE
  7
STANDARD
  9
$CLAYER
  8
0
  9
$CELTYPE
  6
BYLAYER
  9
$CECOLOR
 62
   256
  9
$DIMSCALE
 40
1.0
  9
$DIMASZ
 40
4.0
  9
$DIMEXO
 40
0.0
  9
$DIMDLI
 40
3.75
  9
$DIMRND
 40
0.0
  9
$DIMDLE
 40
0.0
  9
$DIMEXE
 40
2.0
  9
$DIMTP
 40
0.0
  9
$DIMTM
 40
0.0
  9
$DIMTXT
 40
3.5
  9
$DIMCEN
 40
2.5
  9
$DIMTSZ
 40
0.0
  9
$DIMTOL
 70
     0
  9
$DIMLIM
 70
     0
  9
$DIMTIH
 70
     1
  9
$DIMTOH
 70
     1
  9
$DIMSE1
 70
     0
  9
$DIMSE2
 70
     0
  9
$DIMTAD
 70
     1
  9
$DIMZIN
 70
     0
  9
$DIMBLK
  1

  9
$DIMASO
 70
     1
  9
$DIMSHO
 70
     1
  9
$DIMPOST
  1

  9
$DIMAPOST
  1

  9
$DIMALT
 70
     0
  9
$DIMALTD
 70
     3
  9
$DIMALTF
 40
0.0393700787
  9
$DIMLFAC
 40
5.0
  9
$DIMTOFL
 70
     1
  9
$DIMTVP
 40
0.0
  9
$DIMTIX
 70
     0
  9
$DIMSOXD
 70
     0
  9
$DIMSAH
 70
     0
  9
$DIMBLK1
  1

  9
$DIMBLK2
  1

  9
$DIMSTYLE
  2
ISO-25
  9
$DIMCLRD
 70
     0
  9
$DIMCLRE
 70
     0
  9
$DIMCLRT
 70
     0
  9
$DIMTFAC
 40
1.0
  9
$DIMGAP
 40
1.524
  9
$LUNITS
 70
     2
  9
$LUPREC
 70
     2
  9
$SKETCHINC
 40
1.0
  9
$FILLETRAD
 40
10.0
  9
$AUNITS
 70
     0
  9
$AUPREC
 70
     2
  9
$MENU
  1
.
  9
$ELEVATION
 40
0.0
  9
$PELEVATION
 40
0.0
  9
$THICKNESS
 40
0.0
  9
$LIMCHECK
 70
     0
  9
$CHAMFERA
 40
10.0
  9
$CHAMFERB
 40
10.0
  9
$SKPOLY
 70
     0
  9
$TDCREATE
 40
2457801.505974942
  9
$TDUPDATE
 40
2457801.505975116
  9
$TDINDWG
 40
0.0000000116
  9
$TDUSRTIMER
 40
0.0000000116
  9
$USRTIMER
 70
     1
  9
$ANGBASE
 50
0.0
  9
$ANGDIR
 70
     0
  9
$PDMODE
 70
     0
  9
$PDSIZE
 40
-1.0
  9
$PLINEWID
 40
0.0
  9
$COORDS
 70
     1
  9
$SPLFRAME
 70
     0
  9
$SPLINETYPE
 70
     6
  9
$SPLINESEGS
 70
     8
  9
$ATTDIA
 70
     0
  9
$ATTREQ
 70
     1
  9
$HANDLING
 70
     1
  9
$HANDSEED
  5
173
  9
$SURFTAB1
 70
     6
  9
$SURFTAB2
 70
     6
  9
$SURFTYPE
 70
     6
  9
$SURFU
 70
     6
  9
$SURFV
 70
     6
  9
$UCSNAME
  2

  9
$UCSORG
 10
0.0
 20
0.0
 30
0.0
  9
$UCSXDIR
 10
1.0
 20
0.0
 30
0.0
  9
$UCSYDIR
 10
0.0
 20
1.0
 30
0.0
  9
$PUCSNAME
  2

  9
$PUCSORG
 10
0.0
 20
0.0
 30
0.0
  9
$PUCSXDIR
 10
1.0
 20
0.0
 30
0.0
  9
$PUCSYDIR
 10
0.0
 20
1.0
 30
0.0
  9
$USERI1
 70
     0
  9
$USERI2
 70
     0
  9
$USERI3
 70
     0
  9
$USERI4
 70
     0
  9
$USERI5
 70
     0
  9
$USERR1
 40
0.0
  9
$USERR2
 40
0.0
  9
$USERR3
 40
0.0
  9
$USERR4
 40
0.0
  9
$USERR5
 40
0.0
  9
$WORLDVIEW
 70
     1
  9
$SHADEDGE
 70
     3
  9
$SHADEDIF
 70
    70
  9
$TILEMODE
 70
     1
  9
$MAXACTVP
 70
    64
  9
$PLIMCHECK
 70
     0
  9
$PEXTMIN
 10
1.0000000000E+20
 20
1.0000000000E+20
 30
1.0000000000E+20
  9
$PEXTMAX
 10
-1.0000000000E+20
 20
-1.0000000000E+20
 30
-1.0000000000E+20
  9
$PLIMMIN
 10
0.0
 20
0.0
  9
$PLIMMAX
 10
420.0
 20
297.0
  9
$UNITMODE
 70
     0
  9
$VISRETAIN
 70
     1
  9
$PLINEGEN
 70
     0
  9
$PSLTSCALE
 70
     1
  0
ENDSEC
  0
SECTION
  2
TABLES
  0
TABLE
  2
VPORT
 70
     1
  0
VPORT
  2
*ACTIVE
 70
     0
 10
0.0
 20
0.0
 11
1.0
 21
1.0
 12
210.0
 22
148.5
 13
0.0
 23
0.0
 14
10.0
 24
10.0
 15
10.0
 25
10.0
 16
0.0
 26
0.0
 36
1.0
 17
0.0
 27
0.0
 37
0.0
 40
297.0
 41
1.4141414141
 42
50.0
 43
0.0
 44
0.0
 50
0.0
 51
0.0
 71
     0
 72
  2000
 73
     1
 74
     3
 75
     0
 76
     0
 77
     0
 78
     0
  0
ENDTAB
  0
TABLE
  2
LTYPE
 70
     6
  0
LTYPE
  2
CONTINUOUS
 70
     0
  3
Solid line
 72
    65
 73
     0
 40
0.0
  0
LTYPE
  2
HIDDEN
 70
     0
  3
Hidden __ __ __ __ __ __ __ __ __ __ __ __ __ __
 72
    65
 73
     2
 40
1.905
 49
1.27
 49
-0.635
  0
LTYPE
  2
PHANTOM
 70
     0
  3
Phantom ______  __  __  ______  __  __  ______
 72
    65
 73
     6
 40
12.7
 49
6.35
 49
-1.27
 49
1.27
 49
-1.27
 49
1.27
 49
-1.27
  0
LTYPE
  2
CENTER
 70
     0
  3
Center ____ _ ____ _ ____ _ ____ _ ____ _ ____
 72
    65
 73
     4
 40
10.16
 49
6.35
 49
-1.27
 49
1.27
 49
-1.27
  0
LTYPE
  2
CENTERX2
 70
     0
  3
Center (2x) ________  __  ________  __  _____
 72
    65
 73
     4
 40
20.32
 49
12.7
 49
-2.54
 49
2.54
 49
-2.54
  0
LTYPE
  2
DOT2
 70
     0
  3
Dot (.5x) ........................................
 72
    65
 73
     2
 40
0.635
 49
0.0
 49
-0.635
  0
ENDTAB
  0
TABLE
  2
LAYER
 70
     2
  0
LAYER
  2
0
 70
     0
 62
     7
  6
CONTINUOUS
  0
LAYER
  2
FORMAT
 70
     0
 62
     7
  6
CONTINUOUS
  0
ENDTAB
  0
TABLE
  2
STYLE
 70
     1
  0
STYLE
  2
STANDARD
 70
     0
 40
0.0
 41
1.0
 50
0.0
 71
     0
 42
3.5
  3
txt
  4

  0
ENDTAB
  0
TABLE
  2
VIEW
 70
     0
  0
ENDTAB
  0
TABLE
  2
UCS
 70
     0
  0
ENDTAB
  0
TABLE
  2
APPID
 70
     1
  0
APPID
  2
ACAD
 70
     0
  0
ENDTAB
  0
TABLE
  2
DIMSTYLE
 70
     1
  0
DIMSTYLE
  2
ISO-25
 70
     0
  3

  4

  5

  6

  7

 40
1.0
 41
2.5
 42
0.625
 43
3.75
 44
1.25
 45
0.0
 46
0.0
 47
0.0
 48
0.0
140
2.5
141
2.5
142
0.0
143
0.0393700787
144
1.0
145
0.0
146
1.0
147
0.625
 71
     0
 72
     0
 73
     0
 74
     0
 75
     0
 76
     0
 77
     1
 78
     8
170
     0
171
     3
172
     1
173
     0
174
     0
175
     0
176
     0
177
     0
178
     0
  0
ENDTAB
  0
ENDSEC
  0
SECTION
  2
BLOCKS
  0
BLOCK
  8
0
  2
$MODEL_SPACE
 70
     0
 10
0.0
 20
0.0
 30
0.0
  3
$MODEL_SPACE
  1

  0
ENDBLK
  5
21
  8
0
  0
BLOCK
 67
     1
  8
0
  2
$PAPER_SPACE
 70
     0
 10
0.0
 20
0.0
 30
0.0
  3
$PAPER_SPACE
  1

  0
ENDBLK
  5
1D
 67
     1
  8
0
  0
ENDSEC
  0
SECTION
  2
ENTITIES
  0
LINE
  5
45
  8
0
  6
CONTINUOUS
 62
     7
 10
56.7777297621
 20
183.8225938231
 30
0.0
 11
57.5777297621
 21
183.8225938231
 31
0.0
  0
LINE
  5
46
  8
0
  6
CONTINUOUS
 62
     7
 10
74.3540916901
 20
193.4536694043
 30
0.0
 11
74.3540916901
 21
194.2536694043
 31
0.0
  0
LINE
  5
47
  8
0
  6
CONTINUOUS
 62
     7
 10
57.5777297621
 20
183.8536694043
 30
0.0
 11
73.7777297621
 21
183.8536694043
 31
0.0
  0
LINE
  5
48
  8
0
  6
CONTINUOUS
 62
     7
 10
73.7777297621
 20
195.8536694043
 30
0.0
 11
56.7777297621
 21
195.8536694043
 31
0.0
  0
LINE
  5
49
  8
0
  6
CONTINUOUS
 62
     7
 10
73.7777297621
 20
187.4536694043
 30
0.0
 11
74.1777297621
 21
187.4536694043
 31
0.0
  0
LINE
  5
4A
  8
0
  6
CONTINUOUS
 62
     7
 10
74.1777297621
 20
192.2536694043
 30
0.0
 11
73.7777297621
 21
192.2536694043
 31
0.0
  0
LINE
  5
4B
  8
0
  6
CONTINUOUS
 62
     7
 10
131.3777297621
 20
183.8225938231
 30
0.0
 11
132.1777297621
 21
183.8225938231
 31
0.0
  0
LINE
  5
4C
  8
0
  6
CONTINUOUS
 62
     7
 10
114.6013678341
 20
194.2536694043
 30
0.0
 11
114.6013678341
 21
193.4536694043
 31
0.0
  0
LINE
  5
4D
  8
0
  6
CONTINUOUS
 62
     7
 10
132.1777297621
 20
195.8536694043
 30
0.0
 11
115.1777297621
 21
195.8536694043
 31
0.0
  0
LINE
  5
4E
  8
0
  6
CONTINUOUS
 62
     7
 10
115.1777297621
 20
183.8536694043
 30
0.0
 11
131.3777297621
 21
183.8536694043
 31
0.0
  0
LINE
  5
4F
  8
0
  6
CONTINUOUS
 62
     7
 10
115.1777297621
 20
192.2536694043
 30
0.0
 11
114.7777297621
 21
192.2536694043
 31
0.0
  0
LINE
  5
50
  8
0
  6
CONTINUOUS
 62
     7
 10
114.7777297621
 20
187.4536694043
 30
0.0
 11
115.1777297621
 21
187.4536694043
 31
0.0
  0
LINE
  5
51
  8
0
  6
CONTINUOUS
 62
     7
 10
135.2777297621
 20
196.2536694043
 30
0.0
 11
134.4777297621
 21
196.2536694043
 31
0.0
  0
LINE
  5
52
  8
0
  6
CONTINUOUS
 62
     7
 10
134.4777297621
 20
195.8536694043
 30
0.0
 11
132.1777297621
 21
195.8536694043
 31
0.0
  0
LINE
  5
53
  8
0
  6
CONTINUOUS
 62
     7
 10
132.1777297621
 20
183.8536694043
 30
0.0
 11
132.4777297621
 21
183.8536694043
 31
0.0
  0
LINE
  5
54
  8
0
  6
CONTINUOUS
 62
     7
 10
54.4777297621
 20
196.2536694043
 30
0.0
 11
53.6777297621
 21
196.2536694043
 31
0.0
  0
LINE
  5
55
  8
0
  6
CONTINUOUS
 62
     7
 10
56.4777297621
 20
183.8536694043
 30
0.0
 11
56.7777297621
 21
183.8536694043
 31
0.0
  0
LINE
  5
56
  8
0
  6
CONTINUOUS
 62
     7
 10
56.7777297621
 20
195.8536694043
 30
0.0
 11
54.4777297621
 21
195.8536694043
 31
0.0
  0
LINE
  5
57
  8
0
  6
CONTINUOUS
 62
     7
 10
59.9777297621
 20
193.4536694043
 30
0.0
 11
57.7777297621
 21
193.4536694043
 31
0.0
  0
ARC
  5
58
  8
0
  6
CONTINUOUS
 62
     7
 10
57.7777297621
 20
193.2536694043
 30
0.0
 40
0.1999999999999957
 50
90.0
 51
180.0
  0
LINE
  5
59
  8
0
  6
CONTINUOUS
 62
     7
 10
56.7777297621
 20
193.2536694043
 30
0.0
 11
56.7777297621
 21
191.7599745573
 31
0.0
  0
ARC
  5
5A
  8
0
  6
CONTINUOUS
 62
     7
 10
57.7777297621
 20
193.2536694043
 30
0.0
 40
1.0
 50
90.0
 51
180.0
  0
LINE
  5
5B
  8
0
  6
CONTINUOUS
 62
     7
 10
59.9777297621
 20
194.2536694043
 30
0.0
 11
57.7777297621
 21
194.2536694043
 31
0.0
  0
LINE
  5
5C
  8
0
  6
CONTINUOUS
 62
     7
 10
57.5777297621
 20
191.7599745573
 30
0.0
 11
57.5777297621
 21
193.2536694043
 31
0.0
  0
LINE
  5
5D
  8
0
  6
CONTINUOUS
 62
     7
 10
56.7777297621
 20
189.8351312755
 30
0.0
 11
56.7777297621
 21
191.7599745573
 31
0.0
  0
LINE
  5
5E
  8
0
  6
CONTINUOUS
 62
     7
 10
57.5777297621
 20
191.7599745573
 30
0.0
 11
57.5777297621
 21
189.8351312755
 31
0.0
  0
LINE
  5
5F
  8
0
  6
CONTINUOUS
 62
     7
 10
59.9777297621
 20
194.2536694043
 30
0.0
 11
61.9777297621
 21
194.2536694043
 31
0.0
  0
LINE
  5
60
  8
0
  6
CONTINUOUS
 62
     7
 10
61.9777297621
 20
194.2536694043
 30
0.0
 11
61.9777297621
 21
193.4536694043
 31
0.0
  0
LINE
  5
61
  8
0
  6
CONTINUOUS
 62
     7
 10
61.9777297621
 20
193.4536694043
 30
0.0
 11
59.9777297621
 21
193.4536694043
 31
0.0
  0
LINE
  5
62
  8
0
  6
CONTINUOUS
 62
     7
 10
56.7777297621
 20
189.8351312755
 30
0.0
 11
56.7777297621
 21
183.8225938231
 31
0.0
  0
LINE
  5
63
  8
0
  6
CONTINUOUS
 62
     7
 10
57.5777297621
 20
183.8225938231
 30
0.0
 11
57.5777297621
 21
189.8351312755
 31
0.0
  0
LINE
  5
64
  8
0
  6
CONTINUOUS
 62
     7
 10
61.9777297621
 20
193.4536694043
 30
0.0
 11
73.6622284055
 21
193.4536694043
 31
0.0
  0
LINE
  5
65
  8
0
  6
CONTINUOUS
 62
     7
 10
61.9777297621
 20
194.2536694043
 30
0.0
 11
73.6622284055
 21
194.2536694043
 31
0.0
  0
LINE
  5
66
  8
0
  6
CONTINUOUS
 62
     7
 10
73.6622284055
 20
193.4536694043
 30
0.0
 11
74.3540916901
 21
193.4536694043
 31
0.0
  0
LINE
  5
67
  8
0
  6
CONTINUOUS
 62
     7
 10
74.3540916901
 20
194.2536694043
 30
0.0
 11
73.6622284055
 21
194.2536694043
 31
0.0
  0
LINE
  5
68
  8
0
  6
CONTINUOUS
 62
     7
 10
73.7777297621
 20
189.8536694043
 30
0.0
 11
73.7777297621
 21
193.4536694043
 31
0.0
  0
LINE
  5
69
  8
0
  6
CONTINUOUS
 62
     7
 10
73.7777297621
 20
194.2536694043
 30
0.0
 11
73.7777297621
 21
195.8536694043
 31
0.0
  0
LINE
  5
6A
  8
0
  6
CONTINUOUS
 62
     7
 10
73.7777297621
 20
183.8536694043
 30
0.0
 11
73.7777297621
 21
189.8536694043
 31
0.0
  0
LINE
  5
6B
  8
0
  6
CONTINUOUS
 62
     7
 10
56.7777297621
 20
195.8536694043
 30
0.0
 11
56.7777297621
 21
193.2536694043
 31
0.0
  0
LINE
  5
6C
  8
0
  6
CONTINUOUS
 62
     7
 10
74.1777297621
 20
192.2536694043
 30
0.0
 11
74.1777297621
 21
187.4536694043
 31
0.0
  0
LINE
  5
6D
  8
0
  6
CONTINUOUS
 62
     7
 10
132.1777297621
 20
189.8351312755
 30
0.0
 11
132.1777297621
 21
191.7599745573
 31
0.0
  0
LINE
  5
6E
  8
0
  6
CONTINUOUS
 62
     7
 10
131.3777297621
 20
191.7599745573
 30
0.0
 11
131.3777297621
 21
189.8351312755
 31
0.0
  0
ARC
  5
6F
  8
0
  6
CONTINUOUS
 62
     7
 10
131.1777297621
 20
193.2536694043
 30
0.0
 40
1.0
 50
0.0
 51
90.0
  0
LINE
  5
70
  8
0
  6
CONTINUOUS
 62
     7
 10
132.1777297621
 20
193.2536694043
 30
0.0
 11
132.1777297621
 21
191.7599745573
 31
0.0
  0
LINE
  5
71
  8
0
  6
CONTINUOUS
 62
     7
 10
131.3777297621
 20
191.7599745573
 30
0.0
 11
131.3777297621
 21
193.2536694043
 31
0.0
  0
ARC
  5
72
  8
0
  6
CONTINUOUS
 62
     7
 10
131.1777297621
 20
193.2536694043
 30
0.0
 40
0.1999999999999886
 50
0.0
 51
90.0
  0
LINE
  5
73
  8
0
  6
CONTINUOUS
 62
     7
 10
128.9777297621
 20
193.4536694043
 30
0.0
 11
131.1777297621
 21
193.4536694043
 31
0.0
  0
LINE
  5
74
  8
0
  6
CONTINUOUS
 62
     7
 10
128.9777297621
 20
194.2536694043
 30
0.0
 11
131.1777297621
 21
194.2536694043
 31
0.0
  0
LINE
  5
75
  8
0
  6
CONTINUOUS
 62
     7
 10
126.9777297621
 20
194.2536694043
 30
0.0
 11
126.9777297621
 21
193.4536694043
 31
0.0
  0
LINE
  5
76
  8
0
  6
CONTINUOUS
 62
     7
 10
126.9777297621
 20
193.4536694043
 30
0.0
 11
128.9777297621
 21
193.4536694043
 31
0.0
  0
LINE
  5
77
  8
0
  6
CONTINUOUS
 62
     7
 10
128.9777297621
 20
194.2536694043
 30
0.0
 11
126.9777297621
 21
194.2536694043
 31
0.0
  0
LINE
  5
78
  8
0
  6
CONTINUOUS
 62
     7
 10
132.1777297621
 20
189.8351312755
 30
0.0
 11
132.1777297621
 21
183.8225938231
 31
0.0
  0
LINE
  5
79
  8
0
  6
CONTINUOUS
 62
     7
 10
131.3777297621
 20
183.8225938231
 30
0.0
 11
131.3777297621
 21
189.8351312755
 31
0.0
  0
LINE
  5
7A
  8
0
  6
CONTINUOUS
 62
     7
 10
126.9777297621
 20
193.4536694043
 30
0.0
 11
115.2932311187
 21
193.4536694043
 31
0.0
  0
LINE
  5
7B
  8
0
  6
CONTINUOUS
 62
     7
 10
126.9777297621
 20
194.2536694043
 30
0.0
 11
115.2932311187
 21
194.2536694043
 31
0.0
  0
LINE
  5
7C
  8
0
  6
CONTINUOUS
 62
     7
 10
115.2932311187
 20
193.4536694043
 30
0.0
 11
114.6013678341
 21
193.4536694043
 31
0.0
  0
LINE
  5
7D
  8
0
  6
CONTINUOUS
 62
     7
 10
114.6013678341
 20
194.2536694043
 30
0.0
 11
115.2932311187
 21
194.2536694043
 31
0.0
  0
LINE
  5
7E
  8
0
  6
CONTINUOUS
 62
     7
 10
115.1777297621
 20
189.8536694043
 30
0.0
 11
115.1777297621
 21
193.4536694043
 31
0.0
  0
LINE
  5
7F
  8
0
  6
CONTINUOUS
 62
     7
 10
115.1777297621
 20
194.2536694043
 30
0.0
 11
115.1777297621
 21
195.8536694043
 31
0.0
  0
LINE
  5
80
  8
0
  6
CONTINUOUS
 62
     7
 10
115.1777297621
 20
183.8536694043
 30
0.0
 11
115.1777297621
 21
189.8536694043
 31
0.0
  0
LINE
  5
81
  8
0
  6
CONTINUOUS
 62
     7
 10
132.1777297621
 20
195.8536694043
 30
0.0
 11
132.1777297621
 21
193.2536694043
 31
0.0
  0
LINE
  5
82
  8
0
  6
CONTINUOUS
 62
     7
 10
114.7777297621
 20
192.2536694043
 30
0.0
 11
114.7777297621
 21
187.4536694043
 31
0.0
  0
LINE
  5
83
  8
0
  6
CONTINUOUS
 62
     7
 10
134.4777297621
 20
196.2536694043
 30
0.0
 11
134.4777297621
 21
185.5893914364
 31
0.0
  0
LINE
  5
84
  8
0
  6
CONTINUOUS
 62
     7
 10
135.2777297621
 20
196.2536694043
 30
0.0
 11
135.2777297621
 21
185.5893914364
 31
0.0
  0
LINE
  5
85
  8
0
  6
CONTINUOUS
 62
     7
 10
134.4777297621
 20
185.5893914364
 30
0.0
 11
134.4777297621
 21
158.9376541371
 31
0.0
  0
LINE
  5
86
  8
0
  6
CONTINUOUS
 62
     7
 10
135.2777297621
 20
185.5893914364
 30
0.0
 11
135.2777297621
 21
158.9376541371
 31
0.0
  0
LINE
  5
87
  8
0
  6
CONTINUOUS
 62
     7
 10
132.4777297621
 20
173.8536694043
 30
0.0
 11
134.4777297621
 21
173.8536694043
 31
0.0
  0
LINE
  5
88
  8
0
  6
CONTINUOUS
 62
     7
 10
132.4777297621
 20
185.8559088094
 30
0.0
 11
132.4777297621
 21
173.8536694043
 31
0.0
  0
LINE
  5
89
  8
0
  6
CONTINUOUS
 62
     7
 10
134.4777297621
 20
158.9376541371
 30
0.0
 11
134.4777297621
 21
149.8536694043
 31
0.0
  0
LINE
  5
8A
  8
0
  6
CONTINUOUS
 62
     7
 10
135.2777297621
 20
158.9376541371
 30
0.0
 11
135.2777297621
 21
149.8536694043
 31
0.0
  0
LINE
  5
8B
  8
0
  6
CONTINUOUS
 62
     7
 10
134.4777297621
 20
147.8536694043
 30
0.0
 11
135.2777297621
 21
147.8536694043
 31
0.0
  0
LINE
  5
8C
  8
0
  6
CONTINUOUS
 62
     7
 10
134.4777297621
 20
149.8536694043
 30
0.0
 11
134.4777297621
 21
147.8536694043
 31
0.0
  0
LINE
  5
8D
  8
0
  6
CONTINUOUS
 62
     7
 10
135.2777297621
 20
149.8536694043
 30
0.0
 11
135.2777297621
 21
147.8536694043
 31
0.0
  0
ARC
  5
8E
  8
0
  6
CONTINUOUS
 62
     7
 10
128.6777297621
 20
150.8536694043
 30
0.0
 40
3.0
 50
180.0
 51
270.0
  0
CIRCLE
  5
8F
  8
0
  6
CONTINUOUS
 62
     7
 10
128.4777297621
 20
151.8536694043
 30
0.0
 40
1.099999999999994
  0
CIRCLE
  5
90
  8
0
  6
CONTINUOUS
 62
     7
 10
128.4777297621
 20
181.8536694043
 30
0.0
 40
1.099999999999994
  0
LINE
  5
91
  8
0
  6
CONTINUOUS
 62
     7
 10
125.6777297621
 20
183.8536694043
 30
0.0
 11
125.6777297621
 21
150.8536694043
 31
0.0
  0
LINE
  5
92
  8
0
  6
CONTINUOUS
 62
     7
 10
128.6777297621
 20
147.8536694043
 30
0.0
 11
134.4777297621
 21
147.8536694043
 31
0.0
  0
LINE
  5
93
  8
0
  6
CONTINUOUS
 62
     7
 10
54.4777297621
 20
196.2536694043
 30
0.0
 11
54.4777297621
 21
185.5893914364
 31
0.0
  0
LINE
  5
94
  8
0
  6
CONTINUOUS
 62
     7
 10
53.6777297621
 20
196.2536694043
 30
0.0
 11
53.6777297621
 21
185.5893914364
 31
0.0
  0
LINE
  5
95
  8
0
  6
CONTINUOUS
 62
     7
 10
53.6777297621
 20
185.5893914364
 30
0.0
 11
53.6777297621
 21
158.9376541371
 31
0.0
  0
LINE
  5
96
  8
0
  6
CONTINUOUS
 62
     7
 10
54.4777297621
 20
185.5893914364
 30
0.0
 11
54.4777297621
 21
158.9376541371
 31
0.0
  0
LINE
  5
97
  8
0
  6
CONTINUOUS
 62
     7
 10
56.4777297621
 20
185.8559088094
 30
0.0
 11
56.4777297621
 21
173.8536694043
 31
0.0
  0
LINE
  5
98
  8
0
  6
CONTINUOUS
 62
     7
 10
56.4777297621
 20
173.8536694043
 30
0.0
 11
54.4777297621
 21
173.8536694043
 31
0.0
  0
LINE
  5
99
  8
0
  6
CONTINUOUS
 62
     7
 10
53.6777297621
 20
158.9376541371
 30
0.0
 11
53.6777297621
 21
149.8536694043
 31
0.0
  0
LINE
  5
9A
  8
0
  6
CONTINUOUS
 62
     7
 10
54.4777297621
 20
158.9376541371
 30
0.0
 11
54.4777297621
 21
149.8536694043
 31
0.0
  0
LINE
  5
9B
  8
0
  6
CONTINUOUS
 62
     7
 10
54.4777297621
 20
147.8536694043
 30
0.0
 11
53.6777297621
 21
147.8536694043
 31
0.0
  0
LINE
  5
9C
  8
0
  6
CONTINUOUS
 62
     7
 10
53.6777297621
 20
149.8536694043
 30
0.0
 11
53.6777297621
 21
147.8536694043
 31
0.0
  0
LINE
  5
9D
  8
0
  6
CONTINUOUS
 62
     7
 10
54.4777297621
 20
149.8536694043
 30
0.0
 11
54.4777297621
 21
147.8536694043
 31
0.0
  0
ARC
  5
9E
  8
0
  6
CONTINUOUS
 62
     7
 10
60.2777297621
 20
150.8536694043
 30
0.0
 40
3.0
 50
270.0
 51
0.0
  0
CIRCLE
  5
9F
  8
0
  6
CONTINUOUS
 62
     7
 10
60.4777297621
 20
151.8536694043
 30
0.0
 40
1.099999999999994
  0
CIRCLE
  5
A0
  8
0
  6
CONTINUOUS
 62
     7
 10
60.4777297621
 20
181.8536694043
 30
0.0
 40
1.099999999999994
  0
LINE
  5
A1
  8
0
  6
CONTINUOUS
 62
     7
 10
63.2777297621
 20
183.8536694043
 30
0.0
 11
63.2777297621
 21
150.8536694043
 31
0.0
  0
LINE
  5
A2
  8
0
  6
CONTINUOUS
 62
     7
 10
60.2777297621
 20
147.8536694043
 30
0.0
 11
54.4777297621
 21
147.8536694043
 31
0.0
  0
LINE
  5
A3
  8
0
  6
CONTINUOUS
 62
     7
 10
60.3777297621
 20
82.0292545829
 30
0.0
 11
73.7777297621
 21
82.0292545829
 31
0.0
  0
LINE
  5
A4
  8
0
  6
CONTINUOUS
 62
     7
 10
73.7777297621
 20
94.0292545829
 30
0.0
 11
56.7777297621
 21
94.0292545829
 31
0.0
  0
LINE
  5
A5
  8
0
  6
CONTINUOUS
 62
     7
 10
73.7777297621
 20
85.6292545829
 30
0.0
 11
74.1777297621
 21
85.6292545829
 31
0.0
  0
LINE
  5
A6
  8
0
  6
CONTINUOUS
 62
     7
 10
74.1777297621
 20
90.4292545829
 30
0.0
 11
73.7777297621
 21
90.4292545829
 31
0.0
  0
LINE
  5
A7
  8
0
  6
CONTINUOUS
 62
     7
 10
132.1777297621
 20
94.0292545829
 30
0.0
 11
115.1777297621
 21
94.0292545829
 31
0.0
  0
LINE
  5
A8
  8
0
  6
CONTINUOUS
 62
     7
 10
115.1777297621
 20
82.0292545829
 30
0.0
 11
128.5777297621
 21
82.0292545829
 31
0.0
  0
LINE
  5
A9
  8
0
  6
CONTINUOUS
 62
     7
 10
115.1777297621
 20
90.4292545829
 30
0.0
 11
114.7777297621
 21
90.4292545829
 31
0.0
  0
LINE
  5
AA
  8
0
  6
CONTINUOUS
 62
     7
 10
114.7777297621
 20
85.6292545829
 30
0.0
 11
115.1777297621
 21
85.6292545829
 31
0.0
  0
LINE
  5
AB
  8
0
  6
CONTINUOUS
 62
     7
 10
134.4777297621
 20
81.6292545829
 30
0.0
 11
135.2777297621
 21
81.6292545829
 31
0.0
  0
LINE
  5
AC
  8
0
  6
CONTINUOUS
 62
     7
 10
132.4777297621
 20
94.0292545829
 30
0.0
 11
132.1777297621
 21
94.0292545829
 31
0.0
  0
LINE
  5
AD
  8
0
  6
CONTINUOUS
 62
     7
 10
132.1777297621
 20
82.0292545829
 30
0.0
 11
134.4777297621
 21
82.0292545829
 31
0.0
  0
LINE
  5
AE
  8
0
  6
CONTINUOUS
 62
     7
 10
53.6777297621
 20
81.6292545829
 30
0.0
 11
54.4777297621
 21
81.6292545829
 31
0.0
  0
LINE
  5
AF
  8
0
  6
CONTINUOUS
 62
     7
 10
54.4777297621
 20
82.0292545829
 30
0.0
 11
56.7777297621
 21
82.0292545829
 31
0.0
  0
LINE
  5
B0
  8
0
  6
CONTINUOUS
 62
     7
 10
56.7777297621
 20
94.0292545829
 30
0.0
 11
56.4777297621
 21
94.0292545829
 31
0.0
  0
LINE
  5
B1
  8
0
  6
CONTINUOUS
 62
     7
 10
73.7777297621
 20
82.0292545829
 30
0.0
 11
73.7777297621
 21
94.0292545829
 31
0.0
  0
LINE
  5
B2
  8
0
  6
CONTINUOUS
 62
     7
 10
60.3777297621
 20
83.950038972
 30
0.0
 11
57.7777297621
 21
83.950038972
 31
0.0
  0
ARC
  5
B3
  8
0
  6
CONTINUOUS
 62
     7
 10
57.7754383997
 20
82.9420650388
 30
0.0
 40
1.007976537599694
 50
89.8697534101
 51
171.8149263649
  0
LINE
  5
B4
  8
0
  6
CONTINUOUS
 62
     7
 10
56.7777297621
 20
94.0292545829
 30
0.0
 11
56.7777297621
 21
83.0855717451
 31
0.0
  0
LINE
  5
B5
  8
0
  6
CONTINUOUS
 62
     7
 10
57.7777297621
 20
40.0292545829
 30
0.0
 11
56.7777297621
 21
40.0292545829
 31
0.0
  0
LINE
  5
B6
  8
0
  6
CONTINUOUS
 62
     7
 10
56.7777297621
 20
40.0292545829
 30
0.0
 11
56.7777297621
 21
83.0855717451
 31
0.0
  0
ARC
  5
B7
  8
0
  6
CONTINUOUS
 62
     7
 10
61.5777297621
 20
77.273337879
 30
0.0
 40
1.199999999999996
 50
180.0
 51
301.3059500668
  0
ARC
  5
B8
  8
0
  6
CONTINUOUS
 62
     7
 10
66.8777297621
 20
68.5584081604
 30
0.0
 40
8.999999999999993
 50
113.2214333373
 51
121.3059500668
  0
ARC
  5
B9
  8
0
  6
CONTINUOUS
 62
     7
 10
94.4777297621
 20
4.2292545829
 30
0.0
 40
79.0
 50
107.7459554852
 51
113.2214333373
  0
ARC
  5
BA
  8
0
  6
CONTINUOUS
 62
     7
 10
70.7645178287
 20
78.3273218977
 30
0.0
 40
1.199999999999992
 50
25.5952826011
 51
107.7459554852
  0
ARC
  5
BB
  8
0
  6
CONTINUOUS
 62
     7
 10
86.2766491273
 20
85.7579196243
 30
0.0
 40
16.0
 50
205.5952826011
 51
219.5899006008
  0
ARC
  5
BC
  8
0
  6
CONTINUOUS
 62
     7
 10
72.5777297621
 20
74.4292545829
 30
0.0
 40
1.776361927999825
 50
307.626873982
 51
39.5899006008
  0
ARC
  5
BD
  8
0
  6
CONTINUOUS
 62
     7
 10
91.9777297621
 20
49.2622687208
 30
0.0
 40
30.0
 50
127.626873982
 51
180.0
  0
LINE
  5
BE
  8
0
  6
CONTINUOUS
 62
     7
 10
61.9777297621
 20
42.0292545829
 30
0.0
 11
61.9777297621
 21
49.2622687208
 31
0.0
  0
ARC
  5
BF
  8
0
  6
CONTINUOUS
 62
     7
 10
59.9777297621
 20
42.0292545829
 30
0.0
 40
2.0
 50
270.0
 51
0.0
  0
LINE
  5
C0
  8
0
  6
CONTINUOUS
 62
     7
 10
59.9777297621
 20
40.0292545829
 30
0.0
 11
57.7777297621
 21
40.0292545829
 31
0.0
  0
CIRCLE
  5
C1
  8
0
  6
CONTINUOUS
 62
     7
 10
72.5777297621
 20
74.4292545829
 30
0.0
 40
0.6600000000000108
  0
CIRCLE
  5
C2
  8
0
  6
CONTINUOUS
 62
     7
 10
59.6777297621
 20
41.6292545829
 30
0.0
 40
0.6599999999999966
  0
LINE
  5
C3
  8
0
  6
CONTINUOUS
 62
     7
 10
60.3777297621
 20
83.950038972
 30
0.0
 11
60.3777297621
 21
77.273337879
 31
0.0
  0
LINE
  5
C4
  8
0
  6
CONTINUOUS
 62
     7
 10
74.1777297621
 20
90.4292545829
 30
0.0
 11
74.1777297621
 21
85.6292545829
 31
0.0
  0
LINE
  5
C5
  8
0
  6
CONTINUOUS
 62
     7
 10
115.1777297621
 20
82.0292545829
 30
0.0
 11
115.1777297621
 21
94.0292545829
 31
0.0
  0
LINE
  5
C6
  8
0
  6
CONTINUOUS
 62
     7
 10
132.1777297621
 20
94.0292545829
 30
0.0
 11
132.1777297621
 21
83.0855717451
 31
0.0
  0
ARC
  5
C7
  8
0
  6
CONTINUOUS
 62
     7
 10
131.1812667731
 20
82.9435059825
 30
0.0
 40
1.006539204037479
 50
8.1139806041
 51
90.2013396209
  0
LINE
  5
C8
  8
0
  6
CONTINUOUS
 62
     7
 10
128.5777297621
 20
83.950038972
 30
0.0
 11
131.1777297621
 21
83.950038972
 31
0.0
  0
LINE
  5
C9
  8
0
  6
CONTINUOUS
 62
     7
 10
131.1777297621
 20
40.0292545829
 30
0.0
 11
132.1777297621
 21
40.0292545829
 31
0.0
  0
LINE
  5
CA
  8
0
  6
CONTINUOUS
 62
     7
 10
132.1777297621
 20
40.0292545829
 30
0.0
 11
132.1777297621
 21
83.0855717451
 31
0.0
  0
LINE
  5
CB
  8
0
  6
CONTINUOUS
 62
     7
 10
128.9777297621
 20
40.0292545829
 30
0.0
 11
131.1777297621
 21
40.0292545829
 31
0.0
  0
ARC
  5
CC
  8
0
  6
CONTINUOUS
 62
     7
 10
128.9777297621
 20
42.0292545829
 30
0.0
 40
2.000000000000007
 50
180.0
 51
270.0
  0
LINE
  5
CD
  8
0
  6
CONTINUOUS
 62
     7
 10
126.9777297621
 20
42.0292545829
 30
0.0
 11
126.9777297621
 21
49.2622687208
 31
0.0
  0
ARC
  5
CE
  8
0
  6
CONTINUOUS
 62
     7
 10
96.9777297621
 20
49.2622687208
 30
0.0
 40
30.00000000000001
 50
0.0
 51
52.373126018
  0
ARC
  5
CF
  8
0
  6
CONTINUOUS
 62
     7
 10
116.3777297621
 20
74.4292545829
 30
0.0
 40
1.776361927999825
 50
140.4100993992
 51
232.373126018
  0
ARC
  5
D0
  8
0
  6
CONTINUOUS
 62
     7
 10
102.6788103969
 20
85.7579196243
 30
0.0
 40
16.0
 50
320.4100993992
 51
334.4047173989
  0
ARC
  5
D1
  8
0
  6
CONTINUOUS
 62
     7
 10
118.1909416955
 20
78.3273218977
 30
0.0
 40
1.200000000000002
 50
72.2540445148
 51
154.4047173989
  0
ARC
  5
D2
  8
0
  6
CONTINUOUS
 62
     7
 10
94.4777297621
 20
4.2292545829
 30
0.0
 40
79.00000000000006
 50
66.7785666627
 51
72.2540445148
  0
ARC
  5
D3
  8
0
  6
CONTINUOUS
 62
     7
 10
122.0777297621
 20
68.5584081604
 30
0.0
 40
8.999999999999998
 50
58.6940499332
 51
66.7785666627
  0
ARC
  5
D4
  8
0
  6
CONTINUOUS
 62
     7
 10
127.3777297621
 20
77.273337879
 30
0.0
 40
1.200000000000008
 50
238.6940499332
 51
0.0
  0
LINE
  5
D5
  8
0
  6
CONTINUOUS
 62
     7
 10
128.5777297621
 20
83.950038972
 30
0.0
 11
128.5777297621
 21
77.273337879
 31
0.0
  0
CIRCLE
  5
D6
  8
0
  6
CONTINUOUS
 62
     7
 10
116.3777297621
 20
74.4292545829
 30
0.0
 40
0.6599999999999966
  0
CIRCLE
  5
D7
  8
0
  6
CONTINUOUS
 62
     7
 10
129.2777297621
 20
41.6292545829
 30
0.0
 40
0.6600000000000037
  0
LINE
  5
D8
  8
0
  6
CONTINUOUS
 62
     7
 10
114.7777297621
 20
90.4292545829
 30
0.0
 11
114.7777297621
 21
85.6292545829
 31
0.0
  0
LINE
  5
D9
  8
0
  6
CONTINUOUS
 62
     7
 10
134.4777297621
 20
92.801668376
 30
0.0
 11
134.4777297621
 21
81.6292545829
 31
0.0
  0
LINE
  5
DA
  8
0
  6
CONTINUOUS
 62
     7
 10
135.2777297621
 20
92.801668376
 30
0.0
 11
135.2777297621
 21
81.6292545829
 31
0.0
  0
LINE
  5
DB
  8
0
  6
CONTINUOUS
 62
     7
 10
134.4777297621
 20
97.6073493932
 30
0.0
 11
135.2777297621
 21
97.6073493932
 31
0.0
  0
LINE
  5
DC
  8
0
  6
CONTINUOUS
 62
     7
 10
134.4777297621
 20
97.6073493932
 30
0.0
 11
134.4777297621
 21
92.801668376
 31
0.0
  0
LINE
  5
DD
  8
0
  6
CONTINUOUS
 62
     7
 10
135.2777297621
 20
97.6073493932
 30
0.0
 11
135.2777297621
 21
92.801668376
 31
0.0
  0
LINE
  5
DE
  8
0
  6
CONTINUOUS
 62
     7
 10
132.4777297621
 20
97.1285001263
 30
0.0
 11
134.4777297621
 21
97.1285001263
 31
0.0
  0
LINE
  5
DF
  8
0
  6
CONTINUOUS
 62
     7
 10
132.4777297621
 20
97.1285001263
 30
0.0
 11
132.4777297621
 21
92.5033925139
 31
0.0
  0
LINE
  5
E0
  8
0
  6
CONTINUOUS
 62
     7
 10
132.4777297621
 20
98.2292545829
 30
0.0
 11
128.6777297621
 21
98.2292545829
 31
0.0
  0
LINE
  5
E1
  8
0
  6
CONTINUOUS
 62
     7
 10
128.6777297621
 20
99.0292545829
 30
0.0
 11
135.2777297621
 21
99.0292545829
 31
0.0
  0
LINE
  5
E2
  8
0
  6
CONTINUOUS
 62
     7
 10
132.4777297621
 20
98.2292545829
 30
0.0
 11
132.4777297621
 21
97.1285001263
 31
0.0
  0
LINE
  5
E3
  8
0
  6
CONTINUOUS
 62
     7
 10
135.2777297621
 20
99.0292545829
 30
0.0
 11
135.2777297621
 21
97.6073493932
 31
0.0
  0
LINE
  5
E4
  8
0
  6
CONTINUOUS
 62
     7
 10
128.6777297621
 20
98.2292545829
 30
0.0
 11
125.6777297621
 21
98.2292545829
 31
0.0
  0
LINE
  5
E5
  8
0
  6
CONTINUOUS
 62
     7
 10
125.6777297621
 20
98.2292545829
 30
0.0
 11
125.6777297621
 21
99.0292545829
 31
0.0
  0
LINE
  5
E6
  8
0
  6
CONTINUOUS
 62
     7
 10
128.6777297621
 20
99.0292545829
 30
0.0
 11
125.6777297621
 21
99.0292545829
 31
0.0
  0
LINE
  5
E7
  8
0
  6
CONTINUOUS
 62
     7
 10
54.4777297621
 20
92.801668376
 30
0.0
 11
54.4777297621
 21
81.6292545829
 31
0.0
  0
LINE
  5
E8
  8
0
  6
CONTINUOUS
 62
     7
 10
53.6777297621
 20
92.801668376
 30
0.0
 11
53.6777297621
 21
81.6292545829
 31
0.0
  0
LINE
  5
E9
  8
0
  6
CONTINUOUS
 62
     7
 10
54.4777297621
 20
97.6073493932
 30
0.0
 11
53.6777297621
 21
97.6073493932
 31
0.0
  0
LINE
  5
EA
  8
0
  6
CONTINUOUS
 62
     7
 10
54.4777297621
 20
97.6073493932
 30
0.0
 11
54.4777297621
 21
92.801668376
 31
0.0
  0
LINE
  5
EB
  8
0
  6
CONTINUOUS
 62
     7
 10
53.6777297621
 20
97.6073493932
 30
0.0
 11
53.6777297621
 21
92.801668376
 31
0.0
  0
LINE
  5
EC
  8
0
  6
CONTINUOUS
 62
     7
 10
56.4777297621
 20
97.1285001263
 30
0.0
 11
54.4777297621
 21
97.1285001263
 31
0.0
  0
LINE
  5
ED
  8
0
  6
CONTINUOUS
 62
     7
 10
56.4777297621
 20
97.1285001263
 30
0.0
 11
56.4777297621
 21
92.5033925139
 31
0.0
  0
LINE
  5
EE
  8
0
  6
CONTINUOUS
 62
     7
 10
60.2777297621
 20
99.0292545829
 30
0.0
 11
53.6777297621
 21
99.0292545829
 31
0.0
  0
LINE
  5
EF
  8
0
  6
CONTINUOUS
 62
     7
 10
56.4777297621
 20
98.2292545829
 30
0.0
 11
60.2777297621
 21
98.2292545829
 31
0.0
  0
LINE
  5
F0
  8
0
  6
CONTINUOUS
 62
     7
 10
56.4777297621
 20
98.2292545829
 30
0.0
 11
56.4777297621
 21
97.1285001263
 31
0.0
  0
LINE
  5
F1
  8
0
  6
CONTINUOUS
 62
     7
 10
53.6777297621
 20
99.0292545829
 30
0.0
 11
53.6777297621
 21
97.6073493932
 31
0.0
  0
LINE
  5
F2
  8
0
  6
CONTINUOUS
 62
     7
 10
63.2777297621
 20
98.2292545829
 30
0.0
 11
63.2777297621
 21
99.0292545829
 31
0.0
  0
LINE
  5
F3
  8
0
  6
CONTINUOUS
 62
     7
 10
60.2777297621
 20
98.2292545829
 30
0.0
 11
63.2777297621
 21
98.2292545829
 31
0.0
  0
LINE
  5
F4
  8
0
  6
CONTINUOUS
 62
     7
 10
60.2777297621
 20
99.0292545829
 30
0.0
 11
63.2777297621
 21
99.0292545829
 31
0.0
  0
ARC
  5
F5
  8
0
  6
CONTINUOUS
 62
     7
 10
294.6925566042
 20
191.7599745573
 30
0.0
 40
2.0
 50
285.7570898053
 51
0.0
  0
ARC
  5
F6
  8
0
  6
CONTINUOUS
 62
     7
 10
251.7861489007
 20
343.8225938231
 30
0.0
 40
160.0
 50
270.0679427788
 51
285.7570898053
  0
LINE
  5
F7
  8
0
  6
CONTINUOUS
 62
     7
 10
296.6925566042
 20
193.2536694043
 30
0.0
 11
296.6925566042
 21
191.7599745573
 31
0.0
  0
LINE
  5
F8
  8
0
  6
CONTINUOUS
 62
     7
 10
253.3401366196
 20
194.2536694043
 30
0.0
 11
296.6925566042
 21
194.2536694043
 31
0.0
  0
LINE
  5
F9
  8
0
  6
CONTINUOUS
 62
     7
 10
296.6925566042
 20
194.2536694043
 30
0.0
 11
296.6925566042
 21
193.2536694043
 31
0.0
  0
ARC
  5
FA
  8
0
  6
CONTINUOUS
 62
     7
 10
248.6925566042
 20
189.8536694043
 30
0.0
 40
6.40000000000002
 50
318.2183693274
 51
138.2183693274
  0
ARC
  5
FB
  8
0
  6
CONTINUOUS
 62
     7
 10
283.2925566042
 20
158.9376541371
 30
0.0
 40
39.99999999999997
 50
138.2183693274
 51
180.0
  0
LINE
  5
FC
  8
0
  6
CONTINUOUS
 62
     7
 10
243.2925566042
 20
158.9376541371
 30
0.0
 11
243.2925566042
 21
149.8536694043
 31
0.0
  0
ARC
  5
FD
  8
0
  6
CONTINUOUS
 62
     7
 10
241.2925566042
 20
149.8536694043
 30
0.0
 40
2.000000000000028
 50
270.0
 51
0.0
  0
LINE
  5
FE
  8
0
  6
CONTINUOUS
 62
     7
 10
237.6925566042
 20
147.8536694043
 30
0.0
 11
237.6925566042
 21
187.8536694043
 31
0.0
  0
LINE
  5
FF
  8
0
  6
CONTINUOUS
 62
     7
 10
237.6925566042
 20
187.8536694043
 30
0.0
 11
239.1144617939
 21
187.8536694043
 31
0.0
  0
ARC
  5
100
  8
0
  6
CONTINUOUS
 62
     7
 10
283.2925566042
 20
158.9376541371
 30
0.0
 40
52.8
 50
138.2183693274
 51
146.7939343943
  0
LINE
  5
101
  8
0
  6
CONTINUOUS
 62
     7
 10
241.2925566042
 20
147.8536694043
 30
0.0
 11
237.6925566042
 21
147.8536694043
 31
0.0
  0
ARC
  5
102
  8
0
  6
CONTINUOUS
 62
     7
 10
360.5789238377
 20
235.8921765375
 30
0.0
 40
2.000000000000032
 50
13.7570898053
 51
88.0
  0
ARC
  5
103
  8
0
  6
CONTINUOUS
 62
     7
 10
207.1115249768
 20
198.318815138
 30
0.0
 40
160.0
 50
357.6618680049
 51
13.7570898053
  0
LINE
  5
104
  8
0
  6
CONTINUOUS
 62
     7
 10
359.1559379027
 20
237.94308739
 30
0.0
 11
360.6487228311
 21
237.8909581916
 31
0.0
  0
LINE
  5
105
  8
0
  6
CONTINUOUS
 62
     7
 10
356.6435694374
 20
194.651976025
 30
0.0
 11
358.1565470757
 21
237.9779868867
 31
0.0
  0
LINE
  5
106
  8
0
  6
CONTINUOUS
 62
     7
 10
358.1565470757
 20
237.9779868867
 30
0.0
 11
359.1559379027
 21
237.94308739
 31
0.0
  0
ARC
  5
107
  8
0
  6
CONTINUOUS
 62
     7
 10
360.8786908729
 20
189.8536694043
 30
0.0
 40
6.40000000000002
 50
318.2183693274
 51
138.2183693274
  0
ARC
  5
108
  8
0
  6
CONTINUOUS
 62
     7
 10
395.4786908729
 20
158.9376541371
 30
0.0
 40
40.00000000000006
 50
138.2183693274
 51
180.0
  0
LINE
  5
109
  8
0
  6
CONTINUOUS
 62
     7
 10
355.4786908729
 20
158.9376541371
 30
0.0
 11
355.4786908729
 21
149.8536694043
 31
0.0
  0
ARC
  5
10A
  8
0
  6
CONTINUOUS
 62
     7
 10
353.4786908729
 20
149.8536694043
 30
0.0
 40
2.0
 50
270.0
 51
0.0
  0
LINE
  5
10B
  8
0
  6
CONTINUOUS
 62
     7
 10
349.8786908729
 20
147.8536694043
 30
0.0
 11
349.8786908729
 21
187.8536694043
 31
0.0
  0
LINE
  5
10C
  8
0
  6
CONTINUOUS
 62
     7
 10
349.8786908729
 20
187.8536694043
 30
0.0
 11
351.3005960625
 21
187.8536694043
 31
0.0
  0
ARC
  5
10D
  8
0
  6
CONTINUOUS
 62
     7
 10
395.4786908729
 20
158.9376541371
 30
0.0
 40
52.80000000000005
 50
138.2183693274
 51
146.7939343943
  0
LINE
  5
10E
  8
0
  6
CONTINUOUS
 62
     7
 10
353.4786908729
 20
147.8536694043
 30
0.0
 11
349.8786908729
 21
147.8536694043
 31
0.0
  0
LINE
  5
10F
  8
0
  6
CONTINUOUS
 62
     7
 10
532.6025468871
 20
195.8536694043
 30
0.0
 11
519.2025468871
 21
195.8536694043
 31
0.0
  0
LINE
  5
110
  8
0
  6
CONTINUOUS
 62
     7
 10
519.2025468871
 20
183.8536694043
 30
0.0
 11
529.7025468871
 21
183.8536694043
 31
0.0
  0
LINE
  5
111
  8
0
  6
CONTINUOUS
 62
     7
 10
518.6261849591
 20
203.5989424372
 30
0.0
 11
518.6261849591
 21
203.5710228399
 31
0.0
  0
LINE
  5
112
  8
0
  6
CONTINUOUS
 62
     7
 10
519.2025468871
 20
192.2536694043
 30
0.0
 11
518.8025468871
 21
192.2536694043
 31
0.0
  0
LINE
  5
113
  8
0
  6
CONTINUOUS
 62
     7
 10
518.8025468871
 20
187.4536694043
 30
0.0
 11
519.2025468871
 21
187.4536694043
 31
0.0
  0
LINE
  5
114
  8
0
  6
CONTINUOUS
 62
     7
 10
467.3025468871
 20
183.8536694043
 30
0.0
 11
477.8025468871
 21
183.8536694043
 31
0.0
  0
LINE
  5
115
  8
0
  6
CONTINUOUS
 62
     7
 10
477.8025468871
 20
195.8536694043
 30
0.0
 11
464.4025468871
 21
195.8536694043
 31
0.0
  0
LINE
  5
116
  8
0
  6
CONTINUOUS
 62
     7
 10
478.3789088151
 20
203.5710228398
 30
0.0
 11
478.3789088151
 21
203.5989424372
 31
0.0
  0
LINE
  5
117
  8
0
  6
CONTINUOUS
 62
     7
 10
477.8025468871
 20
187.4536694043
 30
0.0
 11
478.2025468871
 21
187.4536694043
 31
0.0
  0
LINE
  5
118
  8
0
  6
CONTINUOUS
 62
     7
 10
478.2025468871
 20
192.2536694043
 30
0.0
 11
477.8025468871
 21
192.2536694043
 31
0.0
  0
LINE
  5
119
  8
0
  6
CONTINUOUS
 62
     7
 10
460.8025468871
 20
195.8536694043
 30
0.0
 11
458.5025468871
 21
195.8536694043
 31
0.0
  0
LINE
  5
11A
  8
0
  6
CONTINUOUS
 62
     7
 10
458.5025468871
 20
196.2536694043
 30
0.0
 11
457.7025468871
 21
196.2536694043
 31
0.0
  0
LINE
  5
11B
  8
0
  6
CONTINUOUS
 62
     7
 10
538.5025468871
 20
195.8536694043
 30
0.0
 11
536.2025468871
 21
195.8536694043
 31
0.0
  0
LINE
  5
11C
  8
0
  6
CONTINUOUS
 62
     7
 10
539.3025468871
 20
196.2536694043
 30
0.0
 11
538.5025468871
 21
196.2536694043
 31
0.0
  0
LINE
  5
11D
  8
0
  6
CONTINUOUS
 62
     7
 10
519.2025468871
 20
195.8536694043
 30
0.0
 11
519.2025468871
 21
183.8536694043
 31
0.0
  0
LINE
  5
11E
  8
0
  6
CONTINUOUS
 62
     7
 10
532.6025468871
 20
194.0839578527
 30
0.0
 11
535.2025468871
 21
194.0839578527
 31
0.0
  0
ARC
  5
11F
  8
0
  6
CONTINUOUS
 62
     7
 10
535.2160458436
 20
195.0853021923
 30
0.0
 40
1.001435324021548
 50
269.2276519083
 51
350.0926038975
  0
LINE
  5
120
  8
0
  6
CONTINUOUS
 62
     7
 10
536.2025468871
 20
187.8536694043
 30
0.0
 11
536.2025468871
 21
194.9129989728
 31
0.0
  0
ARC
  5
121
  8
0
  6
CONTINUOUS
 62
     7
 10
535.4522423934
 20
230.7883851772
 30
0.0
 40
7.19393637635554
 50
84.0133466758
 51
91.9890880391
  0
LINE
  5
122
  8
0
  6
CONTINUOUS
 62
     7
 10
536.2025468871
 20
237.94308739
 30
0.0
 11
536.2025468871
 21
194.9129989728
 31
0.0
  0
LINE
  5
123
  8
0
  6
CONTINUOUS
 62
     7
 10
532.6025468871
 20
194.0839578527
 30
0.0
 11
532.6025468871
 21
200.7565916798
 31
0.0
  0
ARC
  5
124
  8
0
  6
CONTINUOUS
 62
     7
 10
531.4025532951
 20
200.7559783169
 30
0.0
 40
1.19999374880086
 50
0.0292860764
 51
121.306489682
  0
ARC
  5
125
  8
0
  6
CONTINUOUS
 62
     7
 10
526.1035949599
 20
209.473903184
 30
0.0
 40
9.002024399050933
 50
293.2086470119
 51
301.290307968
  0
ARC
  5
126
  8
0
  6
CONTINUOUS
 62
     7
 10
498.5066534302
 20
273.8352670071
 30
0.0
 40
79.03042103185079
 50
287.7357717907
 51
293.2087318664
  0
ARC
  5
127
  8
0
  6
CONTINUOUS
 62
     7
 10
522.2157308682
 20
199.7041972035
 30
0.0
 40
1.200247824824475
 50
205.62305424
 51
287.7435705183
  0
ARC
  5
128
  8
0
  6
CONTINUOUS
 62
     7
 10
506.7152168246
 20
192.2741671942
 30
0.0
 40
15.98903030583982
 50
25.6093476643
 51
39.6075296493
  0
ARC
  5
129
  8
0
  6
CONTINUOUS
 62
     7
 10
520.4008069462
 20
203.5989699936
 30
0.0
 40
1.774599262612088
 50
127.5998184362
 51
219.6092287464
  0
ARC
  5
12A
  8
0
  6
CONTINUOUS
 62
     7
 10
501.0270538009
 20
228.7530165699
 30
0.0
 40
29.97549318385943
 50
307.6038414251
 51
359.9953756646
  0
LINE
  5
12B
  8
0
  6
CONTINUOUS
 62
     7
 10
531.0025468871
 20
235.9792052326
 30
0.0
 11
531.0025468871
 21
228.7505972514
 31
0.0
  0
ARC
  5
12C
  8
0
  6
CONTINUOUS
 62
     7
 10
533.0019378997
 20
235.978595874
 30
0.0
 40
1.999391105422623
 50
89.9825484818
 51
179.9825378443
  0
LINE
  5
12D
  8
0
  6
CONTINUOUS
 62
     7
 10
533.0025468871
 20
237.9779868867
 30
0.0
 11
535.2025468871
 21
237.9779868867
 31
0.0
  0
CIRCLE
  5
12E
  8
0
  6
CONTINUOUS
 62
     7
 10
520.4026305505
 20
203.5986615475
 30
0.0
 40
0.659878840823333
  0
CIRCLE
  5
12F
  8
0
  6
CONTINUOUS
 62
     7
 10
533.3026305505
 20
236.3786806738
 30
0.0
 40
0.6598788408231625
  0
ARC
  5
130
  8
0
  6
CONTINUOUS
 62
     7
 10
522.2157308682
 20
199.6762776061
 30
0.0
 40
1.20024782482442
 50
205.62305424
 51
287.7435705183
  0
ARC
  5
131
  8
0
  6
CONTINUOUS
 62
     7
 10
498.5066534302
 20
273.8073474098
 30
0.0
 40
79.03042103184703
 50
287.7357717907
 51
293.2087318664
  0
ARC
  5
132
  8
0
  6
CONTINUOUS
 62
     7
 10
506.7152168246
 20
192.2462475969
 30
0.0
 40
15.98903030583914
 50
25.6093476643
 51
39.6075296493
  0
ARC
  5
133
  8
0
  6
CONTINUOUS
 62
     7
 10
531.4025532951
 20
200.7280587195
 30
0.0
 40
1.19999374880086
 50
0.0292860764
 51
121.306489682
  0
ARC
  5
134
  8
0
  6
CONTINUOUS
 62
     7
 10
526.1035949599
 20
209.4459835867
 30
0.0
 40
9.00202439904317
 50
293.2086470119
 51
301.290307968
  0
ARC
  5
135
  8
0
  6
CONTINUOUS
 62
     7
 10
520.4007807967
 20
203.5710766237
 30
0.0
 40
1.774595838389142
 50
180.0017365005
 51
219.6104193973
  0
ARC
  5
136
  8
0
  6
CONTINUOUS
 62
     7
 10
520.4025468871
 20
203.5707374512
 30
0.0
 40
0.6600059179581599
 50
1.2367349744
 51
178.7632650092
  0
ARC
  5
137
  8
0
  6
CONTINUOUS
 62
     7
 10
533.3025468871
 20
236.3507565774
 30
0.0
 40
0.6600059179599335
 50
1.2367353785
 51
178.7632646403
  0
LINE
  5
138
  8
0
  6
CONTINUOUS
 62
     7
 10
518.8025468871
 20
187.4536694043
 30
0.0
 11
518.8025468871
 21
192.2536694043
 31
0.0
  0
LINE
  5
139
  8
0
  6
CONTINUOUS
 62
     7
 10
477.8025468871
 20
195.8536694043
 30
0.0
 11
477.8025468871
 21
183.8536694043
 31
0.0
  0
ARC
  5
13A
  8
0
  6
CONTINUOUS
 62
     7
 10
461.7856700981
 20
195.0812278075
 30
0.0
 40
0.9974127474475013
 50
189.7102208616
 51
270.9695233327
  0
LINE
  5
13B
  8
0
  6
CONTINUOUS
 62
     7
 10
464.4025468871
 20
194.0839578527
 30
0.0
 11
461.8025468871
 21
194.0839578527
 31
0.0
  0
LINE
  5
13C
  8
0
  6
CONTINUOUS
 62
     7
 10
460.8025468871
 20
187.8536694043
 30
0.0
 11
460.8025468871
 21
194.9129989728
 31
0.0
  0
ARC
  5
13D
  8
0
  6
CONTINUOUS
 62
     7
 10
461.5528513808
 20
230.7883851772
 30
0.0
 40
7.193936376335013
 50
88.0109119609
 51
95.9866533242
  0
LINE
  5
13E
  8
0
  6
CONTINUOUS
 62
     7
 10
460.8025468871
 20
237.94308739
 30
0.0
 11
460.8025468871
 21
194.9129989728
 31
0.0
  0
LINE
  5
13F
  8
0
  6
CONTINUOUS
 62
     7
 10
464.0025468871
 20
237.9779868867
 30
0.0
 11
461.8025468871
 21
237.9779868867
 31
0.0
  0
ARC
  5
140
  8
0
  6
CONTINUOUS
 62
     7
 10
464.0031558745
 20
235.978595874
 30
0.0
 40
1.999391105422603
 50
0.0174621557
 51
90.0174515182
  0
LINE
  5
141
  8
0
  6
CONTINUOUS
 62
     7
 10
466.0025468871
 20
235.9792052326
 30
0.0
 11
466.0025468871
 21
228.7505972514
 31
0.0
  0
ARC
  5
142
  8
0
  6
CONTINUOUS
 62
     7
 10
495.9780399733
 20
228.7530165699
 30
0.0
 40
29.97549318385921
 50
180.0046243354
 51
232.3961585749
  0
ARC
  5
143
  8
0
  6
CONTINUOUS
 62
     7
 10
476.604286828
 20
203.5989699936
 30
0.0
 40
1.774599262612098
 50
320.3907712536
 51
52.4001815638
  0
ARC
  5
144
  8
0
  6
CONTINUOUS
 62
     7
 10
490.2898769496
 20
192.2741671942
 30
0.0
 40
15.98903030583764
 50
140.3924703507
 51
154.3906523357
  0
ARC
  5
145
  8
0
  6
CONTINUOUS
 62
     7
 10
474.789362906
 20
199.7041972035
 30
0.0
 40
1.200247824824711
 50
252.2564294817
 51
334.37694576
  0
ARC
  5
146
  8
0
  6
CONTINUOUS
 62
     7
 10
498.498440344
 20
273.8352670072
 30
0.0
 40
79.030421031865
 50
246.7912681336
 51
252.2642282093
  0
ARC
  5
147
  8
0
  6
CONTINUOUS
 62
     7
 10
470.9014988144
 20
209.473903184
 30
0.0
 40
9.002024399045418
 50
238.709692032
 51
246.7913529881
  0
ARC
  5
148
  8
0
  6
CONTINUOUS
 62
     7
 10
465.6025404792
 20
200.7559783169
 30
0.0
 40
1.199993748800803
 50
58.693510318
 51
179.9707139236
  0
LINE
  5
149
  8
0
  6
CONTINUOUS
 62
     7
 10
464.4025468871
 20
194.0839578527
 30
0.0
 11
464.4025468871
 21
200.7565916798
 31
0.0
  0
CIRCLE
  5
14A
  8
0
  6
CONTINUOUS
 62
     7
 10
476.6024632237
 20
203.5986615475
 30
0.0
 40
0.6598788408232478
  0
CIRCLE
  5
14B
  8
0
  6
CONTINUOUS
 62
     7
 10
463.7024632237
 20
236.3786806738
 30
0.0
 40
0.6598788408232193
  0
ARC
  5
14C
  8
0
  6
CONTINUOUS
 62
     7
 10
474.789362906
 20
199.6762776061
 30
0.0
 40
1.200247824824626
 50
252.2564294817
 51
334.37694576
  0
ARC
  5
14D
  8
0
  6
CONTINUOUS
 62
     7
 10
498.498440344
 20
273.8073474098
 30
0.0
 40
79.03042103188326
 50
246.7912681336
 51
252.2642282093
  0
ARC
  5
14E
  8
0
  6
CONTINUOUS
 62
     7
 10
490.2898769496
 20
192.2462475969
 30
0.0
 40
15.98903030583823
 50
140.3924703507
 51
154.3906523357
  0
ARC
  5
14F
  8
0
  6
CONTINUOUS
 62
     7
 10
465.6025404792
 20
200.7280587195
 30
0.0
 40
1.199993748800803
 50
58.693510318
 51
179.9707139236
  0
ARC
  5
150
  8
0
  6
CONTINUOUS
 62
     7
 10
470.9014988144
 20
209.4459835867
 30
0.0
 40
9.002024399053024
 50
238.709692032
 51
246.7913529881
  0
ARC
  5
151
  8
0
  6
CONTINUOUS
 62
     7
 10
476.6043129775
 20
203.5710766237
 30
0.0
 40
1.774595838389938
 50
320.3895806027
 51
359.9982634995
  0
ARC
  5
152
  8
0
  6
CONTINUOUS
 62
     7
 10
476.6025468871
 20
203.5707374512
 30
0.0
 40
0.6600059179585862
 50
1.236735089
 51
178.7632649148
  0
ARC
  5
153
  8
0
  6
CONTINUOUS
 62
     7
 10
463.7025468871
 20
236.3507565774
 30
0.0
 40
0.6600059179587242
 50
1.236735019
 51
178.7632647744
  0
LINE
  5
154
  8
0
  6
CONTINUOUS
 62
     7
 10
478.2025468871
 20
187.4536694043
 30
0.0
 11
478.2025468871
 21
192.2536694043
 31
0.0
  0
CIRCLE
  5
155
  8
0
  6
CONTINUOUS
 62
     7
 10
464.5025468871
 20
181.8536694043
 30
0.0
 40
1.099999999999994
  0
CIRCLE
  5
156
  8
0
  6
CONTINUOUS
 62
     7
 10
464.5025468871
 20
151.8536694043
 30
0.0
 40
1.099999999999994
  0
LINE
  5
157
  8
0
  6
CONTINUOUS
 62
     7
 10
464.3025468871
 20
187.8536694043
 30
0.0
 11
457.7025468871
 21
187.8536694043
 31
0.0
  0
ARC
  5
158
  8
0
  6
CONTINUOUS
 62
     7
 10
464.3025468871
 20
184.8536694043
 30
0.0
 40
3.0
 50
0.0
 51
90.0
  0
LINE
  5
159
  8
0
  6
CONTINUOUS
 62
     7
 10
467.3025468871
 20
184.8536694043
 30
0.0
 11
467.3025468871
 21
150.8536694043
 31
0.0
  0
ARC
  5
15A
  8
0
  6
CONTINUOUS
 62
     7
 10
464.3025468871
 20
150.8536694043
 30
0.0
 40
3.0
 50
270.0
 51
0.0
  0
LINE
  5
15B
  8
0
  6
CONTINUOUS
 62
     7
 10
464.3025468871
 20
147.8536694043
 30
0.0
 11
457.7025468871
 21
147.8536694043
 31
0.0
  0
LINE
  5
15C
  8
0
  6
CONTINUOUS
 62
     7
 10
457.7025468871
 20
147.8536694043
 30
0.0
 11
457.7025468871
 21
187.8536694043
 31
0.0
  0
LINE
  5
15D
  8
0
  6
CONTINUOUS
 62
     7
 10
458.5025468871
 20
187.8536694043
 30
0.0
 11
458.5025468871
 21
194.1179473721
 31
0.0
  0
LINE
  5
15E
  8
0
  6
CONTINUOUS
 62
     7
 10
457.7025468871
 20
187.8536694043
 30
0.0
 11
457.7025468871
 21
194.1179473721
 31
0.0
  0
LINE
  5
15F
  8
0
  6
CONTINUOUS
 62
     7
 10
460.5025468871
 20
187.8536694043
 30
0.0
 11
460.5025468871
 21
193.8514299992
 31
0.0
  0
LINE
  5
160
  8
0
  6
CONTINUOUS
 62
     7
 10
460.8025468871
 20
189.8536694043
 30
0.0
 11
460.8025468871
 21
194.9129989728
 31
0.0
  0
LINE
  5
161
  8
0
  6
CONTINUOUS
 62
     7
 10
460.8025468871
 20
187.8536694043
 30
0.0
 11
460.8025468871
 21
189.8536694043
 31
0.0
  0
LINE
  5
162
  8
0
  6
CONTINUOUS
 62
     7
 10
458.5025468871
 20
194.1179473721
 30
0.0
 11
458.5025468871
 21
196.2536694043
 31
0.0
  0
LINE
  5
163
  8
0
  6
CONTINUOUS
 62
     7
 10
457.7025468871
 20
194.1179473721
 30
0.0
 11
457.7025468871
 21
196.2536694043
 31
0.0
  0
CIRCLE
  5
164
  8
0
  6
CONTINUOUS
 62
     7
 10
532.5025468871
 20
181.8536694043
 30
0.0
 40
1.099999999999994
  0
CIRCLE
  5
165
  8
0
  6
CONTINUOUS
 62
     7
 10
532.5025468871
 20
151.8536694043
 30
0.0
 40
1.099999999999994
  0
LINE
  5
166
  8
0
  6
CONTINUOUS
 62
     7
 10
532.7025468871
 20
147.8536694043
 30
0.0
 11
539.3025468871
 21
147.8536694043
 31
0.0
  0
ARC
  5
167
  8
0
  6
CONTINUOUS
 62
     7
 10
532.7025468871
 20
150.8536694043
 30
0.0
 40
3.0
 50
180.0
 51
270.0
  0
ARC
  5
168
  8
0
  6
CONTINUOUS
 62
     7
 10
532.7025468871
 20
184.8536694043
 30
0.0
 40
3.0
 50
90.0
 51
180.0
  0
LINE
  5
169
  8
0
  6
CONTINUOUS
 62
     7
 10
532.7025468871
 20
187.8536694043
 30
0.0
 11
539.3025468871
 21
187.8536694043
 31
0.0
  0
LINE
  5
16A
  8
0
  6
CONTINUOUS
 62
     7
 10
539.3025468871
 20
147.8536694043
 30
0.0
 11
539.3025468871
 21
187.8536694043
 31
0.0
  0
LINE
  5
16B
  8
0
  6
CONTINUOUS
 62
     7
 10
529.7025468871
 20
184.8536694043
 30
0.0
 11
529.7025468871
 21
150.8536694043
 31
0.0
  0
LINE
  5
16C
  8
0
  6
CONTINUOUS
 62
     7
 10
538.5025468871
 20
187.8536694043
 30
0.0
 11
538.5025468871
 21
194.1179473721
 31
0.0
  0
LINE
  5
16D
  8
0
  6
CONTINUOUS
 62
     7
 10
539.3025468871
 20
187.8536694043
 30
0.0
 11
539.3025468871
 21
194.1179473721
 31
0.0
  0
LINE
  5
16E
  8
0
  6
CONTINUOUS
 62
     7
 10
536.5025468871
 20
187.8536694043
 30
0.0
 11
536.5025468871
 21
193.8514299992
 31
0.0
  0
LINE
  5
16F
  8
0
  6
CONTINUOUS
 62
     7
 10
536.2025468871
 20
189.8536694043
 30
0.0
 11
536.2025468871
 21
194.9129989728
 31
0.0
  0
LINE
  5
170
  8
0
  6
CONTINUOUS
 62
     7
 10
536.2025468871
 20
187.8536694043
 30
0.0
 11
536.2025468871
 21
189.8536694043
 31
0.0
  0
LINE
  5
171
  8
0
  6
CONTINUOUS
 62
     7
 10
538.5025468871
 20
194.1179473721
 30
0.0
 11
538.5025468871
 21
196.2536694043
 31
0.0
  0
LINE
  5
172
  8
0
  6
CONTINUOUS
 62
     7
 10
539.3025468871
 20
194.1179473721
 30
0.0
 11
539.3025468871
 21
196.2536694043
 31
0.0
  0
ENDSEC
  0
EOF
