  0
SECTION
  2
HEADER
  9
$ACADVER
  1
AC1009
  9
$DWGCODEPAGE
  3
ansi_1252
  9
$INSBASE
 10
0.0
 20
0.0
 30
0.0
  9
$EXTMIN
 10
0.0
 20
0.0
 30
0.0
  9
$EXTMAX
 10
420.0
 20
297.0
 30
0.0
  9
$LIMMIN
 10
0.0
 20
0.0
  9
$LIMMAX
 10
420.0
 20
297.0
  9
$ORTHOMODE
 70
     0
  9
$REGENMODE
 70
     1
  9
$FILLMODE
 70
     1
  9
$QTEXTMODE
 70
     0
  9
$MIRRTEXT
 70
     1
  9
$DRAGMODE
 70
     2
  9
$LTSCALE
 40
1.0
  9
$OSMODE
 70
    37
  9
$ATTMODE
 70
     1
  9
$TEXTSIZE
 40
3.5
  9
$TRACEWID
 40
1.0
  9
$TEXTSTYLE
  7
STANDARD
  9
$CLAYER
  8
0
  9
$CELTYPE
  6
BYLAYER
  9
$CECOLOR
 62
   256
  9
$DIMSCALE
 40
1.0
  9
$DIMASZ
 40
4.0
  9
$DIMEXO
 40
0.0
  9
$DIMDLI
 40
3.75
  9
$DIMRND
 40
0.0
  9
$DIMDLE
 40
0.0
  9
$DIMEXE
 40
2.0
  9
$DIMTP
 40
0.0
  9
$DIMTM
 40
0.0
  9
$DIMTXT
 40
3.5
  9
$DIMCEN
 40
2.5
  9
$DIMTSZ
 40
0.0
  9
$DIMTOL
 70
     0
  9
$DIMLIM
 70
     0
  9
$DIMTIH
 70
     1
  9
$DIMTOH
 70
     1
  9
$DIMSE1
 70
     0
  9
$DIMSE2
 70
     0
  9
$DIMTAD
 70
     1
  9
$DIMZIN
 70
     0
  9
$DIMBLK
  1

  9
$DIMASO
 70
     1
  9
$DIMSHO
 70
     1
  9
$DIMPOST
  1

  9
$DIMAPOST
  1

  9
$DIMALT
 70
     0
  9
$DIMALTD
 70
     3
  9
$DIMALTF
 40
0.0393700787
  9
$DIMLFAC
 40
5.0
  9
$DIMTOFL
 70
     1
  9
$DIMTVP
 40
0.0
  9
$DIMTIX
 70
     0
  9
$DIMSOXD
 70
     0
  9
$DIMSAH
 70
     0
  9
$DIMBLK1
  1

  9
$DIMBLK2
  1

  9
$DIMSTYLE
  2
ISO-25
  9
$DIMCLRD
 70
     0
  9
$DIMCLRE
 70
     0
  9
$DIMCLRT
 70
     0
  9
$DIMTFAC
 40
1.0
  9
$DIMGAP
 40
1.524
  9
$LUNITS
 70
     2
  9
$LUPREC
 70
     2
  9
$SKETCHINC
 40
1.0
  9
$FILLETRAD
 40
10.0
  9
$AUNITS
 70
     0
  9
$AUPREC
 70
     2
  9
$MENU
  1
.
  9
$ELEVATION
 40
0.0
  9
$PELEVATION
 40
0.0
  9
$THICKNESS
 40
0.0
  9
$LIMCHECK
 70
     0
  9
$CHAMFERA
 40
10.0
  9
$CHAMFERB
 40
10.0
  9
$SKPOLY
 70
     0
  9
$TDCREATE
 40
2457792.615887407
  9
$TDUPDATE
 40
2457792.615887593
  9
$TDINDWG
 40
0.0000000116
  9
$TDUSRTIMER
 40
0.0000000116
  9
$USRTIMER
 70
     1
  9
$ANGBASE
 50
0.0
  9
$ANGDIR
 70
     0
  9
$PDMODE
 70
     0
  9
$PDSIZE
 40
-1.0
  9
$PLINEWID
 40
0.0
  9
$COORDS
 70
     1
  9
$SPLFRAME
 70
     0
  9
$SPLINETYPE
 70
     6
  9
$SPLINESEGS
 70
     8
  9
$ATTDIA
 70
     0
  9
$ATTREQ
 70
     1
  9
$HANDLING
 70
     1
  9
$HANDSEED
  5
138
  9
$SURFTAB1
 70
     6
  9
$SURFTAB2
 70
     6
  9
$SURFTYPE
 70
     6
  9
$SURFU
 70
     6
  9
$SURFV
 70
     6
  9
$UCSNAME
  2

  9
$UCSORG
 10
0.0
 20
0.0
 30
0.0
  9
$UCSXDIR
 10
1.0
 20
0.0
 30
0.0
  9
$UCSYDIR
 10
0.0
 20
1.0
 30
0.0
  9
$PUCSNAME
  2

  9
$PUCSORG
 10
0.0
 20
0.0
 30
0.0
  9
$PUCSXDIR
 10
1.0
 20
0.0
 30
0.0
  9
$PUCSYDIR
 10
0.0
 20
1.0
 30
0.0
  9
$USERI1
 70
     0
  9
$USERI2
 70
     0
  9
$USERI3
 70
     0
  9
$USERI4
 70
     0
  9
$USERI5
 70
     0
  9
$USERR1
 40
0.0
  9
$USERR2
 40
0.0
  9
$USERR3
 40
0.0
  9
$USERR4
 40
0.0
  9
$USERR5
 40
0.0
  9
$WORLDVIEW
 70
     1
  9
$SHADEDGE
 70
     3
  9
$SHADEDIF
 70
    70
  9
$TILEMODE
 70
     1
  9
$MAXACTVP
 70
    64
  9
$PLIMCHECK
 70
     0
  9
$PEXTMIN
 10
1.0000000000E+20
 20
1.0000000000E+20
 30
1.0000000000E+20
  9
$PEXTMAX
 10
-1.0000000000E+20
 20
-1.0000000000E+20
 30
-1.0000000000E+20
  9
$PLIMMIN
 10
0.0
 20
0.0
  9
$PLIMMAX
 10
420.0
 20
297.0
  9
$UNITMODE
 70
     0
  9
$VISRETAIN
 70
     1
  9
$PLINEGEN
 70
     0
  9
$PSLTSCALE
 70
     1
  0
ENDSEC
  0
SECTION
  2
TABLES
  0
TABLE
  2
VPORT
 70
     1
  0
VPORT
  2
*ACTIVE
 70
     0
 10
0.0
 20
0.0
 11
1.0
 21
1.0
 12
210.0
 22
148.5
 13
0.0
 23
0.0
 14
10.0
 24
10.0
 15
10.0
 25
10.0
 16
0.0
 26
0.0
 36
1.0
 17
0.0
 27
0.0
 37
0.0
 40
297.0
 41
1.4141414141
 42
50.0
 43
0.0
 44
0.0
 50
0.0
 51
0.0
 71
     0
 72
  2000
 73
     1
 74
     3
 75
     0
 76
     0
 77
     0
 78
     0
  0
ENDTAB
  0
TABLE
  2
LTYPE
 70
     6
  0
LTYPE
  2
CONTINUOUS
 70
     0
  3
Solid line
 72
    65
 73
     0
 40
0.0
  0
LTYPE
  2
HIDDEN
 70
     0
  3
Hidden __ __ __ __ __ __ __ __ __ __ __ __ __ __
 72
    65
 73
     2
 40
1.905
 49
1.27
 49
-0.635
  0
LTYPE
  2
PHANTOM
 70
     0
  3
Phantom ______  __  __  ______  __  __  ______
 72
    65
 73
     6
 40
12.7
 49
6.35
 49
-1.27
 49
1.27
 49
-1.27
 49
1.27
 49
-1.27
  0
LTYPE
  2
CENTER
 70
     0
  3
Center ____ _ ____ _ ____ _ ____ _ ____ _ ____
 72
    65
 73
     4
 40
10.16
 49
6.35
 49
-1.27
 49
1.27
 49
-1.27
  0
LTYPE
  2
CENTERX2
 70
     0
  3
Center (2x) ________  __  ________  __  _____
 72
    65
 73
     4
 40
20.32
 49
12.7
 49
-2.54
 49
2.54
 49
-2.54
  0
LTYPE
  2
DOT2
 70
     0
  3
Dot (.5x) ........................................
 72
    65
 73
     2
 40
0.635
 49
0.0
 49
-0.635
  0
ENDTAB
  0
TABLE
  2
LAYER
 70
     2
  0
LAYER
  2
0
 70
     0
 62
     7
  6
CONTINUOUS
  0
LAYER
  2
FORMAT
 70
     0
 62
     7
  6
CONTINUOUS
  0
ENDTAB
  0
TABLE
  2
STYLE
 70
     1
  0
STYLE
  2
STANDARD
 70
     0
 40
0.0
 41
1.0
 50
0.0
 71
     0
 42
3.5
  3
txt
  4

  0
ENDTAB
  0
TABLE
  2
VIEW
 70
     0
  0
ENDTAB
  0
TABLE
  2
UCS
 70
     0
  0
ENDTAB
  0
TABLE
  2
APPID
 70
     1
  0
APPID
  2
ACAD
 70
     0
  0
ENDTAB
  0
TABLE
  2
DIMSTYLE
 70
     1
  0
DIMSTYLE
  2
ISO-25
 70
     0
  3

  4

  5

  6

  7

 40
1.0
 41
2.5
 42
0.625
 43
3.75
 44
1.25
 45
0.0
 46
0.0
 47
0.0
 48
0.0
140
2.5
141
2.5
142
0.0
143
0.0393700787
144
1.0
145
0.0
146
1.0
147
0.625
 71
     0
 72
     0
 73
     0
 74
     0
 75
     0
 76
     0
 77
     1
 78
     8
170
     0
171
     3
172
     1
173
     0
174
     0
175
     0
176
     0
177
     0
178
     0
  0
ENDTAB
  0
ENDSEC
  0
SECTION
  2
BLOCKS
  0
BLOCK
  8
0
  2
$MODEL_SPACE
 70
     0
 10
0.0
 20
0.0
 30
0.0
  3
$MODEL_SPACE
  1

  0
ENDBLK
  5
21
  8
0
  0
BLOCK
 67
     1
  8
0
  2
$PAPER_SPACE
 70
     0
 10
0.0
 20
0.0
 30
0.0
  3
$PAPER_SPACE
  1

  0
ENDBLK
  5
1D
 67
     1
  8
0
  0
ENDSEC
  0
SECTION
  2
ENTITIES
  0
LINE
  5
45
  8
0
  6
CONTINUOUS
 62
     7
 10
414.85
 20
5.15
 30
0.0
 11
5.15
 21
5.15
 31
0.0
  0
LINE
  5
46
  8
0
  6
CONTINUOUS
 62
     7
 10
415.0
 20
5.0
 30
0.0
 11
415.0
 21
277.0
 31
0.0
  0
LINE
  5
47
  8
0
  6
CONTINUOUS
 62
     7
 10
415.0
 20
277.0
 30
0.0
 11
5.0
 21
277.0
 31
0.0
  0
LINE
  5
48
  8
0
  6
CONTINUOUS
 62
     7
 10
5.15
 20
276.85
 30
0.0
 11
5.15
 21
5.15
 31
0.0
  0
LINE
  5
49
  8
0
  6
CONTINUOUS
 62
     7
 10
108.4797229064
 20
189.1977142857
 30
0.0
 11
106.0797229064
 21
189.1977142857
 31
0.0
  0
LINE
  5
4A
  8
0
  6
CONTINUOUS
 62
     7
 10
22.8797229064
 20
189.1977142857
 30
0.0
 11
20.4797229064
 21
189.1977142857
 31
0.0
  0
LINE
  5
4B
  8
0
  6
CONTINUOUS
 62
     7
 10
20.4797229064
 20
185.1977142857
 30
0.0
 11
22.8797229064
 21
185.1977142857
 31
0.0
  0
LINE
  5
4C
  8
0
  6
CONTINUOUS
 62
     7
 10
106.0797229064
 20
185.1977142857
 30
0.0
 11
108.4797229064
 21
185.1977142857
 31
0.0
  0
LINE
  5
4D
  8
0
  6
CONTINUOUS
 62
     7
 10
105.6297229064
 20
169.5477142857
 30
0.0
 11
105.6297229064
 21
172.7977142857
 31
0.0
  0
LINE
  5
4E
  8
0
  6
CONTINUOUS
 62
     7
 10
104.1297229064
 20
172.7977142857
 30
0.0
 11
104.1297229064
 21
169.5477142857
 31
0.0
  0
ARC
  5
4F
  8
0
  6
CONTINUOUS
 62
     7
 10
108.8797229064
 20
172.7977142857
 30
0.0
 40
3.25
 50
97.0697140423
 51
180.0
  0
ARC
  5
50
  8
0
  6
CONTINUOUS
 62
     7
 10
108.8797229064
 20
172.7977142857
 30
0.0
 40
3.250000000000014
 50
0.0
 51
82.9302859577
  0
ARC
  5
51
  8
0
  6
CONTINUOUS
 62
     7
 10
108.8797229064
 20
172.7977142857
 30
0.0
 40
4.75000000000002
 50
0.0
 51
85.169371408
  0
ARC
  5
52
  8
0
  6
CONTINUOUS
 62
     7
 10
108.8797229064
 20
172.7977142857
 30
0.0
 40
4.750000000000019
 50
94.830628592
 51
180.0
  0
LINE
  5
53
  8
0
  6
CONTINUOUS
 62
     7
 10
113.6297229064
 20
169.5477142857
 30
0.0
 11
113.6297229064
 21
172.7977142857
 31
0.0
  0
LINE
  5
54
  8
0
  6
CONTINUOUS
 62
     7
 10
112.1297229064
 20
172.7977142857
 30
0.0
 11
112.1297229064
 21
169.5477142857
 31
0.0
  0
LINE
  5
55
  8
0
  6
CONTINUOUS
 62
     7
 10
24.3797229064
 20
196.5977142857
 30
0.0
 11
104.5797229064
 21
196.5977142857
 31
0.0
  0
ARC
  5
56
  8
0
  6
CONTINUOUS
 62
     7
 10
104.5797229064
 20
194.9977142857
 30
0.0
 40
1.599999999999994
 50
0.0
 51
90.0
  0
ARC
  5
57
  8
0
  6
CONTINUOUS
 62
     7
 10
24.3797229064
 20
194.9977142857
 30
0.0
 40
1.600000000000023
 50
90.0
 51
180.0
  0
LINE
  5
58
  8
0
  6
CONTINUOUS
 62
     7
 10
106.1797229064
 20
190.5977142857
 30
0.0
 11
22.7797229064
 21
190.5977142857
 31
0.0
  0
LINE
  5
59
  8
0
  6
CONTINUOUS
 62
     7
 10
22.7797229064
 20
194.9977142857
 30
0.0
 11
22.7797229064
 21
190.5977142857
 31
0.0
  0
LINE
  5
5A
  8
0
  6
CONTINUOUS
 62
     7
 10
106.1797229064
 20
194.9977142857
 30
0.0
 11
106.1797229064
 21
190.5977142857
 31
0.0
  0
LINE
  5
5B
  8
0
  6
CONTINUOUS
 62
     7
 10
106.0797229064
 20
190.5977142857
 30
0.0
 11
106.0797229064
 21
189.5977142857
 31
0.0
  0
LINE
  5
5C
  8
0
  6
CONTINUOUS
 62
     7
 10
22.8797229064
 20
189.5977142857
 30
0.0
 11
22.8797229064
 21
190.5977142857
 31
0.0
  0
LINE
  5
5D
  8
0
  6
CONTINUOUS
 62
     7
 10
22.8797229064
 20
183.5977142857
 30
0.0
 11
22.8797229064
 21
189.5977142857
 31
0.0
  0
LINE
  5
5E
  8
0
  6
CONTINUOUS
 62
     7
 10
106.0797229064
 20
189.5977142857
 30
0.0
 11
106.0797229064
 21
183.5977142857
 31
0.0
  0
ARC
  5
5F
  8
0
  6
CONTINUOUS
 62
     7
 10
105.0797229064
 20
183.5977142857
 30
0.0
 40
1.000000000000028
 50
270.0
 51
0.0
  0
ARC
  5
60
  8
0
  6
CONTINUOUS
 62
     7
 10
23.8797229064
 20
183.5977142857
 30
0.0
 40
1.000000000000028
 50
180.0
 51
270.0
  0
LINE
  5
61
  8
0
  6
CONTINUOUS
 62
     7
 10
23.8797229064
 20
182.5977142857
 30
0.0
 11
105.0797229064
 21
182.5977142857
 31
0.0
  0
LINE
  5
62
  8
0
  6
CONTINUOUS
 62
     7
 10
109.2797229064
 20
175.3387142857
 30
0.0
 11
109.2797229064
 21
172.7940091338
 31
0.0
  0
LINE
  5
63
  8
0
  6
CONTINUOUS
 62
     7
 10
108.4797229064
 20
172.7940091338
 30
0.0
 11
108.4797229064
 21
175.3387142857
 31
0.0
  0
LINE
  5
64
  8
0
  6
CONTINUOUS
 62
     7
 10
20.4797229064
 20
175.3387142857
 30
0.0
 11
20.4797229064
 21
172.7940091338
 31
0.0
  0
LINE
  5
65
  8
0
  6
CONTINUOUS
 62
     7
 10
19.6797229064
 20
175.3387142857
 30
0.0
 11
19.6797229064
 21
172.7940091338
 31
0.0
  0
LINE
  5
66
  8
0
  6
CONTINUOUS
 62
     7
 10
20.4797229064
 20
189.2145609238
 30
0.0
 11
20.4797229064
 21
175.3387142857
 31
0.0
  0
LINE
  5
67
  8
0
  6
CONTINUOUS
 62
     7
 10
19.6797229064
 20
189.2145609238
 30
0.0
 11
19.6797229064
 21
175.3387142857
 31
0.0
  0
LINE
  5
68
  8
0
  6
CONTINUOUS
 62
     7
 10
108.4797229064
 20
175.3387142857
 30
0.0
 11
108.4797229064
 21
189.2145609238
 31
0.0
  0
LINE
  5
69
  8
0
  6
CONTINUOUS
 62
     7
 10
109.2797229064
 20
189.2145609238
 30
0.0
 11
109.2797229064
 21
175.3387142857
 31
0.0
  0
LINE
  5
6A
  8
0
  6
CONTINUOUS
 62
     7
 10
19.6797229064
 20
171.7977142857
 30
0.0
 11
20.4797229064
 21
171.797714281
 31
0.0
  0
LINE
  5
6B
  8
0
  6
CONTINUOUS
 62
     7
 10
20.4797229064
 20
172.7940091338
 30
0.0
 11
20.4797229064
 21
171.797714281
 31
0.0
  0
LINE
  5
6C
  8
0
  6
CONTINUOUS
 62
     7
 10
19.6797229064
 20
172.7940091338
 30
0.0
 11
19.6797229064
 21
171.7977142857
 31
0.0
  0
LINE
  5
6D
  8
0
  6
CONTINUOUS
 62
     7
 10
108.4797229064
 20
171.797714281
 30
0.0
 11
109.2797229064
 21
171.7977142857
 31
0.0
  0
LINE
  5
6E
  8
0
  6
CONTINUOUS
 62
     7
 10
108.4797229064
 20
171.797714281
 30
0.0
 11
108.4797229064
 21
172.7940091338
 31
0.0
  0
LINE
  5
6F
  8
0
  6
CONTINUOUS
 62
     7
 10
109.2797229064
 20
172.7940091338
 30
0.0
 11
109.2797229064
 21
171.7977142857
 31
0.0
  0
LINE
  5
70
  8
0
  6
CONTINUOUS
 62
     7
 10
108.4797229064
 20
189.2145609238
 30
0.0
 11
108.4797229064
 21
193.4698840047
 31
0.0
  0
LINE
  5
71
  8
0
  6
CONTINUOUS
 62
     7
 10
109.2797229064
 20
193.4698840047
 30
0.0
 11
109.2797229064
 21
189.2145609238
 31
0.0
  0
LINE
  5
72
  8
0
  6
CONTINUOUS
 62
     7
 10
20.4797229064
 20
193.4698840047
 30
0.0
 11
20.4797229064
 21
189.2145609238
 31
0.0
  0
LINE
  5
73
  8
0
  6
CONTINUOUS
 62
     7
 10
19.6797229064
 20
193.4698840047
 30
0.0
 11
19.6797229064
 21
189.2145609238
 31
0.0
  0
LINE
  5
74
  8
0
  6
CONTINUOUS
 62
     7
 10
108.4797229064
 20
195.5977142857
 30
0.0
 11
109.2797229064
 21
195.5977142857
 31
0.0
  0
LINE
  5
75
  8
0
  6
CONTINUOUS
 62
     7
 10
108.4797229064
 20
193.4698840047
 30
0.0
 11
108.4797229064
 21
195.5977142857
 31
0.0
  0
LINE
  5
76
  8
0
  6
CONTINUOUS
 62
     7
 10
109.2797229064
 20
195.5977142857
 30
0.0
 11
109.2797229064
 21
193.4698840047
 31
0.0
  0
LINE
  5
77
  8
0
  6
CONTINUOUS
 62
     7
 10
19.6797229064
 20
195.5977142857
 30
0.0
 11
20.4797229064
 21
195.5977142857
 31
0.0
  0
LINE
  5
78
  8
0
  6
CONTINUOUS
 62
     7
 10
20.4797229064
 20
195.5977142857
 30
0.0
 11
20.4797229064
 21
193.4698840047
 31
0.0
  0
LINE
  5
79
  8
0
  6
CONTINUOUS
 62
     7
 10
19.6797229064
 20
195.5977142857
 30
0.0
 11
19.6797229064
 21
193.4698840047
 31
0.0
  0
LINE
  5
7A
  8
0
  6
CONTINUOUS
 62
     7
 10
20.4797229064
 20
195.5977142857
 30
0.0
 11
21.0797229064
 21
195.5977142857
 31
0.0
  0
LINE
  5
7B
  8
0
  6
CONTINUOUS
 62
     7
 10
21.0797229064
 20
171.797714281
 30
0.0
 11
20.4797229064
 21
171.797714281
 31
0.0
  0
LINE
  5
7C
  8
0
  6
CONTINUOUS
 62
     7
 10
107.8797229064
 20
195.5977142857
 30
0.0
 11
108.4797229064
 21
195.5977142857
 31
0.0
  0
LINE
  5
7D
  8
0
  6
CONTINUOUS
 62
     7
 10
108.4797229064
 20
171.797714281
 30
0.0
 11
107.8797229064
 21
171.797714281
 31
0.0
  0
LINE
  5
7E
  8
0
  6
CONTINUOUS
 62
     7
 10
29.2797229064
 20
182.5977142857
 30
0.0
 11
29.2797229064
 21
173.7977142857
 31
0.0
  0
ARC
  5
7F
  8
0
  6
CONTINUOUS
 62
     7
 10
27.2797229064
 20
173.7977142857
 30
0.0
 40
2.000000004695721
 50
270.0
 51
0.0
  0
ARC
  5
80
  8
0
  6
CONTINUOUS
 62
     7
 10
25.2297229064
 20
179.6977142857
 30
0.0
 40
1.100000000000023
 50
270.0
 51
90.0
  0
LINE
  5
81
  8
0
  6
CONTINUOUS
 62
     7
 10
25.2297229064
 20
180.7977142857
 30
0.0
 11
24.4297229064
 21
180.7977142857
 31
0.0
  0
ARC
  5
82
  8
0
  6
CONTINUOUS
 62
     7
 10
24.4297229064
 20
179.6977142857
 30
0.0
 40
1.100000000000023
 50
90.0
 51
270.0
  0
LINE
  5
83
  8
0
  6
CONTINUOUS
 62
     7
 10
24.4297229064
 20
178.5977142857
 30
0.0
 11
25.2297229064
 21
178.5977142857
 31
0.0
  0
LINE
  5
84
  8
0
  6
CONTINUOUS
 62
     7
 10
22.896483209
 20
195.5977142857
 30
0.0
 11
21.0797229064
 21
195.5977142857
 31
0.0
  0
LINE
  5
85
  8
0
  6
CONTINUOUS
 62
     7
 10
27.2797229064
 20
171.797714281
 30
0.0
 11
21.0797229064
 21
171.797714281
 31
0.0
  0
ARC
  5
86
  8
0
  6
CONTINUOUS
 62
     7
 10
101.6797229064
 20
173.7977142857
 30
0.0
 40
2.000000004695721
 50
180.0
 51
270.0
  0
LINE
  5
87
  8
0
  6
CONTINUOUS
 62
     7
 10
99.6797229064
 20
173.7977142857
 30
0.0
 11
99.6797229064
 21
182.5977142857
 31
0.0
  0
ARC
  5
88
  8
0
  6
CONTINUOUS
 62
     7
 10
104.5297229064
 20
179.6977142857
 30
0.0
 40
1.100000000000023
 50
270.0
 51
90.0
  0
LINE
  5
89
  8
0
  6
CONTINUOUS
 62
     7
 10
104.5297229064
 20
180.7977142857
 30
0.0
 11
103.7297229064
 21
180.7977142857
 31
0.0
  0
ARC
  5
8A
  8
0
  6
CONTINUOUS
 62
     7
 10
103.7297229064
 20
179.6977142857
 30
0.0
 40
1.100000000000023
 50
90.0
 51
270.0
  0
LINE
  5
8B
  8
0
  6
CONTINUOUS
 62
     7
 10
103.7297229064
 20
178.5977142857
 30
0.0
 11
104.5297229064
 21
178.5977142857
 31
0.0
  0
LINE
  5
8C
  8
0
  6
CONTINUOUS
 62
     7
 10
107.8797229064
 20
195.5977142857
 30
0.0
 11
106.0629626038
 21
195.5977142857
 31
0.0
  0
LINE
  5
8D
  8
0
  6
CONTINUOUS
 62
     7
 10
107.8797229064
 20
171.797714281
 30
0.0
 11
105.6297229064
 21
171.797714281
 31
0.0
  0
LINE
  5
8E
  8
0
  6
CONTINUOUS
 62
     7
 10
104.1297229064
 20
171.797714281
 30
0.0
 11
101.6797229064
 21
171.797714281
 31
0.0
  0
LINE
  5
8F
  8
0
  6
CONTINUOUS
 62
     7
 10
103.2797229064
 20
159.5477142857
 30
0.0
 11
103.2797229064
 21
169.5477142857
 31
0.0
  0
LINE
  5
90
  8
0
  6
CONTINUOUS
 62
     7
 10
103.2797229064
 20
169.5477142857
 30
0.0
 11
114.4797229064
 21
169.5477142857
 31
0.0
  0
LINE
  5
91
  8
0
  6
CONTINUOUS
 62
     7
 10
103.2797229064
 20
159.5477142857
 30
0.0
 11
114.4797229064
 21
159.5477142857
 31
0.0
  0
LINE
  5
92
  8
0
  6
CONTINUOUS
 62
     7
 10
114.4797229064
 20
159.5477142857
 30
0.0
 11
114.4797229064
 21
169.5477142857
 31
0.0
  0
LINE
  5
93
  8
0
  6
CONTINUOUS
 62
     7
 10
108.4797229064
 20
83.9477603105
 30
0.0
 11
106.1797229064
 21
83.9477603105
 31
0.0
  0
LINE
  5
94
  8
0
  6
CONTINUOUS
 62
     7
 10
22.7797229064
 20
83.9477603105
 30
0.0
 11
20.4797229064
 21
83.9477603105
 31
0.0
  0
LINE
  5
95
  8
0
  6
CONTINUOUS
 62
     7
 10
20.4797229064
 20
79.9477603105
 30
0.0
 11
22.7797229064
 21
79.9477603105
 31
0.0
  0
LINE
  5
96
  8
0
  6
CONTINUOUS
 62
     7
 10
106.1797229064
 20
79.9477603105
 30
0.0
 11
108.4797229064
 21
79.9477603105
 31
0.0
  0
LINE
  5
97
  8
0
  6
CONTINUOUS
 62
     7
 10
19.6797229064
 20
74.8232662999
 30
0.0
 11
20.4797229064
 21
74.8232662999
 31
0.0
  0
LINE
  5
98
  8
0
  6
CONTINUOUS
 62
     7
 10
108.4797229064
 20
74.8232662999
 30
0.0
 11
109.2797229064
 21
74.8232662999
 31
0.0
  0
LINE
  5
99
  8
0
  6
CONTINUOUS
 62
     7
 10
106.1797229064
 20
84.5977603105
 30
0.0
 11
108.4797229064
 21
84.5977603105
 31
0.0
  0
LINE
  5
9A
  8
0
  6
CONTINUOUS
 62
     7
 10
109.2797229064
 20
84.5977603105
 30
0.0
 11
112.8797229064
 21
84.5977603105
 31
0.0
  0
LINE
  5
9B
  8
0
  6
CONTINUOUS
 62
     7
 10
112.8797229064
 20
86.0977603105
 30
0.0
 11
109.2797229064
 21
86.0977603105
 31
0.0
  0
LINE
  5
9C
  8
0
  6
CONTINUOUS
 62
     7
 10
108.4797229064
 20
86.0977603105
 30
0.0
 11
106.1797229064
 21
86.0977603105
 31
0.0
  0
LINE
  5
9D
  8
0
  6
CONTINUOUS
 62
     7
 10
22.7797229064
 20
96.2477603105
 30
0.0
 11
106.1797229064
 21
96.2477603105
 31
0.0
  0
LINE
  5
9E
  8
0
  6
CONTINUOUS
 62
     7
 10
106.1797229064
 20
96.2477603105
 30
0.0
 11
104.5797229064
 21
94.6477603105
 31
0.0
  0
LINE
  5
9F
  8
0
  6
CONTINUOUS
 62
     7
 10
22.7797229064
 20
96.2477603105
 30
0.0
 11
24.3797229064
 21
94.6477603105
 31
0.0
  0
LINE
  5
A0
  8
0
  6
CONTINUOUS
 62
     7
 10
106.1797229064
 20
96.2477603105
 30
0.0
 11
106.1797229064
 21
20.3798111181
 31
0.0
  0
LINE
  5
A1
  8
0
  6
CONTINUOUS
 62
     7
 10
104.5797229064
 20
21.9798111181
 30
0.0
 11
106.1797229064
 21
20.3798111181
 31
0.0
  0
LINE
  5
A2
  8
0
  6
CONTINUOUS
 62
     7
 10
22.7797229064
 20
20.3798111181
 30
0.0
 11
22.7797229064
 21
96.2477603105
 31
0.0
  0
LINE
  5
A3
  8
0
  6
CONTINUOUS
 62
     7
 10
24.3797229064
 20
21.9798111181
 30
0.0
 11
22.7797229064
 21
20.3798111181
 31
0.0
  0
LINE
  5
A4
  8
0
  6
CONTINUOUS
 62
     7
 10
106.1797229064
 20
20.3798111181
 30
0.0
 11
22.7797229064
 21
20.3798111181
 31
0.0
  0
LINE
  5
A5
  8
0
  6
CONTINUOUS
 62
     7
 10
27.2797229064
 20
100.5477603105
 30
0.0
 11
21.0797229064
 21
100.5477603105
 31
0.0
  0
ARC
  5
A6
  8
0
  6
CONTINUOUS
 62
     7
 10
21.0797229064
 20
99.9477603105
 30
0.0
 40
0.5999999999999943
 50
90.0
 51
180.0
  0
LINE
  5
A7
  8
0
  6
CONTINUOUS
 62
     7
 10
20.4797229064
 20
99.9477603105
 30
0.0
 11
20.4797229064
 21
92.1477603105
 31
0.0
  0
LINE
  5
A8
  8
0
  6
CONTINUOUS
 62
     7
 10
19.6797229064
 20
99.9477603105
 30
0.0
 11
19.6797229064
 21
92.1477603105
 31
0.0
  0
ARC
  5
A9
  8
0
  6
CONTINUOUS
 62
     7
 10
21.0797229064
 20
99.9477603105
 30
0.0
 40
1.399999999999999
 50
90.0
 51
180.0
  0
LINE
  5
AA
  8
0
  6
CONTINUOUS
 62
     7
 10
21.0797229064
 20
101.3477603105
 30
0.0
 11
27.2797229064
 21
101.3477603105
 31
0.0
  0
LINE
  5
AB
  8
0
  6
CONTINUOUS
 62
     7
 10
27.2797229064
 20
101.3477603105
 30
0.0
 11
29.2797229064
 21
101.3477603105
 31
0.0
  0
LINE
  5
AC
  8
0
  6
CONTINUOUS
 62
     7
 10
29.2797229064
 20
101.3477603105
 30
0.0
 11
29.2797229064
 21
100.5477603105
 31
0.0
  0
LINE
  5
AD
  8
0
  6
CONTINUOUS
 62
     7
 10
29.2797229064
 20
100.5477603105
 30
0.0
 11
27.2797229064
 21
100.5477603105
 31
0.0
  0
LINE
  5
AE
  8
0
  6
CONTINUOUS
 62
     7
 10
108.4797229064
 20
92.1477603105
 30
0.0
 11
108.4797229064
 21
99.9477603105
 31
0.0
  0
ARC
  5
AF
  8
0
  6
CONTINUOUS
 62
     7
 10
107.8797229064
 20
99.9477603105
 30
0.0
 40
0.5999999999999943
 50
0.0
 51
90.0
  0
LINE
  5
B0
  8
0
  6
CONTINUOUS
 62
     7
 10
107.8797229064
 20
100.5477603105
 30
0.0
 11
101.6797229064
 21
100.5477603105
 31
0.0
  0
LINE
  5
B1
  8
0
  6
CONTINUOUS
 62
     7
 10
101.6797229064
 20
101.3477603105
 30
0.0
 11
107.8797229064
 21
101.3477603105
 31
0.0
  0
LINE
  5
B2
  8
0
  6
CONTINUOUS
 62
     7
 10
109.2797229064
 20
99.9477603105
 30
0.0
 11
109.2797229064
 21
92.1477603105
 31
0.0
  0
ARC
  5
B3
  8
0
  6
CONTINUOUS
 62
     7
 10
107.8797229064
 20
99.9477603105
 30
0.0
 40
1.400000000000006
 50
0.0
 51
90.0
  0
LINE
  5
B4
  8
0
  6
CONTINUOUS
 62
     7
 10
99.6797229064
 20
100.5477603105
 30
0.0
 11
99.6797229064
 21
101.3477603105
 31
0.0
  0
LINE
  5
B5
  8
0
  6
CONTINUOUS
 62
     7
 10
101.6797229064
 20
100.5477603105
 30
0.0
 11
99.6797229064
 21
100.5477603105
 31
0.0
  0
LINE
  5
B6
  8
0
  6
CONTINUOUS
 62
     7
 10
99.6797229064
 20
101.3477603105
 30
0.0
 11
101.6797229064
 21
101.3477603105
 31
0.0
  0
LINE
  5
B7
  8
0
  6
CONTINUOUS
 62
     7
 10
109.2797229064
 20
92.1477603105
 30
0.0
 11
109.2797229064
 21
79.9544786141
 31
0.0
  0
LINE
  5
B8
  8
0
  6
CONTINUOUS
 62
     7
 10
108.4797229064
 20
79.9544786141
 30
0.0
 11
108.4797229064
 21
92.1477603105
 31
0.0
  0
LINE
  5
B9
  8
0
  6
CONTINUOUS
 62
     7
 10
19.6797229064
 20
92.1477603105
 30
0.0
 11
19.6797229064
 21
79.9544786141
 31
0.0
  0
LINE
  5
BA
  8
0
  6
CONTINUOUS
 62
     7
 10
20.4797229064
 20
92.1477603105
 30
0.0
 11
20.4797229064
 21
79.9544786141
 31
0.0
  0
LINE
  5
BB
  8
0
  6
CONTINUOUS
 62
     7
 10
19.6797229064
 20
79.9544786141
 30
0.0
 11
19.6797229064
 21
76.5549341043
 31
0.0
  0
LINE
  5
BC
  8
0
  6
CONTINUOUS
 62
     7
 10
20.4797229064
 20
79.9544786141
 30
0.0
 11
20.4797229064
 21
76.5549341043
 31
0.0
  0
LINE
  5
BD
  8
0
  6
CONTINUOUS
 62
     7
 10
109.2797229064
 20
79.9544786141
 30
0.0
 11
109.2797229064
 21
76.5549341043
 31
0.0
  0
LINE
  5
BE
  8
0
  6
CONTINUOUS
 62
     7
 10
108.4797229064
 20
76.5549341043
 30
0.0
 11
108.4797229064
 21
79.9544786141
 31
0.0
  0
LINE
  5
BF
  8
0
  6
CONTINUOUS
 62
     7
 10
109.2797229064
 20
76.5549341043
 30
0.0
 11
109.2797229064
 21
74.8413603105
 31
0.0
  0
LINE
  5
C0
  8
0
  6
CONTINUOUS
 62
     7
 10
108.4797229064
 20
74.8413603105
 30
0.0
 11
108.4797229064
 21
76.5549341043
 31
0.0
  0
LINE
  5
C1
  8
0
  6
CONTINUOUS
 62
     7
 10
19.6797229064
 20
76.5549341043
 30
0.0
 11
19.6797229064
 21
74.8413603105
 31
0.0
  0
LINE
  5
C2
  8
0
  6
CONTINUOUS
 62
     7
 10
20.4797229064
 20
76.5549341043
 30
0.0
 11
20.4797229064
 21
74.8413603105
 31
0.0
  0
LINE
  5
C3
  8
0
  6
CONTINUOUS
 62
     7
 10
19.6797229064
 20
74.8413603105
 30
0.0
 11
19.6797229064
 21
74.8232662999
 31
0.0
  0
LINE
  5
C4
  8
0
  6
CONTINUOUS
 62
     7
 10
20.4797229064
 20
74.8413603105
 30
0.0
 11
20.4797229064
 21
74.8232662999
 31
0.0
  0
LINE
  5
C5
  8
0
  6
CONTINUOUS
 62
     7
 10
109.2797229064
 20
74.8413603105
 30
0.0
 11
109.2797229064
 21
74.8232662999
 31
0.0
  0
LINE
  5
C6
  8
0
  6
CONTINUOUS
 62
     7
 10
108.4797229064
 20
74.8232662999
 30
0.0
 11
108.4797229064
 21
74.8413603105
 31
0.0
  0
ARC
  5
C7
  8
0
  6
CONTINUOUS
 62
     7
 10
112.8797229064
 20
85.3477603105
 30
0.0
 40
0.75
 50
270.0
 51
90.0
  0
LINE
  5
C8
  8
0
  6
CONTINUOUS
 62
     7
 10
109.2797229064
 20
83.5477603105
 30
0.0
 11
114.4797229064
 21
83.5477603105
 31
0.0
  0
LINE
  5
C9
  8
0
  6
CONTINUOUS
 62
     7
 10
114.4797229064
 20
87.1477603105
 30
0.0
 11
109.2797229064
 21
87.1477603105
 31
0.0
  0
LINE
  5
CA
  8
0
  6
CONTINUOUS
 62
     7
 10
108.4797229064
 20
87.1477603105
 30
0.0
 11
106.1797229064
 21
87.1477603105
 31
0.0
  0
LINE
  5
CB
  8
0
  6
CONTINUOUS
 62
     7
 10
114.4797229064
 20
83.5477603105
 30
0.0
 11
114.4797229064
 21
87.1477603105
 31
0.0
  0
LINE
  5
CC
  8
0
  6
CONTINUOUS
 62
     7
 10
155.5056768816
 20
169.5477142857
 30
0.0
 11
155.5056768816
 21
171.797714281
 31
0.0
  0
LINE
  5
CD
  8
0
  6
CONTINUOUS
 62
     7
 10
154.0056768816
 20
171.797714281
 30
0.0
 11
154.0056768816
 21
169.5477142857
 31
0.0
  0
LINE
  5
CE
  8
0
  6
CONTINUOUS
 62
     7
 10
219.723626074
 20
194.9977142857
 30
0.0
 11
219.723626074
 21
190.5977142857
 31
0.0
  0
LINE
  5
CF
  8
0
  6
CONTINUOUS
 62
     7
 10
219.723626074
 20
190.5977142857
 30
0.0
 11
163.179123334
 21
190.5977142857
 31
0.0
  0
LINE
  5
D0
  8
0
  6
CONTINUOUS
 62
     7
 10
145.4556768816
 20
196.5977142857
 30
0.0
 11
218.123626074
 21
196.5977142857
 31
0.0
  0
ARC
  5
D1
  8
0
  6
CONTINUOUS
 62
     7
 10
218.123626074
 20
194.9977142857
 30
0.0
 40
1.599999999999994
 50
0.0
 51
90.0
  0
ARC
  5
D2
  8
0
  6
CONTINUOUS
 62
     7
 10
145.4556768816
 20
194.9977142857
 30
0.0
 40
1.599999999999909
 50
90.0
 51
157.975687163
  0
LINE
  5
D3
  8
0
  6
CONTINUOUS
 62
     7
 10
215.1595244589
 20
182.5977142857
 30
0.0
 11
164.3656391727
 21
182.5977142857
 31
0.0
  0
ARC
  5
D4
  8
0
  6
CONTINUOUS
 62
     7
 10
215.1595244589
 20
183.5977142857
 30
0.0
 40
1.000000000000028
 50
270.0
 51
330.0
  0
LINE
  5
D5
  8
0
  6
CONTINUOUS
 62
     7
 10
219.4896514778
 20
189.0977142857
 30
0.0
 11
216.0255498627
 21
183.0977142857
 31
0.0
  0
ARC
  5
D6
  8
0
  6
CONTINUOUS
 62
     7
 10
218.623626074
 20
189.5977142857
 30
0.0
 40
1.0
 50
330.0
 51
0.0
  0
LINE
  5
D7
  8
0
  6
CONTINUOUS
 62
     7
 10
219.623626074
 20
190.5977142857
 30
0.0
 11
219.623626074
 21
189.5977142857
 31
0.0
  0
LINE
  5
D8
  8
0
  6
CONTINUOUS
 62
     7
 10
138.7556768816
 20
171.7977142857
 30
0.0
 11
138.7556768816
 21
195.5977142857
 31
0.0
  0
LINE
  5
D9
  8
0
  6
CONTINUOUS
 62
     7
 10
138.7556768816
 20
195.5977142857
 30
0.0
 11
140.1556768816
 21
195.5977142857
 31
0.0
  0
LINE
  5
DA
  8
0
  6
CONTINUOUS
 62
     7
 10
140.1556768816
 20
171.7977142857
 30
0.0
 11
138.7556768816
 21
171.7977142857
 31
0.0
  0
ARC
  5
DB
  8
0
  6
CONTINUOUS
 62
     7
 10
147.9556768816
 20
159.5977142857
 30
0.0
 40
36.0
 50
70.2021709788
 51
90.0
  0
ARC
  5
DC
  8
0
  6
CONTINUOUS
 62
     7
 10
158.3877067774
 20
188.5772372675
 30
0.0
 40
5.200000000000002
 50
7.04
 51
70.2021709788
  0
LINE
  5
DD
  8
0
  6
CONTINUOUS
 62
     7
 10
163.5485030878
 20
189.2145609238
 30
0.0
 11
165.2620768816
 21
175.3387142857
 31
0.0
  0
ARC
  5
DE
  8
0
  6
CONTINUOUS
 62
     7
 10
162.8801708922
 20
175.0445649059
 30
0.0
 40
2.400000000000016
 50
290.3259722805
 51
7.04
  0
ARC
  5
DF
  8
0
  6
CONTINUOUS
 62
     7
 10
158.15606452
 20
187.797714281
 30
0.0
 40
16.0
 50
269.9986118724
 51
290.3259722805
  0
LINE
  5
E0
  8
0
  6
CONTINUOUS
 62
     7
 10
140.1556768816
 20
195.5977142857
 30
0.0
 11
147.9556768816
 21
195.5977142857
 31
0.0
  0
LINE
  5
E1
  8
0
  6
CONTINUOUS
 62
     7
 10
158.1556768816
 20
171.7977142857
 30
0.0
 11
140.1556768816
 21
171.7977142857
 31
0.0
  0
LINE
  5
E2
  8
0
  6
CONTINUOUS
 62
     7
 10
156.5556768816
 20
159.5477142857
 30
0.0
 11
156.5556768816
 21
169.5477142857
 31
0.0
  0
LINE
  5
E3
  8
0
  6
CONTINUOUS
 62
     7
 10
152.9556768816
 20
159.5477142857
 30
0.0
 11
156.5556768816
 21
159.5477142857
 31
0.0
  0
LINE
  5
E4
  8
0
  6
CONTINUOUS
 62
     7
 10
152.9556768816
 20
159.5477142857
 30
0.0
 11
152.9556768816
 21
169.5477142857
 31
0.0
  0
LINE
  5
E5
  8
0
  6
CONTINUOUS
 62
     7
 10
152.9556768816
 20
169.5477142857
 30
0.0
 11
156.5556768816
 21
169.5477142857
 31
0.0
  0
LINE
  5
E6
  8
0
  6
CONTINUOUS
 62
     7
 10
258.6681548064
 20
169.5477142857
 30
0.0
 11
258.6681548064
 21
171.797714281
 31
0.0
  0
LINE
  5
E7
  8
0
  6
CONTINUOUS
 62
     7
 10
257.1681548064
 20
171.797714281
 30
0.0
 11
257.1681548064
 21
169.5477142857
 31
0.0
  0
POLYLINE
  5
E8
  8
0
  6
CONTINUOUS
 62
     7
 66
     1
 10
0.0
 20
0.0
 30
0.0
  0
VERTEX
  5
134
  8
0
  6
CONTINUOUS
 62
     7
 10
256.0410790584
 20
171.7872479868
 30
0.0
  0
VERTEX
  5
135
  8
0
  6
CONTINUOUS
 62
     7
 10
255.7282200795
 20
171.7649181041
 30
0.0
  0
VERTEX
  5
136
  8
0
  6
CONTINUOUS
 62
     7
 10
255.4461912926
 20
171.7977142857
 30
0.0
  0
SEQEND
  5
137
  8
0
  6
CONTINUOUS
 62
     7
  0
LINE
  5
E9
  8
0
  6
CONTINUOUS
 62
     7
 10
250.3446374745
 20
195.5977142857
 30
0.0
 11
241.9410644877
 21
244.7219987326
 31
0.0
  0
ARC
  5
EA
  8
0
  6
CONTINUOUS
 62
     7
 10
243.5181548064
 20
244.9917877738
 30
0.0
 40
1.600000000000025
 50
99.7074851387
 51
189.7074851387
  0
LINE
  5
EB
  8
0
  6
CONTINUOUS
 62
     7
 10
247.5853641416
 20
247.3107979557
 30
0.0
 11
256.5010295651
 21
195.1930041333
 31
0.0
  0
LINE
  5
EC
  8
0
  6
CONTINUOUS
 62
     7
 10
256.1022613015
 20
171.7977142857
 30
0.0
 11
256.0410790584
 21
171.7872479868
 31
0.0
  0
LINE
  5
ED
  8
0
  6
CONTINUOUS
 62
     7
 10
243.2483657652
 20
246.5688780925
 30
0.0
 11
247.5853641416
 21
247.3107979557
 31
0.0
  0
ARC
  5
EE
  8
0
  6
CONTINUOUS
 62
     7
 10
248.7565255566
 20
246.3951665124
 30
0.0
 40
1.000000000000016
 50
69.7074851387
 51
99.7074851387
  0
LINE
  5
EF
  8
0
  6
CONTINUOUS
 62
     7
 10
247.6022259566
 20
247.2122298108
 30
0.0
 11
248.5879074058
 21
247.3808479615
 31
0.0
  0
LINE
  5
F0
  8
0
  6
CONTINUOUS
 62
     7
 10
249.1033386791
 20
247.3331007628
 30
0.0
 11
255.6015377824
 21
244.9303089671
 31
0.0
  0
ARC
  5
F1
  8
0
  6
CONTINUOUS
 62
     7
 10
255.2547246599
 20
243.9923747167
 30
0.0
 40
1.000000000000021
 50
9.7074851387
 51
69.7074851387
  0
LINE
  5
F2
  8
0
  6
CONTINUOUS
 62
     7
 10
256.2404061091
 20
244.1609928675
 30
0.0
 11
265.0987565167
 21
192.3782421448
 31
0.0
  0
LINE
  5
F3
  8
0
  6
CONTINUOUS
 62
     7
 10
268.2321344852
 20
174.0616343343
 30
0.0
 11
268.2466672131
 21
173.9766812009
 31
0.0
  0
LINE
  5
F4
  8
0
  6
CONTINUOUS
 62
     7
 10
268.2466672131
 20
173.9766812009
 30
0.0
 11
268.1868668686
 21
173.9664513
 31
0.0
  0
LINE
  5
F5
  8
0
  6
CONTINUOUS
 62
     7
 10
241.9181548064
 20
171.7977142857
 30
0.0
 11
241.9181548064
 21
195.5977142857
 31
0.0
  0
LINE
  5
F6
  8
0
  6
CONTINUOUS
 62
     7
 10
241.9181548064
 20
195.5977142857
 30
0.0
 11
243.3181548064
 21
195.5977142857
 31
0.0
  0
LINE
  5
F7
  8
0
  6
CONTINUOUS
 62
     7
 10
243.3181548064
 20
171.7977142857
 30
0.0
 11
241.9181548064
 21
171.7977142857
 31
0.0
  0
ARC
  5
F8
  8
0
  6
CONTINUOUS
 62
     7
 10
251.1181548064
 20
159.5977142857
 30
0.0
 40
36.0
 50
70.2021709788
 51
90.0
  0
ARC
  5
F9
  8
0
  6
CONTINUOUS
 62
     7
 10
261.5501847022
 20
188.5772372675
 30
0.0
 40
5.200000000000044
 50
7.04
 51
70.2021709788
  0
LINE
  5
FA
  8
0
  6
CONTINUOUS
 62
     7
 10
266.7109810126
 20
189.2145609238
 30
0.0
 11
268.4245548064
 21
175.3387142857
 31
0.0
  0
ARC
  5
FB
  8
0
  6
CONTINUOUS
 62
     7
 10
266.042648817
 20
175.0445649059
 30
0.0
 40
2.400000000000016
 50
290.3259722805
 51
7.04
  0
ARC
  5
FC
  8
0
  6
CONTINUOUS
 62
     7
 10
261.3185424447
 20
187.797714281
 30
0.0
 40
16.0
 50
269.9986118724
 51
290.3259722805
  0
LINE
  5
FD
  8
0
  6
CONTINUOUS
 62
     7
 10
243.3181548064
 20
195.5977142857
 30
0.0
 11
251.1181548064
 21
195.5977142857
 31
0.0
  0
LINE
  5
FE
  8
0
  6
CONTINUOUS
 62
     7
 10
261.3181548064
 20
171.7977142857
 30
0.0
 11
243.3181548064
 21
171.7977142857
 31
0.0
  0
LINE
  5
FF
  8
0
  6
CONTINUOUS
 62
     7
 10
259.7181548064
 20
159.5477142857
 30
0.0
 11
259.7181548064
 21
169.5477142857
 31
0.0
  0
LINE
  5
100
  8
0
  6
CONTINUOUS
 62
     7
 10
256.1181548064
 20
159.5477142857
 30
0.0
 11
259.7181548064
 21
159.5477142857
 31
0.0
  0
LINE
  5
101
  8
0
  6
CONTINUOUS
 62
     7
 10
256.1181548064
 20
159.5477142857
 30
0.0
 11
256.1181548064
 21
169.5477142857
 31
0.0
  0
LINE
  5
102
  8
0
  6
CONTINUOUS
 62
     7
 10
256.1181548064
 20
169.5477142857
 30
0.0
 11
259.7181548064
 21
169.5477142857
 31
0.0
  0
LINE
  5
103
  8
0
  6
CONTINUOUS
 62
     7
 10
302.49674023
 20
169.5477142857
 30
0.0
 11
302.49674023
 21
172.7977142857
 31
0.0
  0
LINE
  5
104
  8
0
  6
CONTINUOUS
 62
     7
 10
300.99674023
 20
172.7977142857
 30
0.0
 11
300.99674023
 21
169.5477142857
 31
0.0
  0
ARC
  5
105
  8
0
  6
CONTINUOUS
 62
     7
 10
305.74674023
 20
172.7977142857
 30
0.0
 40
3.250000000000011
 50
97.0697140423
 51
180.0
  0
ARC
  5
106
  8
0
  6
CONTINUOUS
 62
     7
 10
305.74674023
 20
172.7977142857
 30
0.0
 40
4.750000000000013
 50
94.830628592
 51
180.0
  0
LINE
  5
107
  8
0
  6
CONTINUOUS
 62
     7
 10
310.49674023
 20
169.5477142857
 30
0.0
 11
310.49674023
 21
171.7977142857
 31
0.0
  0
LINE
  5
108
  8
0
  6
CONTINUOUS
 62
     7
 10
308.99674023
 20
171.7977142857
 30
0.0
 11
308.99674023
 21
169.5477142857
 31
0.0
  0
LINE
  5
109
  8
0
  6
CONTINUOUS
 62
     7
 10
310.04674023
 20
196.5977142857
 30
0.0
 11
390.24674023
 21
196.5977142857
 31
0.0
  0
ARC
  5
10A
  8
0
  6
CONTINUOUS
 62
     7
 10
390.24674023
 20
194.9977142857
 30
0.0
 40
1.599999999999941
 50
22.024312837
 51
90.0
  0
ARC
  5
10B
  8
0
  6
CONTINUOUS
 62
     7
 10
310.04674023
 20
194.9977142857
 30
0.0
 40
1.600000000000174
 50
90.0
 51
157.975687163
  0
LINE
  5
10C
  8
0
  6
CONTINUOUS
 62
     7
 10
309.001295115
 20
190.5977142857
 30
0.0
 11
311.992185345
 21
190.5977142857
 31
0.0
  0
LINE
  5
10D
  8
0
  6
CONTINUOUS
 62
     7
 10
314.94674023
 20
190.5977142857
 30
0.0
 11
385.34674023
 21
190.5977142857
 31
0.0
  0
LINE
  5
10E
  8
0
  6
CONTINUOUS
 62
     7
 10
388.301295115
 20
190.5977142857
 30
0.0
 11
391.292185345
 21
190.5977142857
 31
0.0
  0
LINE
  5
10F
  8
0
  6
CONTINUOUS
 62
     7
 10
385.34674023
 20
182.5977142857
 30
0.0
 11
314.94674023
 21
182.5977142857
 31
0.0
  0
LINE
  5
110
  8
0
  6
CONTINUOUS
 62
     7
 10
305.34674023
 20
171.7977142857
 30
0.0
 11
305.34674023
 21
195.5977142857
 31
0.0
  0
LINE
  5
111
  8
0
  6
CONTINUOUS
 62
     7
 10
305.34674023
 20
195.5977142857
 30
0.0
 11
306.74674023
 21
195.5977142857
 31
0.0
  0
LINE
  5
112
  8
0
  6
CONTINUOUS
 62
     7
 10
306.74674023
 20
171.7977142857
 30
0.0
 11
305.34674023
 21
171.7977142857
 31
0.0
  0
LINE
  5
113
  8
0
  6
CONTINUOUS
 62
     7
 10
310.89674023
 20
180.7977142857
 30
0.0
 11
310.09674023
 21
180.7977142857
 31
0.0
  0
ARC
  5
114
  8
0
  6
CONTINUOUS
 62
     7
 10
310.09674023
 20
179.6977142857
 30
0.0
 40
1.100000000000023
 50
90.0
 51
270.0
  0
LINE
  5
115
  8
0
  6
CONTINUOUS
 62
     7
 10
310.09674023
 20
178.5977142857
 30
0.0
 11
310.89674023
 21
178.5977142857
 31
0.0
  0
ARC
  5
116
  8
0
  6
CONTINUOUS
 62
     7
 10
310.89674023
 20
179.6977142857
 30
0.0
 40
1.100000000000023
 50
270.0
 51
90.0
  0
ARC
  5
117
  8
0
  6
CONTINUOUS
 62
     7
 10
312.94674023
 20
193.5977142857
 30
0.0
 40
2.000000000000057
 50
0.0
 51
90.0
  0
LINE
  5
118
  8
0
  6
CONTINUOUS
 62
     7
 10
314.94674023
 20
193.5977142857
 30
0.0
 11
314.94674023
 21
173.7977142857
 31
0.0
  0
ARC
  5
119
  8
0
  6
CONTINUOUS
 62
     7
 10
312.94674023
 20
173.7977142857
 30
0.0
 40
2.000000000000114
 50
270.0
 51
0.0
  0
LINE
  5
11A
  8
0
  6
CONTINUOUS
 62
     7
 10
310.89674023
 20
191.7977142857
 30
0.0
 11
310.09674023
 21
191.7977142857
 31
0.0
  0
ARC
  5
11B
  8
0
  6
CONTINUOUS
 62
     7
 10
310.09674023
 20
190.6977142857
 30
0.0
 40
1.099999999999994
 50
90.0
 51
270.0
  0
LINE
  5
11C
  8
0
  6
CONTINUOUS
 62
     7
 10
310.09674023
 20
189.5977142857
 30
0.0
 11
310.89674023
 21
189.5977142857
 31
0.0
  0
ARC
  5
11D
  8
0
  6
CONTINUOUS
 62
     7
 10
310.89674023
 20
190.6977142857
 30
0.0
 40
1.099999999999994
 50
270.0
 51
90.0
  0
LINE
  5
11E
  8
0
  6
CONTINUOUS
 62
     7
 10
312.94674023
 20
171.7977142857
 30
0.0
 11
306.74674023
 21
171.7977142857
 31
0.0
  0
LINE
  5
11F
  8
0
  6
CONTINUOUS
 62
     7
 10
312.94674023
 20
195.5977142857
 30
0.0
 11
306.74674023
 21
195.5977142857
 31
0.0
  0
ARC
  5
120
  8
0
  6
CONTINUOUS
 62
     7
 10
387.34674023
 20
173.7977142857
 30
0.0
 40
2.0
 50
180.0
 51
270.0
  0
LINE
  5
121
  8
0
  6
CONTINUOUS
 62
     7
 10
385.34674023
 20
173.7977142857
 30
0.0
 11
385.34674023
 21
193.5977142857
 31
0.0
  0
ARC
  5
122
  8
0
  6
CONTINUOUS
 62
     7
 10
387.34674023
 20
193.5977142857
 30
0.0
 40
2.0
 50
90.0
 51
180.0
  0
LINE
  5
123
  8
0
  6
CONTINUOUS
 62
     7
 10
393.54674023
 20
195.5977142857
 30
0.0
 11
387.34674023
 21
195.5977142857
 31
0.0
  0
LINE
  5
124
  8
0
  6
CONTINUOUS
 62
     7
 10
393.54674023
 20
171.7977142857
 30
0.0
 11
387.34674023
 21
171.7977142857
 31
0.0
  0
LINE
  5
125
  8
0
  6
CONTINUOUS
 62
     7
 10
390.19674023
 20
180.7977142857
 30
0.0
 11
389.39674023
 21
180.7977142857
 31
0.0
  0
ARC
  5
126
  8
0
  6
CONTINUOUS
 62
     7
 10
389.39674023
 20
179.6977142857
 30
0.0
 40
1.100000000000023
 50
90.0
 51
270.0
  0
LINE
  5
127
  8
0
  6
CONTINUOUS
 62
     7
 10
389.39674023
 20
178.5977142857
 30
0.0
 11
390.19674023
 21
178.5977142857
 31
0.0
  0
ARC
  5
128
  8
0
  6
CONTINUOUS
 62
     7
 10
390.19674023
 20
179.6977142857
 30
0.0
 40
1.100000000000023
 50
270.0
 51
90.0
  0
LINE
  5
129
  8
0
  6
CONTINUOUS
 62
     7
 10
390.19674023
 20
191.7977142857
 30
0.0
 11
389.39674023
 21
191.7977142857
 31
0.0
  0
ARC
  5
12A
  8
0
  6
CONTINUOUS
 62
     7
 10
389.39674023
 20
190.6977142857
 30
0.0
 40
1.099999999999994
 50
90.0
 51
270.0
  0
LINE
  5
12B
  8
0
  6
CONTINUOUS
 62
     7
 10
389.39674023
 20
189.5977142857
 30
0.0
 11
390.19674023
 21
189.5977142857
 31
0.0
  0
ARC
  5
12C
  8
0
  6
CONTINUOUS
 62
     7
 10
390.19674023
 20
190.6977142857
 30
0.0
 40
1.099999999999994
 50
270.0
 51
90.0
  0
LINE
  5
12D
  8
0
  6
CONTINUOUS
 62
     7
 10
394.94674023
 20
195.5977142857
 30
0.0
 11
394.94674023
 21
171.7977142857
 31
0.0
  0
LINE
  5
12E
  8
0
  6
CONTINUOUS
 62
     7
 10
394.94674023
 20
171.7977142857
 30
0.0
 11
393.54674023
 21
171.7977142857
 31
0.0
  0
LINE
  5
12F
  8
0
  6
CONTINUOUS
 62
     7
 10
393.54674023
 20
195.5977142857
 30
0.0
 11
394.94674023
 21
195.5977142857
 31
0.0
  0
LINE
  5
130
  8
0
  6
CONTINUOUS
 62
     7
 10
311.34674023
 20
159.5477142857
 30
0.0
 11
311.34674023
 21
169.5477142857
 31
0.0
  0
LINE
  5
131
  8
0
  6
CONTINUOUS
 62
     7
 10
300.14674023
 20
159.5477142857
 30
0.0
 11
311.34674023
 21
159.5477142857
 31
0.0
  0
LINE
  5
132
  8
0
  6
CONTINUOUS
 62
     7
 10
300.14674023
 20
169.5477142857
 30
0.0
 11
311.34674023
 21
169.5477142857
 31
0.0
  0
LINE
  5
133
  8
0
  6
CONTINUOUS
 62
     7
 10
300.14674023
 20
159.5477142857
 30
0.0
 11
300.14674023
 21
169.5477142857
 31
0.0
  0
ENDSEC
  0
EOF
