  0
SECTION
  2
HEADER
  9
$ACADVER
  1
AC1009
  9
$DWGCODEPAGE
  3
ansi_1252
  9
$INSBASE
 10
0.0
 20
0.0
 30
0.0
  9
$EXTMIN
 10
0.0
 20
0.0
 30
0.0
  9
$EXTMAX
 10
420.0
 20
297.0
 30
0.0
  9
$LIMMIN
 10
0.0
 20
0.0
  9
$LIMMAX
 10
420.0
 20
297.0
  9
$ORTHOMODE
 70
     0
  9
$REGENMODE
 70
     1
  9
$FILLMODE
 70
     1
  9
$QTEXTMODE
 70
     0
  9
$MIRRTEXT
 70
     1
  9
$DRAGMODE
 70
     2
  9
$LTSCALE
 40
1.0
  9
$OSMODE
 70
    37
  9
$ATTMODE
 70
     1
  9
$TEXTSIZE
 40
3.5
  9
$TRACEWID
 40
1.0
  9
$TEXTSTYLE
  7
STANDARD
  9
$CLAYER
  8
0
  9
$CELTYPE
  6
BYLAYER
  9
$CECOLOR
 62
   256
  9
$DIMSCALE
 40
1.0
  9
$DIMASZ
 40
4.0
  9
$DIMEXO
 40
0.0
  9
$DIMDLI
 40
3.75
  9
$DIMRND
 40
0.0
  9
$DIMDLE
 40
0.0
  9
$DIMEXE
 40
2.0
  9
$DIMTP
 40
0.0
  9
$DIMTM
 40
0.0
  9
$DIMTXT
 40
3.5
  9
$DIMCEN
 40
2.5
  9
$DIMTSZ
 40
0.0
  9
$DIMTOL
 70
     0
  9
$DIMLIM
 70
     0
  9
$DIMTIH
 70
     1
  9
$DIMTOH
 70
     1
  9
$DIMSE1
 70
     0
  9
$DIMSE2
 70
     0
  9
$DIMTAD
 70
     1
  9
$DIMZIN
 70
     0
  9
$DIMBLK
  1

  9
$DIMASO
 70
     1
  9
$DIMSHO
 70
     1
  9
$DIMPOST
  1

  9
$DIMAPOST
  1

  9
$DIMALT
 70
     0
  9
$DIMALTD
 70
     3
  9
$DIMALTF
 40
0.0393700787
  9
$DIMLFAC
 40
5.0
  9
$DIMTOFL
 70
     1
  9
$DIMTVP
 40
0.0
  9
$DIMTIX
 70
     0
  9
$DIMSOXD
 70
     0
  9
$DIMSAH
 70
     0
  9
$DIMBLK1
  1

  9
$DIMBLK2
  1

  9
$DIMSTYLE
  2
ISO-25
  9
$DIMCLRD
 70
     0
  9
$DIMCLRE
 70
     0
  9
$DIMCLRT
 70
     0
  9
$DIMTFAC
 40
1.0
  9
$DIMGAP
 40
1.524
  9
$LUNITS
 70
     2
  9
$LUPREC
 70
     2
  9
$SKETCHINC
 40
1.0
  9
$FILLETRAD
 40
10.0
  9
$AUNITS
 70
     0
  9
$AUPREC
 70
     2
  9
$MENU
  1
.
  9
$ELEVATION
 40
0.0
  9
$PELEVATION
 40
0.0
  9
$THICKNESS
 40
0.0
  9
$LIMCHECK
 70
     0
  9
$CHAMFERA
 40
10.0
  9
$CHAMFERB
 40
10.0
  9
$SKPOLY
 70
     0
  9
$TDCREATE
 40
2457792.53376037
  9
$TDUPDATE
 40
2457792.533760532
  9
$TDINDWG
 40
0.0000000116
  9
$TDUSRTIMER
 40
0.0000000116
  9
$USRTIMER
 70
     1
  9
$ANGBASE
 50
0.0
  9
$ANGDIR
 70
     0
  9
$PDMODE
 70
     0
  9
$PDSIZE
 40
-1.0
  9
$PLINEWID
 40
0.0
  9
$COORDS
 70
     1
  9
$SPLFRAME
 70
     0
  9
$SPLINETYPE
 70
     6
  9
$SPLINESEGS
 70
     8
  9
$ATTDIA
 70
     0
  9
$ATTREQ
 70
     1
  9
$HANDLING
 70
     1
  9
$HANDSEED
  5
104
  9
$SURFTAB1
 70
     6
  9
$SURFTAB2
 70
     6
  9
$SURFTYPE
 70
     6
  9
$SURFU
 70
     6
  9
$SURFV
 70
     6
  9
$UCSNAME
  2

  9
$UCSORG
 10
0.0
 20
0.0
 30
0.0
  9
$UCSXDIR
 10
1.0
 20
0.0
 30
0.0
  9
$UCSYDIR
 10
0.0
 20
1.0
 30
0.0
  9
$PUCSNAME
  2

  9
$PUCSORG
 10
0.0
 20
0.0
 30
0.0
  9
$PUCSXDIR
 10
1.0
 20
0.0
 30
0.0
  9
$PUCSYDIR
 10
0.0
 20
1.0
 30
0.0
  9
$USERI1
 70
     0
  9
$USERI2
 70
     0
  9
$USERI3
 70
     0
  9
$USERI4
 70
     0
  9
$USERI5
 70
     0
  9
$USERR1
 40
0.0
  9
$USERR2
 40
0.0
  9
$USERR3
 40
0.0
  9
$USERR4
 40
0.0
  9
$USERR5
 40
0.0
  9
$WORLDVIEW
 70
     1
  9
$SHADEDGE
 70
     3
  9
$SHADEDIF
 70
    70
  9
$TILEMODE
 70
     1
  9
$MAXACTVP
 70
    64
  9
$PLIMCHECK
 70
     0
  9
$PEXTMIN
 10
1.0000000000E+20
 20
1.0000000000E+20
 30
1.0000000000E+20
  9
$PEXTMAX
 10
-1.0000000000E+20
 20
-1.0000000000E+20
 30
-1.0000000000E+20
  9
$PLIMMIN
 10
0.0
 20
0.0
  9
$PLIMMAX
 10
420.0
 20
297.0
  9
$UNITMODE
 70
     0
  9
$VISRETAIN
 70
     1
  9
$PLINEGEN
 70
     0
  9
$PSLTSCALE
 70
     1
  0
ENDSEC
  0
SECTION
  2
TABLES
  0
TABLE
  2
VPORT
 70
     1
  0
VPORT
  2
*ACTIVE
 70
     0
 10
0.0
 20
0.0
 11
1.0
 21
1.0
 12
210.0
 22
148.5
 13
0.0
 23
0.0
 14
10.0
 24
10.0
 15
10.0
 25
10.0
 16
0.0
 26
0.0
 36
1.0
 17
0.0
 27
0.0
 37
0.0
 40
297.0
 41
1.4141414141
 42
50.0
 43
0.0
 44
0.0
 50
0.0
 51
0.0
 71
     0
 72
  2000
 73
     1
 74
     3
 75
     0
 76
     0
 77
     0
 78
     0
  0
ENDTAB
  0
TABLE
  2
LTYPE
 70
     6
  0
LTYPE
  2
CONTINUOUS
 70
     0
  3
Solid line
 72
    65
 73
     0
 40
0.0
  0
LTYPE
  2
HIDDEN
 70
     0
  3
Hidden __ __ __ __ __ __ __ __ __ __ __ __ __ __
 72
    65
 73
     2
 40
1.905
 49
1.27
 49
-0.635
  0
LTYPE
  2
PHANTOM
 70
     0
  3
Phantom ______  __  __  ______  __  __  ______
 72
    65
 73
     6
 40
12.7
 49
6.35
 49
-1.27
 49
1.27
 49
-1.27
 49
1.27
 49
-1.27
  0
LTYPE
  2
CENTER
 70
     0
  3
Center ____ _ ____ _ ____ _ ____ _ ____ _ ____
 72
    65
 73
     4
 40
10.16
 49
6.35
 49
-1.27
 49
1.27
 49
-1.27
  0
LTYPE
  2
CENTERX2
 70
     0
  3
Center (2x) ________  __  ________  __  _____
 72
    65
 73
     4
 40
20.32
 49
12.7
 49
-2.54
 49
2.54
 49
-2.54
  0
LTYPE
  2
DOT2
 70
     0
  3
Dot (.5x) ........................................
 72
    65
 73
     2
 40
0.635
 49
0.0
 49
-0.635
  0
ENDTAB
  0
TABLE
  2
LAYER
 70
     2
  0
LAYER
  2
0
 70
     0
 62
     7
  6
CONTINUOUS
  0
LAYER
  2
FORMAT
 70
     0
 62
     7
  6
CONTINUOUS
  0
ENDTAB
  0
TABLE
  2
STYLE
 70
     1
  0
STYLE
  2
STANDARD
 70
     0
 40
0.0
 41
1.0
 50
0.0
 71
     0
 42
3.5
  3
txt
  4

  0
ENDTAB
  0
TABLE
  2
VIEW
 70
     0
  0
ENDTAB
  0
TABLE
  2
UCS
 70
     0
  0
ENDTAB
  0
TABLE
  2
APPID
 70
     1
  0
APPID
  2
ACAD
 70
     0
  0
ENDTAB
  0
TABLE
  2
DIMSTYLE
 70
     1
  0
DIMSTYLE
  2
ISO-25
 70
     0
  3

  4

  5

  6

  7

 40
1.0
 41
2.5
 42
0.625
 43
3.75
 44
1.25
 45
0.0
 46
0.0
 47
0.0
 48
0.0
140
2.5
141
2.5
142
0.0
143
0.0393700787
144
1.0
145
0.0
146
1.0
147
0.625
 71
     0
 72
     0
 73
     0
 74
     0
 75
     0
 76
     0
 77
     1
 78
     8
170
     0
171
     3
172
     1
173
     0
174
     0
175
     0
176
     0
177
     0
178
     0
  0
ENDTAB
  0
ENDSEC
  0
SECTION
  2
BLOCKS
  0
BLOCK
  8
0
  2
$MODEL_SPACE
 70
     0
 10
0.0
 20
0.0
 30
0.0
  3
$MODEL_SPACE
  1

  0
ENDBLK
  5
21
  8
0
  0
BLOCK
 67
     1
  8
0
  2
$PAPER_SPACE
 70
     0
 10
0.0
 20
0.0
 30
0.0
  3
$PAPER_SPACE
  1

  0
ENDBLK
  5
1D
 67
     1
  8
0
  0
ENDSEC
  0
SECTION
  2
ENTITIES
  0
LINE
  5
45
  8
0
  6
CONTINUOUS
 62
     7
 10
414.85
 20
5.15
 30
0.0
 11
5.15
 21
5.15
 31
0.0
  0
LINE
  5
46
  8
0
  6
CONTINUOUS
 62
     7
 10
415.0
 20
5.0
 30
0.0
 11
415.0
 21
277.0
 31
0.0
  0
LINE
  5
47
  8
0
  6
CONTINUOUS
 62
     7
 10
415.0
 20
277.0
 30
0.0
 11
5.0
 21
277.0
 31
0.0
  0
LINE
  5
48
  8
0
  6
CONTINUOUS
 62
     7
 10
5.15
 20
276.85
 30
0.0
 11
5.15
 21
5.15
 31
0.0
  0
LINE
  5
49
  8
0
  6
CONTINUOUS
 62
     7
 10
108.9158657635
 20
174.7779285738
 30
0.0
 11
106.5158657635
 21
174.7779285738
 31
0.0
  0
LINE
  5
4A
  8
0
  6
CONTINUOUS
 62
     7
 10
23.3158657635
 20
174.7779285738
 30
0.0
 11
20.9158657635
 21
174.7779285738
 31
0.0
  0
LINE
  5
4B
  8
0
  6
CONTINUOUS
 62
     7
 10
20.9158657635
 20
170.7779285738
 30
0.0
 11
23.3158657635
 21
170.7779285738
 31
0.0
  0
LINE
  5
4C
  8
0
  6
CONTINUOUS
 62
     7
 10
106.5158657635
 20
170.7779285738
 30
0.0
 11
108.9158657635
 21
170.7779285738
 31
0.0
  0
LINE
  5
4D
  8
0
  6
CONTINUOUS
 62
     7
 10
106.6158657635
 20
176.1779285738
 30
0.0
 11
23.2158657635
 21
176.1779285738
 31
0.0
  0
LINE
  5
4E
  8
0
  6
CONTINUOUS
 62
     7
 10
23.2158657635
 20
180.5779285738
 30
0.0
 11
23.2158657635
 21
176.1779285738
 31
0.0
  0
LINE
  5
4F
  8
0
  6
CONTINUOUS
 62
     7
 10
106.6158657635
 20
180.5779285738
 30
0.0
 11
106.6158657635
 21
176.1779285738
 31
0.0
  0
LINE
  5
50
  8
0
  6
CONTINUOUS
 62
     7
 10
24.8158657635
 20
182.1779285738
 30
0.0
 11
105.0158657635
 21
182.1779285738
 31
0.0
  0
ARC
  5
51
  8
0
  6
CONTINUOUS
 62
     7
 10
105.0158657635
 20
180.5779285738
 30
0.0
 40
1.599999999999994
 50
360.0
 51
90.0
  0
ARC
  5
52
  8
0
  6
CONTINUOUS
 62
     7
 10
24.8158657635
 20
180.5779285738
 30
0.0
 40
1.599999999999994
 50
90.0
 51
180.0
  0
LINE
  5
53
  8
0
  6
CONTINUOUS
 62
     7
 10
23.3158657635
 20
175.1779285738
 30
0.0
 11
23.3158657635
 21
176.1779285738
 31
0.0
  0
LINE
  5
54
  8
0
  6
CONTINUOUS
 62
     7
 10
106.5158657635
 20
176.1779285738
 30
0.0
 11
106.5158657635
 21
175.1779285738
 31
0.0
  0
LINE
  5
55
  8
0
  6
CONTINUOUS
 62
     7
 10
23.3158657635
 20
169.1779285738
 30
0.0
 11
23.3158657635
 21
175.1779285738
 31
0.0
  0
LINE
  5
56
  8
0
  6
CONTINUOUS
 62
     7
 10
106.5158657635
 20
175.1779285738
 30
0.0
 11
106.5158657635
 21
169.1779285738
 31
0.0
  0
LINE
  5
57
  8
0
  6
CONTINUOUS
 62
     7
 10
24.3158657635
 20
168.1779285738
 30
0.0
 11
105.5158657635
 21
168.1779285738
 31
0.0
  0
ARC
  5
58
  8
0
  6
CONTINUOUS
 62
     7
 10
105.5158657635
 20
169.1779285738
 30
0.0
 40
1.0
 50
270.0
 51
0.0
  0
ARC
  5
59
  8
0
  6
CONTINUOUS
 62
     7
 10
24.3158657635
 20
169.1779285738
 30
0.0
 40
1.0
 50
180.0
 51
270.0
  0
LINE
  5
5A
  8
0
  6
CONTINUOUS
 62
     7
 10
108.9158657635
 20
158.3742234219
 30
0.0
 11
108.9158657635
 21
160.9189285738
 31
0.0
  0
LINE
  5
5B
  8
0
  6
CONTINUOUS
 62
     7
 10
109.7158657635
 20
160.9189285738
 30
0.0
 11
109.7158657635
 21
158.3742234219
 31
0.0
  0
LINE
  5
5C
  8
0
  6
CONTINUOUS
 62
     7
 10
20.1158657635
 20
160.9189285738
 30
0.0
 11
20.1158657635
 21
158.3742234219
 31
0.0
  0
LINE
  5
5D
  8
0
  6
CONTINUOUS
 62
     7
 10
20.9158657635
 20
160.9189285738
 30
0.0
 11
20.9158657635
 21
158.3742234219
 31
0.0
  0
LINE
  5
5E
  8
0
  6
CONTINUOUS
 62
     7
 10
108.9158657635
 20
160.9189285738
 30
0.0
 11
108.9158657635
 21
174.7947752118
 31
0.0
  0
LINE
  5
5F
  8
0
  6
CONTINUOUS
 62
     7
 10
109.7158657635
 20
174.7947752118
 30
0.0
 11
109.7158657635
 21
160.9189285738
 31
0.0
  0
LINE
  5
60
  8
0
  6
CONTINUOUS
 62
     7
 10
20.9158657635
 20
174.7947752118
 30
0.0
 11
20.9158657635
 21
160.9189285738
 31
0.0
  0
LINE
  5
61
  8
0
  6
CONTINUOUS
 62
     7
 10
20.1158657635
 20
174.7947752118
 30
0.0
 11
20.1158657635
 21
160.9189285738
 31
0.0
  0
LINE
  5
62
  8
0
  6
CONTINUOUS
 62
     7
 10
20.1158657635
 20
157.3779285738
 30
0.0
 11
20.9158657635
 21
157.3779285691
 31
0.0
  0
LINE
  5
63
  8
0
  6
CONTINUOUS
 62
     7
 10
20.9158657635
 20
158.3742234219
 30
0.0
 11
20.9158657635
 21
157.3779285691
 31
0.0
  0
LINE
  5
64
  8
0
  6
CONTINUOUS
 62
     7
 10
20.1158657635
 20
158.3742234219
 30
0.0
 11
20.1158657635
 21
157.3779285738
 31
0.0
  0
LINE
  5
65
  8
0
  6
CONTINUOUS
 62
     7
 10
108.9158657635
 20
157.3779285691
 30
0.0
 11
109.7158657635
 21
157.3779285738
 31
0.0
  0
LINE
  5
66
  8
0
  6
CONTINUOUS
 62
     7
 10
108.9158657635
 20
157.3779285691
 30
0.0
 11
108.9158657635
 21
158.3742234219
 31
0.0
  0
LINE
  5
67
  8
0
  6
CONTINUOUS
 62
     7
 10
109.7158657635
 20
158.3742234219
 30
0.0
 11
109.7158657635
 21
157.3779285738
 31
0.0
  0
LINE
  5
68
  8
0
  6
CONTINUOUS
 62
     7
 10
108.9158657635
 20
174.7947752118
 30
0.0
 11
108.9158657635
 21
179.0500982928
 31
0.0
  0
LINE
  5
69
  8
0
  6
CONTINUOUS
 62
     7
 10
109.7158657635
 20
179.0500982928
 30
0.0
 11
109.7158657635
 21
174.7947752118
 31
0.0
  0
LINE
  5
6A
  8
0
  6
CONTINUOUS
 62
     7
 10
20.9158657635
 20
179.0500982928
 30
0.0
 11
20.9158657635
 21
174.7947752118
 31
0.0
  0
LINE
  5
6B
  8
0
  6
CONTINUOUS
 62
     7
 10
20.1158657635
 20
179.0500982928
 30
0.0
 11
20.1158657635
 21
174.7947752118
 31
0.0
  0
LINE
  5
6C
  8
0
  6
CONTINUOUS
 62
     7
 10
20.1158657635
 20
181.1779285738
 30
0.0
 11
20.9158657635
 21
181.1779285738
 31
0.0
  0
LINE
  5
6D
  8
0
  6
CONTINUOUS
 62
     7
 10
20.9158657635
 20
181.1779285738
 30
0.0
 11
20.9158657635
 21
179.0500982928
 31
0.0
  0
LINE
  5
6E
  8
0
  6
CONTINUOUS
 62
     7
 10
20.1158657635
 20
181.1779285738
 30
0.0
 11
20.1158657635
 21
179.0500982928
 31
0.0
  0
LINE
  5
6F
  8
0
  6
CONTINUOUS
 62
     7
 10
108.9158657635
 20
181.1779285738
 30
0.0
 11
109.7158657635
 21
181.1779285738
 31
0.0
  0
LINE
  5
70
  8
0
  6
CONTINUOUS
 62
     7
 10
108.9158657635
 20
179.0500982928
 30
0.0
 11
108.9158657635
 21
181.1779285738
 31
0.0
  0
LINE
  5
71
  8
0
  6
CONTINUOUS
 62
     7
 10
109.7158657635
 20
181.1779285738
 30
0.0
 11
109.7158657635
 21
179.0500982928
 31
0.0
  0
LINE
  5
72
  8
0
  6
CONTINUOUS
 62
     7
 10
20.9158657635
 20
181.1779285738
 30
0.0
 11
21.5158657635
 21
181.1779285738
 31
0.0
  0
LINE
  5
73
  8
0
  6
CONTINUOUS
 62
     7
 10
21.5158657635
 20
157.3779285691
 30
0.0
 11
20.9158657635
 21
157.3779285691
 31
0.0
  0
LINE
  5
74
  8
0
  6
CONTINUOUS
 62
     7
 10
108.3158657635
 20
181.1779285738
 30
0.0
 11
108.9158657635
 21
181.1779285738
 31
0.0
  0
LINE
  5
75
  8
0
  6
CONTINUOUS
 62
     7
 10
108.9158657635
 20
157.3779285691
 30
0.0
 11
108.3158657635
 21
157.3779285691
 31
0.0
  0
LINE
  5
76
  8
0
  6
CONTINUOUS
 62
     7
 10
29.7158657635
 20
168.1779285738
 30
0.0
 11
29.7158657635
 21
159.3779285738
 31
0.0
  0
ARC
  5
77
  8
0
  6
CONTINUOUS
 62
     7
 10
27.7158657635
 20
159.3779285738
 30
0.0
 40
2.00000000469575
 50
270.0
 51
0.0
  0
ARC
  5
78
  8
0
  6
CONTINUOUS
 62
     7
 10
25.6658657635
 20
165.2779285738
 30
0.0
 40
1.099999999999994
 50
270.0
 51
90.0
  0
LINE
  5
79
  8
0
  6
CONTINUOUS
 62
     7
 10
25.6658657635
 20
166.3779285738
 30
0.0
 11
24.8658657635
 21
166.3779285738
 31
0.0
  0
ARC
  5
7A
  8
0
  6
CONTINUOUS
 62
     7
 10
24.8658657635
 20
165.2779285738
 30
0.0
 40
1.099999999999994
 50
90.0
 51
270.0
  0
LINE
  5
7B
  8
0
  6
CONTINUOUS
 62
     7
 10
24.8658657635
 20
164.1779285738
 30
0.0
 11
25.6658657635
 21
164.1779285738
 31
0.0
  0
LINE
  5
7C
  8
0
  6
CONTINUOUS
 62
     7
 10
23.3326260661
 20
181.1779285738
 30
0.0
 11
21.5158657635
 21
181.1779285738
 31
0.0
  0
LINE
  5
7D
  8
0
  6
CONTINUOUS
 62
     7
 10
27.7158657635
 20
157.3779285691
 30
0.0
 11
21.5158657635
 21
157.3779285691
 31
0.0
  0
ARC
  5
7E
  8
0
  6
CONTINUOUS
 62
     7
 10
102.1158657635
 20
159.3779285738
 30
0.0
 40
2.00000000469575
 50
180.0
 51
270.0
  0
LINE
  5
7F
  8
0
  6
CONTINUOUS
 62
     7
 10
100.1158657635
 20
159.3779285738
 30
0.0
 11
100.1158657635
 21
168.1779285738
 31
0.0
  0
ARC
  5
80
  8
0
  6
CONTINUOUS
 62
     7
 10
104.9658657635
 20
165.2779285738
 30
0.0
 40
1.099999999999994
 50
270.0
 51
90.0
  0
LINE
  5
81
  8
0
  6
CONTINUOUS
 62
     7
 10
104.9658657635
 20
166.3779285738
 30
0.0
 11
104.1658657635
 21
166.3779285738
 31
0.0
  0
ARC
  5
82
  8
0
  6
CONTINUOUS
 62
     7
 10
104.1658657635
 20
165.2779285738
 30
0.0
 40
1.099999999999994
 50
90.0
 51
270.0
  0
LINE
  5
83
  8
0
  6
CONTINUOUS
 62
     7
 10
104.1658657635
 20
164.1779285738
 30
0.0
 11
104.9658657635
 21
164.1779285738
 31
0.0
  0
LINE
  5
84
  8
0
  6
CONTINUOUS
 62
     7
 10
108.3158657635
 20
181.1779285738
 30
0.0
 11
106.499105461
 21
181.1779285738
 31
0.0
  0
LINE
  5
85
  8
0
  6
CONTINUOUS
 62
     7
 10
108.3158657635
 20
157.3779285691
 30
0.0
 11
102.1158657635
 21
157.3779285691
 31
0.0
  0
LINE
  5
86
  8
0
  6
CONTINUOUS
 62
     7
 10
108.9158657635
 20
109.1309031676
 30
0.0
 11
106.6158657635
 21
109.1309031676
 31
0.0
  0
LINE
  5
87
  8
0
  6
CONTINUOUS
 62
     7
 10
23.2158657635
 20
109.1309031676
 30
0.0
 11
20.9158657635
 21
109.1309031676
 31
0.0
  0
LINE
  5
88
  8
0
  6
CONTINUOUS
 62
     7
 10
20.9158657635
 20
105.1309031676
 30
0.0
 11
23.2158657635
 21
105.1309031676
 31
0.0
  0
LINE
  5
89
  8
0
  6
CONTINUOUS
 62
     7
 10
106.6158657635
 20
105.1309031676
 30
0.0
 11
108.9158657635
 21
105.1309031676
 31
0.0
  0
LINE
  5
8A
  8
0
  6
CONTINUOUS
 62
     7
 10
20.1158657635
 20
100.006409157
 30
0.0
 11
20.9158657635
 21
100.006409157
 31
0.0
  0
LINE
  5
8B
  8
0
  6
CONTINUOUS
 62
     7
 10
108.9158657635
 20
100.006409157
 30
0.0
 11
109.7158657635
 21
100.006409157
 31
0.0
  0
LINE
  5
8C
  8
0
  6
CONTINUOUS
 62
     7
 10
106.6158657635
 20
121.4309031676
 30
0.0
 11
106.6158657635
 21
21.1629539752
 31
0.0
  0
LINE
  5
8D
  8
0
  6
CONTINUOUS
 62
     7
 10
105.0158657635
 20
22.7629539752
 30
0.0
 11
106.6158657635
 21
21.1629539752
 31
0.0
  0
LINE
  5
8E
  8
0
  6
CONTINUOUS
 62
     7
 10
106.6158657635
 20
121.4309031676
 30
0.0
 11
105.0158657635
 21
119.8309031676
 31
0.0
  0
LINE
  5
8F
  8
0
  6
CONTINUOUS
 62
     7
 10
23.2158657635
 20
121.4309031676
 30
0.0
 11
106.6158657635
 21
121.4309031676
 31
0.0
  0
LINE
  5
90
  8
0
  6
CONTINUOUS
 62
     7
 10
23.2158657635
 20
121.4309031676
 30
0.0
 11
24.8158657635
 21
119.8309031676
 31
0.0
  0
LINE
  5
91
  8
0
  6
CONTINUOUS
 62
     7
 10
23.2158657635
 20
21.1629539752
 30
0.0
 11
23.2158657635
 21
121.4309031676
 31
0.0
  0
LINE
  5
92
  8
0
  6
CONTINUOUS
 62
     7
 10
24.8158657635
 20
22.7629539752
 30
0.0
 11
23.2158657635
 21
21.1629539752
 31
0.0
  0
LINE
  5
93
  8
0
  6
CONTINUOUS
 62
     7
 10
106.6158657635
 20
21.1629539752
 30
0.0
 11
23.2158657635
 21
21.1629539752
 31
0.0
  0
LINE
  5
94
  8
0
  6
CONTINUOUS
 62
     7
 10
27.7158657635
 20
126.5309031676
 30
0.0
 11
29.7158657635
 21
126.5309031676
 31
0.0
  0
LINE
  5
95
  8
0
  6
CONTINUOUS
 62
     7
 10
29.7158657635
 20
126.5309031676
 30
0.0
 11
29.7158657635
 21
125.7309031676
 31
0.0
  0
LINE
  5
96
  8
0
  6
CONTINUOUS
 62
     7
 10
29.7158657635
 20
125.7309031676
 30
0.0
 11
27.7158657635
 21
125.7309031676
 31
0.0
  0
LINE
  5
97
  8
0
  6
CONTINUOUS
 62
     7
 10
108.9158657635
 20
117.3309031676
 30
0.0
 11
108.9158657635
 21
125.1309031676
 31
0.0
  0
ARC
  5
98
  8
0
  6
CONTINUOUS
 62
     7
 10
108.3158657635
 20
125.1309031676
 30
0.0
 40
0.5999999999999943
 50
0.0
 51
90.0
  0
LINE
  5
99
  8
0
  6
CONTINUOUS
 62
     7
 10
108.3158657635
 20
125.7309031676
 30
0.0
 11
102.1158657635
 21
125.7309031676
 31
0.0
  0
LINE
  5
9A
  8
0
  6
CONTINUOUS
 62
     7
 10
102.1158657635
 20
126.5309031676
 30
0.0
 11
108.3158657635
 21
126.5309031676
 31
0.0
  0
ARC
  5
9B
  8
0
  6
CONTINUOUS
 62
     7
 10
108.3158657635
 20
125.1309031676
 30
0.0
 40
1.399999999999991
 50
0.0
 51
90.0
  0
LINE
  5
9C
  8
0
  6
CONTINUOUS
 62
     7
 10
109.7158657635
 20
125.1309031676
 30
0.0
 11
109.7158657635
 21
117.3309031676
 31
0.0
  0
LINE
  5
9D
  8
0
  6
CONTINUOUS
 62
     7
 10
100.1158657635
 20
125.7309031676
 30
0.0
 11
100.1158657635
 21
126.5309031676
 31
0.0
  0
LINE
  5
9E
  8
0
  6
CONTINUOUS
 62
     7
 10
100.1158657635
 20
126.5309031676
 30
0.0
 11
102.1158657635
 21
126.5309031676
 31
0.0
  0
LINE
  5
9F
  8
0
  6
CONTINUOUS
 62
     7
 10
102.1158657635
 20
125.7309031676
 30
0.0
 11
100.1158657635
 21
125.7309031676
 31
0.0
  0
LINE
  5
A0
  8
0
  6
CONTINUOUS
 62
     7
 10
27.7158657635
 20
125.7309031676
 30
0.0
 11
21.5158657635
 21
125.7309031676
 31
0.0
  0
ARC
  5
A1
  8
0
  6
CONTINUOUS
 62
     7
 10
21.5158657635
 20
125.1309031676
 30
0.0
 40
0.6000000000000512
 50
90.0
 51
180.0
  0
LINE
  5
A2
  8
0
  6
CONTINUOUS
 62
     7
 10
20.9158657635
 20
125.1309031676
 30
0.0
 11
20.9158657635
 21
117.3309031676
 31
0.0
  0
LINE
  5
A3
  8
0
  6
CONTINUOUS
 62
     7
 10
20.1158657635
 20
125.1309031676
 30
0.0
 11
20.1158657635
 21
117.3309031676
 31
0.0
  0
ARC
  5
A4
  8
0
  6
CONTINUOUS
 62
     7
 10
21.5158657635
 20
125.1309031676
 30
0.0
 40
1.400000000000002
 50
90.0
 51
180.0
  0
LINE
  5
A5
  8
0
  6
CONTINUOUS
 62
     7
 10
21.5158657635
 20
126.5309031676
 30
0.0
 11
27.7158657635
 21
126.5309031676
 31
0.0
  0
LINE
  5
A6
  8
0
  6
CONTINUOUS
 62
     7
 10
20.1158657635
 20
117.3309031676
 30
0.0
 11
20.1158657635
 21
105.1376214712
 31
0.0
  0
LINE
  5
A7
  8
0
  6
CONTINUOUS
 62
     7
 10
20.9158657635
 20
117.3309031676
 30
0.0
 11
20.9158657635
 21
105.1376214712
 31
0.0
  0
LINE
  5
A8
  8
0
  6
CONTINUOUS
 62
     7
 10
109.7158657635
 20
117.3309031676
 30
0.0
 11
109.7158657635
 21
105.1376214712
 31
0.0
  0
LINE
  5
A9
  8
0
  6
CONTINUOUS
 62
     7
 10
108.9158657635
 20
105.1376214712
 30
0.0
 11
108.9158657635
 21
117.3309031676
 31
0.0
  0
LINE
  5
AA
  8
0
  6
CONTINUOUS
 62
     7
 10
20.1158657635
 20
105.1376214712
 30
0.0
 11
20.1158657635
 21
101.7380769615
 31
0.0
  0
LINE
  5
AB
  8
0
  6
CONTINUOUS
 62
     7
 10
20.9158657635
 20
105.1376214712
 30
0.0
 11
20.9158657635
 21
101.7380769615
 31
0.0
  0
LINE
  5
AC
  8
0
  6
CONTINUOUS
 62
     7
 10
109.7158657635
 20
105.1376214712
 30
0.0
 11
109.7158657635
 21
101.7380769615
 31
0.0
  0
LINE
  5
AD
  8
0
  6
CONTINUOUS
 62
     7
 10
108.9158657635
 20
101.7380769615
 30
0.0
 11
108.9158657635
 21
105.1376214712
 31
0.0
  0
LINE
  5
AE
  8
0
  6
CONTINUOUS
 62
     7
 10
20.1158657635
 20
101.7380769615
 30
0.0
 11
20.1158657635
 21
100.0245031676
 31
0.0
  0
LINE
  5
AF
  8
0
  6
CONTINUOUS
 62
     7
 10
20.9158657635
 20
101.7380769615
 30
0.0
 11
20.9158657635
 21
100.0245031676
 31
0.0
  0
LINE
  5
B0
  8
0
  6
CONTINUOUS
 62
     7
 10
109.7158657635
 20
101.7380769615
 30
0.0
 11
109.7158657635
 21
100.0245031676
 31
0.0
  0
LINE
  5
B1
  8
0
  6
CONTINUOUS
 62
     7
 10
108.9158657635
 20
100.0245031676
 30
0.0
 11
108.9158657635
 21
101.7380769615
 31
0.0
  0
LINE
  5
B2
  8
0
  6
CONTINUOUS
 62
     7
 10
20.1158657635
 20
100.0245031676
 30
0.0
 11
20.1158657635
 21
100.006409157
 31
0.0
  0
LINE
  5
B3
  8
0
  6
CONTINUOUS
 62
     7
 10
20.9158657635
 20
100.0245031676
 30
0.0
 11
20.9158657635
 21
100.006409157
 31
0.0
  0
LINE
  5
B4
  8
0
  6
CONTINUOUS
 62
     7
 10
109.7158657635
 20
100.0245031676
 30
0.0
 11
109.7158657635
 21
100.006409157
 31
0.0
  0
LINE
  5
B5
  8
0
  6
CONTINUOUS
 62
     7
 10
108.9158657635
 20
100.006409157
 30
0.0
 11
108.9158657635
 21
100.0245031676
 31
0.0
  0
ARC
  5
B6
  8
0
  6
CONTINUOUS
 62
     7
 10
137.5833911673
 20
180.5779285738
 30
0.0
 40
1.599999999999994
 50
90.0
 51
157.975687163
  0
LINE
  5
B7
  8
0
  6
CONTINUOUS
 62
     7
 10
137.5833911673
 20
182.1779285738
 30
0.0
 11
234.6513403598
 21
182.1779285738
 31
0.0
  0
ARC
  5
B8
  8
0
  6
CONTINUOUS
 62
     7
 10
234.6513403598
 20
180.5779285738
 30
0.0
 40
1.599999999999994
 50
0.0
 51
90.0
  0
LINE
  5
B9
  8
0
  6
CONTINUOUS
 62
     7
 10
236.2513403598
 20
176.1779285738
 30
0.0
 11
155.3068376198
 21
176.1779285738
 31
0.0
  0
LINE
  5
BA
  8
0
  6
CONTINUOUS
 62
     7
 10
236.2513403598
 20
180.5779285738
 30
0.0
 11
236.2513403598
 21
176.1779285738
 31
0.0
  0
LINE
  5
BB
  8
0
  6
CONTINUOUS
 62
     7
 10
231.6872387446
 20
168.1779285738
 30
0.0
 11
156.4933534584
 21
168.1779285738
 31
0.0
  0
ARC
  5
BC
  8
0
  6
CONTINUOUS
 62
     7
 10
231.6872387446
 20
169.1779285738
 30
0.0
 40
1.000000000000008
 50
270.0
 51
330.0
  0
LINE
  5
BD
  8
0
  6
CONTINUOUS
 62
     7
 10
236.0173657635
 20
174.6779285738
 30
0.0
 11
232.5532641484
 21
168.6779285738
 31
0.0
  0
ARC
  5
BE
  8
0
  6
CONTINUOUS
 62
     7
 10
235.1513403598
 20
175.1779285738
 30
0.0
 40
1.000000000000008
 50
330.0
 51
0.0
  0
LINE
  5
BF
  8
0
  6
CONTINUOUS
 62
     7
 10
236.1513403598
 20
176.1779285738
 30
0.0
 11
236.1513403598
 21
175.1779285738
 31
0.0
  0
LINE
  5
C0
  8
0
  6
CONTINUOUS
 62
     7
 10
130.8833911673
 20
157.3779285738
 30
0.0
 11
130.8833911673
 21
181.1779285738
 31
0.0
  0
LINE
  5
C1
  8
0
  6
CONTINUOUS
 62
     7
 10
130.8833911673
 20
181.1779285738
 30
0.0
 11
132.2833911673
 21
181.1779285738
 31
0.0
  0
LINE
  5
C2
  8
0
  6
CONTINUOUS
 62
     7
 10
132.2833911673
 20
157.3779285738
 30
0.0
 11
130.8833911673
 21
157.3779285738
 31
0.0
  0
ARC
  5
C3
  8
0
  6
CONTINUOUS
 62
     7
 10
140.0833911673
 20
145.1779285738
 30
0.0
 40
36.0
 50
70.2021709788
 51
90.0
  0
ARC
  5
C4
  8
0
  6
CONTINUOUS
 62
     7
 10
150.5154210631
 20
174.1574515556
 30
0.0
 40
5.200000000000047
 50
7.04
 51
70.2021709788
  0
LINE
  5
C5
  8
0
  6
CONTINUOUS
 62
     7
 10
155.6762173735
 20
174.7947752118
 30
0.0
 11
157.3897911673
 21
160.9189285738
 31
0.0
  0
ARC
  5
C6
  8
0
  6
CONTINUOUS
 62
     7
 10
155.0078851779
 20
160.624779194
 30
0.0
 40
2.400000000000034
 50
290.3259722805
 51
7.04
  0
ARC
  5
C7
  8
0
  6
CONTINUOUS
 62
     7
 10
150.2837788057
 20
173.3779285691
 30
0.0
 40
16.00000000000005
 50
269.9986118724
 51
290.3259722805
  0
LINE
  5
C8
  8
0
  6
CONTINUOUS
 62
     7
 10
132.2833911673
 20
181.1779285738
 30
0.0
 11
140.0833911673
 21
181.1779285738
 31
0.0
  0
LINE
  5
C9
  8
0
  6
CONTINUOUS
 62
     7
 10
150.2833911673
 20
157.3779285738
 30
0.0
 11
132.2833911673
 21
157.3779285738
 31
0.0
  0
LINE
  5
CA
  8
0
  6
CONTINUOUS
 62
     7
 10
378.3270409161
 20
181.1779285738
 30
0.0
 11
370.4430749579
 21
255.6884303429
 31
0.0
  0
ARC
  5
CB
  8
0
  6
CONTINUOUS
 62
     7
 10
372.0341928433
 20
255.8567867349
 30
0.0
 40
1.600000000000105
 50
96.04
 51
186.04
  0
LINE
  5
CC
  8
0
  6
CONTINUOUS
 62
     7
 10
376.2414106362
 20
257.9108846983
 30
0.0
 11
384.4128246158
 21
180.6837430521
 31
0.0
  0
LINE
  5
CD
  8
0
  6
CONTINUOUS
 62
     7
 10
371.8658364513
 20
257.4479046203
 30
0.0
 11
376.2414106362
 21
257.9108846983
 31
0.0
  0
LINE
  5
CE
  8
0
  6
CONTINUOUS
 62
     7
 10
376.2519329107
 20
257.8114398305
 30
0.0
 11
377.246381589
 21
257.9166625755
 31
0.0
  0
ARC
  5
CF
  8
0
  6
CONTINUOUS
 62
     7
 10
377.351604334
 20
256.9222138971
 30
0.0
 40
1.000000000000002
 50
66.04
 51
96.04
  0
LINE
  5
D0
  8
0
  6
CONTINUOUS
 62
     7
 10
377.757703103
 20
257.8360430879
 30
0.0
 11
384.0888974542
 21
255.0225082849
 31
0.0
  0
ARC
  5
D1
  8
0
  6
CONTINUOUS
 62
     7
 10
383.6827986852
 20
254.1086790942
 30
0.0
 40
1.000000000000002
 50
6.04
 51
66.04
  0
LINE
  5
D2
  8
0
  6
CONTINUOUS
 62
     7
 10
384.6772473636
 20
254.2139018392
 30
0.0
 11
392.7818974311
 21
177.6177386395
 31
0.0
  0
LINE
  5
D3
  8
0
  6
CONTINUOUS
 62
     7
 10
369.2683197388
 20
157.3779285738
 30
0.0
 11
369.2683197388
 21
181.1779285738
 31
0.0
  0
LINE
  5
D4
  8
0
  6
CONTINUOUS
 62
     7
 10
369.2683197388
 20
181.1779285738
 30
0.0
 11
370.6683197388
 21
181.1779285738
 31
0.0
  0
LINE
  5
D5
  8
0
  6
CONTINUOUS
 62
     7
 10
370.6683197388
 20
157.3779285738
 30
0.0
 11
369.2683197388
 21
157.3779285738
 31
0.0
  0
ARC
  5
D6
  8
0
  6
CONTINUOUS
 62
     7
 10
378.4683197388
 20
145.1779285738
 30
0.0
 40
36.0
 50
70.2021709788
 51
90.0
  0
ARC
  5
D7
  8
0
  6
CONTINUOUS
 62
     7
 10
388.9003496346
 20
174.1574515556
 30
0.0
 40
5.200000000000002
 50
7.04
 51
70.2021709788
  0
LINE
  5
D8
  8
0
  6
CONTINUOUS
 62
     7
 10
394.0611459449
 20
174.7947752118
 30
0.0
 11
395.7747197388
 21
160.9189285738
 31
0.0
  0
ARC
  5
D9
  8
0
  6
CONTINUOUS
 62
     7
 10
393.3928137494
 20
160.624779194
 30
0.0
 40
2.400000000000034
 50
290.3259722805
 51
7.04
  0
ARC
  5
DA
  8
0
  6
CONTINUOUS
 62
     7
 10
388.6687073771
 20
173.3779285691
 30
0.0
 40
16.00000000000005
 50
269.9986118724
 51
290.3259722805
  0
LINE
  5
DB
  8
0
  6
CONTINUOUS
 62
     7
 10
370.6683197388
 20
181.1779285738
 30
0.0
 11
378.4683197388
 21
181.1779285738
 31
0.0
  0
LINE
  5
DC
  8
0
  6
CONTINUOUS
 62
     7
 10
388.6683197388
 20
157.3779285738
 30
0.0
 11
370.6683197388
 21
157.3779285738
 31
0.0
  0
LINE
  5
DD
  8
0
  6
CONTINUOUS
 62
     7
 10
257.7911514778
 20
182.1779285738
 30
0.0
 11
337.9911514778
 21
182.1779285738
 31
0.0
  0
ARC
  5
DE
  8
0
  6
CONTINUOUS
 62
     7
 10
337.9911514778
 20
180.5779285738
 30
0.0
 40
1.600000000000023
 50
22.024312837
 51
90.0
  0
ARC
  5
DF
  8
0
  6
CONTINUOUS
 62
     7
 10
257.7911514778
 20
180.5779285738
 30
0.0
 40
1.59999999999993
 50
90.0
 51
157.975687163
  0
LINE
  5
E0
  8
0
  6
CONTINUOUS
 62
     7
 10
256.7457063628
 20
176.1779285738
 30
0.0
 11
259.7365965928
 21
176.1779285738
 31
0.0
  0
LINE
  5
E1
  8
0
  6
CONTINUOUS
 62
     7
 10
262.6911514778
 20
176.1779285738
 30
0.0
 11
333.0911514778
 21
176.1779285738
 31
0.0
  0
LINE
  5
E2
  8
0
  6
CONTINUOUS
 62
     7
 10
336.0457063628
 20
176.1779285738
 30
0.0
 11
339.0365965928
 21
176.1779285738
 31
0.0
  0
LINE
  5
E3
  8
0
  6
CONTINUOUS
 62
     7
 10
333.0911514778
 20
168.1779285738
 30
0.0
 11
262.6911514778
 21
168.1779285738
 31
0.0
  0
LINE
  5
E4
  8
0
  6
CONTINUOUS
 62
     7
 10
253.0911514778
 20
157.3779285738
 30
0.0
 11
253.0911514778
 21
181.1779285738
 31
0.0
  0
LINE
  5
E5
  8
0
  6
CONTINUOUS
 62
     7
 10
253.0911514778
 20
181.1779285738
 30
0.0
 11
254.4911514778
 21
181.1779285738
 31
0.0
  0
LINE
  5
E6
  8
0
  6
CONTINUOUS
 62
     7
 10
254.4911514778
 20
157.3779285738
 30
0.0
 11
253.0911514778
 21
157.3779285738
 31
0.0
  0
LINE
  5
E7
  8
0
  6
CONTINUOUS
 62
     7
 10
258.6411514778
 20
166.3779285738
 30
0.0
 11
257.8411514778
 21
166.3779285738
 31
0.0
  0
ARC
  5
E8
  8
0
  6
CONTINUOUS
 62
     7
 10
257.8411514778
 20
165.2779285738
 30
0.0
 40
1.099999999999994
 50
90.0
 51
270.0
  0
LINE
  5
E9
  8
0
  6
CONTINUOUS
 62
     7
 10
257.8411514778
 20
164.1779285738
 30
0.0
 11
258.6411514778
 21
164.1779285738
 31
0.0
  0
ARC
  5
EA
  8
0
  6
CONTINUOUS
 62
     7
 10
258.6411514778
 20
165.2779285738
 30
0.0
 40
1.099999999999994
 50
270.0
 51
90.0
  0
ARC
  5
EB
  8
0
  6
CONTINUOUS
 62
     7
 10
260.6911514778
 20
179.1779285738
 30
0.0
 40
2.0
 50
0.0
 51
90.0
  0
LINE
  5
EC
  8
0
  6
CONTINUOUS
 62
     7
 10
262.6911514778
 20
179.1779285738
 30
0.0
 11
262.6911514778
 21
159.3779285738
 31
0.0
  0
ARC
  5
ED
  8
0
  6
CONTINUOUS
 62
     7
 10
260.6911514778
 20
159.3779285738
 30
0.0
 40
2.0
 50
270.0
 51
0.0
  0
LINE
  5
EE
  8
0
  6
CONTINUOUS
 62
     7
 10
258.6411514778
 20
177.3779285738
 30
0.0
 11
257.8411514778
 21
177.3779285738
 31
0.0
  0
ARC
  5
EF
  8
0
  6
CONTINUOUS
 62
     7
 10
257.8411514778
 20
176.2779285738
 30
0.0
 40
1.100000000000023
 50
90.0
 51
270.0
  0
LINE
  5
F0
  8
0
  6
CONTINUOUS
 62
     7
 10
257.8411514778
 20
175.1779285738
 30
0.0
 11
258.6411514778
 21
175.1779285738
 31
0.0
  0
ARC
  5
F1
  8
0
  6
CONTINUOUS
 62
     7
 10
258.6411514778
 20
176.2779285738
 30
0.0
 40
1.100000000000023
 50
270.0
 51
90.0
  0
LINE
  5
F2
  8
0
  6
CONTINUOUS
 62
     7
 10
260.6911514778
 20
181.1779285738
 30
0.0
 11
254.4911514778
 21
181.1779285738
 31
0.0
  0
LINE
  5
F3
  8
0
  6
CONTINUOUS
 62
     7
 10
260.6911514778
 20
157.3779285738
 30
0.0
 11
254.4911514778
 21
157.3779285738
 31
0.0
  0
ARC
  5
F4
  8
0
  6
CONTINUOUS
 62
     7
 10
335.0911514778
 20
159.3779285738
 30
0.0
 40
2.0
 50
180.0
 51
270.0
  0
LINE
  5
F5
  8
0
  6
CONTINUOUS
 62
     7
 10
333.0911514778
 20
159.3779285738
 30
0.0
 11
333.0911514778
 21
179.1779285738
 31
0.0
  0
ARC
  5
F6
  8
0
  6
CONTINUOUS
 62
     7
 10
335.0911514778
 20
179.1779285738
 30
0.0
 40
2.0
 50
90.0
 51
180.0
  0
LINE
  5
F7
  8
0
  6
CONTINUOUS
 62
     7
 10
341.2911514778
 20
181.1779285738
 30
0.0
 11
335.0911514778
 21
181.1779285738
 31
0.0
  0
LINE
  5
F8
  8
0
  6
CONTINUOUS
 62
     7
 10
341.2911514778
 20
157.3779285738
 30
0.0
 11
335.0911514778
 21
157.3779285738
 31
0.0
  0
LINE
  5
F9
  8
0
  6
CONTINUOUS
 62
     7
 10
337.9411514778
 20
166.3779285738
 30
0.0
 11
337.1411514778
 21
166.3779285738
 31
0.0
  0
ARC
  5
FA
  8
0
  6
CONTINUOUS
 62
     7
 10
337.1411514778
 20
165.2779285738
 30
0.0
 40
1.099999999999994
 50
90.0
 51
270.0
  0
LINE
  5
FB
  8
0
  6
CONTINUOUS
 62
     7
 10
337.1411514778
 20
164.1779285738
 30
0.0
 11
337.9411514778
 21
164.1779285738
 31
0.0
  0
ARC
  5
FC
  8
0
  6
CONTINUOUS
 62
     7
 10
337.9411514778
 20
165.2779285738
 30
0.0
 40
1.099999999999994
 50
270.0
 51
90.0
  0
LINE
  5
FD
  8
0
  6
CONTINUOUS
 62
     7
 10
337.9411514778
 20
177.3779285738
 30
0.0
 11
337.1411514778
 21
177.3779285738
 31
0.0
  0
ARC
  5
FE
  8
0
  6
CONTINUOUS
 62
     7
 10
337.1411514778
 20
176.2779285738
 30
0.0
 40
1.100000000000023
 50
90.0
 51
270.0
  0
LINE
  5
FF
  8
0
  6
CONTINUOUS
 62
     7
 10
337.1411514778
 20
175.1779285738
 30
0.0
 11
337.9411514778
 21
175.1779285738
 31
0.0
  0
ARC
  5
100
  8
0
  6
CONTINUOUS
 62
     7
 10
337.9411514778
 20
176.2779285738
 30
0.0
 40
1.100000000000023
 50
270.0
 51
90.0
  0
LINE
  5
101
  8
0
  6
CONTINUOUS
 62
     7
 10
342.6911514778
 20
181.1779285738
 30
0.0
 11
342.6911514778
 21
157.3779285738
 31
0.0
  0
LINE
  5
102
  8
0
  6
CONTINUOUS
 62
     7
 10
341.2911514778
 20
181.1779285738
 30
0.0
 11
342.6911514778
 21
181.1779285738
 31
0.0
  0
LINE
  5
103
  8
0
  6
CONTINUOUS
 62
     7
 10
342.6911514778
 20
157.3779285738
 30
0.0
 11
341.2911514778
 21
157.3779285738
 31
0.0
  0
ENDSEC
  0
EOF
