  0
SECTION
  2
HEADER
  9
$ACADVER
  1
AC1009
  9
$DWGCODEPAGE
  3
ansi_1252
  9
$INSBASE
 10
0.0
 20
0.0
 30
0.0
  9
$EXTMIN
 10
0.0
 20
0.0
 30
0.0
  9
$EXTMAX
 10
2100.0
 20
1485.0
 30
0.0
  9
$LIMMIN
 10
0.0
 20
0.0
  9
$LIMMAX
 10
2100.0
 20
1485.0
  9
$ORTHOMODE
 70
     0
  9
$REGENMODE
 70
     1
  9
$FILLMODE
 70
     1
  9
$QTEXTMODE
 70
     0
  9
$MIRRTEXT
 70
     1
  9
$DRAGMODE
 70
     2
  9
$LTSCALE
 40
5.0
  9
$OSMODE
 70
    37
  9
$ATTMODE
 70
     1
  9
$TEXTSIZE
 40
17.5
  9
$TRACEWID
 40
1.0
  9
$TEXTSTYLE
  7
STANDARD
  9
$CLAYER
  8
0
  9
$CELTYPE
  6
BYLAYER
  9
$CECOLOR
 62
   256
  9
$DIMSCALE
 40
1.0
  9
$DIMASZ
 40
20.0
  9
$DIMEXO
 40
0.0
  9
$DIMDLI
 40
3.75
  9
$DIMRND
 40
0.0
  9
$DIMDLE
 40
0.0
  9
$DIMEXE
 40
10.0
  9
$DIMTP
 40
0.0
  9
$DIMTM
 40
0.0
  9
$DIMTXT
 40
17.5
  9
$DIMCEN
 40
2.5
  9
$DIMTSZ
 40
0.0
  9
$DIMTOL
 70
     0
  9
$DIMLIM
 70
     0
  9
$DIMTIH
 70
     1
  9
$DIMTOH
 70
     1
  9
$DIMSE1
 70
     0
  9
$DIMSE2
 70
     0
  9
$DIMTAD
 70
     1
  9
$DIMZIN
 70
     0
  9
$DIMBLK
  1

  9
$DIMASO
 70
     1
  9
$DIMSHO
 70
     1
  9
$DIMPOST
  1

  9
$DIMAPOST
  1

  9
$DIMALT
 70
     0
  9
$DIMALTD
 70
     3
  9
$DIMALTF
 40
0.0393700787
  9
$DIMLFAC
 40
1.0
  9
$DIMTOFL
 70
     1
  9
$DIMTVP
 40
0.0
  9
$DIMTIX
 70
     0
  9
$DIMSOXD
 70
     0
  9
$DIMSAH
 70
     0
  9
$DIMBLK1
  1

  9
$DIMBLK2
  1

  9
$DIMSTYLE
  2
ISO-25
  9
$DIMCLRD
 70
     0
  9
$DIMCLRE
 70
     0
  9
$DIMCLRT
 70
     0
  9
$DIMTFAC
 40
1.0
  9
$DIMGAP
 40
7.62
  9
$LUNITS
 70
     2
  9
$LUPREC
 70
     2
  9
$SKETCHINC
 40
1.0
  9
$FILLETRAD
 40
10.0
  9
$AUNITS
 70
     0
  9
$AUPREC
 70
     2
  9
$MENU
  1
.
  9
$ELEVATION
 40
0.0
  9
$PELEVATION
 40
0.0
  9
$THICKNESS
 40
0.0
  9
$LIMCHECK
 70
     0
  9
$CHAMFERA
 40
10.0
  9
$CHAMFERB
 40
10.0
  9
$SKPOLY
 70
     0
  9
$TDCREATE
 40
2457029.605456505
  9
$TDUPDATE
 40
2457029.60545669
  9
$TDINDWG
 40
0.0000000116
  9
$TDUSRTIMER
 40
0.0000000116
  9
$USRTIMER
 70
     1
  9
$ANGBASE
 50
0.0
  9
$ANGDIR
 70
     0
  9
$PDMODE
 70
     0
  9
$PDSIZE
 40
-1.0
  9
$PLINEWID
 40
0.0
  9
$COORDS
 70
     1
  9
$SPLFRAME
 70
     0
  9
$SPLINETYPE
 70
     6
  9
$SPLINESEGS
 70
     8
  9
$ATTDIA
 70
     0
  9
$ATTREQ
 70
     1
  9
$HANDLING
 70
     1
  9
$HANDSEED
  5
11B
  9
$SURFTAB1
 70
     6
  9
$SURFTAB2
 70
     6
  9
$SURFTYPE
 70
     6
  9
$SURFU
 70
     6
  9
$SURFV
 70
     6
  9
$UCSNAME
  2

  9
$UCSORG
 10
0.0
 20
0.0
 30
0.0
  9
$UCSXDIR
 10
1.0
 20
0.0
 30
0.0
  9
$UCSYDIR
 10
0.0
 20
1.0
 30
0.0
  9
$PUCSNAME
  2

  9
$PUCSORG
 10
0.0
 20
0.0
 30
0.0
  9
$PUCSXDIR
 10
1.0
 20
0.0
 30
0.0
  9
$PUCSYDIR
 10
0.0
 20
1.0
 30
0.0
  9
$USERI1
 70
     0
  9
$USERI2
 70
     0
  9
$USERI3
 70
     0
  9
$USERI4
 70
     0
  9
$USERI5
 70
     0
  9
$USERR1
 40
0.0
  9
$USERR2
 40
0.0
  9
$USERR3
 40
0.0
  9
$USERR4
 40
0.0
  9
$USERR5
 40
0.0
  9
$WORLDVIEW
 70
     1
  9
$SHADEDGE
 70
     3
  9
$SHADEDIF
 70
    70
  9
$TILEMODE
 70
     1
  9
$MAXACTVP
 70
    64
  9
$PLIMCHECK
 70
     0
  9
$PEXTMIN
 10
1.0000000000E+20
 20
1.0000000000E+20
 30
1.0000000000E+20
  9
$PEXTMAX
 10
-1.0000000000E+20
 20
-1.0000000000E+20
 30
-1.0000000000E+20
  9
$PLIMMIN
 10
0.0
 20
0.0
  9
$PLIMMAX
 10
420.0
 20
297.0
  9
$UNITMODE
 70
     0
  9
$VISRETAIN
 70
     1
  9
$PLINEGEN
 70
     0
  9
$PSLTSCALE
 70
     1
  0
ENDSEC
  0
SECTION
  2
TABLES
  0
TABLE
  2
VPORT
 70
     1
  0
VPORT
  2
*ACTIVE
 70
     0
 10
0.0
 20
0.0
 11
1.0
 21
1.0
 12
1050.0
 22
742.5
 13
0.0
 23
0.0
 14
10.0
 24
10.0
 15
10.0
 25
10.0
 16
0.0
 26
0.0
 36
1.0
 17
0.0
 27
0.0
 37
0.0
 40
1485.0
 41
1.4141414141
 42
50.0
 43
0.0
 44
0.0
 50
0.0
 51
0.0
 71
     0
 72
  2000
 73
     1
 74
     3
 75
     0
 76
     0
 77
     0
 78
     0
  0
ENDTAB
  0
TABLE
  2
LTYPE
 70
     6
  0
LTYPE
  2
CONTINUOUS
 70
     0
  3
Solid line
 72
    65
 73
     0
 40
0.0
  0
LTYPE
  2
HIDDEN
 70
     0
  3
Hidden __ __ __ __ __ __ __ __ __ __ __ __ __ __
 72
    65
 73
     2
 40
1.905
 49
1.27
 49
-0.635
  0
LTYPE
  2
PHANTOM
 70
     0
  3
Phantom ______  __  __  ______  __  __  ______
 72
    65
 73
     6
 40
12.7
 49
6.35
 49
-1.27
 49
1.27
 49
-1.27
 49
1.27
 49
-1.27
  0
LTYPE
  2
CENTER
 70
     0
  3
Center ____ _ ____ _ ____ _ ____ _ ____ _ ____
 72
    65
 73
     4
 40
10.16
 49
6.35
 49
-1.27
 49
1.27
 49
-1.27
  0
LTYPE
  2
CENTERX2
 70
     0
  3
Center (2x) ________  __  ________  __  _____
 72
    65
 73
     4
 40
20.32
 49
12.7
 49
-2.54
 49
2.54
 49
-2.54
  0
LTYPE
  2
DOT2
 70
     0
  3
Dot (.5x) ........................................
 72
    65
 73
     2
 40
0.635
 49
0.0
 49
-0.635
  0
ENDTAB
  0
TABLE
  2
LAYER
 70
     2
  0
LAYER
  2
0
 70
     0
 62
     7
  6
CONTINUOUS
  0
LAYER
  2
FORMAT
 70
     0
 62
     7
  6
CONTINUOUS
  0
ENDTAB
  0
TABLE
  2
STYLE
 70
     1
  0
STYLE
  2
STANDARD
 70
     0
 40
0.0
 41
1.0
 50
0.0
 71
     0
 42
17.5
  3
txt
  4

  0
ENDTAB
  0
TABLE
  2
VIEW
 70
     0
  0
ENDTAB
  0
TABLE
  2
UCS
 70
     0
  0
ENDTAB
  0
TABLE
  2
APPID
 70
     1
  0
APPID
  2
ACAD
 70
     0
  0
ENDTAB
  0
TABLE
  2
DIMSTYLE
 70
     1
  0
DIMSTYLE
  2
ISO-25
 70
     0
  3

  4

  5

  6

  7

 40
1.0
 41
2.5
 42
0.625
 43
3.75
 44
1.25
 45
0.0
 46
0.0
 47
0.0
 48
0.0
140
2.5
141
2.5
142
0.0
143
0.0393700787
144
1.0
145
0.0
146
1.0
147
0.625
 71
     0
 72
     0
 73
     0
 74
     0
 75
     0
 76
     0
 77
     1
 78
     8
170
     0
171
     3
172
     1
173
     0
174
     0
175
     0
176
     0
177
     0
178
     0
  0
ENDTAB
  0
ENDSEC
  0
SECTION
  2
BLOCKS
  0
BLOCK
  8
0
  2
$MODEL_SPACE
 70
     0
 10
0.0
 20
0.0
 30
0.0
  3
$MODEL_SPACE
  1

  0
ENDBLK
  5
21
  8
0
  0
BLOCK
 67
     1
  8
0
  2
$PAPER_SPACE
 70
     0
 10
0.0
 20
0.0
 30
0.0
  3
$PAPER_SPACE
  1

  0
ENDBLK
  5
1D
 67
     1
  8
0
  0
ENDSEC
  0
SECTION
  2
ENTITIES
  0
LINE
  5
45
  8
0
  6
CONTINUOUS
 62
     7
 10
2074.25
 20
25.75
 30
0.0
 11
25.75
 21
25.75
 31
0.0
  0
LINE
  5
46
  8
0
  6
CONTINUOUS
 62
     7
 10
2075.0
 20
25.0
 30
0.0
 11
2075.0
 21
1385.0
 31
0.0
  0
LINE
  5
47
  8
0
  6
CONTINUOUS
 62
     7
 10
2075.0
 20
1385.0
 30
0.0
 11
25.0
 21
1385.0
 31
0.0
  0
LINE
  5
48
  8
0
  6
CONTINUOUS
 62
     7
 10
25.75
 20
1384.25
 30
0.0
 11
25.75
 21
25.75
 31
0.0
  0
LINE
  5
49
  8
0
  6
CONTINUOUS
 62
     7
 10
748.4711116686
 20
1104.0105888822
 30
0.0
 11
736.4711116686
 21
1104.0105888822
 31
0.0
  0
LINE
  5
4A
  8
0
  6
CONTINUOUS
 62
     7
 10
420.4711116686
 20
1104.0105888822
 30
0.0
 11
408.4711116686
 21
1104.0105888822
 31
0.0
  0
LINE
  5
4B
  8
0
  6
CONTINUOUS
 62
     7
 10
408.4711116686
 20
1084.0105888822
 30
0.0
 11
420.4711116686
 21
1084.0105888822
 31
0.0
  0
LINE
  5
4C
  8
0
  6
CONTINUOUS
 62
     7
 10
736.4711116686
 20
1084.0105888822
 30
0.0
 11
748.4711116686
 21
1084.0105888822
 31
0.0
  0
LINE
  5
4D
  8
0
  6
CONTINUOUS
 62
     7
 10
427.9711116686
 20
1141.0105888822
 30
0.0
 11
728.9711116686
 21
1141.0105888822
 31
0.0
  0
ARC
  5
4E
  8
0
  6
CONTINUOUS
 62
     7
 10
728.9711116686
 20
1133.0105888822
 30
0.0
 40
8.000000000000455
 50
0.0
 51
90.0
  0
ARC
  5
4F
  8
0
  6
CONTINUOUS
 62
     7
 10
427.9711116686
 20
1133.0105888822
 30
0.0
 40
8.000000000000455
 50
90.0
 51
180.0
  0
LINE
  5
50
  8
0
  6
CONTINUOUS
 62
     7
 10
419.9711116686
 20
1133.0105888822
 30
0.0
 11
419.9711116686
 21
1111.0105888822
 31
0.0
  0
LINE
  5
51
  8
0
  6
CONTINUOUS
 62
     7
 10
736.9711116686
 20
1133.0105888822
 30
0.0
 11
736.9711116686
 21
1111.0105888822
 31
0.0
  0
LINE
  5
52
  8
0
  6
CONTINUOUS
 62
     7
 10
736.9711116686
 20
1111.0105888822
 30
0.0
 11
419.9711116686
 21
1111.0105888822
 31
0.0
  0
LINE
  5
53
  8
0
  6
CONTINUOUS
 62
     7
 10
736.4711116686
 20
1111.0105888822
 30
0.0
 11
736.4711116686
 21
1106.0105888822
 31
0.0
  0
LINE
  5
54
  8
0
  6
CONTINUOUS
 62
     7
 10
420.4711116686
 20
1106.0105888822
 30
0.0
 11
420.4711116686
 21
1111.0105888822
 31
0.0
  0
LINE
  5
55
  8
0
  6
CONTINUOUS
 62
     7
 10
736.4711116686
 20
1106.0105888822
 30
0.0
 11
736.4711116686
 21
1076.0105888822
 31
0.0
  0
LINE
  5
56
  8
0
  6
CONTINUOUS
 62
     7
 10
420.4711116686
 20
1076.0105888822
 30
0.0
 11
420.4711116686
 21
1106.0105888822
 31
0.0
  0
ARC
  5
57
  8
0
  6
CONTINUOUS
 62
     7
 10
731.4711116686
 20
1076.0105888822
 30
0.0
 40
5.0
 50
270.0
 51
0.0
  0
LINE
  5
58
  8
0
  6
CONTINUOUS
 62
     7
 10
425.4711116686
 20
1071.0105888822
 30
0.0
 11
731.4711116686
 21
1071.0105888822
 31
0.0
  0
ARC
  5
59
  8
0
  6
CONTINUOUS
 62
     7
 10
425.4711116686
 20
1076.0105888822
 30
0.0
 40
5.000000000000057
 50
180.0
 51
270.0
  0
LINE
  5
5A
  8
0
  6
CONTINUOUS
 62
     7
 10
408.4711116686
 20
1048.1700386685
 30
0.0
 11
408.4711116686
 21
1036.3895475883
 31
0.0
  0
LINE
  5
5B
  8
0
  6
CONTINUOUS
 62
     7
 10
404.4711116686
 20
1036.3895475883
 30
0.0
 11
404.4711116686
 21
1048.1700386685
 31
0.0
  0
LINE
  5
5C
  8
0
  6
CONTINUOUS
 62
     7
 10
748.4711116686
 20
1036.3895475883
 30
0.0
 11
748.4711116686
 21
1048.1700386685
 31
0.0
  0
LINE
  5
5D
  8
0
  6
CONTINUOUS
 62
     7
 10
752.4711116686
 20
1048.1700386685
 30
0.0
 11
752.4711116686
 21
1036.3895475883
 31
0.0
  0
LINE
  5
5E
  8
0
  6
CONTINUOUS
 62
     7
 10
748.4711116686
 20
1048.1700386685
 30
0.0
 11
748.4711116686
 21
1102.8423473507
 31
0.0
  0
LINE
  5
5F
  8
0
  6
CONTINUOUS
 62
     7
 10
752.4711116686
 20
1102.8423473507
 30
0.0
 11
752.4711116686
 21
1048.1700386685
 31
0.0
  0
LINE
  5
60
  8
0
  6
CONTINUOUS
 62
     7
 10
408.4711116686
 20
1102.8423473507
 30
0.0
 11
408.4711116686
 21
1048.1700386685
 31
0.0
  0
LINE
  5
61
  8
0
  6
CONTINUOUS
 62
     7
 10
404.4711116686
 20
1102.8423473507
 30
0.0
 11
404.4711116686
 21
1048.1700386685
 31
0.0
  0
LINE
  5
62
  8
0
  6
CONTINUOUS
 62
     7
 10
404.4711116686
 20
1136.0105888822
 30
0.0
 11
408.4711116686
 21
1136.0105888822
 31
0.0
  0
LINE
  5
63
  8
0
  6
CONTINUOUS
 62
     7
 10
408.4711116686
 20
1136.0105888822
 30
0.0
 11
408.4711116686
 21
1102.8423473507
 31
0.0
  0
LINE
  5
64
  8
0
  6
CONTINUOUS
 62
     7
 10
404.4711116686
 20
1136.0105888822
 30
0.0
 11
404.4711116686
 21
1102.8423473507
 31
0.0
  0
LINE
  5
65
  8
0
  6
CONTINUOUS
 62
     7
 10
748.4711116686
 20
1136.0105888822
 30
0.0
 11
752.4711116686
 21
1136.0105888822
 31
0.0
  0
LINE
  5
66
  8
0
  6
CONTINUOUS
 62
     7
 10
748.4711116686
 20
1102.8423473507
 30
0.0
 11
748.4711116686
 21
1136.0105888822
 31
0.0
  0
LINE
  5
67
  8
0
  6
CONTINUOUS
 62
     7
 10
752.4711116686
 20
1136.0105888822
 30
0.0
 11
752.4711116686
 21
1102.8423473507
 31
0.0
  0
LINE
  5
68
  8
0
  6
CONTINUOUS
 62
     7
 10
404.4711116686
 20
1032.0105888822
 30
0.0
 11
408.4711116686
 21
1032.0105888822
 31
0.0
  0
LINE
  5
69
  8
0
  6
CONTINUOUS
 62
     7
 10
408.4711116686
 20
1036.3895475883
 30
0.0
 11
408.4711116686
 21
1032.0105888822
 31
0.0
  0
LINE
  5
6A
  8
0
  6
CONTINUOUS
 62
     7
 10
404.4711116686
 20
1036.3895475883
 30
0.0
 11
404.4711116686
 21
1032.0105888822
 31
0.0
  0
LINE
  5
6B
  8
0
  6
CONTINUOUS
 62
     7
 10
748.4711116686
 20
1032.0105888822
 30
0.0
 11
752.4711116686
 21
1032.0105888822
 31
0.0
  0
LINE
  5
6C
  8
0
  6
CONTINUOUS
 62
     7
 10
748.4711116686
 20
1032.0105888822
 30
0.0
 11
748.4711116686
 21
1036.3895475883
 31
0.0
  0
LINE
  5
6D
  8
0
  6
CONTINUOUS
 62
     7
 10
752.4711116686
 20
1036.3895475883
 30
0.0
 11
752.4711116686
 21
1032.0105888822
 31
0.0
  0
LINE
  5
6E
  8
0
  6
CONTINUOUS
 62
     7
 10
408.4711116686
 20
1136.0105888822
 30
0.0
 11
411.4711116686
 21
1136.0105888822
 31
0.0
  0
LINE
  5
6F
  8
0
  6
CONTINUOUS
 62
     7
 10
411.4711116686
 20
1032.0105888822
 30
0.0
 11
408.4711116686
 21
1032.0105888822
 31
0.0
  0
LINE
  5
70
  8
0
  6
CONTINUOUS
 62
     7
 10
745.4711116686
 20
1136.0105888822
 30
0.0
 11
748.4711116686
 21
1136.0105888822
 31
0.0
  0
LINE
  5
71
  8
0
  6
CONTINUOUS
 62
     7
 10
748.4711116686
 20
1032.0105888822
 30
0.0
 11
745.4711116686
 21
1032.0105888822
 31
0.0
  0
LINE
  5
72
  8
0
  6
CONTINUOUS
 62
     7
 10
452.4711116686
 20
1071.0105888822
 30
0.0
 11
452.4711116686
 21
1042.0105888822
 31
0.0
  0
ARC
  5
73
  8
0
  6
CONTINUOUS
 62
     7
 10
442.4711116686
 20
1042.0105888822
 30
0.0
 40
10.0
 50
270.0
 51
0.0
  0
ARC
  5
74
  8
0
  6
CONTINUOUS
 62
     7
 10
431.7211116686
 20
1056.5105888822
 30
0.0
 40
5.5
 50
270.0
 51
90.0
  0
LINE
  5
75
  8
0
  6
CONTINUOUS
 62
     7
 10
431.7211116686
 20
1062.0105888822
 30
0.0
 11
427.7211116686
 21
1062.0105888822
 31
0.0
  0
ARC
  5
76
  8
0
  6
CONTINUOUS
 62
     7
 10
427.7211116686
 20
1056.5105888822
 30
0.0
 40
5.5
 50
90.0
 51
270.0
  0
LINE
  5
77
  8
0
  6
CONTINUOUS
 62
     7
 10
427.7211116686
 20
1051.0105888822
 30
0.0
 11
431.7211116686
 21
1051.0105888822
 31
0.0
  0
LINE
  5
78
  8
0
  6
CONTINUOUS
 62
     7
 10
420.5549131815
 20
1136.0105888822
 30
0.0
 11
411.4711116686
 21
1136.0105888822
 31
0.0
  0
LINE
  5
79
  8
0
  6
CONTINUOUS
 62
     7
 10
442.4711116686
 20
1032.0105888822
 30
0.0
 11
411.4711116686
 21
1032.0105888822
 31
0.0
  0
ARC
  5
7A
  8
0
  6
CONTINUOUS
 62
     7
 10
714.4711116686
 20
1042.0105888822
 30
0.0
 40
10.0
 50
180.0
 51
270.0
  0
LINE
  5
7B
  8
0
  6
CONTINUOUS
 62
     7
 10
704.4711116686
 20
1042.0105888822
 30
0.0
 11
704.4711116686
 21
1071.0105888822
 31
0.0
  0
ARC
  5
7C
  8
0
  6
CONTINUOUS
 62
     7
 10
729.2211116686
 20
1056.5105888822
 30
0.0
 40
5.5
 50
270.0
 51
90.0
  0
LINE
  5
7D
  8
0
  6
CONTINUOUS
 62
     7
 10
729.2211116686
 20
1062.0105888822
 30
0.0
 11
725.2211116686
 21
1062.0105888822
 31
0.0
  0
ARC
  5
7E
  8
0
  6
CONTINUOUS
 62
     7
 10
725.2211116686
 20
1056.5105888822
 30
0.0
 40
5.5
 50
90.0
 51
270.0
  0
LINE
  5
7F
  8
0
  6
CONTINUOUS
 62
     7
 10
725.2211116686
 20
1051.0105888822
 30
0.0
 11
729.2211116686
 21
1051.0105888822
 31
0.0
  0
LINE
  5
80
  8
0
  6
CONTINUOUS
 62
     7
 10
745.4711116686
 20
1136.0105888822
 30
0.0
 11
736.3873101557
 21
1136.0105888822
 31
0.0
  0
LINE
  5
81
  8
0
  6
CONTINUOUS
 62
     7
 10
745.4711116686
 20
1032.0105888822
 30
0.0
 11
714.4711116686
 21
1032.0105888822
 31
0.0
  0
LINE
  5
82
  8
0
  6
CONTINUOUS
 62
     7
 10
427.7211116686
 20
1106.0105888822
 30
0.0
 11
431.7211116686
 21
1106.0105888822
 31
0.0
  0
LINE
  5
83
  8
0
  6
CONTINUOUS
 62
     7
 10
431.7211116686
 20
1117.0105888822
 30
0.0
 11
427.7211116686
 21
1117.0105888822
 31
0.0
  0
LINE
  5
84
  8
0
  6
CONTINUOUS
 62
     7
 10
725.2211116686
 20
1106.0105888822
 30
0.0
 11
729.2211116686
 21
1106.0105888822
 31
0.0
  0
LINE
  5
85
  8
0
  6
CONTINUOUS
 62
     7
 10
729.2211116686
 20
1117.0105888822
 30
0.0
 11
725.2211116686
 21
1117.0105888822
 31
0.0
  0
ARC
  5
86
  8
0
  6
CONTINUOUS
 62
     7
 10
431.7211116686
 20
1111.5105888822
 30
0.0
 40
5.5
 50
270.0
 51
90.0
  0
ARC
  5
87
  8
0
  6
CONTINUOUS
 62
     7
 10
427.7211116686
 20
1111.5105888822
 30
0.0
 40
5.5
 50
90.0
 51
270.0
  0
ARC
  5
88
  8
0
  6
CONTINUOUS
 62
     7
 10
725.2211116686
 20
1111.5105888822
 30
0.0
 40
5.5
 50
90.0
 51
270.0
  0
ARC
  5
89
  8
0
  6
CONTINUOUS
 62
     7
 10
729.2211116686
 20
1111.5105888822
 30
0.0
 40
5.5
 50
270.0
 51
90.0
  0
LINE
  5
8A
  8
0
  6
CENTERX2
 62
     7
 10
578.4711116686
 20
1161.2375628639
 30
0.0
 11
578.4711116686
 21
1036.0665350252
 31
0.0
  0
LINE
  5
8B
  8
0
  6
CONTINUOUS
 62
     7
 10
748.4711116686
 20
807.2518439697
 30
0.0
 11
736.9711116686
 21
807.2518439697
 31
0.0
  0
LINE
  5
8C
  8
0
  6
CONTINUOUS
 62
     7
 10
419.9711116686
 20
807.2518439697
 30
0.0
 11
408.4711116686
 21
807.2518439697
 31
0.0
  0
LINE
  5
8D
  8
0
  6
CONTINUOUS
 62
     7
 10
408.4711116686
 20
787.2518439697
 30
0.0
 11
419.9711116686
 21
787.2518439697
 31
0.0
  0
LINE
  5
8E
  8
0
  6
CONTINUOUS
 62
     7
 10
736.9711116686
 20
787.2518439697
 30
0.0
 11
748.4711116686
 21
787.2518439697
 31
0.0
  0
LINE
  5
8F
  8
0
  6
CONTINUOUS
 62
     7
 10
404.4711116686
 20
766.794571261
 30
0.0
 11
408.4711116686
 21
766.794571261
 31
0.0
  0
LINE
  5
90
  8
0
  6
CONTINUOUS
 62
     7
 10
748.4711116686
 20
766.794571261
 30
0.0
 11
752.4711116686
 21
766.794571261
 31
0.0
  0
LINE
  5
91
  8
0
  6
CONTINUOUS
 62
     7
 10
419.9711116686
 20
841.2518439697
 30
0.0
 11
736.9711116686
 21
841.2518439697
 31
0.0
  0
LINE
  5
92
  8
0
  6
CONTINUOUS
 62
     7
 10
736.9711116686
 20
841.2518439697
 30
0.0
 11
728.9711116686
 21
833.2518439697
 31
0.0
  0
LINE
  5
93
  8
0
  6
CONTINUOUS
 62
     7
 10
419.9711116686
 20
841.2518439697
 30
0.0
 11
427.9711116686
 21
833.2518439697
 31
0.0
  0
LINE
  5
94
  8
0
  6
CONTINUOUS
 62
     7
 10
736.9711116686
 20
841.2518439697
 30
0.0
 11
736.9711116686
 21
567.4120980076
 31
0.0
  0
LINE
  5
95
  8
0
  6
CONTINUOUS
 62
     7
 10
728.9711116686
 20
575.4120980076
 30
0.0
 11
736.9711116686
 21
567.4120980076
 31
0.0
  0
LINE
  5
96
  8
0
  6
CONTINUOUS
 62
     7
 10
419.9711116686
 20
567.4120980076
 30
0.0
 11
419.9711116686
 21
841.2518439697
 31
0.0
  0
LINE
  5
97
  8
0
  6
CONTINUOUS
 62
     7
 10
427.9711116686
 20
575.4120980076
 30
0.0
 11
419.9711116686
 21
567.4120980076
 31
0.0
  0
LINE
  5
98
  8
0
  6
CONTINUOUS
 62
     7
 10
736.9711116686
 20
567.4120980076
 30
0.0
 11
419.9711116686
 21
567.4120980076
 31
0.0
  0
LINE
  5
99
  8
0
  6
CONTINUOUS
 62
     7
 10
736.4711116686
 20
848.2518439697
 30
0.0
 11
736.4711116686
 21
841.2518439697
 31
0.0
  0
LINE
  5
9A
  8
0
  6
CONTINUOUS
 62
     7
 10
420.4711116686
 20
848.2518439697
 30
0.0
 11
420.4711116686
 21
841.2518439697
 31
0.0
  0
LINE
  5
9B
  8
0
  6
CONTINUOUS
 62
     7
 10
420.4711116686
 20
848.2518439697
 30
0.0
 11
736.4711116686
 21
848.2518439697
 31
0.0
  0
LINE
  5
9C
  8
0
  6
CONTINUOUS
 62
     7
 10
442.4711116686
 20
870.2518439697
 30
0.0
 11
411.4711116686
 21
870.2518439697
 31
0.0
  0
ARC
  5
9D
  8
0
  6
CONTINUOUS
 62
     7
 10
411.4711116686
 20
867.2518439697
 30
0.0
 40
3.0
 50
90.0
 51
180.0
  0
LINE
  5
9E
  8
0
  6
CONTINUOUS
 62
     7
 10
408.4711116686
 20
867.2518439697
 30
0.0
 11
408.4711116686
 21
804.6283048467
 31
0.0
  0
LINE
  5
9F
  8
0
  6
CONTINUOUS
 62
     7
 10
404.4711116686
 20
867.2518439697
 30
0.0
 11
404.4711116686
 21
804.6283048467
 31
0.0
  0
ARC
  5
A0
  8
0
  6
CONTINUOUS
 62
     7
 10
411.4711116686
 20
867.2518439697
 30
0.0
 40
7.0
 50
90.0
 51
180.0
  0
LINE
  5
A1
  8
0
  6
CONTINUOUS
 62
     7
 10
411.4711116686
 20
874.2518439697
 30
0.0
 11
442.4711116686
 21
874.2518439697
 31
0.0
  0
LINE
  5
A2
  8
0
  6
CONTINUOUS
 62
     7
 10
704.4711116686
 20
870.2518439697
 30
0.0
 11
704.4711116686
 21
874.2518439697
 31
0.0
  0
LINE
  5
A3
  8
0
  6
CONTINUOUS
 62
     7
 10
704.4711116686
 20
874.2518439697
 30
0.0
 11
714.4711116686
 21
874.2518439697
 31
0.0
  0
LINE
  5
A4
  8
0
  6
CONTINUOUS
 62
     7
 10
714.4711116686
 20
870.2518439697
 30
0.0
 11
704.4711116686
 21
870.2518439697
 31
0.0
  0
LINE
  5
A5
  8
0
  6
CONTINUOUS
 62
     7
 10
748.4711116686
 20
804.6283048467
 30
0.0
 11
748.4711116686
 21
867.2518439697
 31
0.0
  0
ARC
  5
A6
  8
0
  6
CONTINUOUS
 62
     7
 10
745.4711116686
 20
867.2518439697
 30
0.0
 40
3.000000000000114
 50
0.0
 51
90.0
  0
LINE
  5
A7
  8
0
  6
CONTINUOUS
 62
     7
 10
745.4711116686
 20
870.2518439697
 30
0.0
 11
714.4711116686
 21
870.2518439697
 31
0.0
  0
LINE
  5
A8
  8
0
  6
CONTINUOUS
 62
     7
 10
714.4711116686
 20
874.2518439697
 30
0.0
 11
745.4711116686
 21
874.2518439697
 31
0.0
  0
ARC
  5
A9
  8
0
  6
CONTINUOUS
 62
     7
 10
745.4711116686
 20
867.2518439697
 30
0.0
 40
7.0
 50
0.0
 51
90.0
  0
LINE
  5
AA
  8
0
  6
CONTINUOUS
 62
     7
 10
752.4711116686
 20
867.2518439697
 30
0.0
 11
752.4711116686
 21
804.6283048467
 31
0.0
  0
LINE
  5
AB
  8
0
  6
CONTINUOUS
 62
     7
 10
452.4711116686
 20
874.2518439697
 30
0.0
 11
452.4711116686
 21
870.2518439697
 31
0.0
  0
LINE
  5
AC
  8
0
  6
CONTINUOUS
 62
     7
 10
452.4711116686
 20
870.2518439697
 30
0.0
 11
442.4711116686
 21
870.2518439697
 31
0.0
  0
LINE
  5
AD
  8
0
  6
CONTINUOUS
 62
     7
 10
442.4711116686
 20
874.2518439697
 30
0.0
 11
452.4711116686
 21
874.2518439697
 31
0.0
  0
LINE
  5
AE
  8
0
  6
CONTINUOUS
 62
     7
 10
752.4711116686
 20
804.6283048467
 30
0.0
 11
752.4711116686
 21
769.6762711303
 31
0.0
  0
LINE
  5
AF
  8
0
  6
CONTINUOUS
 62
     7
 10
748.4711116686
 20
769.6762711303
 30
0.0
 11
748.4711116686
 21
804.6283048467
 31
0.0
  0
LINE
  5
B0
  8
0
  6
CONTINUOUS
 62
     7
 10
404.4711116686
 20
804.6283048467
 30
0.0
 11
404.4711116686
 21
769.6762711303
 31
0.0
  0
LINE
  5
B1
  8
0
  6
CONTINUOUS
 62
     7
 10
408.4711116686
 20
804.6283048467
 30
0.0
 11
408.4711116686
 21
769.6762711303
 31
0.0
  0
LINE
  5
B2
  8
0
  6
CONTINUOUS
 62
     7
 10
752.4711116686
 20
769.6762711303
 30
0.0
 11
752.4711116686
 21
766.811016844
 31
0.0
  0
LINE
  5
B3
  8
0
  6
CONTINUOUS
 62
     7
 10
748.4711116686
 20
766.811016844
 30
0.0
 11
748.4711116686
 21
769.6762711303
 31
0.0
  0
LINE
  5
B4
  8
0
  6
CONTINUOUS
 62
     7
 10
404.4711116686
 20
769.6762711303
 30
0.0
 11
404.4711116686
 21
766.811016844
 31
0.0
  0
LINE
  5
B5
  8
0
  6
CONTINUOUS
 62
     7
 10
408.4711116686
 20
769.6762711303
 30
0.0
 11
408.4711116686
 21
766.811016844
 31
0.0
  0
LINE
  5
B6
  8
0
  6
CONTINUOUS
 62
     7
 10
404.4711116686
 20
766.794571261
 30
0.0
 11
404.4711116686
 21
766.811016844
 31
0.0
  0
LINE
  5
B7
  8
0
  6
CONTINUOUS
 62
     7
 10
408.4711116686
 20
766.811016844
 30
0.0
 11
408.4711116686
 21
766.794571261
 31
0.0
  0
LINE
  5
B8
  8
0
  6
CONTINUOUS
 62
     7
 10
752.4711116686
 20
766.811016844
 30
0.0
 11
752.4711116686
 21
766.794571261
 31
0.0
  0
LINE
  5
B9
  8
0
  6
CONTINUOUS
 62
     7
 10
748.4711116686
 20
766.794571261
 30
0.0
 11
748.4711116686
 21
766.811016844
 31
0.0
  0
LINE
  5
BA
  8
0
  6
CENTERX2
 62
     7
 10
578.4711116686
 20
887.2518439697
 30
0.0
 11
578.4711116686
 21
521.2364202129
 31
0.0
  0
LINE
  5
BB
  8
0
  6
CONTINUOUS
 62
     7
 10
992.0235629795
 20
1141.0105888822
 30
0.0
 11
1249.8633089417
 21
1141.0105888822
 31
0.0
  0
ARC
  5
BC
  8
0
  6
CONTINUOUS
 62
     7
 10
1249.8633089417
 20
1133.0105888822
 30
0.0
 40
8.0
 50
360.0
 51
90.0
  0
ARC
  5
BD
  8
0
  6
CONTINUOUS
 62
     7
 10
992.0235629795
 20
1133.0105888822
 30
0.0
 40
8.0
 50
90.0
 51
157.975687163
  0
LINE
  5
BE
  8
0
  6
CONTINUOUS
 62
     7
 10
1257.8633089417
 20
1133.0105888822
 30
0.0
 11
1257.8633089417
 21
1111.0105888822
 31
0.0
  0
LINE
  5
BF
  8
0
  6
CONTINUOUS
 62
     7
 10
1257.8633089417
 20
1111.0105888822
 30
0.0
 11
1054.188121765
 21
1111.0105888822
 31
0.0
  0
LINE
  5
C0
  8
0
  6
CONTINUOUS
 62
     7
 10
1235.042800866
 20
1071.0105888822
 30
0.0
 11
1057.267367591
 21
1071.0105888822
 31
0.0
  0
LINE
  5
C1
  8
0
  6
CONTINUOUS
 62
     7
 10
1256.6934359606
 20
1103.5105888822
 30
0.0
 11
1239.3729278849
 21
1073.5105888822
 31
0.0
  0
ARC
  5
C2
  8
0
  6
CONTINUOUS
 62
     7
 10
1235.042800866
 20
1076.0105888822
 30
0.0
 40
5.000000000000016
 50
270.0
 51
330.0
  0
ARC
  5
C3
  8
0
  6
CONTINUOUS
 62
     7
 10
1252.3633089417
 20
1106.0105888822
 30
0.0
 40
5.000000000000016
 50
330.0
 51
0.0
  0
LINE
  5
C4
  8
0
  6
CONTINUOUS
 62
     7
 10
1257.3633089417
 20
1111.0105888822
 30
0.0
 11
1257.3633089417
 21
1106.0105888822
 31
0.0
  0
LINE
  5
C5
  8
0
  6
CONTINUOUS
 62
     7
 10
951.0235629795
 20
1032.0105888822
 30
0.0
 11
951.0235629795
 21
1136.0105888822
 31
0.0
  0
LINE
  5
C6
  8
0
  6
CONTINUOUS
 62
     7
 10
951.0235629795
 20
1136.0105888822
 30
0.0
 11
958.0235629795
 21
1136.0105888822
 31
0.0
  0
LINE
  5
C7
  8
0
  6
CONTINUOUS
 62
     7
 10
958.0235629795
 20
1032.0105888822
 30
0.0
 11
951.0235629795
 21
1032.0105888822
 31
0.0
  0
ARC
  5
C8
  8
0
  6
CONTINUOUS
 62
     7
 10
1020.6471021025
 20
1101.0105888822
 30
0.0
 40
35.00000000000017
 50
3.0
 51
90.0
  0
LINE
  5
C9
  8
0
  6
CONTINUOUS
 62
     7
 10
1055.599135819
 20
1102.8423473507
 30
0.0
 11
1058.4643901053
 21
1048.1700386685
 31
0.0
  0
ARC
  5
CA
  8
0
  6
CONTINUOUS
 62
     7
 10
1046.4808356882
 20
1047.5420071936
 30
0.0
 40
12.00000000000021
 50
291.6629248849
 51
3.0
  0
ARC
  5
CB
  8
0
  6
CONTINUOUS
 62
     7
 10
1028.0235629795
 20
1094.0105888822
 30
0.0
 40
62.00000000000004
 50
270.0
 51
291.6629248849
  0
LINE
  5
CC
  8
0
  6
CONTINUOUS
 62
     7
 10
958.0235629795
 20
1136.0105888822
 30
0.0
 11
1020.6471021025
 21
1136.0105888822
 31
0.0
  0
LINE
  5
CD
  8
0
  6
CONTINUOUS
 62
     7
 10
1028.0235629795
 20
1032.0105888822
 30
0.0
 11
958.0235629795
 21
1032.0105888822
 31
0.0
  0
LINE
  5
CE
  8
0
  6
CONTINUOUS
 62
     7
 10
1507.099721702
 20
1136.0105888822
 30
0.0
 11
1497.8195653227
 21
1313.0865212391
 31
0.0
  0
ARC
  5
CF
  8
0
  6
CONTINUOUS
 62
     7
 10
1505.8086016007
 20
1313.505208889
 30
0.0
 40
7.999999999999991
 50
93.0
 51
183.0
  0
LINE
  5
D0
  8
0
  6
CONTINUOUS
 62
     7
 10
1527.3597637154
 20
1322.6456362044
 30
0.0
 11
1537.1408920819
 21
1136.0105888822
 31
0.0
  0
LINE
  5
D1
  8
0
  6
CONTINUOUS
 62
     7
 10
1505.3899139508
 20
1321.4942451671
 30
0.0
 11
1527.3597637154
 21
1322.6456362044
 31
0.0
  0
LINE
  5
D2
  8
0
  6
CONTINUOUS
 62
     7
 10
1527.3859316935
 20
1322.146321437
 30
0.0
 11
1532.3790793673
 21
1322.4080012182
 31
0.0
  0
ARC
  5
D3
  8
0
  6
CONTINUOUS
 62
     7
 10
1532.6407591485
 20
1317.4148535445
 30
0.0
 40
5.000000000000054
 50
63.0
 51
93.0
  0
LINE
  5
D4
  8
0
  6
CONTINUOUS
 62
     7
 10
1534.9107116472
 20
1321.8698861654
 30
0.0
 11
1565.7760830426
 21
1306.1431939314
 31
0.0
  0
ARC
  5
D5
  8
0
  6
CONTINUOUS
 62
     7
 10
1563.5061305439
 20
1301.6881613104
 30
0.0
 40
4.999999999999806
 50
3.0
 51
63.0
  0
LINE
  5
D6
  8
0
  6
CONTINUOUS
 62
     7
 10
1568.4992782177
 20
1301.9498410916
 30
0.0
 11
1578.0042739905
 21
1120.5837175333
 31
0.0
  0
LINE
  5
D7
  8
0
  6
CONTINUOUS
 62
     7
 10
1479.3653486938
 20
1032.0105888822
 30
0.0
 11
1479.3653486938
 21
1136.0105888822
 31
0.0
  0
LINE
  5
D8
  8
0
  6
CONTINUOUS
 62
     7
 10
1479.3653486938
 20
1136.0105888822
 30
0.0
 11
1486.3653486938
 21
1136.0105888822
 31
0.0
  0
LINE
  5
D9
  8
0
  6
CONTINUOUS
 62
     7
 10
1486.3653486938
 20
1032.0105888822
 30
0.0
 11
1479.3653486938
 21
1032.0105888822
 31
0.0
  0
ARC
  5
DA
  8
0
  6
CONTINUOUS
 62
     7
 10
1548.9888878168
 20
1101.0105888822
 30
0.0
 40
35.00000000000006
 50
3.0
 51
90.0
  0
LINE
  5
DB
  8
0
  6
CONTINUOUS
 62
     7
 10
1583.9409215332
 20
1102.8423473507
 30
0.0
 11
1586.8061758196
 21
1048.1700386685
 31
0.0
  0
ARC
  5
DC
  8
0
  6
CONTINUOUS
 62
     7
 10
1574.8226214025
 20
1047.5420071936
 30
0.0
 40
12.00000000000019
 50
291.6629248849
 51
3.0
  0
ARC
  5
DD
  8
0
  6
CONTINUOUS
 62
     7
 10
1556.3653486938
 20
1094.0105888822
 30
0.0
 40
62.00000000000004
 50
270.0
 51
291.6629248849
  0
LINE
  5
DE
  8
0
  6
CONTINUOUS
 62
     7
 10
1486.3653486938
 20
1136.0105888822
 30
0.0
 11
1548.9888878168
 21
1136.0105888822
 31
0.0
  0
LINE
  5
DF
  8
0
  6
CONTINUOUS
 62
     7
 10
1556.3653486938
 20
1032.0105888822
 30
0.0
 11
1486.3653486938
 21
1032.0105888822
 31
0.0
  0
LINE
  5
E0
  8
0
  6
CONTINUOUS
 62
     7
 10
729.3897993186
 20
390.0680746477
 30
0.0
 11
427.5524240187
 21
390.0680746477
 31
0.0
  0
LINE
  5
E1
  8
0
  6
CONTINUOUS
 62
     7
 10
748.4711116686
 20
341.5113275547
 30
0.0
 11
736.4711116686
 21
341.5113275547
 31
0.0
  0
LINE
  5
E2
  8
0
  6
CONTINUOUS
 62
     7
 10
420.4711116686
 20
341.5113275547
 30
0.0
 11
408.4711116686
 21
341.5113275547
 31
0.0
  0
LINE
  5
E3
  8
0
  6
CONTINUOUS
 62
     7
 10
408.4711116686
 20
321.5113275547
 30
0.0
 11
420.4711116686
 21
321.5113275547
 31
0.0
  0
LINE
  5
E4
  8
0
  6
CONTINUOUS
 62
     7
 10
736.4711116686
 20
321.5113275547
 30
0.0
 11
748.4711116686
 21
321.5113275547
 31
0.0
  0
LINE
  5
E5
  8
0
  6
CONTINUOUS
 62
     7
 10
404.4711116686
 20
301.054054846
 30
0.0
 11
408.4711116686
 21
301.054054846
 31
0.0
  0
LINE
  5
E6
  8
0
  6
CONTINUOUS
 62
     7
 10
748.4711116686
 20
301.054054846
 30
0.0
 11
752.4711116686
 21
301.054054846
 31
0.0
  0
LINE
  5
E7
  8
0
  6
CONTINUOUS
 62
     7
 10
736.4711116686
 20
355.2359171
 30
0.0
 11
736.4711116686
 21
324.3705457046
 31
0.0
  0
LINE
  5
E8
  8
0
  6
CONTINUOUS
 62
     7
 10
420.4711116686
 20
324.3705457046
 30
0.0
 11
420.4711116686
 21
355.2359171
 31
0.0
  0
LINE
  5
E9
  8
0
  6
CONTINUOUS
 62
     7
 10
419.9711116686
 20
360.5169125331
 30
0.0
 11
419.9711116686
 21
346.1852475708
 31
0.0
  0
LINE
  5
EA
  8
0
  6
CONTINUOUS
 62
     7
 10
736.9711116686
 20
360.5169125331
 30
0.0
 11
419.9711116686
 21
360.5169125331
 31
0.0
  0
LINE
  5
EB
  8
0
  6
CONTINUOUS
 62
     7
 10
736.9711116686
 20
360.5169125331
 30
0.0
 11
736.9711116686
 21
346.1852475708
 31
0.0
  0
LINE
  5
EC
  8
0
  6
CONTINUOUS
 62
     7
 10
736.9711116686
 20
346.1852475708
 30
0.0
 11
736.4711116686
 21
346.1852475708
 31
0.0
  0
ARC
  5
ED
  8
0
  6
CONTINUOUS
 62
     7
 10
732.7176878532
 20
336.4103314574
 30
0.0
 40
24.11265740502264
 50
81.0448095014
 51
92.9633983002
  0
LINE
  5
EE
  8
0
  6
CONTINUOUS
 62
     7
 10
425.4711116686
 20
360.490744555
 30
0.0
 11
731.4711116686
 21
360.490744555
 31
0.0
  0
ARC
  5
EF
  8
0
  6
CONTINUOUS
 62
     7
 10
424.224535484
 20
336.4103314574
 30
0.0
 40
24.11265740500822
 50
87.0366016998
 51
98.9551904986
  0
LINE
  5
F0
  8
0
  6
CONTINUOUS
 62
     7
 10
420.4711116686
 20
346.1852475708
 30
0.0
 11
419.9711116686
 21
346.1852475708
 31
0.0
  0
LINE
  5
F1
  8
0
  6
CONTINUOUS
 62
     7
 10
419.9711116686
 20
382.4867622977
 30
0.0
 11
419.9711116686
 21
360.5169125331
 31
0.0
  0
LINE
  5
F2
  8
0
  6
CONTINUOUS
 62
     7
 10
736.9711116686
 20
382.4867622977
 30
0.0
 11
736.9711116686
 21
360.5169125331
 31
0.0
  0
LINE
  5
F3
  8
0
  6
CONTINUOUS
 62
     7
 10
736.4711116686
 20
360.2290647737
 30
0.0
 11
736.4711116686
 21
355.2359171
 31
0.0
  0
LINE
  5
F4
  8
0
  6
CONTINUOUS
 62
     7
 10
420.4711116686
 20
355.2359171
 30
0.0
 11
420.4711116686
 21
360.2290647737
 31
0.0
  0
ARC
  5
F5
  8
0
  6
CONTINUOUS
 62
     7
 10
427.4879062766
 20
382.5512800398
 30
0.0
 40
7.517071485449295
 50
89.5082340617
 51
180.4917659383
  0
ARC
  5
F6
  8
0
  6
CONTINUOUS
 62
     7
 10
729.4507909351
 20
382.5477539142
 30
0.0
 40
7.520568057793643
 50
359.5353275848
 51
90.4646724152
  0
LINE
  5
F7
  8
0
  6
CONTINUOUS
 62
     7
 10
425.4711116686
 20
305.8737144869
 30
0.0
 11
731.4711116686
 21
305.8737144869
 31
0.0
  0
ARC
  5
F8
  8
0
  6
CONTINUOUS
 62
     7
 10
731.474535484
 20
310.8702906748
 30
0.0
 40
4.996577360881229
 50
269.9607390874
 51
359.9606852078
  0
LINE
  5
F9
  8
0
  6
CONTINUOUS
 62
     7
 10
736.4711116686
 20
324.3705457046
 30
0.0
 11
736.4711116686
 21
310.8668621607
 31
0.0
  0
ARC
  5
FA
  8
0
  6
CONTINUOUS
 62
     7
 10
425.4676878532
 20
310.8702906748
 30
0.0
 40
4.996577360881397
 50
180.0393147922
 51
270.0392609126
  0
LINE
  5
FB
  8
0
  6
CONTINUOUS
 62
     7
 10
420.4711116686
 20
310.8668621607
 30
0.0
 11
420.4711116686
 21
324.3705457046
 31
0.0
  0
LINE
  5
FC
  8
0
  6
CONTINUOUS
 62
     7
 10
748.4711116686
 20
338.8877884317
 30
0.0
 11
748.4711116686
 21
401.5113275547
 31
0.0
  0
ARC
  5
FD
  8
0
  6
CONTINUOUS
 62
     7
 10
745.4711116686
 20
401.5113275547
 30
0.0
 40
3.0
 50
0.0
 51
90.0
  0
LINE
  5
FE
  8
0
  6
CONTINUOUS
 62
     7
 10
745.4711116686
 20
404.5113275547
 30
0.0
 11
714.4711116686
 21
404.5113275547
 31
0.0
  0
LINE
  5
FF
  8
0
  6
CONTINUOUS
 62
     7
 10
714.4711116686
 20
408.5113275547
 30
0.0
 11
745.4711116686
 21
408.5113275547
 31
0.0
  0
ARC
  5
100
  8
0
  6
CONTINUOUS
 62
     7
 10
745.4711116686
 20
401.5113275547
 30
0.0
 40
7.0
 50
0.0
 51
90.0
  0
LINE
  5
101
  8
0
  6
CONTINUOUS
 62
     7
 10
752.4711116686
 20
401.5113275547
 30
0.0
 11
752.4711116686
 21
338.8877884317
 31
0.0
  0
LINE
  5
102
  8
0
  6
CONTINUOUS
 62
     7
 10
704.4711116686
 20
404.5113275547
 30
0.0
 11
704.4711116686
 21
408.5113275547
 31
0.0
  0
LINE
  5
103
  8
0
  6
CONTINUOUS
 62
     7
 10
714.4711116686
 20
404.5113275547
 30
0.0
 11
704.4711116686
 21
404.5113275547
 31
0.0
  0
LINE
  5
104
  8
0
  6
CONTINUOUS
 62
     7
 10
704.4711116686
 20
408.5113275547
 30
0.0
 11
714.4711116686
 21
408.5113275547
 31
0.0
  0
LINE
  5
105
  8
0
  6
CONTINUOUS
 62
     7
 10
452.4711116686
 20
408.5113275547
 30
0.0
 11
452.4711116686
 21
404.5113275547
 31
0.0
  0
LINE
  5
106
  8
0
  6
CONTINUOUS
 62
     7
 10
452.4711116686
 20
404.5113275547
 30
0.0
 11
442.4711116686
 21
404.5113275547
 31
0.0
  0
LINE
  5
107
  8
0
  6
CONTINUOUS
 62
     7
 10
442.4711116686
 20
408.5113275547
 30
0.0
 11
452.4711116686
 21
408.5113275547
 31
0.0
  0
LINE
  5
108
  8
0
  6
CONTINUOUS
 62
     7
 10
442.4711116686
 20
404.5113275547
 30
0.0
 11
411.4711116686
 21
404.5113275547
 31
0.0
  0
ARC
  5
109
  8
0
  6
CONTINUOUS
 62
     7
 10
411.4711116686
 20
401.5113275547
 30
0.0
 40
2.999999999999943
 50
90.0
 51
180.0
  0
LINE
  5
10A
  8
0
  6
CONTINUOUS
 62
     7
 10
408.4711116686
 20
401.5113275547
 30
0.0
 11
408.4711116686
 21
338.8877884317
 31
0.0
  0
LINE
  5
10B
  8
0
  6
CONTINUOUS
 62
     7
 10
404.4711116686
 20
401.5113275547
 30
0.0
 11
404.4711116686
 21
338.8877884317
 31
0.0
  0
LINE
  5
10C
  8
0
  6
CONTINUOUS
 62
     7
 10
411.4711116686
 20
408.5113275547
 30
0.0
 11
442.4711116686
 21
408.5113275547
 31
0.0
  0
ARC
  5
10D
  8
0
  6
CONTINUOUS
 62
     7
 10
411.4711116686
 20
401.5113275547
 30
0.0
 40
7.0
 50
90.0
 51
180.0
  0
LINE
  5
10E
  8
0
  6
CONTINUOUS
 62
     7
 10
748.4711116686
 20
303.9357547152
 30
0.0
 11
748.4711116686
 21
338.8877884317
 31
0.0
  0
LINE
  5
10F
  8
0
  6
CONTINUOUS
 62
     7
 10
752.4711116686
 20
338.8877884317
 30
0.0
 11
752.4711116686
 21
303.9357547152
 31
0.0
  0
LINE
  5
110
  8
0
  6
CONTINUOUS
 62
     7
 10
408.4711116686
 20
338.8877884317
 30
0.0
 11
408.4711116686
 21
303.9357547152
 31
0.0
  0
LINE
  5
111
  8
0
  6
CONTINUOUS
 62
     7
 10
404.4711116686
 20
338.8877884317
 30
0.0
 11
404.4711116686
 21
303.9357547152
 31
0.0
  0
LINE
  5
112
  8
0
  6
CONTINUOUS
 62
     7
 10
408.4711116686
 20
303.9357547152
 30
0.0
 11
408.4711116686
 21
301.0705004289
 31
0.0
  0
LINE
  5
113
  8
0
  6
CONTINUOUS
 62
     7
 10
404.4711116686
 20
303.9357547152
 30
0.0
 11
404.4711116686
 21
301.0705004289
 31
0.0
  0
LINE
  5
114
  8
0
  6
CONTINUOUS
 62
     7
 10
748.4711116686
 20
301.0705004289
 30
0.0
 11
748.4711116686
 21
303.9357547152
 31
0.0
  0
LINE
  5
115
  8
0
  6
CONTINUOUS
 62
     7
 10
752.4711116686
 20
303.9357547152
 30
0.0
 11
752.4711116686
 21
301.0705004289
 31
0.0
  0
LINE
  5
116
  8
0
  6
CONTINUOUS
 62
     7
 10
408.4711116686
 20
301.0705004289
 30
0.0
 11
408.4711116686
 21
301.054054846
 31
0.0
  0
LINE
  5
117
  8
0
  6
CONTINUOUS
 62
     7
 10
404.4711116686
 20
301.054054846
 30
0.0
 11
404.4711116686
 21
301.0705004289
 31
0.0
  0
LINE
  5
118
  8
0
  6
CONTINUOUS
 62
     7
 10
748.4711116686
 20
301.054054846
 30
0.0
 11
748.4711116686
 21
301.0705004289
 31
0.0
  0
LINE
  5
119
  8
0
  6
CONTINUOUS
 62
     7
 10
752.4711116686
 20
301.0705004289
 30
0.0
 11
752.4711116686
 21
301.054054846
 31
0.0
  0
LINE
  5
11A
  8
0
  6
CENTERX2
 62
     7
 10
578.4711116686
 20
411.5113275547
 30
0.0
 11
578.4711116686
 21
291.0705004289
 31
0.0
  0
ENDSEC
  0
EOF
