  0
SECTION
  2
HEADER
  9
$ACADVER
  1
AC1009
  9
$DWGCODEPAGE
  3
ansi_1252
  9
$INSBASE
 10
0.0
 20
0.0
 30
0.0
  9
$EXTMIN
 10
0.0
 20
0.0
 30
0.0
  9
$EXTMAX
 10
2100.0
 20
1485.0
 30
0.0
  9
$LIMMIN
 10
0.0
 20
0.0
  9
$LIMMAX
 10
2100.0
 20
1485.0
  9
$ORTHOMODE
 70
     0
  9
$REGENMODE
 70
     1
  9
$FILLMODE
 70
     1
  9
$QTEXTMODE
 70
     0
  9
$MIRRTEXT
 70
     1
  9
$DRAGMODE
 70
     2
  9
$LTSCALE
 40
5.0
  9
$OSMODE
 70
    37
  9
$ATTMODE
 70
     1
  9
$TEXTSIZE
 40
17.5
  9
$TRACEWID
 40
1.0
  9
$TEXTSTYLE
  7
STANDARD
  9
$CLAYER
  8
0
  9
$CELTYPE
  6
BYLAYER
  9
$CECOLOR
 62
   256
  9
$DIMSCALE
 40
1.0
  9
$DIMASZ
 40
20.0
  9
$DIMEXO
 40
0.0
  9
$DIMDLI
 40
3.75
  9
$DIMRND
 40
0.0
  9
$DIMDLE
 40
0.0
  9
$DIMEXE
 40
10.0
  9
$DIMTP
 40
0.0
  9
$DIMTM
 40
0.0
  9
$DIMTXT
 40
17.5
  9
$DIMCEN
 40
2.5
  9
$DIMTSZ
 40
0.0
  9
$DIMTOL
 70
     0
  9
$DIMLIM
 70
     0
  9
$DIMTIH
 70
     1
  9
$DIMTOH
 70
     1
  9
$DIMSE1
 70
     0
  9
$DIMSE2
 70
     0
  9
$DIMTAD
 70
     1
  9
$DIMZIN
 70
     0
  9
$DIMBLK
  1

  9
$DIMASO
 70
     1
  9
$DIMSHO
 70
     1
  9
$DIMPOST
  1

  9
$DIMAPOST
  1

  9
$DIMALT
 70
     0
  9
$DIMALTD
 70
     3
  9
$DIMALTF
 40
0.0393700787
  9
$DIMLFAC
 40
1.0
  9
$DIMTOFL
 70
     1
  9
$DIMTVP
 40
0.0
  9
$DIMTIX
 70
     0
  9
$DIMSOXD
 70
     0
  9
$DIMSAH
 70
     0
  9
$DIMBLK1
  1

  9
$DIMBLK2
  1

  9
$DIMSTYLE
  2
ISO-25
  9
$DIMCLRD
 70
     0
  9
$DIMCLRE
 70
     0
  9
$DIMCLRT
 70
     0
  9
$DIMTFAC
 40
1.0
  9
$DIMGAP
 40
7.62
  9
$LUNITS
 70
     2
  9
$LUPREC
 70
     2
  9
$SKETCHINC
 40
1.0
  9
$FILLETRAD
 40
10.0
  9
$AUNITS
 70
     0
  9
$AUPREC
 70
     2
  9
$MENU
  1
.
  9
$ELEVATION
 40
0.0
  9
$PELEVATION
 40
0.0
  9
$THICKNESS
 40
0.0
  9
$LIMCHECK
 70
     0
  9
$CHAMFERA
 40
10.0
  9
$CHAMFERB
 40
10.0
  9
$SKPOLY
 70
     0
  9
$TDCREATE
 40
2457029.556048854
  9
$TDUPDATE
 40
2457029.556049028
  9
$TDINDWG
 40
0.0000000116
  9
$TDUSRTIMER
 40
0.0000000116
  9
$USRTIMER
 70
     1
  9
$ANGBASE
 50
0.0
  9
$ANGDIR
 70
     0
  9
$PDMODE
 70
     0
  9
$PDSIZE
 40
-1.0
  9
$PLINEWID
 40
0.0
  9
$COORDS
 70
     1
  9
$SPLFRAME
 70
     0
  9
$SPLINETYPE
 70
     6
  9
$SPLINESEGS
 70
     8
  9
$ATTDIA
 70
     0
  9
$ATTREQ
 70
     1
  9
$HANDLING
 70
     1
  9
$HANDSEED
  5
FE
  9
$SURFTAB1
 70
     6
  9
$SURFTAB2
 70
     6
  9
$SURFTYPE
 70
     6
  9
$SURFU
 70
     6
  9
$SURFV
 70
     6
  9
$UCSNAME
  2

  9
$UCSORG
 10
0.0
 20
0.0
 30
0.0
  9
$UCSXDIR
 10
1.0
 20
0.0
 30
0.0
  9
$UCSYDIR
 10
0.0
 20
1.0
 30
0.0
  9
$PUCSNAME
  2

  9
$PUCSORG
 10
0.0
 20
0.0
 30
0.0
  9
$PUCSXDIR
 10
1.0
 20
0.0
 30
0.0
  9
$PUCSYDIR
 10
0.0
 20
1.0
 30
0.0
  9
$USERI1
 70
     0
  9
$USERI2
 70
     0
  9
$USERI3
 70
     0
  9
$USERI4
 70
     0
  9
$USERI5
 70
     0
  9
$USERR1
 40
0.0
  9
$USERR2
 40
0.0
  9
$USERR3
 40
0.0
  9
$USERR4
 40
0.0
  9
$USERR5
 40
0.0
  9
$WORLDVIEW
 70
     1
  9
$SHADEDGE
 70
     3
  9
$SHADEDIF
 70
    70
  9
$TILEMODE
 70
     1
  9
$MAXACTVP
 70
    64
  9
$PLIMCHECK
 70
     0
  9
$PEXTMIN
 10
1.0000000000E+20
 20
1.0000000000E+20
 30
1.0000000000E+20
  9
$PEXTMAX
 10
-1.0000000000E+20
 20
-1.0000000000E+20
 30
-1.0000000000E+20
  9
$PLIMMIN
 10
0.0
 20
0.0
  9
$PLIMMAX
 10
420.0
 20
297.0
  9
$UNITMODE
 70
     0
  9
$VISRETAIN
 70
     1
  9
$PLINEGEN
 70
     0
  9
$PSLTSCALE
 70
     1
  0
ENDSEC
  0
SECTION
  2
TABLES
  0
TABLE
  2
VPORT
 70
     1
  0
VPORT
  2
*ACTIVE
 70
     0
 10
0.0
 20
0.0
 11
1.0
 21
1.0
 12
1050.0
 22
742.5
 13
0.0
 23
0.0
 14
10.0
 24
10.0
 15
10.0
 25
10.0
 16
0.0
 26
0.0
 36
1.0
 17
0.0
 27
0.0
 37
0.0
 40
1485.0
 41
1.4141414141
 42
50.0
 43
0.0
 44
0.0
 50
0.0
 51
0.0
 71
     0
 72
  2000
 73
     1
 74
     3
 75
     0
 76
     0
 77
     0
 78
     0
  0
ENDTAB
  0
TABLE
  2
LTYPE
 70
     6
  0
LTYPE
  2
CONTINUOUS
 70
     0
  3
Solid line
 72
    65
 73
     0
 40
0.0
  0
LTYPE
  2
HIDDEN
 70
     0
  3
Hidden __ __ __ __ __ __ __ __ __ __ __ __ __ __
 72
    65
 73
     2
 40
1.905
 49
1.27
 49
-0.635
  0
LTYPE
  2
PHANTOM
 70
     0
  3
Phantom ______  __  __  ______  __  __  ______
 72
    65
 73
     6
 40
12.7
 49
6.35
 49
-1.27
 49
1.27
 49
-1.27
 49
1.27
 49
-1.27
  0
LTYPE
  2
CENTER
 70
     0
  3
Center ____ _ ____ _ ____ _ ____ _ ____ _ ____
 72
    65
 73
     4
 40
10.16
 49
6.35
 49
-1.27
 49
1.27
 49
-1.27
  0
LTYPE
  2
CENTERX2
 70
     0
  3
Center (2x) ________  __  ________  __  _____
 72
    65
 73
     4
 40
20.32
 49
12.7
 49
-2.54
 49
2.54
 49
-2.54
  0
LTYPE
  2
DOT2
 70
     0
  3
Dot (.5x) ........................................
 72
    65
 73
     2
 40
0.635
 49
0.0
 49
-0.635
  0
ENDTAB
  0
TABLE
  2
LAYER
 70
     2
  0
LAYER
  2
0
 70
     0
 62
     7
  6
CONTINUOUS
  0
LAYER
  2
FORMAT
 70
     0
 62
     7
  6
CONTINUOUS
  0
ENDTAB
  0
TABLE
  2
STYLE
 70
     1
  0
STYLE
  2
STANDARD
 70
     0
 40
0.0
 41
1.0
 50
0.0
 71
     0
 42
17.5
  3
txt
  4

  0
ENDTAB
  0
TABLE
  2
VIEW
 70
     0
  0
ENDTAB
  0
TABLE
  2
UCS
 70
     0
  0
ENDTAB
  0
TABLE
  2
APPID
 70
     1
  0
APPID
  2
ACAD
 70
     0
  0
ENDTAB
  0
TABLE
  2
DIMSTYLE
 70
     1
  0
DIMSTYLE
  2
ISO-25
 70
     0
  3

  4

  5

  6

  7

 40
1.0
 41
2.5
 42
0.625
 43
3.75
 44
1.25
 45
0.0
 46
0.0
 47
0.0
 48
0.0
140
2.5
141
2.5
142
0.0
143
0.0393700787
144
1.0
145
0.0
146
1.0
147
0.625
 71
     0
 72
     0
 73
     0
 74
     0
 75
     0
 76
     0
 77
     1
 78
     8
170
     0
171
     3
172
     1
173
     0
174
     0
175
     0
176
     0
177
     0
178
     0
  0
ENDTAB
  0
ENDSEC
  0
SECTION
  2
BLOCKS
  0
BLOCK
  8
0
  2
$MODEL_SPACE
 70
     0
 10
0.0
 20
0.0
 30
0.0
  3
$MODEL_SPACE
  1

  0
ENDBLK
  5
21
  8
0
  0
BLOCK
 67
     1
  8
0
  2
$PAPER_SPACE
 70
     0
 10
0.0
 20
0.0
 30
0.0
  3
$PAPER_SPACE
  1

  0
ENDBLK
  5
1D
 67
     1
  8
0
  0
ENDSEC
  0
SECTION
  2
ENTITIES
  0
LINE
  5
45
  8
0
  6
CONTINUOUS
 62
     7
 10
2074.25
 20
25.75
 30
0.0
 11
25.75
 21
25.75
 31
0.0
  0
LINE
  5
46
  8
0
  6
CONTINUOUS
 62
     7
 10
2075.0
 20
25.0
 30
0.0
 11
2075.0
 21
1385.0
 31
0.0
  0
LINE
  5
47
  8
0
  6
CONTINUOUS
 62
     7
 10
2075.0
 20
1385.0
 30
0.0
 11
25.0
 21
1385.0
 31
0.0
  0
LINE
  5
48
  8
0
  6
CONTINUOUS
 62
     7
 10
25.75
 20
1384.25
 30
0.0
 11
25.75
 21
25.75
 31
0.0
  0
LINE
  5
49
  8
0
  6
CONTINUOUS
 62
     7
 10
720.6377216749
 20
886.5121428689
 30
0.0
 11
708.6377216749
 21
886.5121428689
 31
0.0
  0
LINE
  5
4A
  8
0
  6
CONTINUOUS
 62
     7
 10
342.6377216749
 20
886.5121428689
 30
0.0
 11
330.6377216749
 21
886.5121428689
 31
0.0
  0
LINE
  5
4B
  8
0
  6
CONTINUOUS
 62
     7
 10
330.6377216749
 20
866.5121428689
 30
0.0
 11
342.6377216749
 21
866.5121428689
 31
0.0
  0
LINE
  5
4C
  8
0
  6
CONTINUOUS
 62
     7
 10
708.6377216749
 20
866.5121428689
 30
0.0
 11
720.6377216749
 21
866.5121428689
 31
0.0
  0
LINE
  5
4D
  8
0
  6
CONTINUOUS
 62
     7
 10
709.1377216749
 20
893.5121428689
 30
0.0
 11
342.1377216749
 21
893.5121428689
 31
0.0
  0
LINE
  5
4E
  8
0
  6
CONTINUOUS
 62
     7
 10
342.1377216749
 20
915.5121428689
 30
0.0
 11
342.1377216749
 21
893.5121428689
 31
0.0
  0
LINE
  5
4F
  8
0
  6
CONTINUOUS
 62
     7
 10
709.1377216749
 20
915.5121428689
 30
0.0
 11
709.1377216749
 21
893.5121428689
 31
0.0
  0
LINE
  5
50
  8
0
  6
CONTINUOUS
 62
     7
 10
350.1377216749
 20
923.5121428689
 30
0.0
 11
701.1377216749
 21
923.5121428689
 31
0.0
  0
ARC
  5
51
  8
0
  6
CONTINUOUS
 62
     7
 10
701.1377216749
 20
915.5121428689
 30
0.0
 40
8.000000000000341
 50
0.0
 51
90.0
  0
ARC
  5
52
  8
0
  6
CONTINUOUS
 62
     7
 10
350.1377216749
 20
915.5121428689
 30
0.0
 40
8.000000000000227
 50
90.0
 51
180.0
  0
LINE
  5
53
  8
0
  6
CONTINUOUS
 62
     7
 10
708.6377216749
 20
893.5121428689
 30
0.0
 11
708.6377216749
 21
888.5121428689
 31
0.0
  0
LINE
  5
54
  8
0
  6
CONTINUOUS
 62
     7
 10
342.6377216749
 20
888.5121428689
 30
0.0
 11
342.6377216749
 21
893.5121428689
 31
0.0
  0
LINE
  5
55
  8
0
  6
CONTINUOUS
 62
     7
 10
342.6377216749
 20
858.5121428689
 30
0.0
 11
342.6377216749
 21
888.5121428689
 31
0.0
  0
LINE
  5
56
  8
0
  6
CONTINUOUS
 62
     7
 10
708.6377216749
 20
888.5121428689
 30
0.0
 11
708.6377216749
 21
858.5121428689
 31
0.0
  0
LINE
  5
57
  8
0
  6
CONTINUOUS
 62
     7
 10
347.6377216749
 20
853.5121428689
 30
0.0
 11
703.6377216749
 21
853.5121428689
 31
0.0
  0
ARC
  5
58
  8
0
  6
CONTINUOUS
 62
     7
 10
703.6377216749
 20
858.5121428689
 30
0.0
 40
5.0
 50
270.0
 51
0.0
  0
ARC
  5
59
  8
0
  6
CONTINUOUS
 62
     7
 10
347.6377216749
 20
858.5121428689
 30
0.0
 40
5.0
 50
180.0
 51
270.0
  0
LINE
  5
5A
  8
0
  6
CONTINUOUS
 62
     7
 10
720.6377216749
 20
804.4936171095
 30
0.0
 11
720.6377216749
 21
817.2171428689
 31
0.0
  0
LINE
  5
5B
  8
0
  6
CONTINUOUS
 62
     7
 10
724.6377216749
 20
817.2171428689
 30
0.0
 11
724.6377216749
 21
804.4936171095
 31
0.0
  0
LINE
  5
5C
  8
0
  6
CONTINUOUS
 62
     7
 10
326.6377216749
 20
817.2171428689
 30
0.0
 11
326.6377216749
 21
804.4936171095
 31
0.0
  0
LINE
  5
5D
  8
0
  6
CONTINUOUS
 62
     7
 10
330.6377216749
 20
817.2171428689
 30
0.0
 11
330.6377216749
 21
804.4936171095
 31
0.0
  0
LINE
  5
5E
  8
0
  6
CONTINUOUS
 62
     7
 10
720.6377216749
 20
817.2171428689
 30
0.0
 11
720.6377216749
 21
886.5963760591
 31
0.0
  0
LINE
  5
5F
  8
0
  6
CONTINUOUS
 62
     7
 10
724.6377216749
 20
886.5963760591
 30
0.0
 11
724.6377216749
 21
817.2171428689
 31
0.0
  0
LINE
  5
60
  8
0
  6
CONTINUOUS
 62
     7
 10
330.6377216749
 20
886.5963760591
 30
0.0
 11
330.6377216749
 21
817.2171428689
 31
0.0
  0
LINE
  5
61
  8
0
  6
CONTINUOUS
 62
     7
 10
326.6377216749
 20
886.5963760591
 30
0.0
 11
326.6377216749
 21
817.2171428689
 31
0.0
  0
LINE
  5
62
  8
0
  6
CONTINUOUS
 62
     7
 10
326.6377216749
 20
799.5121428689
 30
0.0
 11
330.6377216749
 21
799.5121428454
 31
0.0
  0
LINE
  5
63
  8
0
  6
CONTINUOUS
 62
     7
 10
330.6377216749
 20
804.4936171095
 30
0.0
 11
330.6377216749
 21
799.5121428454
 31
0.0
  0
LINE
  5
64
  8
0
  6
CONTINUOUS
 62
     7
 10
326.6377216749
 20
804.4936171095
 30
0.0
 11
326.6377216749
 21
799.5121428689
 31
0.0
  0
LINE
  5
65
  8
0
  6
CONTINUOUS
 62
     7
 10
720.6377216749
 20
799.5121428454
 30
0.0
 11
724.6377216749
 21
799.5121428689
 31
0.0
  0
LINE
  5
66
  8
0
  6
CONTINUOUS
 62
     7
 10
720.6377216749
 20
799.5121428454
 30
0.0
 11
720.6377216749
 21
804.4936171095
 31
0.0
  0
LINE
  5
67
  8
0
  6
CONTINUOUS
 62
     7
 10
724.6377216749
 20
804.4936171095
 30
0.0
 11
724.6377216749
 21
799.5121428689
 31
0.0
  0
LINE
  5
68
  8
0
  6
CONTINUOUS
 62
     7
 10
720.6377216749
 20
886.5963760591
 30
0.0
 11
720.6377216749
 21
907.8729914638
 31
0.0
  0
LINE
  5
69
  8
0
  6
CONTINUOUS
 62
     7
 10
724.6377216749
 20
907.8729914638
 30
0.0
 11
724.6377216749
 21
886.5963760591
 31
0.0
  0
LINE
  5
6A
  8
0
  6
CONTINUOUS
 62
     7
 10
330.6377216749
 20
907.8729914638
 30
0.0
 11
330.6377216749
 21
886.5963760591
 31
0.0
  0
LINE
  5
6B
  8
0
  6
CONTINUOUS
 62
     7
 10
326.6377216749
 20
907.8729914638
 30
0.0
 11
326.6377216749
 21
886.5963760591
 31
0.0
  0
LINE
  5
6C
  8
0
  6
CONTINUOUS
 62
     7
 10
720.6377216749
 20
918.5121428689
 30
0.0
 11
724.6377216749
 21
918.5121428689
 31
0.0
  0
LINE
  5
6D
  8
0
  6
CONTINUOUS
 62
     7
 10
720.6377216749
 20
907.8729914638
 30
0.0
 11
720.6377216749
 21
918.5121428689
 31
0.0
  0
LINE
  5
6E
  8
0
  6
CONTINUOUS
 62
     7
 10
724.6377216749
 20
918.5121428689
 30
0.0
 11
724.6377216749
 21
907.8729914638
 31
0.0
  0
LINE
  5
6F
  8
0
  6
CONTINUOUS
 62
     7
 10
326.6377216749
 20
918.5121428689
 30
0.0
 11
330.6377216749
 21
918.5121428689
 31
0.0
  0
LINE
  5
70
  8
0
  6
CONTINUOUS
 62
     7
 10
330.6377216749
 20
918.5121428689
 30
0.0
 11
330.6377216749
 21
907.8729914638
 31
0.0
  0
LINE
  5
71
  8
0
  6
CONTINUOUS
 62
     7
 10
326.6377216749
 20
918.5121428689
 30
0.0
 11
326.6377216749
 21
907.8729914638
 31
0.0
  0
LINE
  5
72
  8
0
  6
CONTINUOUS
 62
     7
 10
330.6377216749
 20
918.5121428689
 30
0.0
 11
332.6377216749
 21
918.5121428689
 31
0.0
  0
POLYLINE
  5
73
  8
0
  6
CONTINUOUS
 62
     7
 66
     1
 10
0.0
 20
0.0
 30
0.0
  0
VERTEX
  5
E6
  8
0
  6
CONTINUOUS
 62
     7
 10
332.6377216749
 20
799.5121428454
 30
0.0
  0
VERTEX
  5
E7
  8
0
  6
CONTINUOUS
 62
     7
 10
332.2475410308
 20
799.5121428459
 30
0.0
  0
VERTEX
  5
E8
  8
0
  6
CONTINUOUS
 62
     7
 10
331.8723548101
 20
799.5121428472
 30
0.0
  0
VERTEX
  5
E9
  8
0
  6
CONTINUOUS
 62
     7
 10
331.5265812088
 20
799.5121428494
 30
0.0
  0
VERTEX
  5
EA
  8
0
  6
CONTINUOUS
 62
     7
 10
331.2235081125
 20
799.5121428523
 30
0.0
  0
VERTEX
  5
EB
  8
0
  6
CONTINUOUS
 62
     7
 10
330.9747824503
 20
799.5121428558
 30
0.0
  0
VERTEX
  5
EC
  8
0
  6
CONTINUOUS
 62
     7
 10
330.7899626099
 20
799.5121428599
 30
0.0
  0
VERTEX
  5
ED
  8
0
  6
CONTINUOUS
 62
     7
 10
330.6761511141
 20
799.5121428643
 30
0.0
  0
VERTEX
  5
EE
  8
0
  6
CONTINUOUS
 62
     7
 10
330.6377216749
 20
799.5121428454
 30
0.0
  0
SEQEND
  5
FD
  8
0
  6
CONTINUOUS
 62
     7
  0
LINE
  5
74
  8
0
  6
CONTINUOUS
 62
     7
 10
718.6377216749
 20
918.5121428689
 30
0.0
 11
720.6377216749
 21
918.5121428689
 31
0.0
  0
POLYLINE
  5
75
  8
0
  6
CONTINUOUS
 62
     7
 66
     1
 10
0.0
 20
0.0
 30
0.0
  0
VERTEX
  5
EF
  8
0
  6
CONTINUOUS
 62
     7
 10
720.6377216749
 20
799.5121428454
 30
0.0
  0
VERTEX
  5
F0
  8
0
  6
CONTINUOUS
 62
     7
 10
720.5992922357
 20
799.5121428459
 30
0.0
  0
VERTEX
  5
F1
  8
0
  6
CONTINUOUS
 62
     7
 10
720.4854807399
 20
799.5121428472
 30
0.0
  0
VERTEX
  5
F2
  8
0
  6
CONTINUOUS
 62
     7
 10
720.3006608995
 20
799.5121428494
 30
0.0
  0
VERTEX
  5
F3
  8
0
  6
CONTINUOUS
 62
     7
 10
720.0519352372
 20
799.5121428523
 30
0.0
  0
VERTEX
  5
F4
  8
0
  6
CONTINUOUS
 62
     7
 10
719.7488621409
 20
799.5121428558
 30
0.0
  0
VERTEX
  5
F5
  8
0
  6
CONTINUOUS
 62
     7
 10
719.4030885396
 20
799.5121428599
 30
0.0
  0
VERTEX
  5
F6
  8
0
  6
CONTINUOUS
 62
     7
 10
719.0279023189
 20
799.5121428643
 30
0.0
  0
VERTEX
  5
F7
  8
0
  6
CONTINUOUS
 62
     7
 10
718.6377216749
 20
799.5121428454
 30
0.0
  0
SEQEND
  5
FC
  8
0
  6
CONTINUOUS
 62
     7
  0
ARC
  5
76
  8
0
  6
CONTINUOUS
 62
     7
 10
364.6377216749
 20
809.5121428689
 30
0.0
 40
10.00000002347872
 50
270.0
 51
0.0
  0
ARC
  5
77
  8
0
  6
CONTINUOUS
 62
     7
 10
353.1377216749
 20
839.0121428689
 30
0.0
 40
5.500000000000114
 50
270.0
 51
90.0
  0
LINE
  5
78
  8
0
  6
CONTINUOUS
 62
     7
 10
353.1377216749
 20
844.5121428689
 30
0.0
 11
350.6377216749
 21
844.5121428689
 31
0.0
  0
ARC
  5
79
  8
0
  6
CONTINUOUS
 62
     7
 10
350.6377216749
 20
839.0121428689
 30
0.0
 40
5.500000000000114
 50
90.0
 51
270.0
  0
LINE
  5
7A
  8
0
  6
CONTINUOUS
 62
     7
 10
350.6377216749
 20
833.5121428689
 30
0.0
 11
353.1377216749
 21
833.5121428689
 31
0.0
  0
LINE
  5
7B
  8
0
  6
CONTINUOUS
 62
     7
 10
374.6377216749
 20
853.5121428689
 30
0.0
 11
374.6377216749
 21
809.5121428689
 31
0.0
  0
LINE
  5
7C
  8
0
  6
CONTINUOUS
 62
     7
 10
342.7215231878
 20
918.5121428689
 30
0.0
 11
332.6377216749
 21
918.5121428689
 31
0.0
  0
LINE
  5
7D
  8
0
  6
CONTINUOUS
 62
     7
 10
364.6377216749
 20
799.5121428454
 30
0.0
 11
332.6377216749
 21
799.5121428454
 31
0.0
  0
ARC
  5
7E
  8
0
  6
CONTINUOUS
 62
     7
 10
686.6377216749
 20
809.5121428689
 30
0.0
 40
10.00000002347849
 50
180.0
 51
270.0
  0
LINE
  5
7F
  8
0
  6
CONTINUOUS
 62
     7
 10
676.6377216749
 20
809.5121428689
 30
0.0
 11
676.6377216749
 21
853.5121428689
 31
0.0
  0
LINE
  5
80
  8
0
  6
CONTINUOUS
 62
     7
 10
700.6377216749
 20
844.5121428689
 30
0.0
 11
698.1377216749
 21
844.5121428689
 31
0.0
  0
ARC
  5
81
  8
0
  6
CONTINUOUS
 62
     7
 10
698.1377216749
 20
839.0121428689
 30
0.0
 40
5.500000000000114
 50
90.0
 51
270.0
  0
ARC
  5
82
  8
0
  6
CONTINUOUS
 62
     7
 10
700.6377216749
 20
839.0121428689
 30
0.0
 40
5.500000000000114
 50
270.0
 51
90.0
  0
LINE
  5
83
  8
0
  6
CONTINUOUS
 62
     7
 10
698.1377216749
 20
833.5121428689
 30
0.0
 11
700.6377216749
 21
833.5121428689
 31
0.0
  0
LINE
  5
84
  8
0
  6
CONTINUOUS
 62
     7
 10
718.6377216749
 20
918.5121428689
 30
0.0
 11
708.553920162
 21
918.5121428689
 31
0.0
  0
LINE
  5
85
  8
0
  6
CONTINUOUS
 62
     7
 10
718.6377216749
 20
799.5121428454
 30
0.0
 11
686.6377216749
 21
799.5121428454
 31
0.0
  0
LINE
  5
86
  8
0
  6
CONTINUOUS
 62
     7
 10
350.6377216749
 20
888.5121428689
 30
0.0
 11
353.1377216749
 21
888.5121428689
 31
0.0
  0
LINE
  5
87
  8
0
  6
CONTINUOUS
 62
     7
 10
353.1377216749
 20
899.5121428689
 30
0.0
 11
350.6377216749
 21
899.5121428689
 31
0.0
  0
LINE
  5
88
  8
0
  6
CONTINUOUS
 62
     7
 10
698.1377216749
 20
888.5121428689
 30
0.0
 11
700.6377216749
 21
888.5121428689
 31
0.0
  0
LINE
  5
89
  8
0
  6
CONTINUOUS
 62
     7
 10
700.6377216749
 20
899.5121428689
 30
0.0
 11
698.1377216749
 21
899.5121428689
 31
0.0
  0
ARC
  5
8A
  8
0
  6
CONTINUOUS
 62
     7
 10
353.1377216749
 20
894.0121428689
 30
0.0
 40
5.500000000000114
 50
270.0
 51
90.0
  0
ARC
  5
8B
  8
0
  6
CONTINUOUS
 62
     7
 10
350.6377216749
 20
894.0121428689
 30
0.0
 40
5.500000000000114
 50
90.0
 51
270.0
  0
ARC
  5
8C
  8
0
  6
CONTINUOUS
 62
     7
 10
698.1377216749
 20
894.0121428689
 30
0.0
 40
5.500000000000114
 50
90.0
 51
270.0
  0
ARC
  5
8D
  8
0
  6
CONTINUOUS
 62
     7
 10
700.6377216749
 20
894.0121428689
 30
0.0
 40
5.500000000000114
 50
270.0
 51
90.0
  0
LINE
  5
8E
  8
0
  6
CENTERX2
 62
     7
 10
525.6377216749
 20
789.0830357143
 30
0.0
 11
525.6377216749
 21
952.9672137443
 31
0.0
  0
LINE
  5
8F
  8
0
  6
CONTINUOUS
 62
     7
 10
720.6377216749
 20
506.7930872668
 30
0.0
 11
709.1377216749
 21
506.7930872668
 31
0.0
  0
LINE
  5
90
  8
0
  6
CONTINUOUS
 62
     7
 10
342.1377216749
 20
506.7930872668
 30
0.0
 11
330.6377216749
 21
506.7930872668
 31
0.0
  0
LINE
  5
91
  8
0
  6
CONTINUOUS
 62
     7
 10
330.6377216749
 20
486.7930872668
 30
0.0
 11
342.1377216749
 21
486.7930872668
 31
0.0
  0
LINE
  5
92
  8
0
  6
CONTINUOUS
 62
     7
 10
709.1377216749
 20
486.7930872668
 30
0.0
 11
720.6377216749
 21
486.7930872668
 31
0.0
  0
LINE
  5
93
  8
0
  6
CONTINUOUS
 62
     7
 10
326.6377216749
 20
461.1706172138
 30
0.0
 11
330.6377216749
 21
461.1706172138
 31
0.0
  0
LINE
  5
94
  8
0
  6
CONTINUOUS
 62
     7
 10
720.6377216749
 20
461.1706172138
 30
0.0
 11
724.6377216749
 21
461.1706172138
 31
0.0
  0
LINE
  5
95
  8
0
  6
CONTINUOUS
 62
     7
 10
709.1377216749
 20
568.2930872668
 30
0.0
 11
709.1377216749
 21
187.9533413046
 31
0.0
  0
LINE
  5
96
  8
0
  6
CONTINUOUS
 62
     7
 10
701.1377216749
 20
195.9533413046
 30
0.0
 11
709.1377216749
 21
187.9533413046
 31
0.0
  0
LINE
  5
97
  8
0
  6
CONTINUOUS
 62
     7
 10
709.1377216749
 20
568.2930872668
 30
0.0
 11
701.1377216749
 21
560.2930872668
 31
0.0
  0
LINE
  5
98
  8
0
  6
CONTINUOUS
 62
     7
 10
342.1377216749
 20
568.2930872668
 30
0.0
 11
709.1377216749
 21
568.2930872668
 31
0.0
  0
LINE
  5
99
  8
0
  6
CONTINUOUS
 62
     7
 10
342.1377216749
 20
568.2930872668
 30
0.0
 11
350.1377216749
 21
560.2930872668
 31
0.0
  0
LINE
  5
9A
  8
0
  6
CONTINUOUS
 62
     7
 10
342.1377216749
 20
187.9533413046
 30
0.0
 11
342.1377216749
 21
568.2930872668
 31
0.0
  0
LINE
  5
9B
  8
0
  6
CONTINUOUS
 62
     7
 10
350.1377216749
 20
195.9533413046
 30
0.0
 11
342.1377216749
 21
187.9533413046
 31
0.0
  0
LINE
  5
9C
  8
0
  6
CONTINUOUS
 62
     7
 10
709.1377216749
 20
187.9533413046
 30
0.0
 11
342.1377216749
 21
187.9533413046
 31
0.0
  0
LINE
  5
9D
  8
0
  6
CONTINUOUS
 62
     7
 10
374.6377216749
 20
593.7930872668
 30
0.0
 11
374.6377216749
 21
589.7930872668
 31
0.0
  0
LINE
  5
9E
  8
0
  6
CONTINUOUS
 62
     7
 10
374.6377216749
 20
589.7930872668
 30
0.0
 11
364.6377216749
 21
589.7930872668
 31
0.0
  0
LINE
  5
9F
  8
0
  6
CONTINUOUS
 62
     7
 10
364.6377216749
 20
593.7930872668
 30
0.0
 11
374.6377216749
 21
593.7930872668
 31
0.0
  0
LINE
  5
A0
  8
0
  6
CONTINUOUS
 62
     7
 10
676.6377216749
 20
589.7930872668
 30
0.0
 11
676.6377216749
 21
593.7930872668
 31
0.0
  0
LINE
  5
A1
  8
0
  6
CONTINUOUS
 62
     7
 10
686.6377216749
 20
589.7930872668
 30
0.0
 11
676.6377216749
 21
589.7930872668
 31
0.0
  0
LINE
  5
A2
  8
0
  6
CONTINUOUS
 62
     7
 10
676.6377216749
 20
593.7930872668
 30
0.0
 11
686.6377216749
 21
593.7930872668
 31
0.0
  0
ARC
  5
A3
  8
0
  6
CONTINUOUS
 62
     7
 10
332.6377216749
 20
587.7930872668
 30
0.0
 40
2.000000000000114
 50
90.0
 51
180.0
  0
LINE
  5
A4
  8
0
  6
CONTINUOUS
 62
     7
 10
330.6377216749
 20
587.7930872668
 30
0.0
 11
330.6377216749
 21
547.7930872668
 31
0.0
  0
LINE
  5
A5
  8
0
  6
CONTINUOUS
 62
     7
 10
326.6377216749
 20
593.7930872668
 30
0.0
 11
326.6377216749
 21
547.7930872668
 31
0.0
  0
LINE
  5
A6
  8
0
  6
CONTINUOUS
 62
     7
 10
364.6377216749
 20
589.7930872668
 30
0.0
 11
332.6377216749
 21
589.7930872668
 31
0.0
  0
LINE
  5
A7
  8
0
  6
CONTINUOUS
 62
     7
 10
326.6377216749
 20
593.7930872668
 30
0.0
 11
364.6377216749
 21
593.7930872668
 31
0.0
  0
LINE
  5
A8
  8
0
  6
CONTINUOUS
 62
     7
 10
720.6377216749
 20
547.7930872668
 30
0.0
 11
720.6377216749
 21
587.7930872668
 31
0.0
  0
ARC
  5
A9
  8
0
  6
CONTINUOUS
 62
     7
 10
718.6377216749
 20
587.7930872668
 30
0.0
 40
2.0
 50
0.0
 51
90.0
  0
LINE
  5
AA
  8
0
  6
CONTINUOUS
 62
     7
 10
718.6377216749
 20
589.7930872668
 30
0.0
 11
686.6377216749
 21
589.7930872668
 31
0.0
  0
ARC
  5
AB
  8
0
  6
CONTINUOUS
 62
     7
 10
718.6377216749
 20
587.7930872668
 30
0.0
 40
6.0
 50
0.0
 51
90.0
  0
LINE
  5
AC
  8
0
  6
CONTINUOUS
 62
     7
 10
724.6377216749
 20
587.7930872668
 30
0.0
 11
724.6377216749
 21
547.7930872668
 31
0.0
  0
LINE
  5
AD
  8
0
  6
CONTINUOUS
 62
     7
 10
686.6377216749
 20
593.7930872668
 30
0.0
 11
718.6377216749
 21
593.7930872668
 31
0.0
  0
LINE
  5
AE
  8
0
  6
CONTINUOUS
 62
     7
 10
330.6377216749
 20
547.7930872668
 30
0.0
 11
330.6377216749
 21
486.8266787848
 31
0.0
  0
LINE
  5
AF
  8
0
  6
CONTINUOUS
 62
     7
 10
326.6377216749
 20
547.7930872668
 30
0.0
 11
326.6377216749
 21
486.8266787848
 31
0.0
  0
LINE
  5
B0
  8
0
  6
CONTINUOUS
 62
     7
 10
724.6377216749
 20
547.7930872668
 30
0.0
 11
724.6377216749
 21
486.8266787848
 31
0.0
  0
LINE
  5
B1
  8
0
  6
CONTINUOUS
 62
     7
 10
720.6377216749
 20
486.8266787848
 30
0.0
 11
720.6377216749
 21
547.7930872668
 31
0.0
  0
LINE
  5
B2
  8
0
  6
CONTINUOUS
 62
     7
 10
330.6377216749
 20
486.8266787848
 30
0.0
 11
330.6377216749
 21
469.8289562358
 31
0.0
  0
LINE
  5
B3
  8
0
  6
CONTINUOUS
 62
     7
 10
326.6377216749
 20
486.8266787848
 30
0.0
 11
326.6377216749
 21
469.8289562358
 31
0.0
  0
LINE
  5
B4
  8
0
  6
CONTINUOUS
 62
     7
 10
724.6377216749
 20
486.8266787848
 30
0.0
 11
724.6377216749
 21
469.8289562358
 31
0.0
  0
LINE
  5
B5
  8
0
  6
CONTINUOUS
 62
     7
 10
720.6377216749
 20
469.8289562358
 30
0.0
 11
720.6377216749
 21
486.8266787848
 31
0.0
  0
LINE
  5
B6
  8
0
  6
CONTINUOUS
 62
     7
 10
330.6377216749
 20
469.8289562358
 30
0.0
 11
330.6377216749
 21
461.2610872668
 31
0.0
  0
LINE
  5
B7
  8
0
  6
CONTINUOUS
 62
     7
 10
326.6377216749
 20
469.8289562358
 30
0.0
 11
326.6377216749
 21
461.2610872668
 31
0.0
  0
LINE
  5
B8
  8
0
  6
CONTINUOUS
 62
     7
 10
724.6377216749
 20
469.8289562358
 30
0.0
 11
724.6377216749
 21
461.2610872668
 31
0.0
  0
LINE
  5
B9
  8
0
  6
CONTINUOUS
 62
     7
 10
720.6377216749
 20
461.2610872668
 30
0.0
 11
720.6377216749
 21
469.8289562358
 31
0.0
  0
LINE
  5
BA
  8
0
  6
CONTINUOUS
 62
     7
 10
330.6377216749
 20
461.2610872668
 30
0.0
 11
330.6377216749
 21
461.1706172138
 31
0.0
  0
LINE
  5
BB
  8
0
  6
CONTINUOUS
 62
     7
 10
326.6377216749
 20
461.2610872668
 30
0.0
 11
326.6377216749
 21
461.1706172138
 31
0.0
  0
LINE
  5
BC
  8
0
  6
CONTINUOUS
 62
     7
 10
724.6377216749
 20
461.2610872668
 30
0.0
 11
724.6377216749
 21
461.1706172138
 31
0.0
  0
LINE
  5
BD
  8
0
  6
CONTINUOUS
 62
     7
 10
720.6377216749
 20
461.1706172138
 30
0.0
 11
720.6377216749
 21
461.2610872668
 31
0.0
  0
LINE
  5
BE
  8
0
  6
CENTERX2
 62
     7
 10
525.6377216749
 20
597.7930872668
 30
0.0
 11
525.6377216749
 21
160.0009155348
 31
0.0
  0
ARC
  5
BF
  8
0
  6
CONTINUOUS
 62
     7
 10
920.6239201224
 20
915.5121428689
 30
0.0
 40
7.999999999999799
 50
90.0
 51
157.975687163
  0
LINE
  5
C0
  8
0
  6
CONTINUOUS
 62
     7
 10
920.6239201224
 20
923.5121428689
 30
0.0
 11
1284.9636660845
 21
923.5121428689
 31
0.0
  0
ARC
  5
C1
  8
0
  6
CONTINUOUS
 62
     7
 10
1284.9636660845
 20
915.5121428689
 30
0.0
 40
8.000000000000227
 50
0.0
 51
90.0
  0
LINE
  5
C2
  8
0
  6
CONTINUOUS
 62
     7
 10
1292.9636660845
 20
915.5121428689
 30
0.0
 11
1292.9636660845
 21
893.5121428689
 31
0.0
  0
LINE
  5
C3
  8
0
  6
CONTINUOUS
 62
     7
 10
1292.9636660845
 20
893.5121428689
 30
0.0
 11
1009.2411523845
 21
893.5121428689
 31
0.0
  0
LINE
  5
C4
  8
0
  6
CONTINUOUS
 62
     7
 10
1270.1431580088
 20
853.5121428689
 30
0.0
 11
1015.1737315779
 21
853.5121428689
 31
0.0
  0
LINE
  5
C5
  8
0
  6
CONTINUOUS
 62
     7
 10
1291.7937931034
 20
886.0121428689
 30
0.0
 11
1274.4732850278
 21
856.0121428689
 31
0.0
  0
ARC
  5
C6
  8
0
  6
CONTINUOUS
 62
     7
 10
1270.1431580088
 20
858.5121428689
 30
0.0
 40
5.000000000000016
 50
270.0
 51
330.0
  0
LINE
  5
C7
  8
0
  6
CONTINUOUS
 62
     7
 10
1292.4636660845
 20
893.5121428689
 30
0.0
 11
1292.4636660845
 21
888.5121428689
 31
0.0
  0
ARC
  5
C8
  8
0
  6
CONTINUOUS
 62
     7
 10
1287.4636660845
 20
888.5121428689
 30
0.0
 40
5.000000000000016
 50
330.0
 51
0.0
  0
LINE
  5
C9
  8
0
  6
CONTINUOUS
 62
     7
 10
887.1239201224
 20
799.5121428689
 30
0.0
 11
887.1239201224
 21
918.5121428689
 31
0.0
  0
LINE
  5
CA
  8
0
  6
CONTINUOUS
 62
     7
 10
887.1239201224
 20
918.5121428689
 30
0.0
 11
933.1239201224
 21
918.5121428689
 31
0.0
  0
ARC
  5
CB
  8
0
  6
CONTINUOUS
 62
     7
 10
933.1239201224
 20
738.5121428689
 30
0.0
 40
180.0000000000001
 50
70.2021709788
 51
90.0
  0
ARC
  5
CC
  8
0
  6
CONTINUOUS
 62
     7
 10
985.2840696014
 20
883.4097577779
 30
0.0
 40
25.99999999999999
 50
7.04
 51
70.2021709788
  0
LINE
  5
CD
  8
0
  6
CONTINUOUS
 62
     7
 10
1011.0880511533
 20
886.5963760591
 30
0.0
 11
1019.6559201224
 21
817.2171428689
 31
0.0
  0
ARC
  5
CE
  8
0
  6
CONTINUOUS
 62
     7
 10
1007.7463901753
 20
815.7463959699
 30
0.0
 40
12.00000000000003
 50
290.3259722805
 51
7.04
  0
ARC
  5
CF
  8
0
  6
CONTINUOUS
 62
     7
 10
984.1258583141
 20
879.5121428454
 30
0.0
 40
80.00000000000006
 50
269.9986118724
 51
290.3259722805
  0
LINE
  5
D0
  8
0
  6
CONTINUOUS
 62
     7
 10
984.1239201224
 20
799.5121428689
 30
0.0
 11
887.1239201224
 21
799.5121428689
 31
0.0
  0
POLYLINE
  5
D1
  8
0
  6
CONTINUOUS
 62
     7
 66
     1
 10
0.0
 20
0.0
 30
0.0
  0
VERTEX
  5
F8
  8
0
  6
CONTINUOUS
 62
     7
 10
1493.2483844614
 20
799.475166919
 30
0.0
  0
VERTEX
  5
F9
  8
0
  6
CONTINUOUS
 62
     7
 10
1491.6840249097
 20
799.3644271277
 30
0.0
  0
VERTEX
  5
FA
  8
0
  6
CONTINUOUS
 62
     7
 10
1490.3583410397
 20
799.5121428689
 30
0.0
  0
SEQEND
  5
FB
  8
0
  6
CONTINUOUS
 62
     7
  0
LINE
  5
D2
  8
0
  6
CONTINUOUS
 62
     7
 10
1464.8408451619
 20
918.5121428689
 30
0.0
 11
1422.7923283372
 21
1165.1756325717
 31
0.0
  0
ARC
  5
D3
  8
0
  6
CONTINUOUS
 62
     7
 10
1430.6785629795
 20
1166.5199923326
 30
0.0
 40
8.000000000000325
 50
99.6741688991
 51
189.6741688991
  0
LINE
  5
D4
  8
0
  6
CONTINUOUS
 62
     7
 10
1451.0213484849
 20
1178.1032163174
 30
0.0
 11
1495.6192512889
 21
916.4846107211
 31
0.0
  0
LINE
  5
D5
  8
0
  6
CONTINUOUS
 62
     7
 10
1493.4652914421
 20
799.5121428689
 30
0.0
 11
1493.2483844614
 21
799.475166919
 31
0.0
  0
LINE
  5
D6
  8
0
  6
CONTINUOUS
 62
     7
 10
1429.3342032186
 20
1174.4062269749
 30
0.0
 11
1451.0213484849
 21
1178.1032163174
 31
0.0
  0
ARC
  5
D7
  8
0
  6
CONTINUOUS
 62
     7
 10
1456.874492472
 20
1173.5216548514
 30
0.0
 40
5.000000000000293
 50
69.6741688991
 51
99.6741688991
  0
LINE
  5
D8
  8
0
  6
CONTINUOUS
 62
     7
 10
1458.6112847322
 20
1178.2103169894
 30
0.0
 11
1491.0952889027
 21
1166.1774672417
 31
0.0
  0
LINE
  5
D9
  8
0
  6
CONTINUOUS
 62
     7
 10
1451.10537097
 20
1177.6103266522
 30
0.0
 11
1456.0342676214
 21
1178.4505515028
 31
0.0
  0
ARC
  5
DA
  8
0
  6
CONTINUOUS
 62
     7
 10
1489.3584966425
 20
1161.4888051037
 30
0.0
 40
5.000000000000213
 50
9.6741688991
 51
69.6741688991
  0
LINE
  5
DB
  8
0
  6
CONTINUOUS
 62
     7
 10
1494.2873932939
 20
1162.3290299542
 30
0.0
 11
1538.5972534765
 21
902.4001295729
 31
0.0
  0
LINE
  5
DC
  8
0
  6
CONTINUOUS
 62
     7
 10
1554.2182265623
 20
810.7649418215
 30
0.0
 11
1554.2826804541
 21
810.3868447311
 31
0.0
  0
LINE
  5
DD
  8
0
  6
CONTINUOUS
 62
     7
 10
1554.2826804541
 20
810.3868447311
 30
0.0
 11
1554.0147403074
 21
810.3411692006
 31
0.0
  0
LINE
  5
DE
  8
0
  6
CONTINUOUS
 62
     7
 10
1422.6785629795
 20
799.5121428689
 30
0.0
 11
1422.6785629795
 21
918.5121428689
 31
0.0
  0
LINE
  5
DF
  8
0
  6
CONTINUOUS
 62
     7
 10
1422.6785629795
 20
918.5121428689
 30
0.0
 11
1468.6785629795
 21
918.5121428689
 31
0.0
  0
ARC
  5
E0
  8
0
  6
CONTINUOUS
 62
     7
 10
1468.6785629795
 20
738.5121428689
 30
0.0
 40
180.0000000000002
 50
70.2021709788
 51
90.0
  0
ARC
  5
E1
  8
0
  6
CONTINUOUS
 62
     7
 10
1520.8387124586
 20
883.4097577779
 30
0.0
 40
26.00000000000005
 50
7.04
 51
70.2021709788
  0
LINE
  5
E2
  8
0
  6
CONTINUOUS
 62
     7
 10
1546.6426940105
 20
886.5963760591
 30
0.0
 11
1555.2105629795
 21
817.2171428689
 31
0.0
  0
ARC
  5
E3
  8
0
  6
CONTINUOUS
 62
     7
 10
1543.3010330325
 20
815.7463959699
 30
0.0
 40
12.00000000000014
 50
290.3259722805
 51
7.04
  0
ARC
  5
E4
  8
0
  6
CONTINUOUS
 62
     7
 10
1519.6805011713
 20
879.5121428454
 30
0.0
 40
80.00000000000006
 50
269.9986118724
 51
290.3259722805
  0
LINE
  5
E5
  8
0
  6
CONTINUOUS
 62
     7
 10
1519.6785629795
 20
799.5121428689
 30
0.0
 11
1422.6785629795
 21
799.5121428689
 31
0.0
  0
ENDSEC
  0
EOF
