  0
SECTION
  2
HEADER
  9
$ACADVER
  1
AC1014
  9
$ACADMAINTVER
 70
     9
  9
$DWGCODEPAGE
  3
ANSI_1252
  9
$INSBASE
 10
0.0
 20
0.0
 30
0.0
  9
$EXTMIN
 10
0.0
 20
0.0
 30
0.0
  9
$EXTMAX
 10
2100.0
 20
1485.0
 30
0.0
  9
$LIMMIN
 10
0.0
 20
0.0
  9
$LIMMAX
 10
2100.0
 20
1485.0
  9
$ORTHOMODE
 70
     0
  9
$REGENMODE
 70
     1
  9
$FILLMODE
 70
     1
  9
$QTEXTMODE
 70
     0
  9
$MIRRTEXT
 70
     1
  9
$DRAGMODE
 70
     2
  9
$LTSCALE
 40
5.0
  9
$OSMODE
 70
    37
  9
$ATTMODE
 70
     1
  9
$TEXTSIZE
 40
17.5
  9
$TRACEWID
 40
1.0
  9
$TEXTSTYLE
  7
STANDARD
  9
$CLAYER
  8
0
  9
$CELTYPE
  6
BYLAYER
  9
$CECOLOR
 62
   256
  9
$CELTSCALE
 40
1.0
  9
$DELOBJ
 70
     1
  9
$DISPSILH
 70
     0
  9
$DIMSCALE
 40
1.0
  9
$DIMASZ
 40
20.0
  9
$DIMEXO
 40
0.0
  9
$DIMDLI
 40
3.75
  9
$DIMRND
 40
0.0
  9
$DIMDLE
 40
0.0
  9
$DIMEXE
 40
10.0
  9
$DIMTP
 40
0.0
  9
$DIMTM
 40
0.0
  9
$DIMTXT
 40
17.5
  9
$DIMCEN
 40
2.5
  9
$DIMTSZ
 40
0.0
  9
$DIMTOL
 70
     0
  9
$DIMLIM
 70
     0
  9
$DIMTIH
 70
     1
  9
$DIMTOH
 70
     1
  9
$DIMSE1
 70
     0
  9
$DIMSE2
 70
     0
  9
$DIMTAD
 70
     1
  9
$DIMZIN
 70
     0
  9
$DIMBLK
  1

  9
$DIMASO
 70
     1
  9
$DIMSHO
 70
     1
  9
$DIMPOST
  1

  9
$DIMAPOST
  1

  9
$DIMALT
 70
     0
  9
$DIMALTD
 70
     3
  9
$DIMALTF
 40
0.0393700787
  9
$DIMLFAC
 40
1.0
  9
$DIMTOFL
 70
     1
  9
$DIMTVP
 40
0.0
  9
$DIMTIX
 70
     0
  9
$DIMSOXD
 70
     0
  9
$DIMSAH
 70
     0
  9
$DIMBLK1
  1

  9
$DIMBLK2
  1

  9
$DIMSTYLE
  2
ISO-25
  9
$DIMCLRD
 70
     0
  9
$DIMCLRE
 70
     0
  9
$DIMCLRT
 70
     0
  9
$DIMTFAC
 40
1.0
  9
$DIMGAP
 40
7.62
  9
$DIMJUST
 70
     0
  9
$DIMSD1
 70
     0
  9
$DIMSD2
 70
     0
  9
$DIMTOLJ
 70
     0
  9
$DIMTZIN
 70
     0
  9
$DIMALTZ
 70
     0
  9
$DIMALTTZ
 70
     0
  9
$DIMFIT
 70
     3
  9
$DIMUPT
 70
     0
  9
$DIMUNIT
 70
     2
  9
$DIMDEC
 70
     2
  9
$DIMTDEC
 70
     2
  9
$DIMALTU
 70
     2
  9
$DIMALTTD
 70
     3
  9
$DIMTXSTY
  7
STANDARD
  9
$DIMAUNIT
 70
     0
  9
$LUNITS
 70
     2
  9
$LUPREC
 70
     2
  9
$SKETCHINC
 40
1.0
  9
$FILLETRAD
 40
10.0
  9
$AUNITS
 70
     0
  9
$AUPREC
 70
     2
  9
$MENU
  1
.
  9
$ELEVATION
 40
0.0
  9
$PELEVATION
 40
0.0
  9
$THICKNESS
 40
0.0
  9
$LIMCHECK
 70
     0
  9
$CHAMFERA
 40
10.0
  9
$CHAMFERB
 40
10.0
  9
$CHAMFERC
 40
20.0
  9
$CHAMFERD
 40
0.0
  9
$SKPOLY
 70
     0
  9
$TDCREATE
 40
2456356.390732963
  9
$TDUPDATE
 40
2456356.390733507
  9
$TDINDWG
 40
0.0000000116
  9
$TDUSRTIMER
 40
0.0000000116
  9
$USRTIMER
 70
     1
  9
$ANGBASE
 50
0.0
  9
$ANGDIR
 70
     0
  9
$PDMODE
 70
     0
  9
$PDSIZE
 40
-1.0
  9
$PLINEWID
 40
0.0
  9
$COORDS
 70
     1
  9
$SPLFRAME
 70
     0
  9
$SPLINETYPE
 70
     6
  9
$SPLINESEGS
 70
     8
  9
$ATTDIA
 70
     0
  9
$ATTREQ
 70
     1
  9
$HANDLING
 70
     1
  9
$HANDSEED
  5
2BF
  9
$SURFTAB1
 70
     6
  9
$SURFTAB2
 70
     6
  9
$SURFTYPE
 70
     6
  9
$SURFU
 70
     6
  9
$SURFV
 70
     6
  9
$UCSNAME
  2

  9
$UCSORG
 10
0.0
 20
0.0
 30
0.0
  9
$UCSXDIR
 10
1.0
 20
0.0
 30
0.0
  9
$UCSYDIR
 10
0.0
 20
1.0
 30
0.0
  9
$PUCSNAME
  2

  9
$PUCSORG
 10
0.0
 20
0.0
 30
0.0
  9
$PUCSXDIR
 10
1.0
 20
0.0
 30
0.0
  9
$PUCSYDIR
 10
0.0
 20
1.0
 30
0.0
  9
$USERI1
 70
     0
  9
$USERI2
 70
     0
  9
$USERI3
 70
     0
  9
$USERI4
 70
     0
  9
$USERI5
 70
     0
  9
$USERR1
 40
0.0
  9
$USERR2
 40
0.0
  9
$USERR3
 40
0.0
  9
$USERR4
 40
0.0
  9
$USERR5
 40
0.0
  9
$WORLDVIEW
 70
     1
  9
$SHADEDGE
 70
     3
  9
$SHADEDIF
 70
    70
  9
$TILEMODE
 70
     1
  9
$MAXACTVP
 70
    64
  9
$PINSBASE
 10
0.0
 20
0.0
 30
0.0
  9
$PLIMCHECK
 70
     0
  9
$PEXTMIN
 10
1.0000000000E+20
 20
1.0000000000E+20
 30
1.0000000000E+20
  9
$PEXTMAX
 10
-1.0000000000E+20
 20
-1.0000000000E+20
 30
-1.0000000000E+20
  9
$PLIMMIN
 10
0.0
 20
0.0
  9
$PLIMMAX
 10
420.0
 20
297.0
  9
$UNITMODE
 70
     0
  9
$VISRETAIN
 70
     1
  9
$PLINEGEN
 70
     0
  9
$PSLTSCALE
 70
     1
  9
$TREEDEPTH
 70
  3020
  9
$PICKSTYLE
 70
     1
  9
$CMLSTYLE
  2
STANDARD
  9
$CMLJUST
 70
     0
  9
$CMLSCALE
 40
20.0
  9
$PROXYGRAPHICS
 70
     1
  9
$MEASUREMENT
 70
     1
  0
ENDSEC
  0
SECTION
  2
CLASSES
  0
CLASS
  1
ACDBDICTIONARYWDFLT
  2
AcDbDictionaryWithDefault
  3
ObjectDBX Classes
 90
        0
280
     0
281
     0
  0
CLASS
  1
VISUALSTYLE
  2
AcDbVisualStyle
  3
ObjectDBX Classes
 90
     4095
280
     0
281
     0
  0
CLASS
  1
MATERIAL
  2
AcDbMaterial
  3
ObjectDBX Classes
 90
     1153
280
     0
281
     0
  0
CLASS
  1
XRECORD
  2
AcDbXrecord
  3
AutoCAD 2000
 90
        0
280
     0
281
     0
  0
CLASS
  1
LWPOLYLINE
  2
AcDbPolyline
  3
AutoCAD 2000
 90
        0
280
     0
281
     1
  0
CLASS
  1
HATCH
  2
AcDbHatch
  3
AutoCAD 2000
 90
        0
280
     0
281
     1
  0
ENDSEC
  0
SECTION
  2
TABLES
  0
TABLE
  2
VPORT
  5
8
330
0
100
AcDbSymbolTable
 70
     1
  0
VPORT
  5
29
330
8
100
AcDbSymbolTableRecord
100
AcDbViewportTableRecord
  2
*ACTIVE
 70
     0
 10
0.0
 20
0.0
 11
1.0
 21
1.0
 12
1050.0
 22
742.5
 13
0.0
 23
0.0
 14
10.0
 24
10.0
 15
10.0
 25
10.0
 16
0.0
 26
0.0
 36
1.0
 17
0.0
 27
0.0
 37
0.0
 40
1485.0
 41
1.4141414141
 42
50.0
 43
0.0
 44
0.0
 50
0.0
 51
0.0
 71
     0
 72
  2000
 73
     1
 74
     3
 75
     0
 76
     0
 77
     0
 78
     0
  0
ENDTAB
  0
TABLE
  2
LTYPE
  5
5
330
0
100
AcDbSymbolTable
 70
     6
  0
LTYPE
  5
14
330
5
100
AcDbSymbolTableRecord
100
AcDbLinetypeTableRecord
  2
BYBLOCK
 70
     0
  3

 72
    65
 73
     0
 40
0.0
  0
LTYPE
  5
15
330
5
100
AcDbSymbolTableRecord
100
AcDbLinetypeTableRecord
  2
BYLAYER
 70
     0
  3

 72
    65
 73
     0
 40
0.0
  0
LTYPE
  5
16
330
5
100
AcDbSymbolTableRecord
100
AcDbLinetypeTableRecord
  2
CONTINUOUS
 70
     0
  3
Solid line
 72
    65
 73
     0
 40
0.0
  0
LTYPE
  5
3F
330
5
100
AcDbSymbolTableRecord
100
AcDbLinetypeTableRecord
  2
HIDDEN
 70
     0
  3
Hidden __ __ __ __ __ __ __ __ __ __ __ __ __ __
 72
    65
 73
     2
 40
1.905
 49
1.27
 74
     0
 49
-0.635
 74
     0
  0
LTYPE
  5
40
330
5
100
AcDbSymbolTableRecord
100
AcDbLinetypeTableRecord
  2
PHANTOM
 70
     0
  3
Phantom ______  __  __  ______  __  __  ______
 72
    65
 73
     6
 40
12.7
 49
6.35
 74
     0
 49
-1.27
 74
     0
 49
1.27
 74
     0
 49
-1.27
 74
     0
 49
1.27
 74
     0
 49
-1.27
 74
     0
  0
LTYPE
  5
41
330
5
100
AcDbSymbolTableRecord
100
AcDbLinetypeTableRecord
  2
CENTER
 70
     0
  3
Center ____ _ ____ _ ____ _ ____ _ ____ _ ____
 72
    65
 73
     4
 40
10.16
 49
6.35
 74
     0
 49
-1.27
 74
     0
 49
1.27
 74
     0
 49
-1.27
 74
     0
  0
LTYPE
  5
42
330
5
100
AcDbSymbolTableRecord
100
AcDbLinetypeTableRecord
  2
CENTERX2
 70
     0
  3
Center (2x) ________  __  ________  __  _____
 72
    65
 73
     4
 40
20.32
 49
12.7
 74
     0
 49
-2.54
 74
     0
 49
2.54
 74
     0
 49
-2.54
 74
     0
  0
LTYPE
  5
43
330
5
100
AcDbSymbolTableRecord
100
AcDbLinetypeTableRecord
  2
DOT2
 70
     0
  3
Dot (.5x) ........................................
 72
    65
 73
     2
 40
0.635
 49
0.0
 74
     0
 49
-0.635
 74
     0
  0
ENDTAB
  0
TABLE
  2
LAYER
  5
2
330
0
100
AcDbSymbolTable
 70
     2
  0
LAYER
  5
10
330
2
100
AcDbSymbolTableRecord
100
AcDbLayerTableRecord
  2
0
 70
     0
 62
     7
  6
CONTINUOUS
  0
LAYER
  5
44
330
2
100
AcDbSymbolTableRecord
100
AcDbLayerTableRecord
  2
FORMAT
 70
     0
 62
     7
  6
CONTINUOUS
  0
ENDTAB
  0
TABLE
  2
STYLE
  5
3
330
0
100
AcDbSymbolTable
 70
     1
  0
STYLE
  5
11
330
3
100
AcDbSymbolTableRecord
100
AcDbTextStyleTableRecord
  2
STANDARD
 70
     0
 40
0.0
 41
1.0
 50
0.0
 71
     0
 42
17.5
  3
txt
  4

  0
ENDTAB
  0
TABLE
  2
VIEW
  5
6
330
0
100
AcDbSymbolTable
 70
     0
  0
ENDTAB
  0
TABLE
  2
UCS
  5
7
330
0
100
AcDbSymbolTable
 70
     0
  0
ENDTAB
  0
TABLE
  2
APPID
  5
9
330
0
100
AcDbSymbolTable
 70
     1
  0
APPID
  5
12
330
9
100
AcDbSymbolTableRecord
100
AcDbRegAppTableRecord
  2
ACAD
 70
     0
  0
ENDTAB
  0
TABLE
  2
DIMSTYLE
  5
A
330
0
100
AcDbSymbolTable
 70
     1
  0
DIMSTYLE
105
27
330
A
100
AcDbSymbolTableRecord
100
AcDbDimStyleTableRecord
  2
ISO-25
 70
     0
  3

  4

  5

  6

  7

 40
1.0
 41
2.5
 42
0.625
 43
3.75
 44
1.25
 45
0.0
 46
0.0
 47
0.0
 48
0.0
140
2.5
141
2.5
142
0.0
143
0.0393700787
144
1.0
145
0.0
146
1.0
147
0.625
 71
     0
 72
     0
 73
     0
 74
     0
 75
     0
 76
     0
 77
     1
 78
     8
170
     0
171
     3
172
     1
173
     0
174
     0
175
     0
176
     0
177
     0
178
     0
270
     2
271
     2
272
     2
273
     2
274
     3
340
11
275
     0
280
     0
281
     0
282
     0
283
     0
284
     8
285
     0
286
     0
287
     3
288
     0
  0
ENDTAB
  0
TABLE
  2
BLOCK_RECORD
  5
1
330
0
100
AcDbSymbolTable
 70
     1
  0
BLOCK_RECORD
  5
1F
330
1
100
AcDbSymbolTableRecord
100
AcDbBlockTableRecord
  2
*MODEL_SPACE
  0
BLOCK_RECORD
  5
1B
330
1
100
AcDbSymbolTableRecord
100
AcDbBlockTableRecord
  2
*PAPER_SPACE
  0
BLOCK_RECORD
  5
23
330
1
100
AcDbSymbolTableRecord
100
AcDbBlockTableRecord
  2
*PAPER_SPACE0
  0
ENDTAB
  0
ENDSEC
  0
SECTION
  2
BLOCKS
  0
BLOCK
  5
20
330
1F
100
AcDbEntity
  8
0
100
AcDbBlockBegin
  2
*MODEL_SPACE
 70
     0
 10
0.0
 20
0.0
 30
0.0
  3
*MODEL_SPACE
  1

  0
ENDBLK
  5
21
330
1F
100
AcDbEntity
  8
0
100
AcDbBlockEnd
  0
BLOCK
  5
1C
330
1B
100
AcDbEntity
 67
     1
  8
0
100
AcDbBlockBegin
  2
*PAPER_SPACE
 70
     0
 10
0.0
 20
0.0
 30
0.0
  3
*PAPER_SPACE
  1

  0
ENDBLK
  5
1D
330
1B
100
AcDbEntity
 67
     1
  8
0
100
AcDbBlockEnd
  0
BLOCK
  5
24
330
23
100
AcDbEntity
  8
0
100
AcDbBlockBegin
  2
*PAPER_SPACE0
 70
     0
 10
0.0
 20
0.0
 30
0.0
  3
*PAPER_SPACE0
  1

  0
ENDBLK
  5
25
330
23
100
AcDbEntity
  8
0
100
AcDbBlockEnd
  0
ENDSEC
  0
SECTION
  2
ENTITIES
  0
LINE
  5
45
330
1F
100
AcDbEntity
  8
0
  6
CONTINUOUS
 62
     7
100
AcDbLine
 10
2074.25
 20
25.75
 30
0.0
 11
25.75
 21
25.75
 31
0.0
  0
LINE
  5
46
330
1F
100
AcDbEntity
  8
0
  6
CONTINUOUS
 62
     7
100
AcDbLine
 10
2075.0
 20
25.0
 30
0.0
 11
2075.0
 21
1385.0
 31
0.0
  0
LINE
  5
47
330
1F
100
AcDbEntity
  8
0
  6
CONTINUOUS
 62
     7
100
AcDbLine
 10
2075.0
 20
1385.0
 30
0.0
 11
25.0
 21
1385.0
 31
0.0
  0
LINE
  5
48
330
1F
100
AcDbEntity
  8
0
  6
CONTINUOUS
 62
     7
100
AcDbLine
 10
25.75
 20
1384.25
 30
0.0
 11
25.75
 21
25.75
 31
0.0
  0
LINE
  5
49
330
1F
100
AcDbEntity
  8
0
  6
CONTINUOUS
 62
     7
100
AcDbLine
 10
442.1377658925
 20
742.883029512
 30
0.0
 11
442.1377658925
 21
872.8830247437
 31
0.0
  0
LINE
  5
4A
330
1F
100
AcDbEntity
  8
0
  6
CONTINUOUS
 62
     7
100
AcDbLine
 10
445.137757071
 20
872.8830247437
 30
0.0
 11
445.137757071
 21
742.883029512
 31
0.0
  0
LINE
  5
4B
330
1F
100
AcDbEntity
  8
0
  6
CONTINUOUS
 62
     7
100
AcDbLine
 10
442.1377658925
 20
737.8830342804
 30
0.0
 11
445.137757071
 21
737.8830342804
 31
0.0
  0
LINE
  5
4C
330
1F
100
AcDbEntity
  8
0
  6
CONTINUOUS
 62
     7
100
AcDbLine
 10
442.1377658925
 20
737.8830342804
 30
0.0
 11
442.1377658925
 21
742.883029512
 31
0.0
  0
LINE
  5
4D
330
1F
100
AcDbEntity
  8
0
  6
CONTINUOUS
 62
     7
100
AcDbLine
 10
445.137757071
 20
737.8830342804
 30
0.0
 11
445.137757071
 21
742.883029512
 31
0.0
  0
LINE
  5
4E
330
1F
100
AcDbEntity
  8
0
  6
CONTINUOUS
 62
     7
100
AcDbLine
 10
442.1377658925
 20
917.883041433
 30
0.0
 11
445.137757071
 21
917.883041433
 31
0.0
  0
LINE
  5
4F
330
1F
100
AcDbEntity
  8
0
  6
CONTINUOUS
 62
     7
100
AcDbLine
 10
442.1377658925
 20
917.883041433
 30
0.0
 11
442.1377658925
 21
922.8830366646
 31
0.0
  0
LINE
  5
50
330
1F
100
AcDbEntity
  8
0
  6
CONTINUOUS
 62
     7
100
AcDbLine
 10
445.137757071
 20
917.883041433
 30
0.0
 11
445.137757071
 21
922.8830366646
 31
0.0
  0
LINE
  5
51
330
1F
100
AcDbEntity
  8
0
  6
CONTINUOUS
 62
     7
100
AcDbLine
 10
442.1377658925
 20
922.8830366646
 30
0.0
 11
442.1377658925
 21
1107.8830390488
 31
0.0
  0
LINE
  5
52
330
1F
100
AcDbEntity
  8
0
  6
CONTINUOUS
 62
     7
100
AcDbLine
 10
445.137757071
 20
1107.8830390488
 30
0.0
 11
445.137757071
 21
922.8830366646
 31
0.0
  0
LINE
  5
53
330
1F
100
AcDbEntity
  8
0
  6
CONTINUOUS
 62
     7
100
AcDbLine
 10
445.137757071
 20
877.8830199753
 30
0.0
 11
442.1377658925
 21
877.8830199753
 31
0.0
  0
LINE
  5
54
330
1F
100
AcDbEntity
  8
0
  6
CONTINUOUS
 62
     7
100
AcDbLine
 10
442.1377658925
 20
872.8830247437
 30
0.0
 11
442.1377658925
 21
877.8830199753
 31
0.0
  0
LINE
  5
55
330
1F
100
AcDbEntity
  8
0
  6
CONTINUOUS
 62
     7
100
AcDbLine
 10
445.137757071
 20
872.8830247437
 30
0.0
 11
445.137757071
 21
877.8830199753
 31
0.0
  0
LINE
  5
56
330
1F
100
AcDbEntity
  8
0
  6
CONTINUOUS
 62
     7
100
AcDbLine
 10
445.137757071
 20
1112.8830342804
 30
0.0
 11
442.1377658925
 21
1112.8830342804
 31
0.0
  0
LINE
  5
57
330
1F
100
AcDbEntity
  8
0
  6
CONTINUOUS
 62
     7
100
AcDbLine
 10
442.1377658925
 20
1107.8830390488
 30
0.0
 11
442.1377658925
 21
1112.8830342804
 31
0.0
  0
LINE
  5
58
330
1F
100
AcDbEntity
  8
0
  6
CONTINUOUS
 62
     7
100
AcDbLine
 10
445.137757071
 20
1107.8830390488
 30
0.0
 11
445.137757071
 21
1112.8830342804
 31
0.0
  0
LINE
  5
59
330
1F
100
AcDbEntity
  8
0
  6
CONTINUOUS
 62
     7
100
AcDbLine
 10
442.1377658925
 20
877.8830199753
 30
0.0
 11
442.1377658925
 21
882.8830152069
 31
0.0
  0
LINE
  5
5A
330
1F
100
AcDbEntity
  8
0
  6
CONTINUOUS
 62
     7
100
AcDbLine
 10
445.137757071
 20
882.8830152069
 30
0.0
 11
445.137757071
 21
877.8830199753
 31
0.0
  0
LINE
  5
5B
330
1F
100
AcDbEntity
  8
0
  6
CONTINUOUS
 62
     7
100
AcDbLine
 10
442.1377658925
 20
912.8830462013
 30
0.0
 11
442.1377658925
 21
917.883041433
 31
0.0
  0
LINE
  5
5C
330
1F
100
AcDbEntity
  8
0
  6
CONTINUOUS
 62
     7
100
AcDbLine
 10
445.137757071
 20
917.883041433
 30
0.0
 11
445.137757071
 21
912.8830462013
 31
0.0
  0
LINE
  5
5D
330
1F
100
AcDbEntity
  8
0
  6
CONTINUOUS
 62
     7
100
AcDbLine
 10
442.1377658925
 20
882.8830152069
 30
0.0
 11
442.1377658925
 21
912.8830462013
 31
0.0
  0
LINE
  5
5E
330
1F
100
AcDbEntity
  8
0
  6
CONTINUOUS
 62
     7
100
AcDbLine
 10
445.137757071
 20
912.8830462013
 30
0.0
 11
445.137757071
 21
882.8830152069
 31
0.0
  0
ARC
  5
5F
330
1F
100
AcDbEntity
  8
0
  6
CONTINUOUS
 62
     7
100
AcDbCircle
 10
716.0377586207
 20
1196.7830314194
 30
0.0
 40
3.100000000000023
100
AcDbArc
 50
0.0
 51
90.0
  0
LINE
  5
60
330
1F
100
AcDbEntity
  8
0
  6
CONTINUOUS
 62
     7
100
AcDbLine
 10
719.1377572796
 20
1179.883006147
 30
0.0
 11
719.1377572796
 21
1196.7830091034
 31
0.0
  0
LINE
  5
61
330
1F
100
AcDbEntity
  8
0
  6
CONTINUOUS
 62
     7
100
AcDbLine
 10
716.1377586505
 20
1196.7830091034
 30
0.0
 11
716.1377586505
 21
1179.883006147
 31
0.0
  0
ARC
  5
62
330
1F
100
AcDbEntity
  8
0
  6
CONTINUOUS
 62
     7
100
AcDbCircle
 10
716.0377586207
 20
1196.7830314194
 30
0.0
 40
0.0999999999999091
100
AcDbArc
 50
0.0000000001
 51
89.9999999999
  0
ARC
  5
63
330
1F
100
AcDbEntity
  8
0
  6
CONTINUOUS
 62
     7
100
AcDbCircle
 10
602.2377586207
 20
1196.7830314194
 30
0.0
 40
0.1000000000000227
100
AcDbArc
 50
90.0
 51
179.9999999999
  0
LINE
  5
64
330
1F
100
AcDbEntity
  8
0
  6
CONTINUOUS
 62
     7
100
AcDbLine
 10
602.1377585909
 20
1179.883006147
 30
0.0
 11
602.1377585909
 21
1196.7830091034
 31
0.0
  0
LINE
  5
65
330
1F
100
AcDbEntity
  8
0
  6
CONTINUOUS
 62
     7
100
AcDbLine
 10
599.1377599618
 20
1196.7830091034
 30
0.0
 11
599.1377599618
 21
1179.883006147
 31
0.0
  0
ARC
  5
66
330
1F
100
AcDbEntity
  8
0
  6
CONTINUOUS
 62
     7
100
AcDbCircle
 10
602.2377586207
 20
1196.7830314194
 30
0.0
 40
3.100000000000023
100
AcDbArc
 50
90.0
 51
180.0
  0
LINE
  5
67
330
1F
100
AcDbEntity
  8
0
  6
CONTINUOUS
 62
     7
100
AcDbLine
 10
716.0377569577
 20
1199.8830466782
 30
0.0
 11
602.2377602837
 21
1199.8830466782
 31
0.0
  0
LINE
  5
68
330
1F
100
AcDbEntity
  8
0
  6
CONTINUOUS
 62
     7
100
AcDbLine
 10
602.2377602837
 20
1196.8830256973
 30
0.0
 11
716.0377569577
 21
1196.8830256973
 31
0.0
  0
LINE
  5
69
330
1F
100
AcDbEntity
  8
0
  6
CONTINUOUS
 62
     7
100
AcDbLine
 10
599.1377599618
 20
1169.8830156837
 30
0.0
 11
602.1377585909
 21
1169.8830156837
 31
0.0
  0
LINE
  5
6A
330
1F
100
AcDbEntity
  8
0
  6
CONTINUOUS
 62
     7
100
AcDbLine
 10
599.1377599618
 20
1179.883006147
 30
0.0
 11
599.1377599618
 21
1169.8830156837
 31
0.0
  0
LINE
  5
6B
330
1F
100
AcDbEntity
  8
0
  6
CONTINUOUS
 62
     7
100
AcDbLine
 10
602.1377585909
 20
1169.8830156837
 30
0.0
 11
602.1377585909
 21
1179.883006147
 31
0.0
  0
LINE
  5
6C
330
1F
100
AcDbEntity
  8
0
  6
CONTINUOUS
 62
     7
100
AcDbLine
 10
719.1377572796
 20
1169.8830156837
 30
0.0
 11
716.1377586505
 21
1169.8830156837
 31
0.0
  0
LINE
  5
6D
330
1F
100
AcDbEntity
  8
0
  6
CONTINUOUS
 62
     7
100
AcDbLine
 10
719.1377572796
 20
1169.8830156837
 30
0.0
 11
719.1377572796
 21
1179.883006147
 31
0.0
  0
LINE
  5
6E
330
1F
100
AcDbEntity
  8
0
  6
CONTINUOUS
 62
     7
100
AcDbLine
 10
716.1377586505
 20
1179.883006147
 30
0.0
 11
716.1377586505
 21
1169.8830156837
 31
0.0
  0
LINE
  5
6F
330
1F
100
AcDbEntity
  8
0
  6
CONTINUOUS
 62
     7
100
AcDbLine
 10
876.1377513489
 20
737.8830342804
 30
0.0
 11
876.1377513489
 21
742.883029512
 31
0.0
  0
LINE
  5
70
330
1F
100
AcDbEntity
  8
0
  6
CONTINUOUS
 62
     7
100
AcDbLine
 10
873.1377601704
 20
737.8830342804
 30
0.0
 11
876.1377513489
 21
737.8830342804
 31
0.0
  0
LINE
  5
71
330
1F
100
AcDbEntity
  8
0
  6
CONTINUOUS
 62
     7
100
AcDbLine
 10
873.1377601704
 20
737.8830342804
 30
0.0
 11
873.1377601704
 21
742.883029512
 31
0.0
  0
LINE
  5
72
330
1F
100
AcDbEntity
  8
0
  6
CONTINUOUS
 62
     7
100
AcDbLine
 10
873.1377601704
 20
742.883029512
 30
0.0
 11
873.1377601704
 21
872.8830247437
 31
0.0
  0
LINE
  5
73
330
1F
100
AcDbEntity
  8
0
  6
CONTINUOUS
 62
     7
100
AcDbLine
 10
876.1377513489
 20
872.8830247437
 30
0.0
 11
876.1377513489
 21
742.883029512
 31
0.0
  0
LINE
  5
74
330
1F
100
AcDbEntity
  8
0
  6
CONTINUOUS
 62
     7
100
AcDbLine
 10
873.1377601704
 20
922.8830366646
 30
0.0
 11
873.1377601704
 21
1107.8830390488
 31
0.0
  0
LINE
  5
75
330
1F
100
AcDbEntity
  8
0
  6
CONTINUOUS
 62
     7
100
AcDbLine
 10
876.1377513489
 20
1107.8830390488
 30
0.0
 11
876.1377513489
 21
922.8830366646
 31
0.0
  0
LINE
  5
76
330
1F
100
AcDbEntity
  8
0
  6
CONTINUOUS
 62
     7
100
AcDbLine
 10
873.1377601704
 20
917.883041433
 30
0.0
 11
876.1377513489
 21
917.883041433
 31
0.0
  0
LINE
  5
77
330
1F
100
AcDbEntity
  8
0
  6
CONTINUOUS
 62
     7
100
AcDbLine
 10
873.1377601704
 20
917.883041433
 30
0.0
 11
873.1377601704
 21
922.8830366646
 31
0.0
  0
LINE
  5
78
330
1F
100
AcDbEntity
  8
0
  6
CONTINUOUS
 62
     7
100
AcDbLine
 10
876.1377513489
 20
917.883041433
 30
0.0
 11
876.1377513489
 21
922.8830366646
 31
0.0
  0
LINE
  5
79
330
1F
100
AcDbEntity
  8
0
  6
CONTINUOUS
 62
     7
100
AcDbLine
 10
876.1377513489
 20
877.8830199753
 30
0.0
 11
873.1377601704
 21
877.8830199753
 31
0.0
  0
LINE
  5
7A
330
1F
100
AcDbEntity
  8
0
  6
CONTINUOUS
 62
     7
100
AcDbLine
 10
873.1377601704
 20
872.8830247437
 30
0.0
 11
873.1377601704
 21
877.8830199753
 31
0.0
  0
LINE
  5
7B
330
1F
100
AcDbEntity
  8
0
  6
CONTINUOUS
 62
     7
100
AcDbLine
 10
876.1377513489
 20
872.8830247437
 30
0.0
 11
876.1377513489
 21
877.8830199753
 31
0.0
  0
LINE
  5
7C
330
1F
100
AcDbEntity
  8
0
  6
CONTINUOUS
 62
     7
100
AcDbLine
 10
876.1377513489
 20
1112.8830342804
 30
0.0
 11
873.1377601704
 21
1112.8830342804
 31
0.0
  0
LINE
  5
7D
330
1F
100
AcDbEntity
  8
0
  6
CONTINUOUS
 62
     7
100
AcDbLine
 10
873.1377601704
 20
1107.8830390488
 30
0.0
 11
873.1377601704
 21
1112.8830342804
 31
0.0
  0
LINE
  5
7E
330
1F
100
AcDbEntity
  8
0
  6
CONTINUOUS
 62
     7
100
AcDbLine
 10
876.1377513489
 20
1107.8830390488
 30
0.0
 11
876.1377513489
 21
1112.8830342804
 31
0.0
  0
LINE
  5
7F
330
1F
100
AcDbEntity
  8
0
  6
CONTINUOUS
 62
     7
100
AcDbLine
 10
873.1377601704
 20
877.8830199753
 30
0.0
 11
873.1377601704
 21
882.8830152069
 31
0.0
  0
LINE
  5
80
330
1F
100
AcDbEntity
  8
0
  6
CONTINUOUS
 62
     7
100
AcDbLine
 10
876.1377513489
 20
882.8830152069
 30
0.0
 11
876.1377513489
 21
877.8830199753
 31
0.0
  0
LINE
  5
81
330
1F
100
AcDbEntity
  8
0
  6
CONTINUOUS
 62
     7
100
AcDbLine
 10
873.1377601704
 20
912.8830462013
 30
0.0
 11
873.1377601704
 21
917.883041433
 31
0.0
  0
LINE
  5
82
330
1F
100
AcDbEntity
  8
0
  6
CONTINUOUS
 62
     7
100
AcDbLine
 10
876.1377513489
 20
917.883041433
 30
0.0
 11
876.1377513489
 21
912.8830462013
 31
0.0
  0
LINE
  5
83
330
1F
100
AcDbEntity
  8
0
  6
CONTINUOUS
 62
     7
100
AcDbLine
 10
873.1377601704
 20
882.8830152069
 30
0.0
 11
873.1377601704
 21
912.8830462013
 31
0.0
  0
LINE
  5
84
330
1F
100
AcDbEntity
  8
0
  6
CONTINUOUS
 62
     7
100
AcDbLine
 10
876.1377513489
 20
912.8830462013
 30
0.0
 11
876.1377513489
 21
882.8830152069
 31
0.0
  0
LINE
  5
85
330
1F
100
AcDbEntity
  8
0
  6
CONTINUOUS
 62
     7
100
AcDbLine
 10
480.6377619586
 20
1009.8723798309
 30
0.0
 11
480.6377619586
 21
926.3830214058
 31
0.0
  0
ARC
  5
86
330
1F
100
AcDbEntity
  8
0
  6
CONTINUOUS
 62
     7
100
AcDbCircle
 10
500.6377586207
 20
926.3830314194
 30
0.0
 40
20.0
100
AcDbArc
 50
180.0
 51
270.0
  0
LINE
  5
87
330
1F
100
AcDbEntity
  8
0
  6
CONTINUOUS
 62
     7
100
AcDbLine
 10
500.6377577862
 20
906.3830404793
 30
0.0
 11
619.1377595148
 21
906.3830404793
 31
0.0
  0
ARC
  5
88
330
1F
100
AcDbEntity
  8
0
  6
CONTINUOUS
 62
     7
100
AcDbCircle
 10
619.1377586207
 20
926.3830314194
 30
0.0
 40
20.0
100
AcDbArc
 50
270.0
 51
0.0
  0
LINE
  5
89
330
1F
100
AcDbEntity
  8
0
  6
CONTINUOUS
 62
     7
100
AcDbLine
 10
639.1377590677
 20
926.3830214058
 30
0.0
 11
639.1377590677
 21
1086.3830476318
 31
0.0
  0
ARC
  5
8A
330
1F
100
AcDbEntity
  8
0
  6
CONTINUOUS
 62
     7
100
AcDbCircle
 10
619.1377586207
 20
1086.3830314194
 30
0.0
 40
20.0
100
AcDbArc
 50
0.0
 51
90.0
  0
LINE
  5
8B
330
1F
100
AcDbEntity
  8
0
  6
CONTINUOUS
 62
     7
100
AcDbLine
 10
619.1377595148
 20
1106.3830285583
 30
0.0
 11
500.6377577862
 21
1106.3830285583
 31
0.0
  0
ARC
  5
8C
330
1F
100
AcDbEntity
  8
0
  6
CONTINUOUS
 62
     7
100
AcDbCircle
 10
500.6377586207
 20
1086.3830314194
 30
0.0
 40
20.0
100
AcDbArc
 50
90.0
 51
180.0
  0
LINE
  5
8D
330
1F
100
AcDbEntity
  8
0
  6
CONTINUOUS
 62
     7
100
AcDbLine
 10
480.6377619586
 20
1086.3830476318
 30
0.0
 11
480.6377619586
 21
1056.8936496292
 31
0.0
  0
ARC
  5
8E
330
1F
100
AcDbEntity
  8
0
  6
CONTINUOUS
 62
     7
100
AcDbCircle
 10
470.6377586207
 20
1056.8936673104
 30
0.0
 40
10.00000000000006
100
AcDbArc
 50
289.8768740701
 51
0.0
  0
ARC
  5
8F
330
1F
100
AcDbEntity
  8
0
  6
CONTINUOUS
 62
     7
100
AcDbCircle
 10
479.1377586207
 20
1033.3830314194
 30
0.0
 40
15.00000000000029
100
AcDbArc
 50
109.8768740701
 51
250.1231259299
  0
ARC
  5
90
330
1F
100
AcDbEntity
  8
0
  6
CONTINUOUS
 62
     7
100
AcDbCircle
 10
470.6377586207
 20
1009.8723955284
 30
0.0
 40
10.00000000000006
100
AcDbArc
 50
360.0
 51
70.1231259299
  0
ARC
  5
91
330
1F
100
AcDbEntity
  8
0
  6
CONTINUOUS
 62
     7
100
AcDbCircle
 10
839.1377586207
 20
1033.3830314194
 30
0.0
 40
15.00000000000014
100
AcDbArc
 50
289.8768740701
 51
70.1231259299
  0
ARC
  5
92
330
1F
100
AcDbEntity
  8
0
  6
CONTINUOUS
 62
     7
100
AcDbCircle
 10
847.6377586207
 20
1056.8936673104
 30
0.0
 40
10.00000000000023
100
AcDbArc
 50
180.0
 51
250.1231259299
  0
LINE
  5
93
330
1F
100
AcDbEntity
  8
0
  6
CONTINUOUS
 62
     7
100
AcDbLine
 10
837.6377552828
 20
1056.8936496292
 30
0.0
 11
837.6377552828
 21
1086.3830476318
 31
0.0
  0
ARC
  5
94
330
1F
100
AcDbEntity
  8
0
  6
CONTINUOUS
 62
     7
100
AcDbCircle
 10
817.6377586207
 20
1086.3830314194
 30
0.0
 40
20.00000000000023
100
AcDbArc
 50
0.0
 51
90.0
  0
LINE
  5
95
330
1F
100
AcDbEntity
  8
0
  6
CONTINUOUS
 62
     7
100
AcDbLine
 10
817.6377594552
 20
1106.3830285583
 30
0.0
 11
699.1377577266
 21
1106.3830285583
 31
0.0
  0
ARC
  5
96
330
1F
100
AcDbEntity
  8
0
  6
CONTINUOUS
 62
     7
100
AcDbCircle
 10
699.1377586207
 20
1086.3830314194
 30
0.0
 40
20.0
100
AcDbArc
 50
90.0
 51
180.0
  0
LINE
  5
97
330
1F
100
AcDbEntity
  8
0
  6
CONTINUOUS
 62
     7
100
AcDbLine
 10
679.1377581737
 20
1086.3830476318
 30
0.0
 11
679.1377581737
 21
926.3830214058
 31
0.0
  0
ARC
  5
98
330
1F
100
AcDbEntity
  8
0
  6
CONTINUOUS
 62
     7
100
AcDbCircle
 10
699.1377586207
 20
926.3830314194
 30
0.0
 40
20.0
100
AcDbArc
 50
180.0
 51
270.0
  0
LINE
  5
99
330
1F
100
AcDbEntity
  8
0
  6
CONTINUOUS
 62
     7
100
AcDbLine
 10
699.1377577266
 20
906.3830404793
 30
0.0
 11
817.6377594552
 21
906.3830404793
 31
0.0
  0
ARC
  5
9A
330
1F
100
AcDbEntity
  8
0
  6
CONTINUOUS
 62
     7
100
AcDbCircle
 10
817.6377586207
 20
926.3830314194
 30
0.0
 40
20.0
100
AcDbArc
 50
270.0
 51
0.0
  0
LINE
  5
9B
330
1F
100
AcDbEntity
  8
0
  6
CONTINUOUS
 62
     7
100
AcDbLine
 10
837.6377552828
 20
926.3830214058
 30
0.0
 11
837.6377552828
 21
1009.8723798309
 31
0.0
  0
ARC
  5
9C
330
1F
100
AcDbEntity
  8
0
  6
CONTINUOUS
 62
     7
100
AcDbCircle
 10
847.6377586207
 20
1009.8723955284
 30
0.0
 40
10.00000000000052
100
AcDbArc
 50
109.8768740701
 51
180.0
  0
LINE
  5
9D
330
1F
100
AcDbEntity
  8
0
  6
CONTINUOUS
 62
     7
100
AcDbLine
 10
500.6377577862
 20
666.3830309425
 30
0.0
 11
619.1377595148
 21
666.3830309425
 31
0.0
  0
ARC
  5
9E
330
1F
100
AcDbEntity
  8
0
  6
CONTINUOUS
 62
     7
100
AcDbCircle
 10
619.1377586207
 20
686.3830314194
 30
0.0
 40
20.0
100
AcDbArc
 50
270.0
 51
0.0
  0
LINE
  5
9F
330
1F
100
AcDbEntity
  8
0
  6
CONTINUOUS
 62
     7
100
AcDbLine
 10
639.1377590677
 20
686.3830416714
 30
0.0
 11
639.1377590677
 21
846.3830380951
 31
0.0
  0
ARC
  5
A0
330
1F
100
AcDbEntity
  8
0
  6
CONTINUOUS
 62
     7
100
AcDbCircle
 10
619.1377586207
 20
846.3830314194
 30
0.0
 40
20.0
100
AcDbArc
 50
0.0
 51
90.0
  0
LINE
  5
A1
330
1F
100
AcDbEntity
  8
0
  6
CONTINUOUS
 62
     7
100
AcDbLine
 10
619.1377595148
 20
866.3830190216
 30
0.0
 11
500.6377577862
 21
866.3830190216
 31
0.0
  0
ARC
  5
A2
330
1F
100
AcDbEntity
  8
0
  6
CONTINUOUS
 62
     7
100
AcDbCircle
 10
500.6377586207
 20
846.3830314194
 30
0.0
 40
20.0
100
AcDbArc
 50
90.0
 51
180.0
  0
LINE
  5
A3
330
1F
100
AcDbEntity
  8
0
  6
CONTINUOUS
 62
     7
100
AcDbLine
 10
480.6377619586
 20
846.3830380951
 30
0.0
 11
480.6377619586
 21
686.3830416714
 31
0.0
  0
ARC
  5
A4
330
1F
100
AcDbEntity
  8
0
  6
CONTINUOUS
 62
     7
100
AcDbCircle
 10
500.6377586207
 20
686.3830314194
 30
0.0
 40
20.0
100
AcDbArc
 50
180.0
 51
270.0
  0
LINE
  5
A5
330
1F
100
AcDbEntity
  8
0
  6
CONTINUOUS
 62
     7
100
AcDbLine
 10
699.1377577266
 20
666.3830309425
 30
0.0
 11
817.6377594552
 21
666.3830309425
 31
0.0
  0
ARC
  5
A6
330
1F
100
AcDbEntity
  8
0
  6
CONTINUOUS
 62
     7
100
AcDbCircle
 10
817.6377586207
 20
686.3830314194
 30
0.0
 40
20.00000000000023
100
AcDbArc
 50
270.0
 51
0.0
  0
LINE
  5
A7
330
1F
100
AcDbEntity
  8
0
  6
CONTINUOUS
 62
     7
100
AcDbLine
 10
837.6377552828
 20
686.3830416714
 30
0.0
 11
837.6377552828
 21
846.3830380951
 31
0.0
  0
ARC
  5
A8
330
1F
100
AcDbEntity
  8
0
  6
CONTINUOUS
 62
     7
100
AcDbCircle
 10
817.6377586207
 20
846.3830314194
 30
0.0
 40
20.0
100
AcDbArc
 50
0.0
 51
90.0
  0
LINE
  5
A9
330
1F
100
AcDbEntity
  8
0
  6
CONTINUOUS
 62
     7
100
AcDbLine
 10
817.6377594552
 20
866.3830190216
 30
0.0
 11
699.1377577266
 21
866.3830190216
 31
0.0
  0
ARC
  5
AA
330
1F
100
AcDbEntity
  8
0
  6
CONTINUOUS
 62
     7
100
AcDbCircle
 10
699.1377586207
 20
846.3830314194
 30
0.0
 40
20.0
100
AcDbArc
 50
90.0
 51
180.0
  0
LINE
  5
AB
330
1F
100
AcDbEntity
  8
0
  6
CONTINUOUS
 62
     7
100
AcDbLine
 10
679.1377581737
 20
846.3830380951
 30
0.0
 11
679.1377581737
 21
686.3830416714
 31
0.0
  0
ARC
  5
AC
330
1F
100
AcDbEntity
  8
0
  6
CONTINUOUS
 62
     7
100
AcDbCircle
 10
699.1377586207
 20
686.3830314194
 30
0.0
 40
20.0
100
AcDbArc
 50
180.0
 51
270.0
  0
LINE
  5
AD
330
1F
100
AcDbEntity
  8
0
  6
CONTINUOUS
 62
     7
100
AcDbLine
 10
491.6377544484
 20
206.3830314454
 30
0.0
 11
491.6377544484
 21
282.3830350553
 31
0.0
  0
ARC
  5
AE
330
1F
100
AcDbEntity
  8
0
  6
CONTINUOUS
 62
     7
100
AcDbCircle
 10
487.6377586207
 20
282.3830314194
 30
0.0
 40
4.000000000000057
100
AcDbArc
 50
360.0
 51
90.0
  0
LINE
  5
AF
330
1F
100
AcDbEntity
  8
0
  6
CONTINUOUS
 62
     7
100
AcDbLine
 10
487.6377612433
 20
286.3830282603
 30
0.0
 11
440.637755402
 21
286.3830282603
 31
0.0
  0
LINE
  5
B0
330
1F
100
AcDbEntity
  8
0
  6
CONTINUOUS
 62
     7
100
AcDbLine
 10
440.637755402
 20
296.2120726024
 30
0.0
 11
440.637755402
 21
604.3830245052
 31
0.0
  0
LINE
  5
B1
330
1F
100
AcDbEntity
  8
0
  6
CONTINUOUS
 62
     7
100
AcDbLine
 10
440.637755402
 20
604.3830245052
 30
0.0
 11
437.6377642235
 21
604.3830245052
 31
0.0
  0
LINE
  5
B2
330
1F
100
AcDbEntity
  8
0
  6
CONTINUOUS
 62
     7
100
AcDbLine
 10
437.6377642235
 20
604.3830245052
 30
0.0
 11
437.6377642235
 21
614.3830447708
 31
0.0
  0
LINE
  5
B3
330
1F
100
AcDbEntity
  8
0
  6
CONTINUOUS
 62
     7
100
AcDbLine
 10
437.6377642235
 20
614.3830447708
 30
0.0
 11
440.637755402
 21
614.3830447708
 31
0.0
  0
LINE
  5
B4
330
1F
100
AcDbEntity
  8
0
  6
CONTINUOUS
 62
     7
100
AcDbLine
 10
440.637755402
 20
614.3830447708
 30
0.0
 11
440.637755402
 21
777.383032373
 31
0.0
  0
LINE
  5
B5
330
1F
100
AcDbEntity
  8
0
  6
CONTINUOUS
 62
     7
100
AcDbLine
 10
440.637755402
 20
777.383032373
 30
0.0
 11
442.1377658925
 21
777.383032373
 31
0.0
  0
LINE
  5
B6
330
1F
100
AcDbEntity
  8
0
  6
CONTINUOUS
 62
     7
100
AcDbLine
 10
442.1377658925
 20
782.3830276047
 30
0.0
 11
440.637755402
 21
782.3830276047
 31
0.0
  0
LINE
  5
B7
330
1F
100
AcDbEntity
  8
0
  6
CONTINUOUS
 62
     7
100
AcDbLine
 10
440.637755402
 20
782.3830276047
 30
0.0
 11
440.637755402
 21
1004.3830304657
 31
0.0
  0
LINE
  5
B8
330
1F
100
AcDbEntity
  8
0
  6
CONTINUOUS
 62
     7
100
AcDbLine
 10
440.637755402
 20
1004.3830304657
 30
0.0
 11
437.6377642235
 21
1004.3830304657
 31
0.0
  0
LINE
  5
B9
330
1F
100
AcDbEntity
  8
0
  6
CONTINUOUS
 62
     7
100
AcDbLine
 10
437.6377642235
 20
1004.3830304657
 30
0.0
 11
437.6377642235
 21
1014.383020929
 31
0.0
  0
LINE
  5
BA
330
1F
100
AcDbEntity
  8
0
  6
CONTINUOUS
 62
     7
100
AcDbLine
 10
437.6377642235
 20
1014.383020929
 30
0.0
 11
440.637755402
 21
1014.383020929
 31
0.0
  0
LINE
  5
BB
330
1F
100
AcDbEntity
  8
0
  6
CONTINUOUS
 62
     7
100
AcDbLine
 10
440.637755402
 20
1014.383020929
 30
0.0
 11
440.637755402
 21
1068.3830409561
 31
0.0
  0
LINE
  5
BC
330
1F
100
AcDbEntity
  8
0
  6
CONTINUOUS
 62
     7
100
AcDbLine
 10
440.637755402
 20
1068.3830409561
 30
0.0
 11
442.1377658925
 21
1068.3830409561
 31
0.0
  0
LINE
  5
BD
330
1F
100
AcDbEntity
  8
0
  6
CONTINUOUS
 62
     7
100
AcDbLine
 10
442.1377658925
 20
1073.3830361877
 30
0.0
 11
440.637755402
 21
1073.3830361877
 31
0.0
  0
LINE
  5
BE
330
1F
100
AcDbEntity
  8
0
  6
CONTINUOUS
 62
     7
100
AcDbLine
 10
440.637755402
 20
1073.3830361877
 30
0.0
 11
440.637755402
 21
1120.9559469734
 31
0.0
  0
LINE
  5
BF
330
1F
100
AcDbEntity
  8
0
  6
CONTINUOUS
 62
     7
100
AcDbLine
 10
440.637755402
 20
1120.9559469734
 30
0.0
 11
579.9416035494
 21
1201.3830571686
 31
0.0
  0
LINE
  5
C0
330
1F
100
AcDbEntity
  8
0
  6
CONTINUOUS
 62
     7
100
AcDbLine
 10
579.9416035494
 20
1201.3830571686
 30
0.0
 11
614.6377578458
 21
1201.3830571686
 31
0.0
  0
LINE
  5
C1
330
1F
100
AcDbEntity
  8
0
  6
CONTINUOUS
 62
     7
100
AcDbLine
 10
614.6377578458
 20
1201.3830571686
 30
0.0
 11
614.6377578458
 21
1199.8830466782
 31
0.0
  0
LINE
  5
C2
330
1F
100
AcDbEntity
  8
0
  6
CONTINUOUS
 62
     7
100
AcDbLine
 10
619.6377568028
 20
1199.8830466782
 30
0.0
 11
619.6377568028
 21
1201.3830571686
 31
0.0
  0
LINE
  5
C3
330
1F
100
AcDbEntity
  8
0
  6
CONTINUOUS
 62
     7
100
AcDbLine
 10
619.6377568028
 20
1201.3830571686
 30
0.0
 11
654.1377587325
 21
1201.3830571686
 31
0.0
  0
LINE
  5
C4
330
1F
100
AcDbEntity
  8
0
  6
CONTINUOUS
 62
     7
100
AcDbLine
 10
654.1377587325
 20
1201.3830571686
 30
0.0
 11
654.1377587325
 21
1204.3830781494
 31
0.0
  0
LINE
  5
C5
330
1F
100
AcDbEntity
  8
0
  6
CONTINUOUS
 62
     7
100
AcDbLine
 10
654.1377587325
 20
1204.3830781494
 30
0.0
 11
664.1377585089
 21
1204.3830781494
 31
0.0
  0
LINE
  5
C6
330
1F
100
AcDbEntity
  8
0
  6
CONTINUOUS
 62
     7
100
AcDbLine
 10
664.1377585089
 20
1204.3830781494
 30
0.0
 11
664.1377585089
 21
1201.3830571686
 31
0.0
  0
LINE
  5
C7
330
1F
100
AcDbEntity
  8
0
  6
CONTINUOUS
 62
     7
100
AcDbLine
 10
664.1377585089
 20
1201.3830571686
 30
0.0
 11
698.6377604386
 21
1201.3830571686
 31
0.0
  0
LINE
  5
C8
330
1F
100
AcDbEntity
  8
0
  6
CONTINUOUS
 62
     7
100
AcDbLine
 10
698.6377604386
 20
1201.3830571686
 30
0.0
 11
698.6377604386
 21
1199.8830466782
 31
0.0
  0
LINE
  5
C9
330
1F
100
AcDbEntity
  8
0
  6
CONTINUOUS
 62
     7
100
AcDbLine
 10
703.6377593956
 20
1199.8830466782
 30
0.0
 11
703.6377593956
 21
1201.3830571686
 31
0.0
  0
LINE
  5
CA
330
1F
100
AcDbEntity
  8
0
  6
CONTINUOUS
 62
     7
100
AcDbLine
 10
703.6377593956
 20
1201.3830571686
 30
0.0
 11
738.333913692
 21
1201.3830571686
 31
0.0
  0
LINE
  5
CB
330
1F
100
AcDbEntity
  8
0
  6
CONTINUOUS
 62
     7
100
AcDbLine
 10
738.333913692
 20
1201.3830571686
 30
0.0
 11
877.6377618393
 21
1120.9559469734
 31
0.0
  0
LINE
  5
CC
330
1F
100
AcDbEntity
  8
0
  6
CONTINUOUS
 62
     7
100
AcDbLine
 10
877.6377618393
 20
1120.9559469734
 30
0.0
 11
877.6377618393
 21
1073.3830361877
 31
0.0
  0
LINE
  5
CD
330
1F
100
AcDbEntity
  8
0
  6
CONTINUOUS
 62
     7
100
AcDbLine
 10
877.6377618393
 20
1073.3830361877
 30
0.0
 11
876.1377513489
 21
1073.3830361877
 31
0.0
  0
LINE
  5
CE
330
1F
100
AcDbEntity
  8
0
  6
CONTINUOUS
 62
     7
100
AcDbLine
 10
876.1377513489
 20
1068.3830409561
 30
0.0
 11
877.6377618393
 21
1068.3830409561
 31
0.0
  0
LINE
  5
CF
330
1F
100
AcDbEntity
  8
0
  6
CONTINUOUS
 62
     7
100
AcDbLine
 10
877.6377618393
 20
1068.3830409561
 30
0.0
 11
877.6377618393
 21
1014.383020929
 31
0.0
  0
LINE
  5
D0
330
1F
100
AcDbEntity
  8
0
  6
CONTINUOUS
 62
     7
100
AcDbLine
 10
877.6377618393
 20
1014.383020929
 30
0.0
 11
880.6377530179
 21
1014.383020929
 31
0.0
  0
LINE
  5
D1
330
1F
100
AcDbEntity
  8
0
  6
CONTINUOUS
 62
     7
100
AcDbLine
 10
880.6377530179
 20
1014.383020929
 30
0.0
 11
880.6377530179
 21
1004.3830304657
 31
0.0
  0
LINE
  5
D2
330
1F
100
AcDbEntity
  8
0
  6
CONTINUOUS
 62
     7
100
AcDbLine
 10
880.6377530179
 20
1004.3830304657
 30
0.0
 11
877.6377618393
 21
1004.3830304657
 31
0.0
  0
LINE
  5
D3
330
1F
100
AcDbEntity
  8
0
  6
CONTINUOUS
 62
     7
100
AcDbLine
 10
877.6377618393
 20
1004.3830304657
 30
0.0
 11
877.6377618393
 21
782.3830276047
 31
0.0
  0
LINE
  5
D4
330
1F
100
AcDbEntity
  8
0
  6
CONTINUOUS
 62
     7
100
AcDbLine
 10
877.6377618393
 20
782.3830276047
 30
0.0
 11
876.1377513489
 21
782.3830276047
 31
0.0
  0
LINE
  5
D5
330
1F
100
AcDbEntity
  8
0
  6
CONTINUOUS
 62
     7
100
AcDbLine
 10
876.1377513489
 20
777.383032373
 30
0.0
 11
877.6377618393
 21
777.383032373
 31
0.0
  0
LINE
  5
D6
330
1F
100
AcDbEntity
  8
0
  6
CONTINUOUS
 62
     7
100
AcDbLine
 10
877.6377618393
 20
777.383032373
 30
0.0
 11
877.6377618393
 21
614.3830447708
 31
0.0
  0
LINE
  5
D7
330
1F
100
AcDbEntity
  8
0
  6
CONTINUOUS
 62
     7
100
AcDbLine
 10
877.6377618393
 20
614.3830447708
 30
0.0
 11
880.6377530179
 21
614.3830447708
 31
0.0
  0
LINE
  5
D8
330
1F
100
AcDbEntity
  8
0
  6
CONTINUOUS
 62
     7
100
AcDbLine
 10
880.6377530179
 20
614.3830447708
 30
0.0
 11
880.6377530179
 21
604.3830245052
 31
0.0
  0
LINE
  5
D9
330
1F
100
AcDbEntity
  8
0
  6
CONTINUOUS
 62
     7
100
AcDbLine
 10
880.6377530179
 20
604.3830245052
 30
0.0
 11
877.6377618393
 21
604.3830245052
 31
0.0
  0
LINE
  5
DA
330
1F
100
AcDbEntity
  8
0
  6
CONTINUOUS
 62
     7
100
AcDbLine
 10
877.6377618393
 20
604.3830245052
 30
0.0
 11
877.6377618393
 21
296.2120726024
 31
0.0
  0
LINE
  5
DB
330
1F
100
AcDbEntity
  8
0
  6
CONTINUOUS
 62
     7
100
AcDbLine
 10
877.6377618393
 20
286.3830282603
 30
0.0
 11
830.6377559981
 21
286.3830282603
 31
0.0
  0
ARC
  5
DC
330
1F
100
AcDbEntity
  8
0
  6
CONTINUOUS
 62
     7
100
AcDbCircle
 10
830.6377586207
 20
282.3830314194
 30
0.0
 40
4.000000000000114
100
AcDbArc
 50
90.0
 51
180.0
  0
LINE
  5
DD
330
1F
100
AcDbEntity
  8
0
  6
CONTINUOUS
 62
     7
100
AcDbLine
 10
826.637762793
 20
282.3830350553
 30
0.0
 11
826.637762793
 21
206.3830314454
 31
0.0
  0
LINE
  5
DE
330
1F
100
AcDbEntity
  8
0
  6
CONTINUOUS
 62
     7
100
AcDbLine
 10
440.7377570948
 20
203.3830314194
 30
0.0
 11
877.5377601466
 21
203.3830314194
 31
0.0
  0
ARC
  5
DF
330
1F
100
AcDbEntity
  8
0
  6
CONTINUOUS
 62
     7
100
AcDbCircle
 10
440.7377586207
 20
206.4830314194
 30
0.0
 40
3.10000000000008
100
AcDbArc
 50
180.0
 51
270.0
  0
LINE
  5
E0
330
1F
100
AcDbEntity
  8
0
  6
CONTINUOUS
 62
     7
100
AcDbLine
 10
437.6377642235
 20
209.609528656
 30
0.0
 11
437.6377642235
 21
206.4830315084
 31
0.0
  0
LINE
  5
E1
330
1F
100
AcDbEntity
  8
0
  6
CONTINUOUS
 62
     7
100
AcDbLine
 10
877.5377601466
 20
206.3830314454
 30
0.0
 11
440.7377570948
 21
206.3830314454
 31
0.0
  0
LINE
  5
E2
330
1F
100
AcDbEntity
  8
0
  6
CONTINUOUS
 62
     7
100
AcDbLine
 10
880.6377530179
 20
209.609528656
 30
0.0
 11
880.6377530179
 21
206.4830315084
 31
0.0
  0
ARC
  5
E3
330
1F
100
AcDbEntity
  8
0
  6
CONTINUOUS
 62
     7
100
AcDbCircle
 10
877.5377586207
 20
206.4830314194
 30
0.0
 40
3.10000000000025
100
AcDbArc
 50
270.0
 51
0.0
  0
LINE
  5
E4
330
1F
100
AcDbEntity
  8
0
  6
CONTINUOUS
 62
     7
100
AcDbLine
 10
877.6377618393
 20
209.609528656
 30
0.0
 11
877.6377618393
 21
206.4830315084
 31
0.0
  0
ARC
  5
E5
330
1F
100
AcDbEntity
  8
0
  6
CONTINUOUS
 62
     7
100
AcDbCircle
 10
877.5377586207
 20
206.4830314194
 30
0.0
 40
0.1000000000002501
100
AcDbArc
 50
270.0000000001
 51
0.0000000003
  0
LINE
  5
E6
330
1F
100
AcDbEntity
  8
0
  6
CONTINUOUS
 62
     7
100
AcDbLine
 10
440.637755402
 20
209.609528656
 30
0.0
 11
440.637755402
 21
206.4830315084
 31
0.0
  0
ARC
  5
E7
330
1F
100
AcDbEntity
  8
0
  6
CONTINUOUS
 62
     7
100
AcDbCircle
 10
440.7377586207
 20
206.4830314194
 30
0.0
 40
0.1000000000000796
100
AcDbArc
 50
179.9999999998
 51
270.0
  0
LINE
  5
E8
330
1F
100
AcDbEntity
  8
0
  6
CONTINUOUS
 62
     7
100
AcDbLine
 10
437.6377642235
 20
218.2697831903
 30
0.0
 11
437.6377642235
 21
209.609528656
 31
0.0
  0
LINE
  5
E9
330
1F
100
AcDbEntity
  8
0
  6
CONTINUOUS
 62
     7
100
AcDbLine
 10
440.637755402
 20
209.609528656
 30
0.0
 11
440.637755402
 21
218.2697831903
 31
0.0
  0
LINE
  5
EA
330
1F
100
AcDbEntity
  8
0
  6
CONTINUOUS
 62
     7
100
AcDbLine
 10
880.6377530179
 20
218.2697831903
 30
0.0
 11
880.6377530179
 21
209.609528656
 31
0.0
  0
LINE
  5
EB
330
1F
100
AcDbEntity
  8
0
  6
CONTINUOUS
 62
     7
100
AcDbLine
 10
877.6377618393
 20
218.2697831903
 30
0.0
 11
877.6377618393
 21
209.609528656
 31
0.0
  0
LINE
  5
EC
330
1F
100
AcDbEntity
  8
0
  6
CONTINUOUS
 62
     7
100
AcDbLine
 10
880.6377530179
 20
270.231309465
 30
0.0
 11
880.6377530179
 21
218.2697831903
 31
0.0
  0
LINE
  5
ED
330
1F
100
AcDbEntity
  8
0
  6
CONTINUOUS
 62
     7
100
AcDbLine
 10
877.6377618393
 20
270.231309465
 30
0.0
 11
877.6377618393
 21
218.2697831903
 31
0.0
  0
LINE
  5
EE
330
1F
100
AcDbEntity
  8
0
  6
CONTINUOUS
 62
     7
100
AcDbLine
 10
437.6377642235
 20
270.231309465
 30
0.0
 11
437.6377642235
 21
218.2697831903
 31
0.0
  0
LINE
  5
EF
330
1F
100
AcDbEntity
  8
0
  6
CONTINUOUS
 62
     7
100
AcDbLine
 10
440.637755402
 20
270.231309465
 30
0.0
 11
440.637755402
 21
218.2697831903
 31
0.0
  0
LINE
  5
F0
330
1F
100
AcDbEntity
  8
0
  6
CONTINUOUS
 62
     7
100
AcDbLine
 10
880.6377530179
 20
296.2120726024
 30
0.0
 11
880.6377530179
 21
270.231309465
 31
0.0
  0
LINE
  5
F1
330
1F
100
AcDbEntity
  8
0
  6
CONTINUOUS
 62
     7
100
AcDbLine
 10
877.6377618393
 20
270.231309465
 30
0.0
 11
877.6377618393
 21
296.2120726024
 31
0.0
  0
LINE
  5
F2
330
1F
100
AcDbEntity
  8
0
  6
CONTINUOUS
 62
     7
100
AcDbLine
 10
437.6377642235
 20
296.2120726024
 30
0.0
 11
437.6377642235
 21
270.231309465
 31
0.0
  0
LINE
  5
F3
330
1F
100
AcDbEntity
  8
0
  6
CONTINUOUS
 62
     7
100
AcDbLine
 10
440.637755402
 20
296.2120726024
 30
0.0
 11
440.637755402
 21
270.231309465
 31
0.0
  0
LINE
  5
F4
330
1F
100
AcDbEntity
  8
0
  6
CONTINUOUS
 62
     7
100
AcDbLine
 10
738.2717907509
 20
1201.3830571686
 30
0.0
 11
738.2717907509
 21
1204.3830781494
 31
0.0
  0
LINE
  5
F5
330
1F
100
AcDbEntity
  8
0
  6
CONTINUOUS
 62
     7
100
AcDbLine
 10
738.2717907509
 20
1201.3830571686
 30
0.0
 11
665.1377586728
 21
1201.3830571686
 31
0.0
  0
LINE
  5
F6
330
1F
100
AcDbEntity
  8
0
  6
CONTINUOUS
 62
     7
100
AcDbLine
 10
665.1377586728
 20
1201.3830571686
 30
0.0
 11
665.1377586728
 21
1204.3830781494
 31
0.0
  0
LINE
  5
F7
330
1F
100
AcDbEntity
  8
0
  6
CONTINUOUS
 62
     7
100
AcDbLine
 10
738.2717907509
 20
1204.3830781494
 30
0.0
 11
665.1377586728
 21
1204.3830781494
 31
0.0
  0
LINE
  5
F8
330
1F
100
AcDbEntity
  8
0
  6
CONTINUOUS
 62
     7
100
AcDbLine
 10
877.6377618393
 20
615.3830318962
 30
0.0
 11
880.6377530179
 21
615.3830318962
 31
0.0
  0
LINE
  5
F9
330
1F
100
AcDbEntity
  8
0
  6
CONTINUOUS
 62
     7
100
AcDbLine
 10
880.6377530179
 20
1003.3830433403
 30
0.0
 11
877.6377618393
 21
1003.3830433403
 31
0.0
  0
LINE
  5
FA
330
1F
100
AcDbEntity
  8
0
  6
CONTINUOUS
 62
     7
100
AcDbLine
 10
880.6377530179
 20
1003.3830433403
 30
0.0
 11
880.6377530179
 21
615.3830318962
 31
0.0
  0
LINE
  5
FB
330
1F
100
AcDbEntity
  8
0
  6
CONTINUOUS
 62
     7
100
AcDbLine
 10
877.6377618393
 20
1003.3830433403
 30
0.0
 11
877.6377618393
 21
615.3830318962
 31
0.0
  0
LINE
  5
FC
330
1F
100
AcDbEntity
  8
0
  6
CONTINUOUS
 62
     7
100
AcDbLine
 10
877.6377618393
 20
1015.3830080544
 30
0.0
 11
880.6377530179
 21
1015.3830080544
 31
0.0
  0
LINE
  5
FD
330
1F
100
AcDbEntity
  8
0
  6
CONTINUOUS
 62
     7
100
AcDbLine
 10
880.6377530179
 20
1120.8866267715
 30
0.0
 11
877.6377618393
 21
1120.8866267715
 31
0.0
  0
LINE
  5
FE
330
1F
100
AcDbEntity
  8
0
  6
CONTINUOUS
 62
     7
100
AcDbLine
 10
880.6377530179
 20
1120.8866267715
 30
0.0
 11
880.6377530179
 21
1015.3830080544
 31
0.0
  0
LINE
  5
FF
330
1F
100
AcDbEntity
  8
0
  6
CONTINUOUS
 62
     7
100
AcDbLine
 10
877.6377618393
 20
1120.8866267715
 30
0.0
 11
877.6377618393
 21
1015.3830080544
 31
0.0
  0
LINE
  5
100
330
1F
100
AcDbEntity
  8
0
  6
CONTINUOUS
 62
     7
100
AcDbLine
 10
880.6377530179
 20
603.3830373798
 30
0.0
 11
877.6377618393
 21
603.3830373798
 31
0.0
  0
LINE
  5
101
330
1F
100
AcDbEntity
  8
0
  6
CONTINUOUS
 62
     7
100
AcDbLine
 10
880.6377530179
 20
603.3830373798
 30
0.0
 11
880.6377530179
 21
296.2120726024
 31
0.0
  0
LINE
  5
102
330
1F
100
AcDbEntity
  8
0
  6
CONTINUOUS
 62
     7
100
AcDbLine
 10
877.6377618393
 20
603.3830373798
 30
0.0
 11
877.6377618393
 21
296.2120726024
 31
0.0
  0
LINE
  5
103
330
1F
100
AcDbEntity
  8
0
  6
CONTINUOUS
 62
     7
100
AcDbLine
 10
739.8877024731
 20
1203.9499908005
 30
0.0
 11
738.3877068839
 21
1201.351943544
 31
0.0
  0
LINE
  5
104
330
1F
100
AcDbEntity
  8
0
  6
CONTINUOUS
 62
     7
100
AcDbLine
 10
879.0777653536
 20
1123.5886245285
 30
0.0
 11
739.8877024731
 21
1203.9499908005
 31
0.0
  0
LINE
  5
105
330
1F
100
AcDbEntity
  8
0
  6
CONTINUOUS
 62
     7
100
AcDbLine
 10
877.5777548632
 20
1120.990577272
 30
0.0
 11
879.0777653536
 21
1123.5886245285
 31
0.0
  0
LINE
  5
106
330
1F
100
AcDbEntity
  8
0
  6
CONTINUOUS
 62
     7
100
AcDbLine
 10
738.3877068839
 20
1201.351943544
 30
0.0
 11
877.5777548632
 21
1120.990577272
 31
0.0
  0
LINE
  5
107
330
1F
100
AcDbEntity
  8
0
  6
CONTINUOUS
 62
     7
100
AcDbLine
 10
439.1977518878
 20
1123.5886245285
 30
0.0
 11
440.6977623782
 21
1120.990577272
 31
0.0
  0
LINE
  5
108
330
1F
100
AcDbEntity
  8
0
  6
CONTINUOUS
 62
     7
100
AcDbLine
 10
579.8878103575
 20
1201.351943544
 30
0.0
 11
578.3878147683
 21
1203.9499908005
 31
0.0
  0
LINE
  5
109
330
1F
100
AcDbEntity
  8
0
  6
CONTINUOUS
 62
     7
100
AcDbLine
 10
440.6977623782
 20
1120.990577272
 30
0.0
 11
579.8878103575
 21
1201.351943544
 31
0.0
  0
LINE
  5
10A
330
1F
100
AcDbEntity
  8
0
  6
CONTINUOUS
 62
     7
100
AcDbLine
 10
578.3878147683
 20
1203.9499908005
 30
0.0
 11
439.1977518878
 21
1123.5886245285
 31
0.0
  0
LINE
  5
10B
330
1F
100
AcDbEntity
  8
0
  6
CONTINUOUS
 62
     7
100
AcDbLine
 10
440.637755402
 20
615.3830318962
 30
0.0
 11
437.6377642235
 21
615.3830318962
 31
0.0
  0
LINE
  5
10C
330
1F
100
AcDbEntity
  8
0
  6
CONTINUOUS
 62
     7
100
AcDbLine
 10
437.6377642235
 20
1003.3830433403
 30
0.0
 11
440.637755402
 21
1003.3830433403
 31
0.0
  0
LINE
  5
10D
330
1F
100
AcDbEntity
  8
0
  6
CONTINUOUS
 62
     7
100
AcDbLine
 10
437.6377642235
 20
1003.3830433403
 30
0.0
 11
437.6377642235
 21
615.3830318962
 31
0.0
  0
LINE
  5
10E
330
1F
100
AcDbEntity
  8
0
  6
CONTINUOUS
 62
     7
100
AcDbLine
 10
440.637755402
 20
1003.3830433403
 30
0.0
 11
440.637755402
 21
615.3830318962
 31
0.0
  0
LINE
  5
10F
330
1F
100
AcDbEntity
  8
0
  6
CONTINUOUS
 62
     7
100
AcDbLine
 10
580.0037264905
 20
1204.3830781494
 30
0.0
 11
580.0037264905
 21
1201.3830571686
 31
0.0
  0
LINE
  5
110
330
1F
100
AcDbEntity
  8
0
  6
CONTINUOUS
 62
     7
100
AcDbLine
 10
653.1377585685
 20
1204.3830781494
 30
0.0
 11
580.0037264905
 21
1204.3830781494
 31
0.0
  0
LINE
  5
111
330
1F
100
AcDbEntity
  8
0
  6
CONTINUOUS
 62
     7
100
AcDbLine
 10
653.1377585685
 20
1204.3830781494
 30
0.0
 11
653.1377585685
 21
1201.3830571686
 31
0.0
  0
LINE
  5
112
330
1F
100
AcDbEntity
  8
0
  6
CONTINUOUS
 62
     7
100
AcDbLine
 10
653.1377585685
 20
1201.3830571686
 30
0.0
 11
580.0037264905
 21
1201.3830571686
 31
0.0
  0
LINE
  5
113
330
1F
100
AcDbEntity
  8
0
  6
CONTINUOUS
 62
     7
100
AcDbLine
 10
440.637755402
 20
1015.3830080544
 30
0.0
 11
437.6377642235
 21
1015.3830080544
 31
0.0
  0
LINE
  5
114
330
1F
100
AcDbEntity
  8
0
  6
CONTINUOUS
 62
     7
100
AcDbLine
 10
437.6377642235
 20
1120.8866267715
 30
0.0
 11
440.637755402
 21
1120.8866267715
 31
0.0
  0
LINE
  5
115
330
1F
100
AcDbEntity
  8
0
  6
CONTINUOUS
 62
     7
100
AcDbLine
 10
437.6377642235
 20
1120.8866267715
 30
0.0
 11
437.6377642235
 21
1015.3830080544
 31
0.0
  0
LINE
  5
116
330
1F
100
AcDbEntity
  8
0
  6
CONTINUOUS
 62
     7
100
AcDbLine
 10
440.637755402
 20
1120.8866267715
 30
0.0
 11
440.637755402
 21
1015.3830080544
 31
0.0
  0
LINE
  5
117
330
1F
100
AcDbEntity
  8
0
  6
CONTINUOUS
 62
     7
100
AcDbLine
 10
437.6377642235
 20
603.3830373798
 30
0.0
 11
440.637755402
 21
603.3830373798
 31
0.0
  0
LINE
  5
118
330
1F
100
AcDbEntity
  8
0
  6
CONTINUOUS
 62
     7
100
AcDbLine
 10
437.6377642235
 20
603.3830373798
 30
0.0
 11
437.6377642235
 21
296.2120726024
 31
0.0
  0
LINE
  5
119
330
1F
100
AcDbEntity
  8
0
  6
CONTINUOUS
 62
     7
100
AcDbLine
 10
440.637755402
 20
603.3830373798
 30
0.0
 11
440.637755402
 21
296.2120726024
 31
0.0
  0
LINE
  5
11A
330
1F
100
AcDbEntity
  8
0
  6
CONTINUOUS
 62
     7
100
AcDbLine
 10
880.6377530179
 20
1015.3830080544
 30
0.0
 11
880.6377530179
 21
1014.383020929
 31
0.0
  0
LINE
  5
11B
330
1F
100
AcDbEntity
  8
0
  6
CONTINUOUS
 62
     7
100
AcDbLine
 10
880.6377530179
 20
1004.3830304657
 30
0.0
 11
880.6377530179
 21
1003.3830433403
 31
0.0
  0
LINE
  5
11C
330
1F
100
AcDbEntity
  8
0
  6
CONTINUOUS
 62
     7
100
AcDbLine
 10
437.6377642235
 20
1015.3830080544
 30
0.0
 11
437.6377642235
 21
1014.383020929
 31
0.0
  0
LINE
  5
11D
330
1F
100
AcDbEntity
  8
0
  6
CONTINUOUS
 62
     7
100
AcDbLine
 10
437.6377642235
 20
1004.3830304657
 30
0.0
 11
437.6377642235
 21
1003.3830433403
 31
0.0
  0
LINE
  5
11E
330
1F
100
AcDbEntity
  8
0
  6
CONTINUOUS
 62
     7
100
AcDbLine
 10
880.6377530179
 20
615.3830318962
 30
0.0
 11
880.6377530179
 21
614.3830447708
 31
0.0
  0
LINE
  5
11F
330
1F
100
AcDbEntity
  8
0
  6
CONTINUOUS
 62
     7
100
AcDbLine
 10
880.6377530179
 20
604.3830245052
 30
0.0
 11
880.6377530179
 21
603.3830373798
 31
0.0
  0
LINE
  5
120
330
1F
100
AcDbEntity
  8
0
  6
CONTINUOUS
 62
     7
100
AcDbLine
 10
437.6377642235
 20
615.3830318962
 30
0.0
 11
437.6377642235
 21
614.3830447708
 31
0.0
  0
LINE
  5
121
330
1F
100
AcDbEntity
  8
0
  6
CONTINUOUS
 62
     7
100
AcDbLine
 10
437.6377642235
 20
604.3830245052
 30
0.0
 11
437.6377642235
 21
603.3830373798
 31
0.0
  0
LINE
  5
122
330
1F
100
AcDbEntity
  8
0
  6
CONTINUOUS
 62
     7
100
AcDbLine
 10
665.1377586728
 20
1204.3830781494
 30
0.0
 11
664.1377585089
 21
1204.3830781494
 31
0.0
  0
LINE
  5
123
330
1F
100
AcDbEntity
  8
0
  6
CONTINUOUS
 62
     7
100
AcDbLine
 10
654.1377587325
 20
1204.3830781494
 30
0.0
 11
653.1377585685
 21
1204.3830781494
 31
0.0
  0
LINE
  5
124
330
1F
100
AcDbEntity
  8
0
  6
CONTINUOUS
 62
     7
100
AcDbLine
 10
877.636897572
 20
207.0901381102
 30
0.0
 11
877.5377601466
 21
207.0901381102
 31
0.0
  0
SPLINE
  5
125
330
1F
100
AcDbEntity
  8
0
  6
CONTINUOUS
 62
     7
100
AcDbSpline
210
0.0
220
0.0
230
1.0
 70
     8
 71
     3
 72
     8
 73
     4
 74
     0
 42
0.00000001
 43
0.00000001
 12
1.0
 22
0.0
 32
0.0
 13
1.0
 23
0.0
 33
0.0
 40
0.0
 40
0.0
 40
0.0
 40
0.0
 40
1.0
 40
1.0
 40
1.0
 40
1.0
 10
877.6377586206922
 20
207.190138200557
 30
0.0
 10
877.6377586206922
 20
207.156804867223
 30
0.0
 10
877.6374726469841
 20
207.123471533889
 30
0.0
 10
877.6369031432239
 20
207.0901382005551
 30
0.0
  0
LINE
  5
126
330
1F
100
AcDbEntity
  8
0
  6
CONTINUOUS
 62
     7
100
AcDbLine
 10
877.6377618393
 20
207.0901381102
 30
0.0
 11
877.636897572
 21
207.0901381102
 31
0.0
  0
LINE
  5
127
330
1F
100
AcDbEntity
  8
0
  6
CONTINUOUS
 62
     7
100
AcDbLine
 10
440.7377570948
 20
207.0901381102
 30
0.0
 11
440.6386196694
 21
207.0901381102
 31
0.0
  0
SPLINE
  5
128
330
1F
100
AcDbEntity
  8
0
  6
CONTINUOUS
 62
     7
100
AcDbSpline
210
0.0
220
0.0
230
1.0
 70
     8
 71
     3
 72
     8
 73
     4
 74
     0
 42
0.00000001
 43
0.00000001
 12
1.0
 22
0.0
 32
0.0
 13
1.0
 23
0.0
 33
0.0
 40
0.0
 40
0.0
 40
0.0
 40
0.0
 40
1.0
 40
1.0
 40
1.0
 40
1.0
 10
440.6386140981608
 20
207.0901382005564
 30
0.0
 10
440.6380445944007
 20
207.12347153389
 30
0.0
 10
440.6377586206924
 20
207.1568048672235
 30
0.0
 10
440.6377586206924
 20
207.190138200557
 30
0.0
  0
LINE
  5
129
330
1F
100
AcDbEntity
  8
0
  6
CONTINUOUS
 62
     7
100
AcDbLine
 10
440.6386196694
 20
207.0901381102
 30
0.0
 11
440.637755402
 21
207.0901381102
 31
0.0
  0
LINE
  5
12A
330
1F
100
AcDbEntity
  8
0
  6
CONTINUOUS
 62
     7
100
AcDbLine
 10
877.4377584538
 20
206.4830315084
 30
0.0
 11
877.4377584538
 21
206.3830314454
 31
0.0
  0
LINE
  5
12B
330
1F
100
AcDbEntity
  8
0
  6
CONTINUOUS
 62
     7
100
AcDbLine
 10
440.8377587876
 20
206.3830314454
 30
0.0
 11
440.8377587876
 21
206.4830315084
 31
0.0
  0
CIRCLE
  5
12C
330
1F
100
AcDbEntity
  8
0
  6
CONTINUOUS
 62
     7
100
AcDbCircle
 10
479.1377586207
 20
1033.3830314194
 30
0.0
 40
5.5
  0
CIRCLE
  5
12D
330
1F
100
AcDbEntity
  8
0
  6
CONTINUOUS
 62
     7
100
AcDbCircle
 10
839.1377586207
 20
1033.3830314194
 30
0.0
 40
5.5
  0
LINE
  5
12E
330
1F
100
AcDbEntity
  8
0
  6
CONTINUOUS
 62
     7
100
AcDbLine
 10
440.7377570948
 20
207.0901381102
 30
0.0
 11
440.8377587876
 21
207.0901381102
 31
0.0
  0
LINE
  5
12F
330
1F
100
AcDbEntity
  8
0
  6
CONTINUOUS
 62
     7
100
AcDbLine
 10
877.5377601466
 20
207.0901381102
 30
0.0
 11
877.4377584538
 21
207.0901381102
 31
0.0
  0
LINE
  5
130
330
1F
100
AcDbEntity
  8
0
  6
CONTINUOUS
 62
     7
100
AcDbLine
 10
877.4377584538
 20
206.4830315084
 30
0.0
 11
877.4377584538
 21
207.0901381102
 31
0.0
  0
LINE
  5
131
330
1F
100
AcDbEntity
  8
0
  6
CONTINUOUS
 62
     7
100
AcDbLine
 10
440.8377587876
 20
206.4830315084
 30
0.0
 11
440.8377587876
 21
207.0901381102
 31
0.0
  0
ARC
  5
132
330
1F
100
AcDbEntity
  8
0
  6
CONTINUOUS
 62
     7
100
AcDbCircle
 10
191.8374314662
 20
1179.8830314194
 30
0.0
 40
10.00000000000003
100
AcDbArc
 50
180.0
 51
270.0
  0
LINE
  5
133
330
1F
100
AcDbEntity
  8
0
  6
CONTINUOUS
 62
     7
100
AcDbLine
 10
181.8374305126
 20
1179.883006147
 30
0.0
 11
181.8374305126
 21
1196.7830091034
 31
0.0
  0
LINE
  5
134
330
1F
100
AcDbEntity
  8
0
  6
CONTINUOUS
 62
     7
100
AcDbLine
 10
215.8374323603
 20
1169.8830156837
 30
0.0
 11
191.8374284264
 21
1169.8830156837
 31
0.0
  0
LINE
  5
135
330
1F
100
AcDbEntity
  8
0
  6
CONTINUOUS
 62
     7
100
AcDbLine
 10
181.8374305126
 20
1196.7830091034
 30
0.0
 11
181.8374305126
 21
1199.8830466782
 31
0.0
  0
LINE
  5
136
330
1F
100
AcDbEntity
  8
0
  6
CONTINUOUS
 62
     7
100
AcDbLine
 10
181.8374305126
 20
1199.8830466782
 30
0.0
 11
215.8374323603
 21
1199.8830466782
 31
0.0
  0
LINE
  5
137
330
1F
100
AcDbEntity
  8
0
  6
CONTINUOUS
 62
     7
100
AcDbLine
 10
187.5874309894
 20
1091.6330247437
 30
0.0
 11
187.5874309894
 21
1083.1330447708
 31
0.0
  0
LINE
  5
138
330
1F
100
AcDbEntity
  8
0
  6
CONTINUOUS
 62
     7
100
AcDbLine
 10
187.5874309894
 20
1083.1330447708
 30
0.0
 11
196.087433314
 21
1083.1330447708
 31
0.0
  0
LINE
  5
139
330
1F
100
AcDbEntity
  8
0
  6
CONTINUOUS
 62
     7
100
AcDbLine
 10
196.087433314
 20
1083.1330447708
 30
0.0
 11
196.087433314
 21
1091.6330247437
 31
0.0
  0
LINE
  5
13A
330
1F
100
AcDbEntity
  8
0
  6
CONTINUOUS
 62
     7
100
AcDbLine
 10
196.087433314
 20
1091.6330247437
 30
0.0
 11
187.5874309894
 21
1091.6330247437
 31
0.0
  0
LINE
  5
13B
330
1F
100
AcDbEntity
  8
0
  6
CONTINUOUS
 62
     7
100
AcDbLine
 10
181.8374305126
 20
872.8830247437
 30
0.0
 11
181.8374305126
 21
742.883029512
 31
0.0
  0
ARC
  5
13C
330
1F
100
AcDbEntity
  8
0
  6
CONTINUOUS
 62
     7
100
AcDbCircle
 10
186.8374314662
 20
872.8830314194
 30
0.0
 40
5.000000000000028
100
AcDbArc
 50
90.0
 51
180.0
  0
LINE
  5
13D
330
1F
100
AcDbEntity
  8
0
  6
CONTINUOUS
 62
     7
100
AcDbLine
 10
204.8374324199
 20
877.8830199753
 30
0.0
 11
186.8374331948
 21
877.8830199753
 31
0.0
  0
ARC
  5
13E
330
1F
100
AcDbEntity
  8
0
  6
CONTINUOUS
 62
     7
100
AcDbCircle
 10
204.8374314662
 20
882.8830314194
 30
0.0
 40
5.0
100
AcDbArc
 50
270.0
 51
0.0
  0
LINE
  5
13F
330
1F
100
AcDbEntity
  8
0
  6
CONTINUOUS
 62
     7
100
AcDbLine
 10
209.8374313768
 20
912.8830462013
 30
0.0
 11
209.8374313768
 21
882.8830152069
 31
0.0
  0
ARC
  5
140
330
1F
100
AcDbEntity
  8
0
  6
CONTINUOUS
 62
     7
100
AcDbCircle
 10
204.8374314662
 20
912.8830314194
 30
0.0
 40
4.999999999999972
100
AcDbArc
 50
0.0
 51
90.0
  0
LINE
  5
141
330
1F
100
AcDbEntity
  8
0
  6
CONTINUOUS
 62
     7
100
AcDbLine
 10
186.8374331948
 20
917.883041433
 30
0.0
 11
204.8374324199
 21
917.883041433
 31
0.0
  0
ARC
  5
142
330
1F
100
AcDbEntity
  8
0
  6
CONTINUOUS
 62
     7
100
AcDbCircle
 10
186.8374314662
 20
922.8830314194
 30
0.0
 40
5.000000000000114
100
AcDbArc
 50
180.0
 51
270.0
  0
LINE
  5
143
330
1F
100
AcDbEntity
  8
0
  6
CONTINUOUS
 62
     7
100
AcDbLine
 10
181.8374305126
 20
1107.8830390488
 30
0.0
 11
181.8374305126
 21
922.8830366646
 31
0.0
  0
ARC
  5
144
330
1F
100
AcDbEntity
  8
0
  6
CONTINUOUS
 62
     7
100
AcDbCircle
 10
186.8374314662
 20
1107.8830314194
 30
0.0
 40
5.000000000000028
100
AcDbArc
 50
90.0
 51
180.0
  0
LINE
  5
145
330
1F
100
AcDbEntity
  8
0
  6
CONTINUOUS
 62
     7
100
AcDbLine
 10
215.8374323603
 20
1112.8830342804
 30
0.0
 11
186.8374331948
 21
1112.8830342804
 31
0.0
  0
ARC
  5
146
330
1F
100
AcDbEntity
  8
0
  6
CONTINUOUS
 62
     7
100
AcDbCircle
 10
186.8374314662
 20
742.8830314194
 30
0.0
 40
5.000000000000114
100
AcDbArc
 50
180.0
 51
270.0
  0
LINE
  5
147
330
1F
100
AcDbEntity
  8
0
  6
CONTINUOUS
 62
     7
100
AcDbLine
 10
187.5874309894
 20
771.6330318962
 30
0.0
 11
187.5874309894
 21
763.1330519234
 31
0.0
  0
LINE
  5
148
330
1F
100
AcDbEntity
  8
0
  6
CONTINUOUS
 62
     7
100
AcDbLine
 10
187.5874309894
 20
763.1330519234
 30
0.0
 11
196.087433314
 21
763.1330519234
 31
0.0
  0
LINE
  5
149
330
1F
100
AcDbEntity
  8
0
  6
CONTINUOUS
 62
     7
100
AcDbLine
 10
196.087433314
 20
763.1330519234
 30
0.0
 11
196.087433314
 21
771.6330318962
 31
0.0
  0
LINE
  5
14A
330
1F
100
AcDbEntity
  8
0
  6
CONTINUOUS
 62
     7
100
AcDbLine
 10
196.087433314
 20
771.6330318962
 30
0.0
 11
187.5874309894
 21
771.6330318962
 31
0.0
  0
LINE
  5
14B
330
1F
100
AcDbEntity
  8
0
  6
CONTINUOUS
 62
     7
100
AcDbLine
 10
186.8374331948
 20
737.8830342804
 30
0.0
 11
215.8374323603
 21
737.8830342804
 31
0.0
  0
LINE
  5
14C
330
1F
100
AcDbEntity
  8
0
  6
CONTINUOUS
 62
     7
100
AcDbLine
 10
218.8374309894
 20
1004.3830304657
 30
0.0
 11
218.8374309894
 21
1014.383020929
 31
0.0
  0
LINE
  5
14D
330
1F
100
AcDbEntity
  8
0
  6
CONTINUOUS
 62
     7
100
AcDbLine
 10
215.8374323603
 20
1014.383020929
 30
0.0
 11
215.8374323603
 21
1004.3830304657
 31
0.0
  0
LINE
  5
14E
330
1F
100
AcDbEntity
  8
0
  6
CONTINUOUS
 62
     7
100
AcDbLine
 10
218.8374309894
 20
1014.383020929
 30
0.0
 11
215.8374323603
 21
1014.383020929
 31
0.0
  0
LINE
  5
14F
330
1F
100
AcDbEntity
  8
0
  6
CONTINUOUS
 62
     7
100
AcDbLine
 10
218.8374309894
 20
1004.3830304657
 30
0.0
 11
215.8374323603
 21
1004.3830304657
 31
0.0
  0
LINE
  5
150
330
1F
100
AcDbEntity
  8
0
  6
CONTINUOUS
 62
     7
100
AcDbLine
 10
218.8374309894
 20
604.3830245052
 30
0.0
 11
218.8374309894
 21
614.3830447708
 31
0.0
  0
LINE
  5
151
330
1F
100
AcDbEntity
  8
0
  6
CONTINUOUS
 62
     7
100
AcDbLine
 10
218.8374309894
 20
604.3830245052
 30
0.0
 11
215.8374323603
 21
604.3830245052
 31
0.0
  0
LINE
  5
152
330
1F
100
AcDbEntity
  8
0
  6
CONTINUOUS
 62
     7
100
AcDbLine
 10
218.8374309894
 20
614.3830447708
 30
0.0
 11
215.8374323603
 21
614.3830447708
 31
0.0
  0
LINE
  5
153
330
1F
100
AcDbEntity
  8
0
  6
CONTINUOUS
 62
     7
100
AcDbLine
 10
215.8374323603
 20
614.3830447708
 30
0.0
 11
215.8374323603
 21
604.3830245052
 31
0.0
  0
LINE
  5
154
330
1F
100
AcDbEntity
  8
0
  6
CONTINUOUS
 62
     7
100
AcDbLine
 10
215.8374323603
 20
604.3830245052
 30
0.0
 11
215.8374323603
 21
603.3830373798
 31
0.0
  0
LINE
  5
155
330
1F
100
AcDbEntity
  8
0
  6
CONTINUOUS
 62
     7
100
AcDbLine
 10
215.8374323603
 20
1015.3830080544
 30
0.0
 11
215.8374323603
 21
1014.383020929
 31
0.0
  0
LINE
  5
156
330
1F
100
AcDbEntity
  8
0
  6
CONTINUOUS
 62
     7
100
AcDbLine
 10
215.8374323603
 20
1004.3830304657
 30
0.0
 11
215.8374323603
 21
1003.3830433403
 31
0.0
  0
LINE
  5
157
330
1F
100
AcDbEntity
  8
0
  6
CONTINUOUS
 62
     7
100
AcDbLine
 10
215.8374323603
 20
615.3830318962
 30
0.0
 11
215.8374323603
 21
614.3830447708
 31
0.0
  0
LINE
  5
158
330
1F
100
AcDbEntity
  8
0
  6
CONTINUOUS
 62
     7
100
AcDbLine
 10
215.8374323603
 20
1120.9559469734
 30
0.0
 11
218.8374309894
 21
1120.9559469734
 31
0.0
  0
LINE
  5
159
330
1F
100
AcDbEntity
  8
0
  6
CONTINUOUS
 62
     7
100
AcDbLine
 10
218.8374309894
 20
1120.9559469734
 30
0.0
 11
218.8374309894
 21
1120.8866267715
 31
0.0
  0
LINE
  5
15A
330
1F
100
AcDbEntity
  8
0
  6
CONTINUOUS
 62
     7
100
AcDbLine
 10
215.8374323603
 20
1120.9559469734
 30
0.0
 11
215.8374323603
 21
1120.8866267715
 31
0.0
  0
LINE
  5
15B
330
1F
100
AcDbEntity
  8
0
  6
CONTINUOUS
 62
     7
100
AcDbLine
 10
218.8374309894
 20
1120.990577272
 30
0.0
 11
218.8374309894
 21
1120.9559469734
 31
0.0
  0
LINE
  5
15C
330
1F
100
AcDbEntity
  8
0
  6
CONTINUOUS
 62
     7
100
AcDbLine
 10
215.8374323603
 20
1120.990577272
 30
0.0
 11
215.8374323603
 21
1120.9559469734
 31
0.0
  0
LINE
  5
15D
330
1F
100
AcDbEntity
  8
0
  6
CONTINUOUS
 62
     7
100
AcDbLine
 10
252.0019107592
 20
206.5114452288
 30
0.0
 11
252.0303247124
 21
206.4830315084
 31
0.0
  0
LINE
  5
15E
330
1F
100
AcDbEntity
  8
0
  6
CONTINUOUS
 62
     7
100
AcDbLine
 10
105.8374255058
 20
209.609528656
 30
0.0
 11
105.8374255058
 21
206.4830315084
 31
0.0
  0
ARC
  5
15F
330
1F
100
AcDbEntity
  8
0
  6
CONTINUOUS
 62
     7
100
AcDbCircle
 10
115.8374314662
 20
209.6095287275
 30
0.0
 40
10.00000000000009
100
AcDbArc
 50
120.0
 51
180.0
  0
LINE
  5
160
330
1F
100
AcDbEntity
  8
0
  6
CONTINUOUS
 62
     7
100
AcDbLine
 10
200.8374317643
 20
270.231309465
 30
0.0
 11
110.8374356386
 21
218.2697831903
 31
0.0
  0
ARC
  5
161
330
1F
100
AcDbEntity
  8
0
  6
CONTINUOUS
 62
     7
100
AcDbCircle
 10
185.8374314662
 20
296.2120691059
 30
0.0
 40
30.00000000000011
100
AcDbArc
 50
300.0
 51
0.0
  0
LINE
  5
162
330
1F
100
AcDbEntity
  8
0
  6
CONTINUOUS
 62
     7
100
AcDbLine
 10
215.8374323603
 20
603.3830373798
 30
0.0
 11
215.8374323603
 21
296.2120726024
 31
0.0
  0
LINE
  5
163
330
1F
100
AcDbEntity
  8
0
  6
CONTINUOUS
 62
     7
100
AcDbLine
 10
218.8374309894
 20
603.3830373798
 30
0.0
 11
215.8374323603
 21
603.3830373798
 31
0.0
  0
LINE
  5
164
330
1F
100
AcDbEntity
  8
0
  6
CONTINUOUS
 62
     7
100
AcDbLine
 10
218.8374309894
 20
615.3830318962
 30
0.0
 11
218.8374309894
 21
603.3830373798
 31
0.0
  0
LINE
  5
165
330
1F
100
AcDbEntity
  8
0
  6
CONTINUOUS
 62
     7
100
AcDbLine
 10
215.8374323603
 20
615.3830318962
 30
0.0
 11
218.8374309894
 21
615.3830318962
 31
0.0
  0
LINE
  5
166
330
1F
100
AcDbEntity
  8
0
  6
CONTINUOUS
 62
     7
100
AcDbLine
 10
215.8374323603
 20
1003.3830433403
 30
0.0
 11
215.8374323603
 21
615.3830318962
 31
0.0
  0
LINE
  5
167
330
1F
100
AcDbEntity
  8
0
  6
CONTINUOUS
 62
     7
100
AcDbLine
 10
218.8374309894
 20
1003.3830433403
 30
0.0
 11
215.8374323603
 21
1003.3830433403
 31
0.0
  0
LINE
  5
168
330
1F
100
AcDbEntity
  8
0
  6
CONTINUOUS
 62
     7
100
AcDbLine
 10
218.8374309894
 20
1015.3830080544
 30
0.0
 11
218.8374309894
 21
1003.3830433403
 31
0.0
  0
LINE
  5
169
330
1F
100
AcDbEntity
  8
0
  6
CONTINUOUS
 62
     7
100
AcDbLine
 10
215.8374323603
 20
1015.3830080544
 30
0.0
 11
218.8374309894
 21
1015.3830080544
 31
0.0
  0
LINE
  5
16A
330
1F
100
AcDbEntity
  8
0
  6
CONTINUOUS
 62
     7
100
AcDbLine
 10
215.8374323603
 20
1120.8866267715
 30
0.0
 11
215.8374323603
 21
1015.3830080544
 31
0.0
  0
LINE
  5
16B
330
1F
100
AcDbEntity
  8
0
  6
CONTINUOUS
 62
     7
100
AcDbLine
 10
252.7374313772
 20
1120.8866267715
 30
0.0
 11
215.8374323603
 21
1120.8866267715
 31
0.0
  0
LINE
  5
16C
330
1F
100
AcDbEntity
  8
0
  6
CONTINUOUS
 62
     7
100
AcDbLine
 10
252.7132188529
 20
207.2143506975
 30
0.0
 11
252.7374313772
 21
207.1901381732
 31
0.0
  0
LINE
  5
16D
330
1F
100
AcDbEntity
  8
0
  6
CONTINUOUS
 62
     7
100
AcDbLine
 10
252.7132188529
 20
207.2143506975
 30
0.0
 11
252.0019107592
 21
206.5114452288
 31
0.0
  0
SPLINE
  5
16E
330
1F
100
AcDbEntity
  8
0
  6
CONTINUOUS
 62
     7
100
AcDbSpline
210
0.0
220
0.0
230
1.0
 70
     8
 71
     3
 72
     8
 73
     4
 74
     0
 42
0.00000001
 43
0.00000001
 12
1.0
 22
0.0
 32
0.0
 13
1.0
 23
0.0
 33
0.0
 40
0.0
 40
0.0
 40
0.0
 40
0.0
 40
1.0
 40
1.0
 40
1.0
 40
1.0
 10
252.7374314662364
 20
207.190138200557
 30
0.0
 10
252.7417946964229
 20
207.156804867223
 30
0.0
 10
252.746157905278
 20
207.123471533889
 30
0.0
 10
252.7504838090134
 20
207.0901382005551
 30
0.0
  0
SPLINE
  5
16F
330
1F
100
AcDbEntity
  8
0
  6
CONTINUOUS
 62
     7
100
AcDbSpline
210
0.0
220
0.0
230
1.0
 70
     8
 71
     3
 72
     8
 73
     4
 74
     0
 42
0.00000001
 43
0.00000001
 12
1.0
 22
0.0
 32
0.0
 13
1.0
 23
0.0
 33
0.0
 40
0.0
 40
0.0
 40
0.0
 40
0.0
 40
1.0
 40
1.0
 40
1.0
 40
1.0
 10
252.7374314662366
 20
207.190138200557
 30
0.0
 10
252.8726916020218
 20
207.1568048672234
 30
0.0
 10
253.0079510765325
 20
207.1234715338897
 30
0.0
 10
253.1420540923324
 20
207.0901382005562
 30
0.0
  0
LINE
  5
170
330
1F
100
AcDbEntity
  8
0
  6
CONTINUOUS
 62
     7
100
AcDbLine
 10
253.1420540158
 20
207.0901381102
 30
0.0
 11
252.7504838631
 21
207.0901381102
 31
0.0
  0
SPLINE
  5
171
330
1F
100
AcDbEntity
  8
0
  6
CONTINUOUS
 62
     7
100
AcDbSpline
210
0.0
220
0.0
230
1.0
 70
     8
 71
     3
 72
     8
 73
     4
 74
     0
 42
0.00000001
 43
0.00000001
 12
1.0
 22
0.0
 32
0.0
 13
1.0
 23
0.0
 33
0.0
 40
0.0
 40
0.0
 40
0.0
 40
0.0
 40
1.0
 40
1.0
 40
1.0
 40
1.0
 10
252.1303246850488
 20
206.4699790765937
 30
0.0
 10
252.0969913517159
 20
206.474304980329
 30
0.0
 10
252.0636580183829
 20
206.478668189184
 30
0.0
 10
252.0303246850499
 20
206.4830314193705
 30
0.0
  0
LINE
  5
172
330
1F
100
AcDbEntity
  8
0
  6
CONTINUOUS
 62
     7
100
AcDbLine
 10
252.1303247754
 20
206.4699790225
 30
0.0
 11
252.1303247754
 21
206.0784088698
 31
0.0
  0
SPLINE
  5
173
330
1F
100
AcDbEntity
  8
0
  6
CONTINUOUS
 62
     7
100
AcDbSpline
210
0.0
220
0.0
230
1.0
 70
     8
 71
     3
 72
     8
 73
     4
 74
     0
 42
0.00000001
 43
0.00000001
 12
1.0
 22
0.0
 32
0.0
 13
1.0
 23
0.0
 33
0.0
 40
0.0
 40
0.0
 40
0.0
 40
0.0
 40
1.0
 40
1.0
 40
1.0
 40
1.0
 10
252.1303246850493
 20
206.0784087932799
 30
0.0
 10
252.0969913517162
 20
206.212511809078
 30
0.0
 10
252.0636580183831
 20
206.3477712835871
 30
0.0
 10
252.0303246850499
 20
206.4830314193705
 30
0.0
  0
LINE
  5
174
330
1F
100
AcDbEntity
  8
0
  6
CONTINUOUS
 62
     7
100
AcDbLine
 10
255.8374314662
 20
207.0901381102
 30
0.0
 11
255.8374314662
 21
1120.8866267715
 31
0.0
  0
LINE
  5
175
330
1F
100
AcDbEntity
  8
0
  6
CONTINUOUS
 62
     7
100
AcDbLine
 10
253.1420540158
 20
207.0901381102
 30
0.0
 11
255.8374314662
 21
207.0901381102
 31
0.0
  0
LINE
  5
176
330
1F
100
AcDbEntity
  8
0
  6
CONTINUOUS
 62
     7
100
AcDbLine
 10
255.8374314662
 20
1120.8866267715
 30
0.0
 11
252.7374313772
 21
1120.8866267715
 31
0.0
  0
LINE
  5
177
330
1F
100
AcDbEntity
  8
0
  6
CONTINUOUS
 62
     7
100
AcDbLine
 10
252.1303247754
 20
203.3830314194
 30
0.0
 11
252.1303247754
 21
206.0784088698
 31
0.0
  0
LINE
  5
178
330
1F
100
AcDbEntity
  8
0
  6
CONTINUOUS
 62
     7
100
AcDbLine
 10
105.8374255058
 20
203.3830314194
 30
0.0
 11
252.1303247754
 21
203.3830314194
 31
0.0
  0
LINE
  5
179
330
1F
100
AcDbEntity
  8
0
  6
CONTINUOUS
 62
     7
100
AcDbLine
 10
105.8374255058
 20
206.4830315084
 30
0.0
 11
105.8374255058
 21
203.3830314194
 31
0.0
  0
LINE
  5
17A
330
1F
100
AcDbEntity
  8
0
  6
CONTINUOUS
 62
     7
100
AcDbLine
 10
252.7374313772
 20
1123.5886245285
 30
0.0
 11
215.8374323603
 21
1123.5886245285
 31
0.0
  0
LINE
  5
17B
330
1F
100
AcDbEntity
  8
0
  6
CONTINUOUS
 62
     7
100
AcDbLine
 10
215.8374323603
 20
1123.5886245285
 30
0.0
 11
215.8374323603
 21
1203.9499908005
 31
0.0
  0
LINE
  5
17C
330
1F
100
AcDbEntity
  8
0
  6
CONTINUOUS
 62
     7
100
AcDbLine
 10
215.8374323603
 20
1203.9499908005
 30
0.0
 11
252.7374313772
 21
1203.9499908005
 31
0.0
  0
LINE
  5
17D
330
1F
100
AcDbEntity
  8
0
  6
CONTINUOUS
 62
     7
100
AcDbLine
 10
252.7374313772
 20
1120.990577272
 30
0.0
 11
215.8374323603
 21
1120.990577272
 31
0.0
  0
LINE
  5
17E
330
1F
100
AcDbEntity
  8
0
  6
CONTINUOUS
 62
     7
100
AcDbLine
 10
215.8374323603
 20
1120.990577272
 30
0.0
 11
215.8374323603
 21
1123.5886245285
 31
0.0
  0
ARC
  5
17F
330
1F
100
AcDbEntity
  8
0
  6
CONTINUOUS
 62
     7
100
AcDbCircle
 10
252.9312208761
 20
1120.6802658986
 30
0.0
 40
2.914807762141625
100
AcDbArc
 50
4.4016679992
 51
93.8120923959
  0
LINE
  5
180
330
1F
100
AcDbEntity
  8
0
  6
CONTINUOUS
 62
     7
100
AcDbLine
 10
255.8374314662
 20
1120.9039717232
 30
0.0
 11
255.8374314662
 21
1120.8866267715
 31
0.0
  0
LINE
  5
181
330
1F
100
AcDbEntity
  8
0
  6
CONTINUOUS
 62
     7
100
AcDbLine
 10
252.8374314402
 20
1120.8866267715
 30
0.0
 11
252.8374314402
 21
1120.9039717232
 31
0.0
  0
ARC
  5
182
330
1F
100
AcDbEntity
  8
0
  6
CONTINUOUS
 62
     7
100
AcDbCircle
 10
252.7436418498
 20
1120.896712395
 30
0.0
 40
0.0940701074365991
100
AcDbArc
 50
4.4258777404
 51
93.7853987132
  0
LINE
  5
183
330
1F
100
AcDbEntity
  8
0
  6
CONTINUOUS
 62
     7
100
AcDbLine
 10
255.8374314662
 20
1120.9039717232
 30
0.0
 11
255.8374314662
 21
1201.2653975998
 31
0.0
  0
ARC
  5
184
330
1F
100
AcDbEntity
  8
0
  6
CONTINUOUS
 62
     7
100
AcDbCircle
 10
252.931274447
 20
1201.0416890634
 30
0.0
 40
2.914754557364337
100
AcDbArc
 50
4.4018019678
 51
93.8132174708
  0
ARC
  5
185
330
1F
100
AcDbEntity
  8
0
  6
CONTINUOUS
 62
     7
100
AcDbCircle
 10
252.7374314662
 20
206.4830314194
 30
0.0
 40
3.100000000000108
100
AcDbArc
 50
270.0
 51
0.0
  0
ARC
  5
186
330
1F
100
AcDbEntity
  8
0
  6
CONTINUOUS
 62
     7
100
AcDbCircle
 10
252.7374314662
 20
206.4830314194
 30
0.0
 40
0.1000000000000512
100
AcDbArc
 50
270.0000000001
 51
0.0000000012
  0
LINE
  5
187
330
1F
100
AcDbEntity
  8
0
  6
CONTINUOUS
 62
     7
100
AcDbLine
 10
252.1303247754
 20
206.3830314454
 30
0.0
 11
252.7374313772
 21
206.3830314454
 31
0.0
  0
LINE
  5
188
330
1F
100
AcDbEntity
  8
0
  6
CONTINUOUS
 62
     7
100
AcDbLine
 10
252.7374313772
 20
203.3830314194
 30
0.0
 11
252.1303247754
 21
203.3830314194
 31
0.0
  0
LINE
  5
189
330
1F
100
AcDbEntity
  8
0
  6
CONTINUOUS
 62
     7
100
AcDbLine
 10
252.8374314402
 20
206.4830315084
 30
0.0
 11
252.8374314402
 21
207.0901381102
 31
0.0
  0
LINE
  5
18A
330
1F
100
AcDbEntity
  8
0
  6
CONTINUOUS
 62
     7
100
AcDbLine
 10
255.8374314662
 20
207.0901381102
 30
0.0
 11
255.8374314662
 21
206.4830315084
 31
0.0
  0
LINE
  5
18B
330
1F
100
AcDbEntity
  8
0
  6
CONTINUOUS
 62
     7
100
AcDbLine
 10
215.8374323603
 20
1203.9499908005
 30
0.0
 11
215.8374323603
 21
1204.3830781494
 31
0.0
  0
LINE
  5
18C
330
1F
100
AcDbEntity
  8
0
  6
CONTINUOUS
 62
     7
100
AcDbLine
 10
252.7374313772
 20
1204.3830781494
 30
0.0
 11
215.8374323603
 21
1204.3830781494
 31
0.0
  0
ARC
  5
18D
330
1F
100
AcDbEntity
  8
0
  6
CONTINUOUS
 62
     7
100
AcDbCircle
 10
252.7374314662
 20
1201.2830314194
 30
0.0
 40
3.100000000000136
100
AcDbArc
 50
360.0
 51
90.0
  0
LINE
  5
18E
330
1F
100
AcDbEntity
  8
0
  6
CONTINUOUS
 62
     7
100
AcDbLine
 10
255.8374314662
 20
1201.2830405746
 30
0.0
 11
255.8374314662
 21
1201.2653975998
 31
0.0
  0
LINE
  5
18F
330
1F
100
AcDbEntity
  8
0
  6
CONTINUOUS
 62
     7
100
AcDbLine
 10
442.1377658925
 20
112.6200829157
 30
0.0
 11
442.1377658925
 21
141.6200820813
 31
0.0
  0
LINE
  5
190
330
1F
100
AcDbEntity
  8
0
  6
CONTINUOUS
 62
     7
100
AcDbLine
 10
445.137757071
 20
141.6200820813
 30
0.0
 11
445.137757071
 21
112.6200829157
 31
0.0
  0
LINE
  5
191
330
1F
100
AcDbEntity
  8
0
  6
CONTINUOUS
 62
     7
100
AcDbLine
 10
442.1377658925
 20
107.6200802335
 30
0.0
 11
445.137757071
 21
107.6200802335
 31
0.0
  0
LINE
  5
192
330
1F
100
AcDbEntity
  8
0
  6
CONTINUOUS
 62
     7
100
AcDbLine
 10
442.1377658925
 20
107.6200802335
 30
0.0
 11
442.1377658925
 21
112.6200829157
 31
0.0
  0
LINE
  5
193
330
1F
100
AcDbEntity
  8
0
  6
CONTINUOUS
 62
     7
100
AcDbLine
 10
445.137757071
 20
107.6200802335
 30
0.0
 11
445.137757071
 21
112.6200829157
 31
0.0
  0
LINE
  5
194
330
1F
100
AcDbEntity
  8
0
  6
CONTINUOUS
 62
     7
100
AcDbLine
 10
663.3877588517
 20
113.3700807104
 30
0.0
 11
654.8877583897
 21
113.3700807104
 31
0.0
  0
LINE
  5
195
330
1F
100
AcDbEntity
  8
0
  6
CONTINUOUS
 62
     7
100
AcDbLine
 10
663.3877588517
 20
121.8700830349
 30
0.0
 11
663.3877588517
 21
113.3700807104
 31
0.0
  0
LINE
  5
196
330
1F
100
AcDbEntity
  8
0
  6
CONTINUOUS
 62
     7
100
AcDbLine
 10
654.8877583897
 20
121.8700830349
 30
0.0
 11
663.3877588517
 21
121.8700830349
 31
0.0
  0
LINE
  5
197
330
1F
100
AcDbEntity
  8
0
  6
CONTINUOUS
 62
     7
100
AcDbLine
 10
654.8877583897
 20
113.3700807104
 30
0.0
 11
654.8877583897
 21
121.8700830349
 31
0.0
  0
LINE
  5
198
330
1F
100
AcDbEntity
  8
0
  6
CONTINUOUS
 62
     7
100
AcDbLine
 10
716.0377569577
 20
107.6200802335
 30
0.0
 11
602.2377602837
 21
107.6200802335
 31
0.0
  0
LINE
  5
199
330
1F
100
AcDbEntity
  8
0
  6
CONTINUOUS
 62
     7
100
AcDbLine
 10
719.1377572796
 20
107.6200802335
 30
0.0
 11
716.0377569577
 21
107.6200802335
 31
0.0
  0
LINE
  5
19A
330
1F
100
AcDbEntity
  8
0
  6
CONTINUOUS
 62
     7
100
AcDbLine
 10
719.1377572796
 20
107.6200802335
 30
0.0
 11
719.1377572796
 21
141.6200820813
 31
0.0
  0
LINE
  5
19B
330
1F
100
AcDbEntity
  8
0
  6
CONTINUOUS
 62
     7
100
AcDbLine
 10
602.2377602837
 20
107.6200802335
 30
0.0
 11
599.1377599618
 21
107.6200802335
 31
0.0
  0
LINE
  5
19C
330
1F
100
AcDbEntity
  8
0
  6
CONTINUOUS
 62
     7
100
AcDbLine
 10
599.1377599618
 20
141.6200820813
 30
0.0
 11
599.1377599618
 21
107.6200802335
 31
0.0
  0
LINE
  5
19D
330
1F
100
AcDbEntity
  8
0
  6
CONTINUOUS
 62
     7
100
AcDbLine
 10
873.1377601704
 20
112.6200829157
 30
0.0
 11
873.1377601704
 21
141.6200820813
 31
0.0
  0
LINE
  5
19E
330
1F
100
AcDbEntity
  8
0
  6
CONTINUOUS
 62
     7
100
AcDbLine
 10
876.1377513489
 20
141.6200820813
 30
0.0
 11
876.1377513489
 21
112.6200829157
 31
0.0
  0
LINE
  5
19F
330
1F
100
AcDbEntity
  8
0
  6
CONTINUOUS
 62
     7
100
AcDbLine
 10
873.1377601704
 20
107.6200802335
 30
0.0
 11
876.1377513489
 21
107.6200802335
 31
0.0
  0
LINE
  5
1A0
330
1F
100
AcDbEntity
  8
0
  6
CONTINUOUS
 62
     7
100
AcDbLine
 10
873.1377601704
 20
107.6200802335
 30
0.0
 11
873.1377601704
 21
112.6200829157
 31
0.0
  0
LINE
  5
1A1
330
1F
100
AcDbEntity
  8
0
  6
CONTINUOUS
 62
     7
100
AcDbLine
 10
876.1377513489
 20
107.6200802335
 30
0.0
 11
876.1377513489
 21
112.6200829157
 31
0.0
  0
LINE
  5
1A2
330
1F
100
AcDbEntity
  8
0
  6
CONTINUOUS
 62
     7
100
AcDbLine
 10
664.1377585089
 20
144.6200807104
 30
0.0
 11
654.1377587325
 21
144.6200807104
 31
0.0
  0
LINE
  5
1A3
330
1F
100
AcDbEntity
  8
0
  6
CONTINUOUS
 62
     7
100
AcDbLine
 10
664.1377585089
 20
144.6200807104
 30
0.0
 11
664.1377585089
 21
141.6200820813
 31
0.0
  0
LINE
  5
1A4
330
1F
100
AcDbEntity
  8
0
  6
CONTINUOUS
 62
     7
100
AcDbLine
 10
654.1377587325
 20
144.6200807104
 30
0.0
 11
654.1377587325
 21
141.6200820813
 31
0.0
  0
LINE
  5
1A5
330
1F
100
AcDbEntity
  8
0
  6
CONTINUOUS
 62
     7
100
AcDbLine
 10
654.1377587325
 20
141.6200820813
 30
0.0
 11
664.1377585089
 21
141.6200820813
 31
0.0
  0
LINE
  5
1A6
330
1F
100
AcDbEntity
  8
0
  6
CONTINUOUS
 62
     7
100
AcDbLine
 10
738.333913692
 20
141.6200820813
 30
0.0
 11
738.333913692
 21
144.6200807104
 31
0.0
  0
LINE
  5
1A7
330
1F
100
AcDbEntity
  8
0
  6
CONTINUOUS
 62
     7
100
AcDbLine
 10
738.2717907509
 20
144.6200807104
 30
0.0
 11
738.333913692
 21
144.6200807104
 31
0.0
  0
LINE
  5
1A8
330
1F
100
AcDbEntity
  8
0
  6
CONTINUOUS
 62
     7
100
AcDbLine
 10
738.2717907509
 20
141.6200820813
 30
0.0
 11
738.333913692
 21
141.6200820813
 31
0.0
  0
LINE
  5
1A9
330
1F
100
AcDbEntity
  8
0
  6
CONTINUOUS
 62
     7
100
AcDbLine
 10
738.333913692
 20
144.6200807104
 30
0.0
 11
738.3877068839
 21
144.6200807104
 31
0.0
  0
LINE
  5
1AA
330
1F
100
AcDbEntity
  8
0
  6
CONTINUOUS
 62
     7
100
AcDbLine
 10
738.333913692
 20
141.6200820813
 30
0.0
 11
738.3877068839
 21
141.6200820813
 31
0.0
  0
LINE
  5
1AB
330
1F
100
AcDbEntity
  8
0
  6
CONTINUOUS
 62
     7
100
AcDbLine
 10
579.9416035494
 20
141.6200820813
 30
0.0
 11
579.9416035494
 21
144.6200807104
 31
0.0
  0
LINE
  5
1AC
330
1F
100
AcDbEntity
  8
0
  6
CONTINUOUS
 62
     7
100
AcDbLine
 10
579.8878103575
 20
144.6200807104
 30
0.0
 11
579.9416035494
 21
144.6200807104
 31
0.0
  0
LINE
  5
1AD
330
1F
100
AcDbEntity
  8
0
  6
CONTINUOUS
 62
     7
100
AcDbLine
 10
579.8878103575
 20
141.6200820813
 30
0.0
 11
579.9416035494
 21
141.6200820813
 31
0.0
  0
LINE
  5
1AE
330
1F
100
AcDbEntity
  8
0
  6
CONTINUOUS
 62
     7
100
AcDbLine
 10
579.9416035494
 20
144.6200807104
 30
0.0
 11
580.0037264905
 21
144.6200807104
 31
0.0
  0
LINE
  5
1AF
330
1F
100
AcDbEntity
  8
0
  6
CONTINUOUS
 62
     7
100
AcDbLine
 10
579.9416035494
 20
141.6200820813
 30
0.0
 11
580.0037264905
 21
141.6200820813
 31
0.0
  0
LINE
  5
1B0
330
1F
100
AcDbEntity
  8
0
  6
CONTINUOUS
 62
     7
100
AcDbLine
 10
653.1377585685
 20
141.6200820813
 30
0.0
 11
654.1377587325
 21
141.6200820813
 31
0.0
  0
LINE
  5
1B1
330
1F
100
AcDbEntity
  8
0
  6
CONTINUOUS
 62
     7
100
AcDbLine
 10
664.1377585089
 20
141.6200820813
 30
0.0
 11
665.1377586728
 21
141.6200820813
 31
0.0
  0
LINE
  5
1B2
330
1F
100
AcDbEntity
  8
0
  6
CONTINUOUS
 62
     7
100
AcDbLine
 10
738.2717907509
 20
141.6200820813
 30
0.0
 11
665.1377586728
 21
141.6200820813
 31
0.0
  0
LINE
  5
1B3
330
1F
100
AcDbEntity
  8
0
  6
CONTINUOUS
 62
     7
100
AcDbLine
 10
665.1377586728
 20
141.6200820813
 30
0.0
 11
665.1377586728
 21
144.6200807104
 31
0.0
  0
LINE
  5
1B4
330
1F
100
AcDbEntity
  8
0
  6
CONTINUOUS
 62
     7
100
AcDbLine
 10
665.1377586728
 20
144.6200807104
 30
0.0
 11
653.1377585685
 21
144.6200807104
 31
0.0
  0
LINE
  5
1B5
330
1F
100
AcDbEntity
  8
0
  6
CONTINUOUS
 62
     7
100
AcDbLine
 10
653.1377585685
 20
144.6200807104
 30
0.0
 11
653.1377585685
 21
141.6200820813
 31
0.0
  0
LINE
  5
1B6
330
1F
100
AcDbEntity
  8
0
  6
CONTINUOUS
 62
     7
100
AcDbLine
 10
653.1377585685
 20
141.6200820813
 30
0.0
 11
580.0037264905
 21
141.6200820813
 31
0.0
  0
LINE
  5
1B7
330
1F
100
AcDbEntity
  8
0
  6
CONTINUOUS
 62
     7
100
AcDbLine
 10
580.0037264905
 20
141.6200820813
 30
0.0
 11
580.0037264905
 21
178.5200810982
 31
0.0
  0
LINE
  5
1B8
330
1F
100
AcDbEntity
  8
0
  6
CONTINUOUS
 62
     7
100
AcDbLine
 10
738.2717907509
 20
178.5200810982
 30
0.0
 11
738.2717907509
 21
141.6200820813
 31
0.0
  0
LINE
  5
1B9
330
1F
100
AcDbEntity
  8
0
  6
CONTINUOUS
 62
     7
100
AcDbLine
 10
738.2717907509
 20
181.6200811872
 30
0.0
 11
580.0037264905
 21
181.6200811872
 31
0.0
  0
LINE
  5
1BA
330
1F
100
AcDbEntity
  8
0
  6
CONTINUOUS
 62
     7
100
AcDbLine
 10
580.0037264905
 20
181.6200811872
 30
0.0
 11
580.0037264905
 21
178.5200810982
 31
0.0
  0
LINE
  5
1BB
330
1F
100
AcDbEntity
  8
0
  6
CONTINUOUS
 62
     7
100
AcDbLine
 10
738.2717907509
 20
178.5200810982
 30
0.0
 11
738.2717907509
 21
181.6200811872
 31
0.0
  0
LINE
  5
1BC
330
1F
100
AcDbEntity
  8
0
  6
CONTINUOUS
 62
     7
100
AcDbLine
 10
738.3377060375
 20
178.6200811611
 30
0.0
 11
738.2717907509
 21
178.6200811611
 31
0.0
  0
LINE
  5
1BD
330
1F
100
AcDbEntity
  8
0
  6
CONTINUOUS
 62
     7
100
AcDbLine
 10
738.2717907509
 20
181.6200811872
 30
0.0
 11
738.3377060375
 21
181.6200811872
 31
0.0
  0
LWPOLYLINE
  5
1BE
330
1F
100
AcDbEntity
  8
0
  6
CONTINUOUS
 62
     7
100
AcDbPolyline
 90
        9
 70
   128
 43
0.0
 10
738.3377060375
 20
181.6200811872
 10
738.6400953016
 20
181.5605155561
 10
738.93086166
 20
181.3841077373
 10
739.1988366923
 20
181.0976369879
 10
739.4337236962
 20
180.7121122246
 10
739.6264851174
 20
180.242348927
 10
739.7697225294
 20
179.7063997937
 10
739.8579225025
 20
179.1248612562
 10
739.8877024731
 20
178.5200810982
  0
LINE
  5
1BF
330
1F
100
AcDbEntity
  8
0
  6
CONTINUOUS
 62
     7
100
AcDbLine
 10
739.8877024731
 20
141.6200820813
 30
0.0
 11
739.8877024731
 21
178.5200810982
 31
0.0
  0
LINE
  5
1C0
330
1F
100
AcDbEntity
  8
0
  6
CONTINUOUS
 62
     7
100
AcDbLine
 10
739.8877024731
 20
141.6200820813
 30
0.0
 11
738.3877068839
 21
141.6200820813
 31
0.0
  0
LINE
  5
1C1
330
1F
100
AcDbEntity
  8
0
  6
CONTINUOUS
 62
     7
100
AcDbLine
 10
738.3877068839
 20
141.6200820813
 30
0.0
 11
738.3877068839
 21
178.5200810982
 31
0.0
  0
LWPOLYLINE
  5
1C2
330
1F
100
AcDbEntity
  8
0
  6
CONTINUOUS
 62
     7
100
AcDbPolyline
 90
        9
 70
   128
 43
0.0
 10
738.3377060375
 20
178.6200811611
 10
738.3474588475
 20
178.6181596098
 10
738.3568391284
 20
178.6124692289
 10
738.3654818019
 20
178.6032281806
 10
738.3730590424
 20
178.5907917646
 10
738.3792802772
 20
178.575638215
 10
738.3838996372
 20
178.5583496084
 10
738.386745759
 20
178.5395902106
 10
738.3877068839
 20
178.5200810982
  0
LINE
  5
1C3
330
1F
100
AcDbEntity
  8
0
  6
CONTINUOUS
 62
     7
100
AcDbLine
 10
879.0777653536
 20
178.5200810982
 30
0.0
 11
879.0777653536
 21
141.6200820813
 31
0.0
  0
LINE
  5
1C4
330
1F
100
AcDbEntity
  8
0
  6
CONTINUOUS
 62
     7
100
AcDbLine
 10
879.0777653536
 20
141.6200820813
 30
0.0
 11
739.8877024731
 21
141.6200820813
 31
0.0
  0
LINE
  5
1C5
330
1F
100
AcDbEntity
  8
0
  6
CONTINUOUS
 62
     7
100
AcDbLine
 10
578.3878147683
 20
178.5200810982
 30
0.0
 11
578.3878147683
 21
141.6200820813
 31
0.0
  0
LINE
  5
1C6
330
1F
100
AcDbEntity
  8
0
  6
CONTINUOUS
 62
     7
100
AcDbLine
 10
578.3878147683
 20
141.6200820813
 30
0.0
 11
439.1977518878
 21
141.6200820813
 31
0.0
  0
LINE
  5
1C7
330
1F
100
AcDbEntity
  8
0
  6
CONTINUOUS
 62
     7
100
AcDbLine
 10
439.1977518878
 20
141.6200820813
 30
0.0
 11
439.1977518878
 21
178.5200810982
 31
0.0
  0
LINE
  5
1C8
330
1F
100
AcDbEntity
  8
0
  6
CONTINUOUS
 62
     7
100
AcDbLine
 10
579.8878103575
 20
178.5200810982
 30
0.0
 11
579.8878103575
 21
141.6200820813
 31
0.0
  0
LINE
  5
1C9
330
1F
100
AcDbEntity
  8
0
  6
CONTINUOUS
 62
     7
100
AcDbLine
 10
579.8878103575
 20
141.6200820813
 30
0.0
 11
578.3878147683
 21
141.6200820813
 31
0.0
  0
LWPOLYLINE
  5
1CA
330
1F
100
AcDbEntity
  8
0
  6
CONTINUOUS
 62
     7
100
AcDbPolyline
 90
        9
 70
   128
 43
0.0
 10
578.3878147683
 20
178.5200810982
 10
578.4175947389
 20
179.1248612562
 10
578.505794712
 20
179.7063997937
 10
578.649032124
 20
180.242348927
 10
578.8417935452
 20
180.7121122246
 10
579.0766805491
 20
181.0976369879
 10
579.3446555814
 20
181.3841077373
 10
579.6354219398
 20
181.5605155561
 10
579.9378112039
 20
181.6200811872
  0
LINE
  5
1CB
330
1F
100
AcDbEntity
  8
0
  6
CONTINUOUS
 62
     7
100
AcDbLine
 10
579.9378112039
 20
181.6200811872
 30
0.0
 11
580.0037264905
 21
181.6200811872
 31
0.0
  0
LINE
  5
1CC
330
1F
100
AcDbEntity
  8
0
  6
CONTINUOUS
 62
     7
100
AcDbLine
 10
580.0037264905
 20
178.6200811611
 30
0.0
 11
579.9378112039
 21
178.6200811611
 31
0.0
  0
LWPOLYLINE
  5
1CD
330
1F
100
AcDbEntity
  8
0
  6
CONTINUOUS
 62
     7
100
AcDbPolyline
 90
        9
 70
   128
 43
0.0
 10
579.8878103575
 20
178.5200810982
 10
579.8887714824
 20
178.5395902106
 10
579.8916176042
 20
178.5583496084
 10
579.8962369642
 20
178.575638215
 10
579.902458199
 20
178.5907917646
 10
579.9100354394
 20
178.6032281806
 10
579.9186781129
 20
178.6124692289
 10
579.9280583939
 20
178.6181596098
 10
579.9378112039
 20
178.6200811611
  0
LINE
  5
1CE
330
1F
100
AcDbEntity
  8
0
  6
CONTINUOUS
 62
     7
100
AcDbLine
 10
579.9378112039
 20
181.6200811872
 30
0.0
 11
440.747755774
 21
181.6200811872
 31
0.0
  0
LWPOLYLINE
  5
1CF
330
1F
100
AcDbEntity
  8
0
  6
CONTINUOUS
 62
     7
100
AcDbPolyline
 90
        9
 70
   128
 43
0.0
 10
440.747755774
 20
181.6200811872
 10
440.4453665099
 20
181.5605155561
 10
440.1546001515
 20
181.3841077373
 10
439.8866176686
 20
181.0976369879
 10
439.6517455658
 20
180.7121122246
 10
439.4589841446
 20
180.242348927
 10
439.3157392821
 20
179.7063997937
 10
439.227539309
 20
179.1248612562
 10
439.1977518878
 20
178.5200810982
  0
LINE
  5
1D0
330
1F
100
AcDbEntity
  8
0
  6
CONTINUOUS
 62
     7
100
AcDbLine
 10
877.5277614674
 20
181.6200811872
 30
0.0
 11
738.3377060375
 21
181.6200811872
 31
0.0
  0
LWPOLYLINE
  5
1D1
330
1F
100
AcDbEntity
  8
0
  6
CONTINUOUS
 62
     7
100
AcDbPolyline
 90
        9
 70
   128
 43
0.0
 10
879.0777653536
 20
178.5200810982
 10
879.0479779324
 20
179.1248612562
 10
878.9597779593
 20
179.7063997937
 10
878.8165330967
 20
180.242348927
 10
878.6237716755
 20
180.7121122246
 10
878.3888995728
 20
181.0976369879
 10
878.1209170899
 20
181.3841077373
 10
877.8301507315
 20
181.5605155561
 10
877.5277614674
 20
181.6200811872
  0
LINE
  5
1D2
330
1F
100
AcDbEntity
  8
0
  6
CONTINUOUS
 62
     7
100
AcDbLine
 10
437.6377642235
 20
141.6200820813
 30
0.0
 11
439.1977518878
 21
141.6200820813
 31
0.0
  0
LINE
  5
1D3
330
1F
100
AcDbEntity
  8
0
  6
CONTINUOUS
 62
     7
100
AcDbLine
 10
437.6377642235
 20
178.5200810982
 30
0.0
 11
437.6377642235
 21
141.6200820813
 31
0.0
  0
ARC
  5
1D4
330
1F
100
AcDbEntity
  8
0
  6
CONTINUOUS
 62
     7
100
AcDbCircle
 10
440.7377586207
 20
178.5200811872
 30
0.0
 40
3.100000000000165
100
AcDbArc
 50
90.0
 51
180.0
  0
LINE
  5
1D5
330
1F
100
AcDbEntity
  8
0
  6
CONTINUOUS
 62
     7
100
AcDbLine
 10
440.7377570948
 20
181.6200811872
 30
0.0
 11
440.747755774
 21
181.6200811872
 31
0.0
  0
ARC
  5
1D6
330
1F
100
AcDbEntity
  8
0
  6
CONTINUOUS
 62
     7
100
AcDbCircle
 10
877.5377586207
 20
178.5200811872
 30
0.0
 40
3.100000000000023
100
AcDbArc
 50
360.0
 51
90.0
  0
LINE
  5
1D7
330
1F
100
AcDbEntity
  8
0
  6
CONTINUOUS
 62
     7
100
AcDbLine
 10
880.6377530179
 20
178.5200810982
 30
0.0
 11
880.6377530179
 21
141.6200820813
 31
0.0
  0
LINE
  5
1D8
330
1F
100
AcDbEntity
  8
0
  6
CONTINUOUS
 62
     7
100
AcDbLine
 10
880.6377530179
 20
141.6200820813
 30
0.0
 11
879.0777653536
 21
141.6200820813
 31
0.0
  0
LINE
  5
1D9
330
1F
100
AcDbEntity
  8
0
  6
CONTINUOUS
 62
     7
100
AcDbLine
 10
877.5277614674
 20
181.6200811872
 30
0.0
 11
877.5377601466
 21
181.6200811872
 31
0.0
  0
LINE
  5
1DA
330
1F
100
AcDbEntity
  8
0
  6
CONTINUOUS
 62
     7
100
AcDbLine
 10
877.6377618393
 20
126.6200814852
 30
0.0
 11
877.6377618393
 21
141.6200820813
 31
0.0
  0
LINE
  5
1DB
330
1F
100
AcDbEntity
  8
0
  6
CONTINUOUS
 62
     7
100
AcDbLine
 10
880.6377530179
 20
141.6200820813
 30
0.0
 11
880.6377530179
 21
126.6200814852
 31
0.0
  0
LINE
  5
1DC
330
1F
100
AcDbEntity
  8
0
  6
CONTINUOUS
 62
     7
100
AcDbLine
 10
437.6377642235
 20
141.6200820813
 30
0.0
 11
437.6377642235
 21
126.6200814852
 31
0.0
  0
LINE
  5
1DD
330
1F
100
AcDbEntity
  8
0
  6
CONTINUOUS
 62
     7
100
AcDbLine
 10
440.637755402
 20
141.6200820813
 30
0.0
 11
440.637755402
 21
126.6200814852
 31
0.0
  0
LINE
  5
1DE
330
1F
100
AcDbEntity
  8
0
  6
CONTINUOUS
 62
     7
100
AcDbLine
 10
877.6377618393
 20
126.6200814852
 30
0.0
 11
877.6377618393
 21
36.6200853595
 31
0.0
  0
LINE
  5
1DF
330
1F
100
AcDbEntity
  8
0
  6
CONTINUOUS
 62
     7
100
AcDbLine
 10
880.6377530179
 20
126.6200814852
 30
0.0
 11
880.6377530179
 21
36.6200853595
 31
0.0
  0
LINE
  5
1E0
330
1F
100
AcDbEntity
  8
0
  6
CONTINUOUS
 62
     7
100
AcDbLine
 10
437.6377642235
 20
126.6200814852
 30
0.0
 11
437.6377642235
 21
36.6200853595
 31
0.0
  0
LINE
  5
1E1
330
1F
100
AcDbEntity
  8
0
  6
CONTINUOUS
 62
     7
100
AcDbLine
 10
440.637755402
 20
126.6200814852
 30
0.0
 11
440.637755402
 21
36.6200853595
 31
0.0
  0
LINE
  5
1E2
330
1F
100
AcDbEntity
  8
0
  6
CONTINUOUS
 62
     7
100
AcDbLine
 10
880.6377530179
 20
31.6200752267
 30
0.0
 11
877.6377618393
 21
31.6200752267
 31
0.0
  0
LINE
  5
1E3
330
1F
100
AcDbEntity
  8
0
  6
CONTINUOUS
 62
     7
100
AcDbLine
 10
877.6377618393
 20
36.6200853595
 30
0.0
 11
877.6377618393
 21
31.6200752267
 31
0.0
  0
LINE
  5
1E4
330
1F
100
AcDbEntity
  8
0
  6
CONTINUOUS
 62
     7
100
AcDbLine
 10
880.6377530179
 20
36.6200853595
 30
0.0
 11
880.6377530179
 21
31.6200752267
 31
0.0
  0
LINE
  5
1E5
330
1F
100
AcDbEntity
  8
0
  6
CONTINUOUS
 62
     7
100
AcDbLine
 10
437.6377642235
 20
31.6200752267
 30
0.0
 11
440.637755402
 21
31.6200752267
 31
0.0
  0
LINE
  5
1E6
330
1F
100
AcDbEntity
  8
0
  6
CONTINUOUS
 62
     7
100
AcDbLine
 10
437.6377642235
 20
36.6200853595
 30
0.0
 11
437.6377642235
 21
31.6200752267
 31
0.0
  0
LINE
  5
1E7
330
1F
100
AcDbEntity
  8
0
  6
CONTINUOUS
 62
     7
100
AcDbLine
 10
440.637755402
 20
31.6200752267
 30
0.0
 11
440.637755402
 21
36.6200853595
 31
0.0
  0
LINE
  5
1E8
330
1F
100
AcDbEntity
  8
0
  6
CONTINUOUS
 62
     7
100
AcDbLine
 10
877.6377618393
 20
31.6200752267
 30
0.0
 11
877.5377601466
 21
31.6200752267
 31
0.0
  0
LINE
  5
1E9
330
1F
100
AcDbEntity
  8
0
  6
CONTINUOUS
 62
     7
100
AcDbLine
 10
440.7377570948
 20
31.6200752267
 30
0.0
 11
440.637755402
 21
31.6200752267
 31
0.0
  0
CIRCLE
  5
1EA
330
1F
100
AcDbEntity
  8
0
  6
CONTINUOUS
 62
     7
100
AcDbCircle
 10
846.1377586207
 20
131.6200811872
 30
0.0
 40
6.500000000000028
  0
CIRCLE
  5
1EB
330
1F
100
AcDbEntity
  8
0
  6
CONTINUOUS
 62
     7
100
AcDbCircle
 10
816.1377586207
 20
56.6200811872
 30
0.0
 40
6.5
  0
CIRCLE
  5
1EC
330
1F
100
AcDbEntity
  8
0
  6
CONTINUOUS
 62
     7
100
AcDbCircle
 10
502.1377586207
 20
56.6200811872
 30
0.0
 40
6.500000000000014
  0
CIRCLE
  5
1ED
330
1F
100
AcDbEntity
  8
0
  6
CONTINUOUS
 62
     7
100
AcDbCircle
 10
472.1377586207
 20
131.6200811872
 30
0.0
 40
6.5
  0
LINE
  5
1EE
330
1F
100
AcDbEntity
  8
0
  6
CONTINUOUS
 62
     7
100
AcDbLine
 10
877.5377601466
 20
31.6200752267
 30
0.0
 11
440.7377570948
 21
31.6200752267
 31
0.0
  0
LINE
  5
1EF
330
1F
100
AcDbEntity
  8
0
  6
CONTINUOUS
 62
     7
100
AcDbLine
 10
440.8377587876
 20
1231.820249178
 30
0.0
 11
440.7377570948
 21
1231.820249178
 31
0.0
  0
LINE
  5
1F0
330
1F
100
AcDbEntity
  8
0
  6
CONTINUOUS
 62
     7
100
AcDbLine
 10
440.7377570948
 20
1378.1131484476
 30
0.0
 11
877.5377601466
 21
1378.1131484476
 31
0.0
  0
LINE
  5
1F1
330
1F
100
AcDbEntity
  8
0
  6
CONTINUOUS
 62
     7
100
AcDbLine
 10
877.4377584538
 20
1231.820249178
 30
0.0
 11
877.5377601466
 21
1231.820249178
 31
0.0
  0
LINE
  5
1F2
330
1F
100
AcDbEntity
  8
0
  6
CONTINUOUS
 62
     7
100
AcDbLine
 10
877.4377584538
 20
1231.2131425761
 30
0.0
 11
877.4377584538
 21
1231.820249178
 31
0.0
  0
CIRCLE
  5
1F3
330
1F
100
AcDbEntity
  8
0
  6
CONTINUOUS
 62
     7
100
AcDbCircle
 10
846.1377586207
 20
1278.1131424871
 30
0.0
 40
6.500000000000227
  0
CIRCLE
  5
1F4
330
1F
100
AcDbEntity
  8
0
  6
CONTINUOUS
 62
     7
100
AcDbCircle
 10
816.1377586207
 20
1353.1131424871
 30
0.0
 40
6.500000000000227
  0
CIRCLE
  5
1F5
330
1F
100
AcDbEntity
  8
0
  6
CONTINUOUS
 62
     7
100
AcDbCircle
 10
502.1377586207
 20
1353.1131424871
 30
0.0
 40
6.499999999999773
  0
CIRCLE
  5
1F6
330
1F
100
AcDbEntity
  8
0
  6
CONTINUOUS
 62
     7
100
AcDbCircle
 10
472.1377586207
 20
1278.1131424871
 30
0.0
 40
6.500000000000227
  0
LINE
  5
1F7
330
1F
100
AcDbEntity
  8
0
  6
CONTINUOUS
 62
     7
100
AcDbLine
 10
440.8377587876
 20
1231.2131425761
 30
0.0
 11
440.8377587876
 21
1231.820249178
 31
0.0
  0
LINE
  5
1F8
330
1F
100
AcDbEntity
  8
0
  6
CONTINUOUS
 62
     7
100
AcDbLine
 10
440.7377570948
 20
1378.1131484476
 30
0.0
 11
437.6377642235
 21
1378.1131484476
 31
0.0
  0
SPLINE
  5
1F9
330
1F
100
AcDbEntity
  8
0
  6
CONTINUOUS
 62
     7
100
AcDbSpline
210
0.0
220
0.0
230
1.0
 70
     8
 71
     3
 72
     8
 73
     4
 74
     0
 42
0.00000001
 43
0.00000001
 12
1.0
 22
0.0
 32
0.0
 13
1.0
 23
0.0
 33
0.0
 40
0.0
 40
0.0
 40
0.0
 40
0.0
 40
1.0
 40
1.0
 40
1.0
 40
1.0
 10
437.6377586206922
 20
1231.920249268284
 30
0.0
 10
437.6377586206922
 20
1231.886915934951
 30
0.0
 10
437.6466238056478
 20
1231.853582601618
 30
0.0
 10
437.6642784222111
 20
1231.820249268285
 30
0.0
  0
LINE
  5
1FA
330
1F
100
AcDbEntity
  8
0
  6
CONTINUOUS
 62
     7
100
AcDbLine
 10
437.6377642235
 20
1378.1131484476
 30
0.0
 11
437.6377642235
 21
1231.9202492409
 31
0.0
  0
LINE
  5
1FB
330
1F
100
AcDbEntity
  8
0
  6
CONTINUOUS
 62
     7
100
AcDbLine
 10
437.6642733893
 20
1231.820249178
 30
0.0
 11
440.7377570948
 21
1231.820249178
 31
0.0
  0
LINE
  5
1FC
330
1F
100
AcDbEntity
  8
0
  6
CONTINUOUS
 62
     7
100
AcDbLine
 10
880.6377530179
 20
1378.1131484476
 30
0.0
 11
877.5377601466
 21
1378.1131484476
 31
0.0
  0
LINE
  5
1FD
330
1F
100
AcDbEntity
  8
0
  6
CONTINUOUS
 62
     7
100
AcDbLine
 10
880.6377530179
 20
1378.1131484476
 30
0.0
 11
880.6377530179
 21
1231.9202492409
 31
0.0
  0
SPLINE
  5
1FE
330
1F
100
AcDbEntity
  8
0
  6
CONTINUOUS
 62
     7
100
AcDbSpline
210
0.0
220
0.0
230
1.0
 70
     8
 71
     3
 72
     8
 73
     4
 74
     0
 42
0.00000001
 43
0.00000001
 12
1.0
 22
0.0
 32
0.0
 13
1.0
 23
0.0
 33
0.0
 40
0.0
 40
0.0
 40
0.0
 40
0.0
 40
1.0
 40
1.0
 40
1.0
 40
1.0
 10
880.6112388191731
 20
1231.820249268285
 30
0.0
 10
880.6288934357364
 20
1231.853582601618
 30
0.0
 10
880.637758620692
 20
1231.886915934952
 30
0.0
 10
880.637758620692
 20
1231.920249268285
 30
0.0
  0
LINE
  5
1FF
330
1F
100
AcDbEntity
  8
0
  6
CONTINUOUS
 62
     7
100
AcDbLine
 10
877.5377601466
 20
1231.820249178
 30
0.0
 11
880.6112438521
 21
1231.820249178
 31
0.0
  0
LINE
  5
200
330
1F
100
AcDbEntity
  8
0
  6
CONTINUOUS
 62
     7
100
AcDbLine
 10
440.8377587876
 20
1228.1131424871
 30
0.0
 11
877.4377584538
 21
1228.1131424871
 31
0.0
  0
LINE
  5
201
330
1F
100
AcDbEntity
  8
0
  6
CONTINUOUS
 62
     7
100
AcDbLine
 10
877.4377584538
 20
1228.1131424871
 30
0.0
 11
877.4377584538
 21
1231.2131425761
 31
0.0
  0
LINE
  5
202
330
1F
100
AcDbEntity
  8
0
  6
CONTINUOUS
 62
     7
100
AcDbLine
 10
440.8377587876
 20
1231.2131425761
 30
0.0
 11
440.8377587876
 21
1228.1131424871
 31
0.0
  0
LINE
  5
203
330
1F
100
AcDbEntity
  8
0
  6
CONTINUOUS
 62
     7
100
AcDbLine
 10
877.6377618393
 20
1231.2373551004
 30
0.0
 11
880.6377530179
 21
1231.2373551004
 31
0.0
  0
LINE
  5
204
330
1F
100
AcDbEntity
  8
0
  6
CONTINUOUS
 62
     7
100
AcDbLine
 10
880.6377530179
 20
1231.2373551004
 30
0.0
 11
880.6377530179
 21
1231.9202492409
 31
0.0
  0
LINE
  5
205
330
1F
100
AcDbEntity
  8
0
  6
CONTINUOUS
 62
     7
100
AcDbLine
 10
877.6377618393
 20
1231.820249178
 30
0.0
 11
877.6377618393
 21
1231.2373551004
 31
0.0
  0
LINE
  5
206
330
1F
100
AcDbEntity
  8
0
  6
CONTINUOUS
 62
     7
100
AcDbLine
 10
437.6377642235
 20
1231.3254437805
 30
0.0
 11
440.637755402
 21
1231.3254437805
 31
0.0
  0
LINE
  5
207
330
1F
100
AcDbEntity
  8
0
  6
CONTINUOUS
 62
     7
100
AcDbLine
 10
437.6377642235
 20
1231.9202492409
 30
0.0
 11
437.6377642235
 21
1231.3254437805
 31
0.0
  0
LINE
  5
208
330
1F
100
AcDbEntity
  8
0
  6
CONTINUOUS
 62
     7
100
AcDbLine
 10
440.637755402
 20
1231.3254437805
 30
0.0
 11
440.637755402
 21
1231.820249178
 31
0.0
  0
ARC
  5
209
330
1F
100
AcDbEntity
  8
0
  6
CONTINUOUS
 62
     7
100
AcDbCircle
 10
440.7377586207
 20
1231.2131424871
 30
0.0
 40
0.0999999999999259
100
AcDbArc
 50
187.4998402423
 51
269.9999999999
  0
ARC
  5
20A
330
1F
100
AcDbEntity
  8
0
  6
CONTINUOUS
 62
     7
100
AcDbCircle
 10
440.7377586207
 20
1231.2131424871
 30
0.0
 40
3.100000000000136
100
AcDbArc
 50
187.4998402421
 51
270.0
  0
LINE
  5
20B
330
1F
100
AcDbEntity
  8
0
  6
CONTINUOUS
 62
     7
100
AcDbLine
 10
440.6386196694
 20
1231.2000900902
 30
0.0
 11
437.6642733893
 21
1230.8085199375
 31
0.0
  0
LINE
  5
20C
330
1F
100
AcDbEntity
  8
0
  6
CONTINUOUS
 62
     7
100
AcDbLine
 10
440.7377570948
 20
1231.1131425132
 30
0.0
 11
440.8377587876
 21
1231.1131425132
 31
0.0
  0
LINE
  5
20D
330
1F
100
AcDbEntity
  8
0
  6
CONTINUOUS
 62
     7
100
AcDbLine
 10
440.8377587876
 20
1228.1131424871
 30
0.0
 11
440.7377570948
 21
1228.1131424871
 31
0.0
  0
LINE
  5
20E
330
1F
100
AcDbEntity
  8
0
  6
CONTINUOUS
 62
     7
100
AcDbLine
 10
880.6112438521
 20
1230.8085199375
 30
0.0
 11
877.636897572
 21
1231.2000900902
 31
0.0
  0
ARC
  5
20F
330
1F
100
AcDbEntity
  8
0
  6
CONTINUOUS
 62
     7
100
AcDbCircle
 10
877.5377586207
 20
1231.2131424871
 30
0.0
 40
3.099999999999851
100
AcDbArc
 50
270.0
 51
352.5001597579
  0
ARC
  5
210
330
1F
100
AcDbEntity
  8
0
  6
CONTINUOUS
 62
     7
100
AcDbCircle
 10
877.5377586207
 20
1231.2131424871
 30
0.0
 40
0.0999999999998635
100
AcDbArc
 50
270.0
 51
352.5001597582
  0
LINE
  5
211
330
1F
100
AcDbEntity
  8
0
  6
CONTINUOUS
 62
     7
100
AcDbLine
 10
877.5377601466
 20
1231.1131425132
 30
0.0
 11
877.4377584538
 21
1231.1131425132
 31
0.0
  0
LINE
  5
212
330
1F
100
AcDbEntity
  8
0
  6
CONTINUOUS
 62
     7
100
AcDbLine
 10
877.4377584538
 20
1228.1131424871
 30
0.0
 11
877.5377601466
 21
1228.1131424871
 31
0.0
  0
SPLINE
  5
213
330
1F
100
AcDbEntity
  8
0
  6
CONTINUOUS
 62
     7
100
AcDbSpline
210
0.0
220
0.0
230
1.0
 70
     8
 71
     3
 72
     8
 73
     4
 74
     0
 42
0.00000001
 43
0.00000001
 12
1.0
 22
0.0
 32
0.0
 13
1.0
 23
0.0
 33
0.0
 40
0.0
 40
0.0
 40
0.0
 40
0.0
 40
1.0
 40
1.0
 40
1.0
 40
1.0
 10
877.6377586206922
 20
1231.213142487098
 30
0.0
 10
877.6377586206922
 20
1231.208779256912
 30
0.0
 10
877.6374726469841
 20
1231.204416048056
 30
0.0
 10
877.6369031432239
 20
1231.200090144321
 30
0.0
  0
LINE
  5
214
330
1F
100
AcDbEntity
  8
0
  6
CONTINUOUS
 62
     7
100
AcDbLine
 10
880.6377530179
 20
1231.2131425761
 30
0.0
 11
877.6377618393
 21
1231.2131425761
 31
0.0
  0
SPLINE
  5
215
330
1F
100
AcDbEntity
  8
0
  6
CONTINUOUS
 62
     7
100
AcDbSpline
210
0.0
220
0.0
230
1.0
 70
     8
 71
     3
 72
     8
 73
     4
 74
     0
 42
0.00000001
 43
0.00000001
 12
1.0
 22
0.0
 32
0.0
 13
1.0
 23
0.0
 33
0.0
 40
0.0
 40
0.0
 40
0.0
 40
0.0
 40
1.0
 40
1.0
 40
1.0
 40
1.0
 10
880.6377586206922
 20
1231.213142487098
 30
0.0
 10
880.6377586206922
 20
1231.077882351313
 30
0.0
 10
880.6288934357364
 20
1230.942622876802
 30
0.0
 10
880.6112388191726
 20
1230.808519861002
 30
0.0
  0
SPLINE
  5
216
330
1F
100
AcDbEntity
  8
0
  6
CONTINUOUS
 62
     7
100
AcDbSpline
210
0.0
220
0.0
230
1.0
 70
     8
 71
     3
 72
     8
 73
     4
 74
     0
 42
0.00000001
 43
0.00000001
 12
1.0
 22
0.0
 32
0.0
 13
1.0
 23
0.0
 33
0.0
 40
0.0
 40
0.0
 40
0.0
 40
0.0
 40
1.0
 40
1.0
 40
1.0
 40
1.0
 10
440.6386140981608
 20
1231.200090144321
 30
0.0
 10
440.6380445944007
 20
1231.204416048056
 30
0.0
 10
440.6377586206924
 20
1231.208779256912
 30
0.0
 10
440.6377586206924
 20
1231.213142487098
 30
0.0
  0
SPLINE
  5
217
330
1F
100
AcDbEntity
  8
0
  6
CONTINUOUS
 62
     7
100
AcDbSpline
210
0.0
220
0.0
230
1.0
 70
     8
 71
     3
 72
     8
 73
     4
 74
     0
 42
0.00000001
 43
0.00000001
 12
1.0
 22
0.0
 32
0.0
 13
1.0
 23
0.0
 33
0.0
 40
0.0
 40
0.0
 40
0.0
 40
0.0
 40
1.0
 40
1.0
 40
1.0
 40
1.0
 10
437.664278422212
 20
1230.808519861002
 30
0.0
 10
437.6466238056482
 20
1230.942622876802
 30
0.0
 10
437.6377586206924
 20
1231.077882351313
 30
0.0
 10
437.6377586206924
 20
1231.213142487098
 30
0.0
  0
LINE
  5
218
330
1F
100
AcDbEntity
  8
0
  6
CONTINUOUS
 62
     7
100
AcDbLine
 10
440.637755402
 20
1231.2131425761
 30
0.0
 11
437.6377642235
 21
1231.2131425761
 31
0.0
  0
LINE
  5
219
330
1F
100
AcDbEntity
  8
0
  6
CONTINUOUS
 62
     7
100
AcDbLine
 10
880.6377530179
 20
1231.2373551004
 30
0.0
 11
880.6377530179
 21
1231.2131425761
 31
0.0
  0
LINE
  5
21A
330
1F
100
AcDbEntity
  8
0
  6
CONTINUOUS
 62
     7
100
AcDbLine
 10
877.6377618393
 20
1231.2373551004
 30
0.0
 11
877.6377618393
 21
1231.2131425761
 31
0.0
  0
LINE
  5
21B
330
1F
100
AcDbEntity
  8
0
  6
CONTINUOUS
 62
     7
100
AcDbLine
 10
437.6377642235
 20
1231.2131425761
 30
0.0
 11
437.6377642235
 21
1231.3254437805
 31
0.0
  0
LINE
  5
21C
330
1F
100
AcDbEntity
  8
0
  6
CONTINUOUS
 62
     7
100
AcDbLine
 10
440.637755402
 20
1231.3254437805
 30
0.0
 11
440.637755402
 21
1231.2131425761
 31
0.0
  0
LINE
  5
21D
330
1F
100
AcDbEntity
  8
0
  6
CONTINUOUS
 62
     7
100
AcDbLine
 10
440.6977623782
 20
1231.820249178
 30
0.0
 11
440.6977623782
 21
1231.2131425761
 31
0.0
  0
LWPOLYLINE
  5
21E
330
1F
100
AcDbEntity
  8
0
  6
CONTINUOUS
 62
     7
100
AcDbPolyline
 90
        9
 70
   128
 43
0.0
 10
440.747755774
 20
1231.1131425132
 10
440.7380104146
 20
1231.1150640645
 10
440.728622683
 20
1231.1207544454
 10
440.7199800095
 20
1231.1299954937
 10
440.7124102196
 20
1231.1424319097
 10
440.7061815342
 20
1231.1575854593
 10
440.7015621743
 20
1231.1748740659
 10
440.6987160525
 20
1231.1936334637
 10
440.6977623782
 20
1231.2131425761
  0
LINE
  5
21F
330
1F
100
AcDbEntity
  8
0
  6
CONTINUOUS
 62
     7
100
AcDbLine
 10
877.5777548632
 20
1231.2131425761
 30
0.0
 11
877.5777548632
 21
1231.820249178
 31
0.0
  0
LWPOLYLINE
  5
220
330
1F
100
AcDbEntity
  8
0
  6
CONTINUOUS
 62
     7
100
AcDbPolyline
 90
        9
 70
   128
 43
0.0
 10
877.5777548632
 20
1231.2131425761
 10
877.5768011889
 20
1231.1936334637
 10
877.5739550671
 20
1231.1748740659
 10
877.5693357071
 20
1231.1575854593
 10
877.5631070218
 20
1231.1424319097
 10
877.5555372319
 20
1231.1299954937
 10
877.5468945584
 20
1231.1207544454
 10
877.5375068268
 20
1231.1150640645
 10
877.5277614674
 20
1231.1131425132
  0
LINE
  5
221
330
1F
100
AcDbEntity
  8
0
  6
CONTINUOUS
 62
     7
100
AcDbLine
 10
1168.7804966938
 20
1112.8830342804
 30
0.0
 11
1139.7804975283
 21
1112.8830342804
 31
0.0
  0
ARC
  5
222
330
1F
100
AcDbEntity
  8
0
  6
CONTINUOUS
 62
     7
100
AcDbCircle
 10
1168.7804984223
 20
1107.8830314194
 30
0.0
 40
5.000000000000227
100
AcDbArc
 50
0.0
 51
90.0
  0
LINE
  5
223
330
1F
100
AcDbEntity
  8
0
  6
CONTINUOUS
 62
     7
100
AcDbLine
 10
1173.780499376
 20
922.8830366646
 30
0.0
 11
1173.780499376
 21
1107.8830390488
 31
0.0
  0
ARC
  5
224
330
1F
100
AcDbEntity
  8
0
  6
CONTINUOUS
 62
     7
100
AcDbCircle
 10
1168.7804984223
 20
922.8830314194
 30
0.0
 40
5.0
100
AcDbArc
 50
270.0
 51
0.0
  0
LINE
  5
225
330
1F
100
AcDbEntity
  8
0
  6
CONTINUOUS
 62
     7
100
AcDbLine
 10
1150.7804974687
 20
917.883041433
 30
0.0
 11
1168.7804966938
 21
917.883041433
 31
0.0
  0
ARC
  5
226
330
1F
100
AcDbEntity
  8
0
  6
CONTINUOUS
 62
     7
100
AcDbCircle
 10
1150.7804984223
 20
912.8830314194
 30
0.0
 40
5.0
100
AcDbArc
 50
90.0
 51
180.0
  0
LINE
  5
227
330
1F
100
AcDbEntity
  8
0
  6
CONTINUOUS
 62
     7
100
AcDbLine
 10
1145.7804985117
 20
882.8830152069
 30
0.0
 11
1145.7804985117
 21
912.8830462013
 31
0.0
  0
ARC
  5
228
330
1F
100
AcDbEntity
  8
0
  6
CONTINUOUS
 62
     7
100
AcDbCircle
 10
1150.7804984223
 20
882.8830314194
 30
0.0
 40
5.0
100
AcDbArc
 50
180.0
 51
270.0
  0
LINE
  5
229
330
1F
100
AcDbEntity
  8
0
  6
CONTINUOUS
 62
     7
100
AcDbLine
 10
1168.7804966938
 20
877.8830199753
 30
0.0
 11
1150.7804974687
 21
877.8830199753
 31
0.0
  0
ARC
  5
22A
330
1F
100
AcDbEntity
  8
0
  6
CONTINUOUS
 62
     7
100
AcDbCircle
 10
1168.7804984223
 20
872.8830314194
 30
0.0
 40
5.0
100
AcDbArc
 50
0.0
 51
90.0
  0
LINE
  5
22B
330
1F
100
AcDbEntity
  8
0
  6
CONTINUOUS
 62
     7
100
AcDbLine
 10
1173.780499376
 20
742.883029512
 30
0.0
 11
1173.780499376
 21
872.8830247437
 31
0.0
  0
ARC
  5
22C
330
1F
100
AcDbEntity
  8
0
  6
CONTINUOUS
 62
     7
100
AcDbCircle
 10
1168.7804984223
 20
742.8830314194
 30
0.0
 40
5.0
100
AcDbArc
 50
270.0
 51
0.0
  0
LINE
  5
22D
330
1F
100
AcDbEntity
  8
0
  6
CONTINUOUS
 62
     7
100
AcDbLine
 10
1168.0304988992
 20
1091.6330247437
 30
0.0
 11
1168.0304988992
 21
1083.1330447708
 31
0.0
  0
LINE
  5
22E
330
1F
100
AcDbEntity
  8
0
  6
CONTINUOUS
 62
     7
100
AcDbLine
 10
1159.5304965746
 20
1091.6330247437
 30
0.0
 11
1168.0304988992
 21
1091.6330247437
 31
0.0
  0
LINE
  5
22F
330
1F
100
AcDbEntity
  8
0
  6
CONTINUOUS
 62
     7
100
AcDbLine
 10
1159.5304965746
 20
1083.1330447708
 30
0.0
 11
1159.5304965746
 21
1091.6330247437
 31
0.0
  0
LINE
  5
230
330
1F
100
AcDbEntity
  8
0
  6
CONTINUOUS
 62
     7
100
AcDbLine
 10
1168.0304988992
 20
1083.1330447708
 30
0.0
 11
1159.5304965746
 21
1083.1330447708
 31
0.0
  0
LINE
  5
231
330
1F
100
AcDbEntity
  8
0
  6
CONTINUOUS
 62
     7
100
AcDbLine
 10
1168.0304988992
 20
771.6330318962
 30
0.0
 11
1168.0304988992
 21
763.1330519234
 31
0.0
  0
LINE
  5
232
330
1F
100
AcDbEntity
  8
0
  6
CONTINUOUS
 62
     7
100
AcDbLine
 10
1159.5304965746
 20
771.6330318962
 30
0.0
 11
1168.0304988992
 21
771.6330318962
 31
0.0
  0
LINE
  5
233
330
1F
100
AcDbEntity
  8
0
  6
CONTINUOUS
 62
     7
100
AcDbLine
 10
1159.5304965746
 20
763.1330519234
 30
0.0
 11
1159.5304965746
 21
771.6330318962
 31
0.0
  0
LINE
  5
234
330
1F
100
AcDbEntity
  8
0
  6
CONTINUOUS
 62
     7
100
AcDbLine
 10
1168.0304988992
 20
763.1330519234
 30
0.0
 11
1159.5304965746
 21
763.1330519234
 31
0.0
  0
LINE
  5
235
330
1F
100
AcDbEntity
  8
0
  6
CONTINUOUS
 62
     7
100
AcDbLine
 10
1139.7804975283
 20
737.8830342804
 30
0.0
 11
1168.7804966938
 21
737.8830342804
 31
0.0
  0
LINE
  5
236
330
1F
100
AcDbEntity
  8
0
  6
CONTINUOUS
 62
     7
100
AcDbLine
 10
1173.780499376
 20
1196.7830091034
 30
0.0
 11
1173.780499376
 21
1179.883006147
 31
0.0
  0
ARC
  5
237
330
1F
100
AcDbEntity
  8
0
  6
CONTINUOUS
 62
     7
100
AcDbCircle
 10
1163.7804984223
 20
1179.8830314194
 30
0.0
 40
10.0
100
AcDbArc
 50
270.0
 51
0.0
  0
LINE
  5
238
330
1F
100
AcDbEntity
  8
0
  6
CONTINUOUS
 62
     7
100
AcDbLine
 10
1139.7804975283
 20
1169.8830156837
 30
0.0
 11
1163.7805014622
 21
1169.8830156837
 31
0.0
  0
LINE
  5
239
330
1F
100
AcDbEntity
  8
0
  6
CONTINUOUS
 62
     7
100
AcDbLine
 10
1139.7804975283
 20
1199.8830466782
 30
0.0
 11
1173.780499376
 21
1199.8830466782
 31
0.0
  0
LINE
  5
23A
330
1F
100
AcDbEntity
  8
0
  6
CONTINUOUS
 62
     7
100
AcDbLine
 10
1173.780499376
 20
1199.8830466782
 30
0.0
 11
1173.780499376
 21
1196.7830091034
 31
0.0
  0
LINE
  5
23B
330
1F
100
AcDbEntity
  8
0
  6
CONTINUOUS
 62
     7
100
AcDbLine
 10
1136.7804988992
 20
1014.383020929
 30
0.0
 11
1136.7804988992
 21
1004.3830304657
 31
0.0
  0
LINE
  5
23C
330
1F
100
AcDbEntity
  8
0
  6
CONTINUOUS
 62
     7
100
AcDbLine
 10
1136.7804988992
 20
1014.383020929
 30
0.0
 11
1139.7804975283
 21
1014.383020929
 31
0.0
  0
LINE
  5
23D
330
1F
100
AcDbEntity
  8
0
  6
CONTINUOUS
 62
     7
100
AcDbLine
 10
1136.7804988992
 20
1004.3830304657
 30
0.0
 11
1139.7804975283
 21
1004.3830304657
 31
0.0
  0
LINE
  5
23E
330
1F
100
AcDbEntity
  8
0
  6
CONTINUOUS
 62
     7
100
AcDbLine
 10
1139.7804975283
 20
1004.3830304657
 30
0.0
 11
1139.7804975283
 21
1014.383020929
 31
0.0
  0
LINE
  5
23F
330
1F
100
AcDbEntity
  8
0
  6
CONTINUOUS
 62
     7
100
AcDbLine
 10
1136.7804988992
 20
614.3830447708
 30
0.0
 11
1136.7804988992
 21
604.3830245052
 31
0.0
  0
LINE
  5
240
330
1F
100
AcDbEntity
  8
0
  6
CONTINUOUS
 62
     7
100
AcDbLine
 10
1136.7804988992
 20
614.3830447708
 30
0.0
 11
1139.7804975283
 21
614.3830447708
 31
0.0
  0
LINE
  5
241
330
1F
100
AcDbEntity
  8
0
  6
CONTINUOUS
 62
     7
100
AcDbLine
 10
1136.7804988992
 20
604.3830245052
 30
0.0
 11
1139.7804975283
 21
604.3830245052
 31
0.0
  0
LINE
  5
242
330
1F
100
AcDbEntity
  8
0
  6
CONTINUOUS
 62
     7
100
AcDbLine
 10
1139.7804975283
 20
604.3830245052
 30
0.0
 11
1139.7804975283
 21
614.3830447708
 31
0.0
  0
LINE
  5
243
330
1F
100
AcDbEntity
  8
0
  6
CONTINUOUS
 62
     7
100
AcDbLine
 10
1139.7804975283
 20
1120.9559469734
 30
0.0
 11
1136.7804988992
 21
1120.9559469734
 31
0.0
  0
LINE
  5
244
330
1F
100
AcDbEntity
  8
0
  6
CONTINUOUS
 62
     7
100
AcDbLine
 10
1136.7804988992
 20
1120.8866267715
 30
0.0
 11
1136.7804988992
 21
1120.9559469734
 31
0.0
  0
LINE
  5
245
330
1F
100
AcDbEntity
  8
0
  6
CONTINUOUS
 62
     7
100
AcDbLine
 10
1139.7804975283
 20
1120.8866267715
 30
0.0
 11
1139.7804975283
 21
1120.9559469734
 31
0.0
  0
LINE
  5
246
330
1F
100
AcDbEntity
  8
0
  6
CONTINUOUS
 62
     7
100
AcDbLine
 10
1139.7804975283
 20
614.3830447708
 30
0.0
 11
1139.7804975283
 21
615.3830318962
 31
0.0
  0
LINE
  5
247
330
1F
100
AcDbEntity
  8
0
  6
CONTINUOUS
 62
     7
100
AcDbLine
 10
1139.7804975283
 20
1003.3830433403
 30
0.0
 11
1139.7804975283
 21
1004.3830304657
 31
0.0
  0
LINE
  5
248
330
1F
100
AcDbEntity
  8
0
  6
CONTINUOUS
 62
     7
100
AcDbLine
 10
1139.7804975283
 20
1014.383020929
 30
0.0
 11
1139.7804975283
 21
1015.3830080544
 31
0.0
  0
LINE
  5
249
330
1F
100
AcDbEntity
  8
0
  6
CONTINUOUS
 62
     7
100
AcDbLine
 10
1136.7804988992
 20
1120.9559469734
 30
0.0
 11
1136.7804988992
 21
1120.990577272
 31
0.0
  0
LINE
  5
24A
330
1F
100
AcDbEntity
  8
0
  6
CONTINUOUS
 62
     7
100
AcDbLine
 10
1139.7804975283
 20
1120.9559469734
 30
0.0
 11
1139.7804975283
 21
1120.990577272
 31
0.0
  0
LINE
  5
24B
330
1F
100
AcDbEntity
  8
0
  6
CONTINUOUS
 62
     7
100
AcDbLine
 10
1139.7804975283
 20
603.3830373798
 30
0.0
 11
1139.7804975283
 21
604.3830245052
 31
0.0
  0
LINE
  5
24C
330
1F
100
AcDbEntity
  8
0
  6
CONTINUOUS
 62
     7
100
AcDbLine
 10
1103.5876051761
 20
206.4830315084
 30
0.0
 11
1103.6950954009
 21
206.5905217332
 31
0.0
  0
LINE
  5
24D
330
1F
100
AcDbEntity
  8
0
  6
CONTINUOUS
 62
     7
100
AcDbLine
 10
1102.8804985114
 20
1120.8866267715
 30
0.0
 11
1139.7804975283
 21
1120.8866267715
 31
0.0
  0
LINE
  5
24E
330
1F
100
AcDbEntity
  8
0
  6
CONTINUOUS
 62
     7
100
AcDbLine
 10
1139.7804975283
 20
1120.8866267715
 30
0.0
 11
1139.7804975283
 21
1015.3830080544
 31
0.0
  0
LINE
  5
24F
330
1F
100
AcDbEntity
  8
0
  6
CONTINUOUS
 62
     7
100
AcDbLine
 10
1139.7804975283
 20
1015.3830080544
 30
0.0
 11
1136.7804988992
 21
1015.3830080544
 31
0.0
  0
LINE
  5
250
330
1F
100
AcDbEntity
  8
0
  6
CONTINUOUS
 62
     7
100
AcDbLine
 10
1136.7804988992
 20
1015.3830080544
 30
0.0
 11
1136.7804988992
 21
1003.3830433403
 31
0.0
  0
LINE
  5
251
330
1F
100
AcDbEntity
  8
0
  6
CONTINUOUS
 62
     7
100
AcDbLine
 10
1136.7804988992
 20
1003.3830433403
 30
0.0
 11
1139.7804975283
 21
1003.3830433403
 31
0.0
  0
LINE
  5
252
330
1F
100
AcDbEntity
  8
0
  6
CONTINUOUS
 62
     7
100
AcDbLine
 10
1139.7804975283
 20
1003.3830433403
 30
0.0
 11
1139.7804975283
 21
615.3830318962
 31
0.0
  0
LINE
  5
253
330
1F
100
AcDbEntity
  8
0
  6
CONTINUOUS
 62
     7
100
AcDbLine
 10
1139.7804975283
 20
615.3830318962
 30
0.0
 11
1136.7804988992
 21
615.3830318962
 31
0.0
  0
LINE
  5
254
330
1F
100
AcDbEntity
  8
0
  6
CONTINUOUS
 62
     7
100
AcDbLine
 10
1136.7804988992
 20
615.3830318962
 30
0.0
 11
1136.7804988992
 21
603.3830373798
 31
0.0
  0
LINE
  5
255
330
1F
100
AcDbEntity
  8
0
  6
CONTINUOUS
 62
     7
100
AcDbLine
 10
1136.7804988992
 20
603.3830373798
 30
0.0
 11
1139.7804975283
 21
603.3830373798
 31
0.0
  0
LINE
  5
256
330
1F
100
AcDbEntity
  8
0
  6
CONTINUOUS
 62
     7
100
AcDbLine
 10
1139.7804975283
 20
603.3830373798
 30
0.0
 11
1139.7804975283
 21
296.2120726024
 31
0.0
  0
ARC
  5
257
330
1F
100
AcDbEntity
  8
0
  6
CONTINUOUS
 62
     7
100
AcDbCircle
 10
1169.7804984223
 20
296.2120691059
 30
0.0
 40
30.0
100
AcDbArc
 50
180.0
 51
240.0
  0
LINE
  5
258
330
1F
100
AcDbEntity
  8
0
  6
CONTINUOUS
 62
     7
100
AcDbLine
 10
1154.7804981243
 20
270.231309465
 30
0.0
 11
1244.78049425
 21
218.2697831903
 31
0.0
  0
ARC
  5
259
330
1F
100
AcDbEntity
  8
0
  6
CONTINUOUS
 62
     7
100
AcDbCircle
 10
1239.7804984223
 20
209.6095287275
 30
0.0
 40
10.00000000000023
100
AcDbArc
 50
0.0
 51
60.0
  0
LINE
  5
25A
330
1F
100
AcDbEntity
  8
0
  6
CONTINUOUS
 62
     7
100
AcDbLine
 10
1249.7805043828
 20
209.609528656
 30
0.0
 11
1249.7805043828
 21
206.4830315084
 31
0.0
  0
LINE
  5
25B
330
1F
100
AcDbEntity
  8
0
  6
CONTINUOUS
 62
     7
100
AcDbLine
 10
1103.6950954009
 20
206.5905217332
 30
0.0
 11
1102.9927997157
 21
207.3024396104
 31
0.0
  0
LINE
  5
25C
330
1F
100
AcDbEntity
  8
0
  6
CONTINUOUS
 62
     7
100
AcDbLine
 10
1102.8804985114
 20
207.1901381732
 30
0.0
 11
1102.9927997157
 21
207.3024396104
 31
0.0
  0
SPLINE
  5
25D
330
1F
100
AcDbEntity
  8
0
  6
CONTINUOUS
 62
     7
100
AcDbSpline
210
0.0
220
0.0
230
1.0
 70
     8
 71
     3
 72
     8
 73
     4
 74
     0
 42
0.00000001
 43
0.00000001
 12
1.0
 22
0.0
 32
0.0
 13
1.0
 23
0.0
 33
0.0
 40
0.0
 40
0.0
 40
0.0
 40
0.0
 40
1.0
 40
1.0
 40
1.0
 40
1.0
 10
1102.867446079552
 20
207.0901382005564
 30
0.0
 10
1102.871771983287
 20
207.12347153389
 30
0.0
 10
1102.876135192142
 20
207.1568048672235
 30
0.0
 10
1102.880498422329
 20
207.190138200557
 30
0.0
  0
LINE
  5
25E
330
1F
100
AcDbEntity
  8
0
  6
CONTINUOUS
 62
     7
100
AcDbLine
 10
1102.8674460255
 20
207.0901381102
 30
0.0
 11
1102.4758758728
 21
207.0901381102
 31
0.0
  0
SPLINE
  5
25F
330
1F
100
AcDbEntity
  8
0
  6
CONTINUOUS
 62
     7
100
AcDbSpline
210
0.0
220
0.0
230
1.0
 70
     8
 71
     3
 72
     8
 73
     4
 74
     0
 42
0.00000001
 43
0.00000001
 12
1.0
 22
0.0
 32
0.0
 13
1.0
 23
0.0
 33
0.0
 40
0.0
 40
0.0
 40
0.0
 40
0.0
 40
1.0
 40
1.0
 40
1.0
 40
1.0
 10
1102.475875796233
 20
207.0901382005573
 30
0.0
 10
1102.609978812033
 20
207.1234715338906
 30
0.0
 10
1102.745238286543
 20
207.1568048672238
 30
0.0
 10
1102.880498422329
 20
207.190138200557
 30
0.0
  0
SPLINE
  5
260
330
1F
100
AcDbEntity
  8
0
  6
CONTINUOUS
 62
     7
100
AcDbSpline
210
0.0
220
0.0
230
1.0
 70
     8
 71
     3
 72
     8
 73
     4
 74
     0
 42
0.00000001
 43
0.00000001
 12
1.0
 22
0.0
 32
0.0
 13
1.0
 23
0.0
 33
0.0
 40
0.0
 40
0.0
 40
0.0
 40
0.0
 40
1.0
 40
1.0
 40
1.0
 40
1.0
 10
1103.587605203515
 20
206.4830314193705
 30
0.0
 10
1103.554271870182
 20
206.478668189184
 30
0.0
 10
1103.520938536848
 20
206.474304980329
 30
0.0
 10
1103.487605203515
 20
206.4699790765938
 30
0.0
  0
SPLINE
  5
261
330
1F
100
AcDbEntity
  8
0
  6
CONTINUOUS
 62
     7
100
AcDbSpline
210
0.0
220
0.0
230
1.0
 70
     8
 71
     3
 72
     8
 73
     4
 74
     0
 42
0.00000001
 43
0.00000001
 12
1.0
 22
0.0
 32
0.0
 13
1.0
 23
0.0
 33
0.0
 40
0.0
 40
0.0
 40
0.0
 40
0.0
 40
1.0
 40
1.0
 40
1.0
 40
1.0
 10
1103.587605203515
 20
206.4830314193704
 30
0.0
 10
1103.554271870182
 20
206.3477712835871
 30
0.0
 10
1103.520938536848
 20
206.2125118090781
 30
0.0
 10
1103.487605203515
 20
206.0784087932801
 30
0.0
  0
LINE
  5
262
330
1F
100
AcDbEntity
  8
0
  6
CONTINUOUS
 62
     7
100
AcDbLine
 10
1103.4876051132
 20
206.0784088698
 30
0.0
 11
1103.4876051132
 21
206.4699790225
 31
0.0
  0
LINE
  5
263
330
1F
100
AcDbEntity
  8
0
  6
CONTINUOUS
 62
     7
100
AcDbLine
 10
1099.7804984223
 20
207.0901381102
 30
0.0
 11
1102.4758758728
 21
207.0901381102
 31
0.0
  0
LINE
  5
264
330
1F
100
AcDbEntity
  8
0
  6
CONTINUOUS
 62
     7
100
AcDbLine
 10
1099.7804984223
 20
1120.8866267715
 30
0.0
 11
1099.7804984223
 21
207.0901381102
 31
0.0
  0
LINE
  5
265
330
1F
100
AcDbEntity
  8
0
  6
CONTINUOUS
 62
     7
100
AcDbLine
 10
1102.8804985114
 20
1120.8866267715
 30
0.0
 11
1099.7804984223
 21
1120.8866267715
 31
0.0
  0
LINE
  5
266
330
1F
100
AcDbEntity
  8
0
  6
CONTINUOUS
 62
     7
100
AcDbLine
 10
1249.7805043828
 20
203.3830314194
 30
0.0
 11
1249.7805043828
 21
206.4830315084
 31
0.0
  0
LINE
  5
267
330
1F
100
AcDbEntity
  8
0
  6
CONTINUOUS
 62
     7
100
AcDbLine
 10
1103.4876051132
 20
203.3830314194
 30
0.0
 11
1249.7805043828
 21
203.3830314194
 31
0.0
  0
LINE
  5
268
330
1F
100
AcDbEntity
  8
0
  6
CONTINUOUS
 62
     7
100
AcDbLine
 10
1103.4876051132
 20
206.0784088698
 30
0.0
 11
1103.4876051132
 21
203.3830314194
 31
0.0
  0
LINE
  5
269
330
1F
100
AcDbEntity
  8
0
  6
CONTINUOUS
 62
     7
100
AcDbLine
 10
1102.8804985114
 20
1203.9499908005
 30
0.0
 11
1139.7804975283
 21
1203.9499908005
 31
0.0
  0
LINE
  5
26A
330
1F
100
AcDbEntity
  8
0
  6
CONTINUOUS
 62
     7
100
AcDbLine
 10
1139.7804975283
 20
1203.9499908005
 30
0.0
 11
1139.7804975283
 21
1123.5886245285
 31
0.0
  0
LINE
  5
26B
330
1F
100
AcDbEntity
  8
0
  6
CONTINUOUS
 62
     7
100
AcDbLine
 10
1139.7804975283
 20
1123.5886245285
 30
0.0
 11
1102.8804985114
 21
1123.5886245285
 31
0.0
  0
LINE
  5
26C
330
1F
100
AcDbEntity
  8
0
  6
CONTINUOUS
 62
     7
100
AcDbLine
 10
1102.7804984484
 20
1120.9039717232
 30
0.0
 11
1102.7804984484
 21
1120.8866267715
 31
0.0
  0
LINE
  5
26D
330
1F
100
AcDbEntity
  8
0
  6
CONTINUOUS
 62
     7
100
AcDbLine
 10
1099.7804984223
 20
1120.8866267715
 30
0.0
 11
1099.7804984223
 21
1120.9039717232
 31
0.0
  0
ARC
  5
26E
330
1F
100
AcDbEntity
  8
0
  6
CONTINUOUS
 62
     7
100
AcDbCircle
 10
1102.6867090125
 20
1120.6802658986
 30
0.0
 40
2.91480776214141
100
AcDbArc
 50
86.1879076041
 51
175.5983320008
  0
LINE
  5
26F
330
1F
100
AcDbEntity
  8
0
  6
CONTINUOUS
 62
     7
100
AcDbLine
 10
1139.7804975283
 20
1123.5886245285
 30
0.0
 11
1139.7804975283
 21
1120.990577272
 31
0.0
  0
LINE
  5
270
330
1F
100
AcDbEntity
  8
0
  6
CONTINUOUS
 62
     7
100
AcDbLine
 10
1139.7804975283
 20
1120.990577272
 30
0.0
 11
1102.8804985114
 21
1120.990577272
 31
0.0
  0
ARC
  5
271
330
1F
100
AcDbEntity
  8
0
  6
CONTINUOUS
 62
     7
100
AcDbCircle
 10
1102.8742880388
 20
1120.896712395
 30
0.0
 40
0.0940701074366085
100
AcDbArc
 50
86.2146012867
 51
175.5741222596
  0
LINE
  5
272
330
1F
100
AcDbEntity
  8
0
  6
CONTINUOUS
 62
     7
100
AcDbLine
 10
1099.7804984223
 20
1201.2653975998
 30
0.0
 11
1099.7804984223
 21
1120.9039717232
 31
0.0
  0
ARC
  5
273
330
1F
100
AcDbEntity
  8
0
  6
CONTINUOUS
 62
     7
100
AcDbCircle
 10
1102.6866554416
 20
1201.0416890634
 30
0.0
 40
2.914754557364307
100
AcDbArc
 50
86.1867825292
 51
175.5981980322
  0
ARC
  5
274
330
1F
100
AcDbEntity
  8
0
  6
CONTINUOUS
 62
     7
100
AcDbCircle
 10
1102.8804984223
 20
206.4830314194
 30
0.0
 40
3.100000000000364
100
AcDbArc
 50
180.0
 51
270.0
  0
ARC
  5
275
330
1F
100
AcDbEntity
  8
0
  6
CONTINUOUS
 62
     7
100
AcDbCircle
 10
1102.8804984223
 20
206.4830314194
 30
0.0
 40
0.1000000000001364
100
AcDbArc
 50
179.9999999993
 51
269.9999999999
  0
LINE
  5
276
330
1F
100
AcDbEntity
  8
0
  6
CONTINUOUS
 62
     7
100
AcDbLine
 10
1099.7804984223
 20
207.0901381102
 30
0.0
 11
1099.7804984223
 21
206.4830315084
 31
0.0
  0
LINE
  5
277
330
1F
100
AcDbEntity
  8
0
  6
CONTINUOUS
 62
     7
100
AcDbLine
 10
1102.7804984484
 20
206.4830315084
 30
0.0
 11
1102.7804984484
 21
207.0901381102
 31
0.0
  0
LINE
  5
278
330
1F
100
AcDbEntity
  8
0
  6
CONTINUOUS
 62
     7
100
AcDbLine
 10
1103.4876051132
 20
206.3830314454
 30
0.0
 11
1102.8804985114
 21
206.3830314454
 31
0.0
  0
LINE
  5
279
330
1F
100
AcDbEntity
  8
0
  6
CONTINUOUS
 62
     7
100
AcDbLine
 10
1102.8804985114
 20
203.3830314194
 30
0.0
 11
1103.4876051132
 21
203.3830314194
 31
0.0
  0
ARC
  5
27A
330
1F
100
AcDbEntity
  8
0
  6
CONTINUOUS
 62
     7
100
AcDbCircle
 10
1102.8804984223
 20
1201.2830314194
 30
0.0
 40
3.100000000000136
100
AcDbArc
 50
90.0
 51
180.0
  0
LINE
  5
27B
330
1F
100
AcDbEntity
  8
0
  6
CONTINUOUS
 62
     7
100
AcDbLine
 10
1139.7804975283
 20
1204.3830781494
 30
0.0
 11
1102.8804985114
 21
1204.3830781494
 31
0.0
  0
LINE
  5
27C
330
1F
100
AcDbEntity
  8
0
  6
CONTINUOUS
 62
     7
100
AcDbLine
 10
1139.7804975283
 20
1204.3830781494
 30
0.0
 11
1139.7804975283
 21
1203.9499908005
 31
0.0
  0
LINE
  5
27D
330
1F
100
AcDbEntity
  8
0
  6
CONTINUOUS
 62
     7
100
AcDbLine
 10
1099.7804984223
 20
1201.2653975998
 30
0.0
 11
1099.7804984223
 21
1201.2830405746
 31
0.0
  0
LINE
  5
27E
330
1F
100
AcDbEntity
  8
0
  6
CONTINUOUS
 62
     7
100
AcDbLine
 10
1103.6160191294
 20
206.5114452288
 30
0.0
 11
1102.9047110357
 21
207.2143506975
 31
0.0
  0
LINE
  5
27F
330
1F
100
AcDbEntity
  8
0
  6
CONTINUOUS
 62
     7
100
AcDbLine
 10
1873.9124155255
 20
1120.8866267715
 30
0.0
 11
1873.9124155255
 21
1120.9559469734
 31
0.0
  0
LINE
  5
280
330
1F
100
AcDbEntity
  8
0
  6
CONTINUOUS
 62
     7
100
AcDbLine
 10
1734.6085673782
 20
1201.3830571686
 30
0.0
 11
1734.5464444371
 21
1201.3830571686
 31
0.0
  0
LINE
  5
281
330
1F
100
AcDbEntity
  8
0
  6
CONTINUOUS
 62
     7
100
AcDbLine
 10
1576.2783801767
 20
1201.3830571686
 30
0.0
 11
1576.2162572356
 21
1201.3830571686
 31
0.0
  0
LINE
  5
282
330
1F
100
AcDbEntity
  8
0
  6
CONTINUOUS
 62
     7
100
AcDbLine
 10
1436.9124090882
 20
1120.9559469734
 30
0.0
 11
1436.9124090882
 21
1120.8866267715
 31
0.0
  0
LINE
  5
283
330
1F
100
AcDbEntity
  8
0
  6
CONTINUOUS
 62
     7
100
AcDbLine
 10
1437.1124124738
 20
207.0901381102
 30
0.0
 11
1437.1124124738
 21
206.4830315084
 31
0.0
  0
LINE
  5
284
330
1F
100
AcDbEntity
  8
0
  6
CONTINUOUS
 62
     7
100
AcDbLine
 10
1437.1124124738
 20
207.0901381102
 30
0.0
 11
1437.012410781
 21
207.0901381102
 31
0.0
  0
LINE
  5
285
330
1F
100
AcDbEntity
  8
0
  6
CONTINUOUS
 62
     7
100
AcDbLine
 10
1576.2783801767
 20
1201.1511951004
 30
0.0
 11
1576.2124648901
 21
1201.2653975998
 31
0.0
  0
LINE
  5
286
330
1F
100
AcDbEntity
  8
0
  6
CONTINUOUS
 62
     7
100
AcDbLine
 10
1576.2783801767
 20
1201.2830405746
 30
0.0
 11
1576.2783801767
 21
1201.1511951004
 31
0.0
  0
LINE
  5
287
330
1F
100
AcDbEntity
  8
0
  6
CONTINUOUS
 62
     7
100
AcDbLine
 10
1734.5464444371
 20
1201.1511951004
 30
0.0
 11
1734.5464444371
 21
1201.2830405746
 31
0.0
  0
LINE
  5
288
330
1F
100
AcDbEntity
  8
0
  6
CONTINUOUS
 62
     7
100
AcDbLine
 10
1734.6123597237
 20
1201.2653975998
 30
0.0
 11
1734.5464444371
 21
1201.1511951004
 31
0.0
  0
LINE
  5
289
330
1F
100
AcDbEntity
  8
0
  6
CONTINUOUS
 62
     7
100
AcDbLine
 10
1873.7924164745
 20
1120.8866267715
 30
0.0
 11
1873.8024151536
 21
1120.9039717232
 31
0.0
  0
LINE
  5
28A
330
1F
100
AcDbEntity
  8
0
  6
CONTINUOUS
 62
     7
100
AcDbLine
 10
1873.8124138328
 20
1120.8866267715
 30
0.0
 11
1873.7924164745
 21
1120.8866267715
 31
0.0
  0
LINE
  5
28B
330
1F
100
AcDbEntity
  8
0
  6
CONTINUOUS
 62
     7
100
AcDbLine
 10
1873.71241214
 20
207.0901381102
 30
0.0
 11
1873.8124138328
 21
207.0901381102
 31
0.0
  0
LINE
  5
28C
330
1F
100
AcDbEntity
  8
0
  6
CONTINUOUS
 62
     7
100
AcDbLine
 10
1873.71241214
 20
207.0901381102
 30
0.0
 11
1873.71241214
 21
206.4830315084
 31
0.0
  0
CIRCLE
  5
28D
330
1F
100
AcDbEntity
  8
0
  6
CONTINUOUS
 62
     7
100
AcDbCircle
 10
1835.4124123069
 20
1033.3830314194
 30
0.0
 40
5.5
  0
CIRCLE
  5
28E
330
1F
100
AcDbEntity
  8
0
  6
CONTINUOUS
 62
     7
100
AcDbCircle
 10
1475.4124123069
 20
1033.3830314194
 30
0.0
 40
5.5
  0
LINE
  5
28F
330
1F
100
AcDbEntity
  8
0
  6
CONTINUOUS
 62
     7
100
AcDbLine
 10
1437.0224094602
 20
1120.9039717232
 30
0.0
 11
1437.0324081393
 21
1120.8866267715
 31
0.0
  0
LINE
  5
290
330
1F
100
AcDbEntity
  8
0
  6
CONTINUOUS
 62
     7
100
AcDbLine
 10
1437.0324081393
 20
1120.8866267715
 30
0.0
 11
1437.012410781
 21
1120.8866267715
 31
0.0
  0
SPLINE
  5
291
330
1F
100
AcDbEntity
  8
0
  6
CONTINUOUS
 62
     7
100
AcDbSpline
210
0.0
220
0.0
230
1.0
 70
     8
 71
     3
 72
     8
 73
     4
 74
     0
 42
0.00000001
 43
0.00000001
 12
1.0
 22
0.0
 32
0.0
 13
1.0
 23
0.0
 33
0.0
 40
0.0
 40
0.0
 40
0.0
 40
0.0
 40
1.0
 40
1.0
 40
1.0
 40
1.0
 10
1433.912412306899
 20
207.190138200557
 30
0.0
 10
1433.912412306899
 20
207.1568048672234
 30
0.0
 10
1433.921277491855
 20
207.1234715338897
 30
0.0
 10
1433.938932108419
 20
207.0901382005562
 30
0.0
  0
LINE
  5
292
330
1F
100
AcDbEntity
  8
0
  6
CONTINUOUS
 62
     7
100
AcDbLine
 10
1433.9124179097
 20
1120.8866267715
 30
0.0
 11
1433.9124179097
 21
207.1901381732
 31
0.0
  0
LINE
  5
293
330
1F
100
AcDbEntity
  8
0
  6
CONTINUOUS
 62
     7
100
AcDbLine
 10
1433.9389270755
 20
207.0901381102
 30
0.0
 11
1437.012410781
 21
207.0901381102
 31
0.0
  0
LINE
  5
294
330
1F
100
AcDbEntity
  8
0
  6
CONTINUOUS
 62
     7
100
AcDbLine
 10
1437.012410781
 20
1120.8866267715
 30
0.0
 11
1433.9124179097
 21
1120.8866267715
 31
0.0
  0
LINE
  5
295
330
1F
100
AcDbEntity
  8
0
  6
CONTINUOUS
 62
     7
100
AcDbLine
 10
1574.6624684545
 20
1203.9499908005
 30
0.0
 11
1435.472405574
 21
1123.5886245285
 31
0.0
  0
LWPOLYLINE
  5
296
330
1F
100
AcDbEntity
  8
0
  6
CONTINUOUS
 62
     7
100
AcDbPolyline
 90
        9
 70
   128
 43
0.0
 10
1576.2124648901
 20
1201.2653975998
 10
1575.910075626
 20
1201.7891436134
 10
1575.6193092676
 20
1202.2927432571
 10
1575.3513342353
 20
1202.756884626
 10
1575.1164472314
 20
1203.1637459312
 10
1574.9236858102
 20
1203.4975915466
 10
1574.7804483982
 20
1203.7456660782
 10
1574.6922484251
 20
1203.8984923874
 10
1574.6624684545
 20
1203.9499908005
  0
LWPOLYLINE
  5
297
330
1F
100
AcDbEntity
  8
0
  6
CONTINUOUS
 62
     7
100
AcDbPolyline
 90
        9
 70
   128
 43
0.0
 10
1435.472405574
 20
1123.5886245285
 10
1435.5021929952
 20
1123.5370665108
 10
1435.5903929683
 20
1123.3842998062
 10
1435.7336378308
 20
1123.13616567
 10
1435.9263992521
 20
1122.8023200546
 10
1436.1612713548
 20
1122.3954587494
 10
1436.4292538377
 20
1121.9313173805
 10
1436.7200201961
 20
1121.4277177368
 10
1437.0224094602
 20
1120.9039717232
  0
LINE
  5
298
330
1F
100
AcDbEntity
  8
0
  6
CONTINUOUS
 62
     7
100
AcDbLine
 10
1437.1124124738
 20
203.3830314194
 30
0.0
 11
1873.71241214
 21
203.3830314194
 31
0.0
  0
LINE
  5
299
330
1F
100
AcDbEntity
  8
0
  6
CONTINUOUS
 62
     7
100
AcDbLine
 10
1873.71241214
 20
203.3830314194
 30
0.0
 11
1873.71241214
 21
206.4830315084
 31
0.0
  0
LINE
  5
29A
330
1F
100
AcDbEntity
  8
0
  6
CONTINUOUS
 62
     7
100
AcDbLine
 10
1437.1124124738
 20
206.4830315084
 30
0.0
 11
1437.1124124738
 21
203.3830314194
 31
0.0
  0
LINE
  5
29B
330
1F
100
AcDbEntity
  8
0
  6
CONTINUOUS
 62
     7
100
AcDbLine
 10
1734.5464444371
 20
1204.3830781494
 30
0.0
 11
1576.2783801767
 21
1204.3830781494
 31
0.0
  0
LINE
  5
29C
330
1F
100
AcDbEntity
  8
0
  6
CONTINUOUS
 62
     7
100
AcDbLine
 10
1734.5464444371
 20
1201.2830405746
 30
0.0
 11
1734.5464444371
 21
1204.3830781494
 31
0.0
  0
LINE
  5
29D
330
1F
100
AcDbEntity
  8
0
  6
CONTINUOUS
 62
     7
100
AcDbLine
 10
1576.2783801767
 20
1204.3830781494
 30
0.0
 11
1576.2783801767
 21
1201.2830405746
 31
0.0
  0
LINE
  5
29E
330
1F
100
AcDbEntity
  8
0
  6
CONTINUOUS
 62
     7
100
AcDbLine
 10
1875.3524190398
 20
1123.5886245285
 30
0.0
 11
1736.1623561593
 21
1203.9499908005
 31
0.0
  0
LWPOLYLINE
  5
29F
330
1F
100
AcDbEntity
  8
0
  6
CONTINUOUS
 62
     7
100
AcDbPolyline
 90
        9
 70
   128
 43
0.0
 10
1873.8024151536
 20
1120.9039717232
 10
1874.1048044177
 20
1121.4277177368
 10
1874.3955707761
 20
1121.9313173805
 10
1874.663553259
 20
1122.3954587494
 10
1874.8984253617
 20
1122.8023200546
 10
1875.091186783
 20
1123.13616567
 10
1875.2344316455
 20
1123.3842998062
 10
1875.3226316186
 20
1123.5370665108
 10
1875.3524190398
 20
1123.5886245285
  0
LWPOLYLINE
  5
2A0
330
1F
100
AcDbEntity
  8
0
  6
CONTINUOUS
 62
     7
100
AcDbPolyline
 90
        9
 70
   128
 43
0.0
 10
1736.1623561593
 20
1203.9499908005
 10
1736.1325761887
 20
1203.8984923874
 10
1736.0443762156
 20
1203.7456660782
 10
1735.9011388036
 20
1203.4975915466
 10
1735.7083773824
 20
1203.1637459312
 10
1735.4734903785
 20
1202.756884626
 10
1735.2055153462
 20
1202.2927432571
 10
1734.9147489878
 20
1201.7891436134
 10
1734.6123597237
 20
1201.2653975998
  0
LINE
  5
2A1
330
1F
100
AcDbEntity
  8
0
  6
CONTINUOUS
 62
     7
100
AcDbLine
 10
1876.9124067041
 20
207.1901381732
 30
0.0
 11
1876.9124067041
 21
1120.8866267715
 31
0.0
  0
SPLINE
  5
2A2
330
1F
100
AcDbEntity
  8
0
  6
CONTINUOUS
 62
     7
100
AcDbSpline
210
0.0
220
0.0
230
1.0
 70
     8
 71
     3
 72
     8
 73
     4
 74
     0
 42
0.00000001
 43
0.00000001
 12
1.0
 22
0.0
 32
0.0
 13
1.0
 23
0.0
 33
0.0
 40
0.0
 40
0.0
 40
0.0
 40
0.0
 40
1.0
 40
1.0
 40
1.0
 40
1.0
 10
1876.885892505379
 20
207.0901382005573
 30
0.0
 10
1876.903547121943
 20
207.1234715338906
 30
0.0
 10
1876.912412306899
 20
207.1568048672238
 30
0.0
 10
1876.912412306899
 20
207.190138200557
 30
0.0
  0
LINE
  5
2A3
330
1F
100
AcDbEntity
  8
0
  6
CONTINUOUS
 62
     7
100
AcDbLine
 10
1873.8124138328
 20
207.0901381102
 30
0.0
 11
1876.8858975383
 21
207.0901381102
 31
0.0
  0
LINE
  5
2A4
330
1F
100
AcDbEntity
  8
0
  6
CONTINUOUS
 62
     7
100
AcDbLine
 10
1876.9124067041
 20
1120.8866267715
 30
0.0
 11
1873.8124138328
 21
1120.8866267715
 31
0.0
  0
LINE
  5
2A5
330
1F
100
AcDbEntity
  8
0
  6
CONTINUOUS
 62
     7
100
AcDbLine
 10
1433.9124179097
 20
206.5114452288
 30
0.0
 11
1436.9124090882
 21
206.5114452288
 31
0.0
  0
LINE
  5
2A6
330
1F
100
AcDbEntity
  8
0
  6
CONTINUOUS
 62
     7
100
AcDbLine
 10
1433.9124179097
 20
207.1901381732
 30
0.0
 11
1433.9124179097
 21
206.5114452288
 31
0.0
  0
LINE
  5
2A7
330
1F
100
AcDbEntity
  8
0
  6
CONTINUOUS
 62
     7
100
AcDbLine
 10
1436.9124090882
 20
206.5114452288
 30
0.0
 11
1436.9124090882
 21
207.0901381102
 31
0.0
  0
LINE
  5
2A8
330
1F
100
AcDbEntity
  8
0
  6
CONTINUOUS
 62
     7
100
AcDbLine
 10
1873.9124155255
 20
206.5905217332
 30
0.0
 11
1876.9124067041
 21
206.5905217332
 31
0.0
  0
LINE
  5
2A9
330
1F
100
AcDbEntity
  8
0
  6
CONTINUOUS
 62
     7
100
AcDbLine
 10
1876.9124067041
 20
206.5905217332
 30
0.0
 11
1876.9124067041
 21
207.1901381732
 31
0.0
  0
LINE
  5
2AA
330
1F
100
AcDbEntity
  8
0
  6
CONTINUOUS
 62
     7
100
AcDbLine
 10
1873.9124155255
 20
207.0901381102
 30
0.0
 11
1873.9124155255
 21
206.5905217332
 31
0.0
  0
ARC
  5
2AB
330
1F
100
AcDbEntity
  8
0
  6
CONTINUOUS
 62
     7
100
AcDbCircle
 10
1437.0124123069
 20
206.4830314194
 30
0.0
 40
0.1000000000001149
100
AcDbArc
 50
187.4998402419
 51
269.9999999999
  0
ARC
  5
2AC
330
1F
100
AcDbEntity
  8
0
  6
CONTINUOUS
 62
     7
100
AcDbCircle
 10
1437.0124123069
 20
206.4830314194
 30
0.0
 40
3.099999999999995
100
AcDbArc
 50
187.499840242
 51
270.0
  0
LINE
  5
2AD
330
1F
100
AcDbEntity
  8
0
  6
CONTINUOUS
 62
     7
100
AcDbLine
 10
1436.9132733556
 20
206.4699790225
 30
0.0
 11
1433.9389270755
 21
206.0784088698
 31
0.0
  0
LINE
  5
2AE
330
1F
100
AcDbEntity
  8
0
  6
CONTINUOUS
 62
     7
100
AcDbLine
 10
1437.012410781
 20
206.3830314454
 30
0.0
 11
1437.1124124738
 21
206.3830314454
 31
0.0
  0
LINE
  5
2AF
330
1F
100
AcDbEntity
  8
0
  6
CONTINUOUS
 62
     7
100
AcDbLine
 10
1437.1124124738
 20
203.3830314194
 30
0.0
 11
1437.012410781
 21
203.3830314194
 31
0.0
  0
ARC
  5
2B0
330
1F
100
AcDbEntity
  8
0
  6
CONTINUOUS
 62
     7
100
AcDbCircle
 10
1873.8124123069
 20
206.4830314194
 30
0.0
 40
0.099999999999819
100
AcDbArc
 50
270.0
 51
352.5001597584
  0
LINE
  5
2B1
330
1F
100
AcDbEntity
  8
0
  6
CONTINUOUS
 62
     7
100
AcDbLine
 10
1876.8858975383
 20
206.0784088698
 30
0.0
 11
1873.9115512582
 21
206.4699790225
 31
0.0
  0
ARC
  5
2B2
330
1F
100
AcDbEntity
  8
0
  6
CONTINUOUS
 62
     7
100
AcDbCircle
 10
1873.8124123069
 20
206.4830314194
 30
0.0
 40
3.099999999999906
100
AcDbArc
 50
270.0
 51
352.500159758
  0
LINE
  5
2B3
330
1F
100
AcDbEntity
  8
0
  6
CONTINUOUS
 62
     7
100
AcDbLine
 10
1873.71241214
 20
206.3830314454
 30
0.0
 11
1873.8124138328
 21
206.3830314454
 31
0.0
  0
LINE
  5
2B4
330
1F
100
AcDbEntity
  8
0
  6
CONTINUOUS
 62
     7
100
AcDbLine
 10
1873.71241214
 20
203.3830314194
 30
0.0
 11
1873.8124138328
 21
203.3830314194
 31
0.0
  0
SPLINE
  5
2B5
330
1F
100
AcDbEntity
  8
0
  6
CONTINUOUS
 62
     7
100
AcDbSpline
210
0.0
220
0.0
230
1.0
 70
     8
 71
     3
 72
     8
 73
     4
 74
     0
 42
0.00000001
 43
0.00000001
 12
1.0
 22
0.0
 32
0.0
 13
1.0
 23
0.0
 33
0.0
 40
0.0
 40
0.0
 40
0.0
 40
0.0
 40
1.0
 40
1.0
 40
1.0
 40
1.0
 10
1436.913267784368
 20
206.4699790765937
 30
0.0
 10
1436.912698280607
 20
206.474304980329
 30
0.0
 10
1436.912412306899
 20
206.478668189184
 30
0.0
 10
1436.912412306899
 20
206.4830314193705
 30
0.0
  0
SPLINE
  5
2B6
330
1F
100
AcDbEntity
  8
0
  6
CONTINUOUS
 62
     7
100
AcDbSpline
210
0.0
220
0.0
230
1.0
 70
     8
 71
     3
 72
     8
 73
     4
 74
     0
 42
0.00000001
 43
0.00000001
 12
1.0
 22
0.0
 32
0.0
 13
1.0
 23
0.0
 33
0.0
 40
0.0
 40
0.0
 40
0.0
 40
0.0
 40
1.0
 40
1.0
 40
1.0
 40
1.0
 10
1433.938932108418
 20
206.0784087932799
 30
0.0
 10
1433.921277491855
 20
206.212511809078
 30
0.0
 10
1433.912412306899
 20
206.3477712835871
 30
0.0
 10
1433.912412306899
 20
206.4830314193705
 30
0.0
  0
LINE
  5
2B7
330
1F
100
AcDbEntity
  8
0
  6
CONTINUOUS
 62
     7
100
AcDbLine
 10
1436.9124090882
 20
206.4830315084
 30
0.0
 11
1433.9124179097
 21
206.4830315084
 31
0.0
  0
LINE
  5
2B8
330
1F
100
AcDbEntity
  8
0
  6
CONTINUOUS
 62
     7
100
AcDbLine
 10
1876.9124067041
 20
206.4830315084
 30
0.0
 11
1873.9124155255
 21
206.4830315084
 31
0.0
  0
SPLINE
  5
2B9
330
1F
100
AcDbEntity
  8
0
  6
CONTINUOUS
 62
     7
100
AcDbSpline
210
0.0
220
0.0
230
1.0
 70
     8
 71
     3
 72
     8
 73
     4
 74
     0
 42
0.00000001
 43
0.00000001
 12
1.0
 22
0.0
 32
0.0
 13
1.0
 23
0.0
 33
0.0
 40
0.0
 40
0.0
 40
0.0
 40
0.0
 40
1.0
 40
1.0
 40
1.0
 40
1.0
 10
1876.912412306899
 20
206.4830314193704
 30
0.0
 10
1876.912412306899
 20
206.3477712835871
 30
0.0
 10
1876.903547121943
 20
206.2125118090781
 30
0.0
 10
1876.88589250538
 20
206.0784087932801
 30
0.0
  0
SPLINE
  5
2BA
330
1F
100
AcDbEntity
  8
0
  6
CONTINUOUS
 62
     7
100
AcDbSpline
210
0.0
220
0.0
230
1.0
 70
     8
 71
     3
 72
     8
 73
     4
 74
     0
 42
0.00000001
 43
0.00000001
 12
1.0
 22
0.0
 32
0.0
 13
1.0
 23
0.0
 33
0.0
 40
0.0
 40
0.0
 40
0.0
 40
0.0
 40
1.0
 40
1.0
 40
1.0
 40
1.0
 10
1873.912412306899
 20
206.4830314193705
 30
0.0
 10
1873.912412306899
 20
206.478668189184
 30
0.0
 10
1873.912126333191
 20
206.474304980329
 30
0.0
 10
1873.911556829431
 20
206.4699790765938
 30
0.0
  0
LINE
  5
2BB
330
1F
100
AcDbEntity
  8
0
  6
CONTINUOUS
 62
     7
100
AcDbLine
 10
1433.9124179097
 20
206.5114452288
 30
0.0
 11
1433.9124179097
 21
206.4830315084
 31
0.0
  0
LINE
  5
2BC
330
1F
100
AcDbEntity
  8
0
  6
CONTINUOUS
 62
     7
100
AcDbLine
 10
1436.9124090882
 20
206.4830315084
 30
0.0
 11
1436.9124090882
 21
206.5114452288
 31
0.0
  0
LINE
  5
2BD
330
1F
100
AcDbEntity
  8
0
  6
CONTINUOUS
 62
     7
100
AcDbLine
 10
1876.9124067041
 20
206.4830315084
 30
0.0
 11
1876.9124067041
 21
206.5905217332
 31
0.0
  0
LINE
  5
2BE
330
1F
100
AcDbEntity
  8
0
  6
CONTINUOUS
 62
     7
100
AcDbLine
 10
1873.9124155255
 20
206.5905217332
 30
0.0
 11
1873.9124155255
 21
206.4830315084
 31
0.0
  0
ENDSEC
  0
SECTION
  2
OBJECTS
  0
DICTIONARY
  5
C
330
0
100
AcDbDictionary
  3
ACAD_GROUP
350
D
  3
ACAD_MLINESTYLE
350
17
  0
DICTIONARY
  5
D
102
{ACAD_REACTORS
330
C
102
}
330
C
100
AcDbDictionary
  0
DICTIONARY
  5
17
102
{ACAD_REACTORS
330
C
102
}
330
C
100
AcDbDictionary
  3
STANDARD
350
18
  0
MLINESTYLE
  5
18
102
{ACAD_REACTORS
330
17
102
}
330
17
100
AcDbMlineStyle
  2
Standard
 70
     0
  3

 62
   256
 51
90.0
 52
90.0
 71
     2
 49
0.5
 62
   256
  6
BYLAYER
 49
-0.5
 62
   256
  6
BYLAYER
  0
ENDSEC
  0
EOF
