  0
SECTION
  2
HEADER
  9
$ACADVER
  1
AC1009
  9
$DWGCODEPAGE
  3
ansi_1252
  9
$INSBASE
 10
0.0
 20
0.0
 30
0.0
  9
$EXTMIN
 10
0.0
 20
0.0
 30
0.0
  9
$EXTMAX
 10
420.0
 20
297.0
 30
0.0
  9
$LIMMIN
 10
0.0
 20
0.0
  9
$LIMMAX
 10
420.0
 20
297.0
  9
$ORTHOMODE
 70
     0
  9
$REGENMODE
 70
     1
  9
$FILLMODE
 70
     1
  9
$QTEXTMODE
 70
     0
  9
$MIRRTEXT
 70
     1
  9
$DRAGMODE
 70
     2
  9
$LTSCALE
 40
1.0
  9
$OSMODE
 70
    37
  9
$ATTMODE
 70
     1
  9
$TEXTSIZE
 40
3.5
  9
$TRACEWID
 40
1.0
  9
$TEXTSTYLE
  7
STANDARD
  9
$CLAYER
  8
0
  9
$CELTYPE
  6
BYLAYER
  9
$CECOLOR
 62
   256
  9
$DIMSCALE
 40
1.0
  9
$DIMASZ
 40
4.0
  9
$DIMEXO
 40
0.0
  9
$DIMDLI
 40
3.75
  9
$DIMRND
 40
0.0
  9
$DIMDLE
 40
0.0
  9
$DIMEXE
 40
2.0
  9
$DIMTP
 40
0.0
  9
$DIMTM
 40
0.0
  9
$DIMTXT
 40
3.5
  9
$DIMCEN
 40
2.5
  9
$DIMTSZ
 40
0.0
  9
$DIMTOL
 70
     0
  9
$DIMLIM
 70
     0
  9
$DIMTIH
 70
     1
  9
$DIMTOH
 70
     1
  9
$DIMSE1
 70
     0
  9
$DIMSE2
 70
     0
  9
$DIMTAD
 70
     1
  9
$DIMZIN
 70
     0
  9
$DIMBLK
  1

  9
$DIMASO
 70
     1
  9
$DIMSHO
 70
     1
  9
$DIMPOST
  1

  9
$DIMAPOST
  1

  9
$DIMALT
 70
     0
  9
$DIMALTD
 70
     3
  9
$DIMALTF
 40
0.0393700787
  9
$DIMLFAC
 40
5.0
  9
$DIMTOFL
 70
     1
  9
$DIMTVP
 40
0.0
  9
$DIMTIX
 70
     0
  9
$DIMSOXD
 70
     0
  9
$DIMSAH
 70
     0
  9
$DIMBLK1
  1

  9
$DIMBLK2
  1

  9
$DIMSTYLE
  2
ISO-25
  9
$DIMCLRD
 70
     0
  9
$DIMCLRE
 70
     0
  9
$DIMCLRT
 70
     0
  9
$DIMTFAC
 40
1.0
  9
$DIMGAP
 40
1.524
  9
$LUNITS
 70
     2
  9
$LUPREC
 70
     2
  9
$SKETCHINC
 40
1.0
  9
$FILLETRAD
 40
10.0
  9
$AUNITS
 70
     0
  9
$AUPREC
 70
     2
  9
$MENU
  1
.
  9
$ELEVATION
 40
0.0
  9
$PELEVATION
 40
0.0
  9
$THICKNESS
 40
0.0
  9
$LIMCHECK
 70
     0
  9
$CHAMFERA
 40
10.0
  9
$CHAMFERB
 40
10.0
  9
$SKPOLY
 70
     0
  9
$TDCREATE
 40
2457801.45570096
  9
$TDUPDATE
 40
2457801.455701308
  9
$TDINDWG
 40
0.0000000116
  9
$TDUSRTIMER
 40
0.0000000116
  9
$USRTIMER
 70
     1
  9
$ANGBASE
 50
0.0
  9
$ANGDIR
 70
     0
  9
$PDMODE
 70
     0
  9
$PDSIZE
 40
-1.0
  9
$PLINEWID
 40
0.0
  9
$COORDS
 70
     1
  9
$SPLFRAME
 70
     0
  9
$SPLINETYPE
 70
     6
  9
$SPLINESEGS
 70
     8
  9
$ATTDIA
 70
     0
  9
$ATTREQ
 70
     1
  9
$HANDLING
 70
     1
  9
$HANDSEED
  5
737
  9
$SURFTAB1
 70
     6
  9
$SURFTAB2
 70
     6
  9
$SURFTYPE
 70
     6
  9
$SURFU
 70
     6
  9
$SURFV
 70
     6
  9
$UCSNAME
  2

  9
$UCSORG
 10
0.0
 20
0.0
 30
0.0
  9
$UCSXDIR
 10
1.0
 20
0.0
 30
0.0
  9
$UCSYDIR
 10
0.0
 20
1.0
 30
0.0
  9
$PUCSNAME
  2

  9
$PUCSORG
 10
0.0
 20
0.0
 30
0.0
  9
$PUCSXDIR
 10
1.0
 20
0.0
 30
0.0
  9
$PUCSYDIR
 10
0.0
 20
1.0
 30
0.0
  9
$USERI1
 70
     0
  9
$USERI2
 70
     0
  9
$USERI3
 70
     0
  9
$USERI4
 70
     0
  9
$USERI5
 70
     0
  9
$USERR1
 40
0.0
  9
$USERR2
 40
0.0
  9
$USERR3
 40
0.0
  9
$USERR4
 40
0.0
  9
$USERR5
 40
0.0
  9
$WORLDVIEW
 70
     1
  9
$SHADEDGE
 70
     3
  9
$SHADEDIF
 70
    70
  9
$TILEMODE
 70
     1
  9
$MAXACTVP
 70
    64
  9
$PLIMCHECK
 70
     0
  9
$PEXTMIN
 10
1.0000000000E+20
 20
1.0000000000E+20
 30
1.0000000000E+20
  9
$PEXTMAX
 10
-1.0000000000E+20
 20
-1.0000000000E+20
 30
-1.0000000000E+20
  9
$PLIMMIN
 10
0.0
 20
0.0
  9
$PLIMMAX
 10
420.0
 20
297.0
  9
$UNITMODE
 70
     0
  9
$VISRETAIN
 70
     1
  9
$PLINEGEN
 70
     0
  9
$PSLTSCALE
 70
     1
  0
ENDSEC
  0
SECTION
  2
TABLES
  0
TABLE
  2
VPORT
 70
     1
  0
VPORT
  2
*ACTIVE
 70
     0
 10
0.0
 20
0.0
 11
1.0
 21
1.0
 12
210.0
 22
148.5
 13
0.0
 23
0.0
 14
10.0
 24
10.0
 15
10.0
 25
10.0
 16
0.0
 26
0.0
 36
1.0
 17
0.0
 27
0.0
 37
0.0
 40
297.0
 41
1.4141414141
 42
50.0
 43
0.0
 44
0.0
 50
0.0
 51
0.0
 71
     0
 72
  2000
 73
     1
 74
     3
 75
     0
 76
     0
 77
     0
 78
     0
  0
ENDTAB
  0
TABLE
  2
LTYPE
 70
     6
  0
LTYPE
  2
CONTINUOUS
 70
     0
  3
Solid line
 72
    65
 73
     0
 40
0.0
  0
LTYPE
  2
HIDDEN
 70
     0
  3
Hidden __ __ __ __ __ __ __ __ __ __ __ __ __ __
 72
    65
 73
     2
 40
1.905
 49
1.27
 49
-0.635
  0
LTYPE
  2
PHANTOM
 70
     0
  3
Phantom ______  __  __  ______  __  __  ______
 72
    65
 73
     6
 40
12.7
 49
6.35
 49
-1.27
 49
1.27
 49
-1.27
 49
1.27
 49
-1.27
  0
LTYPE
  2
CENTER
 70
     0
  3
Center ____ _ ____ _ ____ _ ____ _ ____ _ ____
 72
    65
 73
     4
 40
10.16
 49
6.35
 49
-1.27
 49
1.27
 49
-1.27
  0
LTYPE
  2
CENTERX2
 70
     0
  3
Center (2x) ________  __  ________  __  _____
 72
    65
 73
     4
 40
20.32
 49
12.7
 49
-2.54
 49
2.54
 49
-2.54
  0
LTYPE
  2
DOT2
 70
     0
  3
Dot (.5x) ........................................
 72
    65
 73
     2
 40
0.635
 49
0.0
 49
-0.635
  0
ENDTAB
  0
TABLE
  2
LAYER
 70
     2
  0
LAYER
  2
0
 70
     0
 62
     7
  6
CONTINUOUS
  0
LAYER
  2
FORMAT
 70
     0
 62
     7
  6
CONTINUOUS
  0
ENDTAB
  0
TABLE
  2
STYLE
 70
     1
  0
STYLE
  2
STANDARD
 70
     0
 40
0.0
 41
1.0
 50
0.0
 71
     0
 42
3.5
  3
txt
  4

  0
ENDTAB
  0
TABLE
  2
VIEW
 70
     0
  0
ENDTAB
  0
TABLE
  2
UCS
 70
     0
  0
ENDTAB
  0
TABLE
  2
APPID
 70
     1
  0
APPID
  2
ACAD
 70
     0
  0
ENDTAB
  0
TABLE
  2
DIMSTYLE
 70
     1
  0
DIMSTYLE
  2
ISO-25
 70
     0
  3

  4

  5

  6

  7

 40
1.0
 41
2.5
 42
0.625
 43
3.75
 44
1.25
 45
0.0
 46
0.0
 47
0.0
 48
0.0
140
2.5
141
2.5
142
0.0
143
0.0393700787
144
1.0
145
0.0
146
1.0
147
0.625
 71
     0
 72
     0
 73
     0
 74
     0
 75
     0
 76
     0
 77
     1
 78
     8
170
     0
171
     3
172
     1
173
     0
174
     0
175
     0
176
     0
177
     0
178
     0
  0
ENDTAB
  0
ENDSEC
  0
SECTION
  2
BLOCKS
  0
BLOCK
  8
0
  2
$MODEL_SPACE
 70
     0
 10
0.0
 20
0.0
 30
0.0
  3
$MODEL_SPACE
  1

  0
ENDBLK
  5
21
  8
0
  0
BLOCK
 67
     1
  8
0
  2
$PAPER_SPACE
 70
     0
 10
0.0
 20
0.0
 30
0.0
  3
$PAPER_SPACE
  1

  0
ENDBLK
  5
1D
 67
     1
  8
0
  0
ENDSEC
  0
SECTION
  2
ENTITIES
  0
ARC
  5
45
  8
0
  6
CONTINUOUS
 62
     7
 10
333.9435632435
 20
199.3221443691
 30
0.0
 40
0.4000000000000341
 50
0.0
 51
90.0
  0
ARC
  5
46
  8
0
  6
CONTINUOUS
 62
     7
 10
312.5435632435
 20
199.3221443691
 30
0.0
 40
0.4000000000000341
 50
90.0
 51
180.0
  0
LINE
  5
47
  8
0
  6
CONTINUOUS
 62
     7
 10
333.9435656277
 20
199.7221438035
 30
0.0
 11
312.5435669629
 21
199.7221438035
 31
0.0
  0
ARC
  5
48
  8
0
  6
CONTINUOUS
 62
     7
 10
334.8435632435
 20
247.8311451226
 30
0.0
 40
0.4000000000000057
 50
0.0
 51
90.0
  0
LINE
  5
49
  8
0
  6
CONTINUOUS
 62
     7
 10
334.843560001
 20
248.2311455353
 30
0.0
 11
311.6435606686
 21
248.2311455353
 31
0.0
  0
ARC
  5
4A
  8
0
  6
CONTINUOUS
 62
     7
 10
311.6435632435
 20
247.8311451226
 30
0.0
 40
0.4000000000000341
 50
90.0
 51
180.0
  0
ARC
  5
4B
  8
0
  6
CONTINUOUS
 62
     7
 10
109.9435632435
 20
199.3221443691
 30
0.0
 40
0.4000000000000341
 50
0.0
 51
90.0
  0
ARC
  5
4C
  8
0
  6
CONTINUOUS
 62
     7
 10
88.5435632435
 20
199.3221443691
 30
0.0
 40
0.4000000000000341
 50
90.0
 51
180.0
  0
LINE
  5
4D
  8
0
  6
CONTINUOUS
 62
     7
 10
109.943564674
 20
199.7221438035
 30
0.0
 11
88.5435660092
 21
199.7221438035
 31
0.0
  0
ARC
  5
4E
  8
0
  6
CONTINUOUS
 62
     7
 10
110.8435632435
 20
247.8311451226
 30
0.0
 40
0.4000000000000057
 50
0.0
 51
90.0
  0
ARC
  5
4F
  8
0
  6
CONTINUOUS
 62
     7
 10
87.6435632435
 20
247.8311451226
 30
0.0
 40
0.4000000000000057
 50
90.0
 51
180.0
  0
LINE
  5
50
  8
0
  6
CONTINUOUS
 62
     7
 10
110.8435590474
 20
248.2311455353
 30
0.0
 11
87.6435597149
 21
248.2311455353
 31
0.0
  0
ARC
  5
51
  8
0
  6
CONTINUOUS
 62
     7
 10
221.9435632435
 20
199.3221443691
 30
0.0
 40
0.4000000000000341
 50
0.0
 51
90.0
  0
ARC
  5
52
  8
0
  6
CONTINUOUS
 62
     7
 10
200.5435632435
 20
199.3221443691
 30
0.0
 40
0.4000000000000341
 50
90.0
 51
180.0
  0
LINE
  5
53
  8
0
  6
CONTINUOUS
 62
     7
 10
221.9435629157
 20
199.7221438035
 30
0.0
 11
200.5435635058
 21
199.7221438035
 31
0.0
  0
ARC
  5
54
  8
0
  6
CONTINUOUS
 62
     7
 10
222.8435632435
 20
247.8311451226
 30
0.0
 40
0.4000000000000341
 50
0.0
 51
90.0
  0
LINE
  5
55
  8
0
  6
CONTINUOUS
 62
     7
 10
222.8435632495
 20
248.2311455353
 30
0.0
 11
199.643563172
 21
248.2311455353
 31
0.0
  0
ARC
  5
56
  8
0
  6
CONTINUOUS
 62
     7
 10
199.6435632435
 20
247.8311451226
 30
0.0
 40
0.4000000000000057
 50
90.0
 51
180.0
  0
ARC
  5
57
  8
0
  6
CONTINUOUS
 62
     7
 10
435.4435632435
 20
199.3221443691
 30
0.0
 40
0.4000000000000341
 50
0.0
 51
90.0
  0
ARC
  5
58
  8
0
  6
CONTINUOUS
 62
     7
 10
424.5435632435
 20
199.3221443691
 30
0.0
 40
0.4000000000000341
 50
90.0
 51
180.0
  0
LINE
  5
59
  8
0
  6
CONTINUOUS
 62
     7
 10
435.4435641972
 20
199.7221438035
 30
0.0
 11
424.5435674397
 21
199.7221438035
 31
0.0
  0
ARC
  5
5A
  8
0
  6
CONTINUOUS
 62
     7
 10
-1.6564367565
 20
199.3221443691
 30
0.0
 40
0.4000000000000341
 50
0.0
 51
90.0
  0
ARC
  5
5B
  8
0
  6
CONTINUOUS
 62
     7
 10
-12.5564367565
 20
199.3221443691
 30
0.0
 40
0.4000000000000341
 50
90.0
 51
180.0
  0
LINE
  5
5C
  8
0
  6
CONTINUOUS
 62
     7
 10
-1.6564409526
 20
199.7221438035
 30
0.0
 11
-12.5564377101
 21
199.7221438035
 31
0.0
  0
LINE
  5
5D
  8
0
  6
CONTINUOUS
 62
     7
 10
310.2435608117
 20
127.926006709
 30
0.0
 11
311.2435658185
 21
127.926006709
 31
0.0
  0
LINE
  5
5E
  8
0
  6
CONTINUOUS
 62
     7
 10
311.2435658185
 20
132.726010476
 30
0.0
 11
310.2435608117
 21
132.726010476
 31
0.0
  0
LINE
  5
5F
  8
0
  6
CONTINUOUS
 62
     7
 10
223.6435633806
 20
127.926006709
 30
0.0
 11
224.643563172
 21
127.926006709
 31
0.0
  0
LINE
  5
60
  8
0
  6
CONTINUOUS
 62
     7
 10
224.643563172
 20
132.726010476
 30
0.0
 11
223.6435633806
 21
132.726010476
 31
0.0
  0
ARC
  5
61
  8
0
  6
CONTINUOUS
 62
     7
 10
309.8435632435
 20
112.7133216821
 30
0.0
 40
0.4000000000000057
 50
270.0
 51
0.0
  0
LINE
  5
62
  8
0
  6
CONTINUOUS
 62
     7
 10
225.0435639826
 20
112.3133210286
 30
0.0
 11
309.8435659615
 21
112.3133210286
 31
0.0
  0
ARC
  5
63
  8
0
  6
CONTINUOUS
 62
     7
 10
225.0435632435
 20
112.7133216821
 30
0.0
 40
0.4000000000000057
 50
180.0
 51
270.0
  0
LINE
  5
64
  8
0
  6
CONTINUOUS
 62
     7
 10
224.5526958911
 20
125.8515206917
 30
0.0
 11
224.643563172
 21
125.8515206917
 31
0.0
  0
LINE
  5
65
  8
0
  6
CONTINUOUS
 62
     7
 10
310.2435608117
 20
125.8515206917
 30
0.0
 11
310.3344280926
 21
125.8515206917
 31
0.0
  0
ARC
  5
66
  8
0
  6
CONTINUOUS
 62
     7
 10
225.0435632435
 20
198.9496813001
 30
0.0
 40
0.4000000000000057
 50
90.0
 51
180.0
  0
ARC
  5
67
  8
0
  6
CONTINUOUS
 62
     7
 10
309.8435632435
 20
198.9496813001
 30
0.0
 40
0.4000000000000057
 50
0.0
 51
90.0
  0
LINE
  5
68
  8
0
  6
CONTINUOUS
 62
     7
 10
309.8435659615
 20
199.3496862992
 30
0.0
 11
225.0435639826
 21
199.3496862992
 31
0.0
  0
LINE
  5
69
  8
0
  6
CONTINUOUS
 62
     7
 10
422.243567249
 20
127.926006709
 30
0.0
 11
423.2435662953
 21
127.926006709
 31
0.0
  0
LINE
  5
6A
  8
0
  6
CONTINUOUS
 62
     7
 10
423.2435662953
 20
132.726010476
 30
0.0
 11
422.243567249
 21
132.726010476
 31
0.0
  0
LINE
  5
6B
  8
0
  6
CONTINUOUS
 62
     7
 10
335.6435616223
 20
127.926006709
 30
0.0
 11
336.6435606686
 21
127.926006709
 31
0.0
  0
LINE
  5
6C
  8
0
  6
CONTINUOUS
 62
     7
 10
336.6435606686
 20
132.726010476
 30
0.0
 11
335.6435616223
 21
132.726010476
 31
0.0
  0
LINE
  5
6D
  8
0
  6
CONTINUOUS
 62
     7
 10
198.2435633151
 20
127.926006709
 30
0.0
 11
199.2435631064
 21
127.926006709
 31
0.0
  0
LINE
  5
6E
  8
0
  6
CONTINUOUS
 62
     7
 10
199.2435631064
 20
132.726010476
 30
0.0
 11
198.2435633151
 21
132.726010476
 31
0.0
  0
LINE
  5
6F
  8
0
  6
CONTINUOUS
 62
     7
 10
111.6435606686
 20
127.926006709
 30
0.0
 11
112.6435656754
 21
127.926006709
 31
0.0
  0
LINE
  5
70
  8
0
  6
CONTINUOUS
 62
     7
 10
112.6435656754
 20
132.726010476
 30
0.0
 11
111.6435606686
 21
132.726010476
 31
0.0
  0
ARC
  5
71
  8
0
  6
CONTINUOUS
 62
     7
 10
197.8435632435
 20
112.7133216821
 30
0.0
 40
0.4000000000000057
 50
270.0
 51
0.0
  0
LINE
  5
72
  8
0
  6
CONTINUOUS
 62
     7
 10
113.0435605256
 20
112.3133210286
 30
0.0
 11
197.8435625044
 21
112.3133210286
 31
0.0
  0
ARC
  5
73
  8
0
  6
CONTINUOUS
 62
     7
 10
113.0435632435
 20
112.7133216821
 30
0.0
 40
0.4000000000000057
 50
180.0
 51
270.0
  0
LINE
  5
74
  8
0
  6
CONTINUOUS
 62
     7
 10
112.5526983944
 20
125.8515206917
 30
0.0
 11
112.6435656754
 21
125.8515206917
 31
0.0
  0
LINE
  5
75
  8
0
  6
CONTINUOUS
 62
     7
 10
198.2435633151
 20
125.8515206917
 30
0.0
 11
198.334430596
 21
125.8515206917
 31
0.0
  0
ARC
  5
76
  8
0
  6
CONTINUOUS
 62
     7
 10
197.8435632435
 20
198.9496813001
 30
0.0
 40
0.4000000000000057
 50
0.0
 51
90.0
  0
ARC
  5
77
  8
0
  6
CONTINUOUS
 62
     7
 10
113.0435632435
 20
198.9496813001
 30
0.0
 40
0.4000000000000057
 50
90.0
 51
180.0
  0
LINE
  5
78
  8
0
  6
CONTINUOUS
 62
     7
 10
197.8435625044
 20
199.3496862992
 30
0.0
 11
113.0435605256
 21
199.3496862992
 31
0.0
  0
LINE
  5
79
  8
0
  6
CONTINUOUS
 62
     7
 10
-0.3564398082
 20
127.926006709
 30
0.0
 11
0.6435592381
 21
127.926006709
 31
0.0
  0
LINE
  5
7A
  8
0
  6
CONTINUOUS
 62
     7
 10
0.6435592381
 20
132.726010476
 30
0.0
 11
-0.3564398082
 21
132.726010476
 31
0.0
  0
LINE
  5
7B
  8
0
  6
CONTINUOUS
 62
     7
 10
86.2435658185
 20
127.926006709
 30
0.0
 11
87.2435648648
 21
127.926006709
 31
0.0
  0
LINE
  5
7C
  8
0
  6
CONTINUOUS
 62
     7
 10
87.2435648648
 20
132.726010476
 30
0.0
 11
86.2435658185
 21
132.726010476
 31
0.0
  0
ARC
  5
7D
  8
0
  6
CONTINUOUS
 62
     7
 10
1.0435632435
 20
112.7133216821
 30
0.0
 40
0.4000000000000057
 50
180.0
 51
270.0
  0
LINE
  5
7E
  8
0
  6
CONTINUOUS
 62
     7
 10
1.0435540883
 20
112.3133210286
 30
0.0
 11
85.8435590474
 21
112.3133210286
 31
0.0
  0
ARC
  5
7F
  8
0
  6
CONTINUOUS
 62
     7
 10
85.8435632435
 20
112.7133216821
 30
0.0
 40
0.4000000000000057
 50
270.0
 51
0.0
  0
LINE
  5
80
  8
0
  6
CONTINUOUS
 62
     7
 10
0.5526979176
 20
125.8515206917
 30
0.0
 11
0.6435592381
 21
125.8515206917
 31
0.0
  0
LINE
  5
81
  8
0
  6
CONTINUOUS
 62
     7
 10
86.2435658185
 20
125.8515206917
 30
0.0
 11
86.334427139
 21
125.8515206917
 31
0.0
  0
ARC
  5
82
  8
0
  6
CONTINUOUS
 62
     7
 10
85.8435632435
 20
198.9496813001
 30
0.0
 40
0.4000000000000057
 50
0.0
 51
90.0
  0
ARC
  5
83
  8
0
  6
CONTINUOUS
 62
     7
 10
1.0435632435
 20
198.9496813001
 30
0.0
 40
0.4000000000000057
 50
90.0
 51
180.0
  0
LINE
  5
84
  8
0
  6
CONTINUOUS
 62
     7
 10
85.8435590474
 20
199.3496862992
 30
0.0
 11
1.0435540883
 21
199.3496862992
 31
0.0
  0
LINE
  5
85
  8
0
  6
CONTINUOUS
 62
     7
 10
423.3435590474
 20
131.5260080441
 30
0.0
 11
423.2435662953
 21
131.5260080441
 31
0.0
  0
LINE
  5
86
  8
0
  6
CONTINUOUS
 62
     7
 10
335.6435616223
 20
131.5260080441
 30
0.0
 11
335.5435688702
 21
131.5260080441
 31
0.0
  0
LINE
  5
87
  8
0
  6
CONTINUOUS
 62
     7
 10
335.5435688702
 20
129.1260091408
 30
0.0
 11
335.6435616223
 21
129.1260091408
 31
0.0
  0
LINE
  5
88
  8
0
  6
CONTINUOUS
 62
     7
 10
423.2435662953
 20
129.1260091408
 30
0.0
 11
423.3435590474
 21
129.1260091408
 31
0.0
  0
LINE
  5
89
  8
0
  6
CONTINUOUS
 62
     7
 10
424.1435725895
 20
198.9110795601
 30
0.0
 11
423.3435590474
 21
198.9110795601
 31
0.0
  0
LINE
  5
8A
  8
0
  6
CONTINUOUS
 62
     7
 10
335.5435688702
 20
198.9110795601
 30
0.0
 11
334.743567249
 21
198.9110795601
 31
0.0
  0
LINE
  5
8B
  8
0
  6
CONTINUOUS
 62
     7
 10
423.2359607426
 20
248.0984417542
 30
0.0
 11
335.6511790959
 21
248.0984417542
 31
0.0
  0
LINE
  5
8C
  8
0
  6
CONTINUOUS
 62
     7
 10
199.3435633091
 20
131.5260080441
 30
0.0
 11
199.2435631064
 21
131.5260080441
 31
0.0
  0
LINE
  5
8D
  8
0
  6
CONTINUOUS
 62
     7
 10
111.6435606686
 20
131.5260080441
 30
0.0
 11
111.5435619561
 21
131.5260080441
 31
0.0
  0
LINE
  5
8E
  8
0
  6
CONTINUOUS
 62
     7
 10
111.5435619561
 20
129.1260091408
 30
0.0
 11
111.6435606686
 21
129.1260091408
 31
0.0
  0
LINE
  5
8F
  8
0
  6
CONTINUOUS
 62
     7
 10
199.2435631064
 20
129.1260091408
 30
0.0
 11
199.3435633091
 21
129.1260091408
 31
0.0
  0
LINE
  5
90
  8
0
  6
CONTINUOUS
 62
     7
 10
200.1435634402
 20
198.9110795601
 30
0.0
 11
199.3435633091
 21
198.9110795601
 31
0.0
  0
LINE
  5
91
  8
0
  6
CONTINUOUS
 62
     7
 10
111.5435619561
 20
198.9110795601
 30
0.0
 11
110.7435662953
 21
198.9110795601
 31
0.0
  0
LINE
  5
92
  8
0
  6
CONTINUOUS
 62
     7
 10
199.2359523384
 20
248.0984417542
 30
0.0
 11
111.6511721818
 21
248.0984417542
 31
0.0
  0
LINE
  5
93
  8
0
  6
CONTINUOUS
 62
     7
 10
311.343564531
 20
131.5260080441
 30
0.0
 11
311.2435658185
 21
131.5260080441
 31
0.0
  0
LINE
  5
94
  8
0
  6
CONTINUOUS
 62
     7
 10
223.6435633806
 20
131.5260080441
 30
0.0
 11
223.543563178
 21
131.5260080441
 31
0.0
  0
LINE
  5
95
  8
0
  6
CONTINUOUS
 62
     7
 10
223.543563178
 20
129.1260091408
 30
0.0
 11
223.6435633806
 21
129.1260091408
 31
0.0
  0
LINE
  5
96
  8
0
  6
CONTINUOUS
 62
     7
 10
311.2435658185
 20
129.1260091408
 30
0.0
 11
311.343564531
 21
129.1260091408
 31
0.0
  0
LINE
  5
97
  8
0
  6
CONTINUOUS
 62
     7
 10
312.1435601918
 20
198.9110795601
 30
0.0
 11
311.343564531
 21
198.9110795601
 31
0.0
  0
LINE
  5
98
  8
0
  6
CONTINUOUS
 62
     7
 10
223.543563178
 20
198.9110795601
 30
0.0
 11
222.7435630468
 21
198.9110795601
 31
0.0
  0
LINE
  5
99
  8
0
  6
CONTINUOUS
 62
     7
 10
311.2359543053
 20
248.0984417542
 30
0.0
 11
223.6511741487
 21
248.0984417542
 31
0.0
  0
LINE
  5
9A
  8
0
  6
CONTINUOUS
 62
     7
 10
87.3435576169
 20
131.5260080441
 30
0.0
 11
87.2435648648
 21
131.5260080441
 31
0.0
  0
LINE
  5
9B
  8
0
  6
CONTINUOUS
 62
     7
 10
-0.3564398082
 20
131.5260080441
 30
0.0
 11
-0.4564325603
 21
131.5260080441
 31
0.0
  0
LINE
  5
9C
  8
0
  6
CONTINUOUS
 62
     7
 10
-0.4564325603
 20
129.1260091408
 30
0.0
 11
-0.3564398082
 21
129.1260091408
 31
0.0
  0
LINE
  5
9D
  8
0
  6
CONTINUOUS
 62
     7
 10
87.2435648648
 20
129.1260091408
 30
0.0
 11
87.3435576169
 21
129.1260091408
 31
0.0
  0
LINE
  5
9E
  8
0
  6
CONTINUOUS
 62
     7
 10
88.1435592381
 20
198.9110795601
 30
0.0
 11
87.3435576169
 21
198.9110795601
 31
0.0
  0
LINE
  5
9F
  8
0
  6
CONTINUOUS
 62
     7
 10
-0.4564325603
 20
198.9110795601
 30
0.0
 11
-1.2564461025
 21
198.9110795601
 31
0.0
  0
LINE
  5
A0
  8
0
  6
CONTINUOUS
 62
     7
 10
87.2359473912
 20
248.0984417542
 30
0.0
 11
-0.3488342555
 21
248.0984417542
 31
0.0
  0
ARC
  5
A1
  8
0
  6
CONTINUOUS
 62
     7
 10
323.8435632435
 20
111.7260078057
 30
0.0
 40
0.4000000000000341
 50
90.0
 51
180.0
  0
LINE
  5
A2
  8
0
  6
CONTINUOUS
 62
     7
 10
435.4435641972
 20
111.7260066613
 30
0.0
 11
435.4435641972
 21
50.5260078057
 31
0.0
  0
LINE
  5
A3
  8
0
  6
CONTINUOUS
 62
     7
 10
435.4435641972
 20
50.5260078057
 30
0.0
 11
435.0435693471
 21
50.5260078057
 31
0.0
  0
LINE
  5
A4
  8
0
  6
CONTINUOUS
 62
     7
 10
424.5435674397
 20
112.1260074719
 30
0.0
 11
435.0435693471
 21
112.1260074719
 31
0.0
  0
ARC
  5
A5
  8
0
  6
CONTINUOUS
 62
     7
 10
435.0435632435
 20
111.7260078057
 30
0.0
 40
0.4000000000000909
 50
0.0
 51
90.0
  0
LINE
  5
A6
  8
0
  6
CONTINUOUS
 62
     7
 10
323.4435637204
 20
50.5260078057
 30
0.0
 11
323.4435637204
 21
111.7260066613
 31
0.0
  0
LINE
  5
A7
  8
0
  6
CONTINUOUS
 62
     7
 10
323.8435585705
 20
50.5260078057
 30
0.0
 11
323.4435637204
 21
50.5260078057
 31
0.0
  0
ARC
  5
A8
  8
0
  6
CONTINUOUS
 62
     7
 10
424.5435632435
 20
111.7260078057
 30
0.0
 40
0.4000000000000199
 50
90.0
 51
180.0
  0
LINE
  5
A9
  8
0
  6
CONTINUOUS
 62
     7
 10
323.8435585705
 20
112.1260074719
 30
0.0
 11
334.3435604779
 21
112.1260074719
 31
0.0
  0
LINE
  5
AA
  8
0
  6
CONTINUOUS
 62
     7
 10
323.8435585705
 20
50.5260078057
 30
0.0
 11
435.0435693471
 21
50.5260078057
 31
0.0
  0
ARC
  5
AB
  8
0
  6
CONTINUOUS
 62
     7
 10
334.3435632435
 20
111.7260078057
 30
0.0
 40
0.4000000000000341
 50
0.0
 51
90.0
  0
LINE
  5
AC
  8
0
  6
CONTINUOUS
 62
     7
 10
424.1435725895
 20
108.5260061368
 30
0.0
 11
424.1435725895
 21
111.7260066613
 31
0.0
  0
POLYLINE
  5
AD
  8
0
  6
CONTINUOUS
 62
     7
 66
     1
 10
0.0
 20
0.0
 30
0.0
  0
VERTEX
  5
609
  8
0
  6
CONTINUOUS
 62
     7
 10
424.1435725895
 20
108.5260061368
 30
0.0
  0
VERTEX
  5
60A
  8
0
  6
CONTINUOUS
 62
     7
 10
424.1512496678
 20
108.518323098
 30
0.0
  0
VERTEX
  5
60B
  8
0
  6
CONTINUOUS
 62
     7
 10
424.1740186421
 20
108.4955600842
 30
0.0
  0
VERTEX
  5
60C
  8
0
  6
CONTINUOUS
 62
     7
 10
424.2109735219
 20
108.4585932835
 30
0.0
  0
VERTEX
  5
60D
  8
0
  6
CONTINUOUS
 62
     7
 10
424.2607314793
 20
108.4088532074
 30
0.0
  0
VERTEX
  5
60E
  8
0
  6
CONTINUOUS
 62
     7
 10
424.3213374821
 20
108.3482352837
 30
0.0
  0
VERTEX
  5
60F
  8
0
  6
CONTINUOUS
 62
     7
 10
424.3904788701
 20
108.2790819748
 30
0.0
  0
VERTEX
  5
610
  8
0
  6
CONTINUOUS
 62
     7
 10
424.4655330388
 20
108.2040456875
 30
0.0
  0
VERTEX
  5
611
  8
0
  6
CONTINUOUS
 62
     7
 10
424.5435674397
 20
108.1260053261
 30
0.0
  0
SEQEND
  5
736
  8
0
  6
CONTINUOUS
 62
     7
  0
LINE
  5
AE
  8
0
  6
CONTINUOUS
 62
     7
 10
334.743567249
 20
108.5260061368
 30
0.0
 11
424.1435725895
 21
108.5260061368
 31
0.0
  0
POLYLINE
  5
AF
  8
0
  6
CONTINUOUS
 62
     7
 66
     1
 10
0.0
 20
0.0
 30
0.0
  0
VERTEX
  5
612
  8
0
  6
CONTINUOUS
 62
     7
 10
334.743567249
 20
108.5260061368
 30
0.0
  0
VERTEX
  5
613
  8
0
  6
CONTINUOUS
 62
     7
 10
334.7374875752
 20
108.5199324235
 30
0.0
  0
VERTEX
  5
614
  8
0
  6
CONTINUOUS
 62
     7
 10
334.7194392888
 20
108.501884137
 30
0.0
  0
VERTEX
  5
615
  8
0
  6
CONTINUOUS
 62
     7
 10
334.6899707524
 20
108.4724156006
 30
0.0
  0
VERTEX
  5
616
  8
0
  6
CONTINUOUS
 62
     7
 10
334.6499760357
 20
108.4324268445
 30
0.0
  0
VERTEX
  5
617
  8
0
  6
CONTINUOUS
 62
     7
 10
334.6006829945
 20
108.3831218823
 30
0.0
  0
VERTEX
  5
618
  8
0
  6
CONTINUOUS
 62
     7
 10
334.543557903
 20
108.3260087117
 30
0.0
  0
VERTEX
  5
619
  8
0
  6
CONTINUOUS
 62
     7
 10
334.4803769795
 20
108.2628158673
 30
0.0
  0
VERTEX
  5
61A
  8
0
  6
CONTINUOUS
 62
     7
 10
334.4130237309
 20
108.1954685792
 30
0.0
  0
VERTEX
  5
61B
  8
0
  6
CONTINUOUS
 62
     7
 10
334.3435604779
 20
108.1260053261
 30
0.0
  0
SEQEND
  5
735
  8
0
  6
CONTINUOUS
 62
     7
  0
LINE
  5
B0
  8
0
  6
CONTINUOUS
 62
     7
 10
334.743567249
 20
111.7260066613
 30
0.0
 11
334.743567249
 21
108.5260061368
 31
0.0
  0
LINE
  5
B1
  8
0
  6
CONTINUOUS
 62
     7
 10
423.3435590474
 20
114.5260063752
 30
0.0
 11
335.5435688702
 21
114.5260063752
 31
0.0
  0
LINE
  5
B2
  8
0
  6
CONTINUOUS
 62
     7
 10
222.7435630468
 20
111.7260066613
 30
0.0
 11
222.7435630468
 21
108.5260061368
 31
0.0
  0
POLYLINE
  5
B3
  8
0
  6
CONTINUOUS
 62
     7
 66
     1
 10
0.0
 20
0.0
 30
0.0
  0
VERTEX
  5
61C
  8
0
  6
CONTINUOUS
 62
     7
 10
222.7435630468
 20
108.5260061368
 30
0.0
  0
VERTEX
  5
61D
  8
0
  6
CONTINUOUS
 62
     7
 10
222.7374863533
 20
108.5199324235
 30
0.0
  0
VERTEX
  5
61E
  8
0
  6
CONTINUOUS
 62
     7
 10
222.719440302
 20
108.501884137
 30
0.0
  0
VERTEX
  5
61F
  8
0
  6
CONTINUOUS
 62
     7
 10
222.6899732558
 20
108.4724156006
 30
0.0
  0
VERTEX
  5
620
  8
0
  6
CONTINUOUS
 62
     7
 10
222.6499807743
 20
108.4324268445
 30
0.0
  0
VERTEX
  5
621
  8
0
  6
CONTINUOUS
 62
     7
 10
222.6006780473
 20
108.3831218823
 30
0.0
  0
VERTEX
  5
622
  8
0
  6
CONTINUOUS
 62
     7
 10
222.5435633866
 20
108.3260087117
 30
0.0
  0
VERTEX
  5
623
  8
0
  6
CONTINUOUS
 62
     7
 10
222.4803712873
 20
108.2628158673
 30
0.0
  0
VERTEX
  5
624
  8
0
  6
CONTINUOUS
 62
     7
 10
222.413022509
 20
108.1954685792
 30
0.0
  0
VERTEX
  5
625
  8
0
  6
CONTINUOUS
 62
     7
 10
222.3435629813
 20
108.1260053261
 30
0.0
  0
SEQEND
  5
734
  8
0
  6
CONTINUOUS
 62
     7
  0
LINE
  5
B4
  8
0
  6
CONTINUOUS
 62
     7
 10
312.1435601918
 20
108.5260061368
 30
0.0
 11
312.1435601918
 21
111.7260066613
 31
0.0
  0
POLYLINE
  5
B5
  8
0
  6
CONTINUOUS
 62
     7
 66
     1
 10
0.0
 20
0.0
 30
0.0
  0
VERTEX
  5
626
  8
0
  6
CONTINUOUS
 62
     7
 10
312.1435601918
 20
108.5260061368
 30
0.0
  0
VERTEX
  5
627
  8
0
  6
CONTINUOUS
 62
     7
 10
312.151249191
 20
108.518323098
 30
0.0
  0
VERTEX
  5
628
  8
0
  6
CONTINUOUS
 62
     7
 10
312.1740062443
 20
108.4955600842
 30
0.0
  0
VERTEX
  5
629
  8
0
  6
CONTINUOUS
 62
     7
 10
312.210973045
 20
108.4585932835
 30
0.0
  0
VERTEX
  5
62A
  8
0
  6
CONTINUOUS
 62
     7
 10
312.2607190815
 20
108.4088532074
 30
0.0
  0
VERTEX
  5
62B
  8
0
  6
CONTINUOUS
 62
     7
 10
312.3213370053
 20
108.3482352837
 30
0.0
  0
VERTEX
  5
62C
  8
0
  6
CONTINUOUS
 62
     7
 10
312.3904903142
 20
108.2790819748
 30
0.0
  0
VERTEX
  5
62D
  8
0
  6
CONTINUOUS
 62
     7
 10
312.4655325619
 20
108.2040456875
 30
0.0
  0
VERTEX
  5
62E
  8
0
  6
CONTINUOUS
 62
     7
 10
312.5435669629
 20
108.1260053261
 30
0.0
  0
SEQEND
  5
733
  8
0
  6
CONTINUOUS
 62
     7
  0
ARC
  5
B6
  8
0
  6
CONTINUOUS
 62
     7
 10
222.3435632435
 20
111.7260078057
 30
0.0
 40
0.4000000000000199
 50
0.0
 51
90.0
  0
LINE
  5
B7
  8
0
  6
CONTINUOUS
 62
     7
 10
222.7435630468
 20
108.5260061368
 30
0.0
 11
312.1435601918
 21
108.5260061368
 31
0.0
  0
ARC
  5
B8
  8
0
  6
CONTINUOUS
 62
     7
 10
323.0435632435
 20
111.7260078057
 30
0.0
 40
0.4000000000000199
 50
0.0
 51
90.0
  0
ARC
  5
B9
  8
0
  6
CONTINUOUS
 62
     7
 10
312.5435632435
 20
111.7260078057
 30
0.0
 40
0.4000000000000341
 50
90.0
 51
180.0
  0
LINE
  5
BA
  8
0
  6
CONTINUOUS
 62
     7
 10
323.4435637204
 20
50.5260078057
 30
0.0
 11
323.0435688702
 21
50.5260078057
 31
0.0
  0
ARC
  5
BB
  8
0
  6
CONTINUOUS
 62
     7
 10
211.8435632435
 20
111.7260078057
 30
0.0
 40
0.4000000000000199
 50
90.0
 51
180.0
  0
LINE
  5
BC
  8
0
  6
CONTINUOUS
 62
     7
 10
312.5435669629
 20
112.1260074719
 30
0.0
 11
323.0435688702
 21
112.1260074719
 31
0.0
  0
LINE
  5
BD
  8
0
  6
CONTINUOUS
 62
     7
 10
211.8435632625
 20
112.1260074719
 30
0.0
 11
222.3435629813
 21
112.1260074719
 31
0.0
  0
LINE
  5
BE
  8
0
  6
CONTINUOUS
 62
     7
 10
211.4435632435
 20
50.5260078057
 30
0.0
 11
211.4435632435
 21
111.7260066613
 31
0.0
  0
LINE
  5
BF
  8
0
  6
CONTINUOUS
 62
     7
 10
211.8435632625
 20
50.5260078057
 30
0.0
 11
211.4435632435
 21
50.5260078057
 31
0.0
  0
LINE
  5
C0
  8
0
  6
CONTINUOUS
 62
     7
 10
211.8435632625
 20
50.5260078057
 30
0.0
 11
323.0435688702
 21
50.5260078057
 31
0.0
  0
LINE
  5
C1
  8
0
  6
CONTINUOUS
 62
     7
 10
311.343564531
 20
114.5260063752
 30
0.0
 11
310.2435608117
 21
114.5260063752
 31
0.0
  0
LINE
  5
C2
  8
0
  6
CONTINUOUS
 62
     7
 10
224.643563172
 20
114.5260063752
 30
0.0
 11
223.543563178
 21
114.5260063752
 31
0.0
  0
LINE
  5
C3
  8
0
  6
CONTINUOUS
 62
     7
 10
88.5435660092
 20
112.1260074719
 30
0.0
 11
99.0435679165
 21
112.1260074719
 31
0.0
  0
LINE
  5
C4
  8
0
  6
CONTINUOUS
 62
     7
 10
-12.15644286
 20
50.5260078057
 30
0.0
 11
99.0435679165
 21
50.5260078057
 31
0.0
  0
LINE
  5
C5
  8
0
  6
CONTINUOUS
 62
     7
 10
99.4435627667
 20
111.7260066613
 30
0.0
 11
99.4435627667
 21
50.5260078057
 31
0.0
  0
LINE
  5
C6
  8
0
  6
CONTINUOUS
 62
     7
 10
99.4435627667
 20
50.5260078057
 30
0.0
 11
99.0435679165
 21
50.5260078057
 31
0.0
  0
ARC
  5
C7
  8
0
  6
CONTINUOUS
 62
     7
 10
-12.1564367565
 20
111.7260078057
 30
0.0
 40
0.4000000000000199
 50
90.0
 51
180.0
  0
ARC
  5
C8
  8
0
  6
CONTINUOUS
 62
     7
 10
88.5435632435
 20
111.7260078057
 30
0.0
 40
0.4000000000000199
 50
90.0
 51
180.0
  0
LINE
  5
C9
  8
0
  6
CONTINUOUS
 62
     7
 10
-1.2564461025
 20
111.7260066613
 30
0.0
 11
-1.2564461025
 21
108.5260061368
 31
0.0
  0
POLYLINE
  5
CA
  8
0
  6
CONTINUOUS
 62
     7
 66
     1
 10
0.0
 20
0.0
 30
0.0
  0
VERTEX
  5
62F
  8
0
  6
CONTINUOUS
 62
     7
 10
-1.2564461025
 20
108.5260061368
 30
0.0
  0
VERTEX
  5
630
  8
0
  6
CONTINUOUS
 62
     7
 10
-1.2625019344
 20
108.5199324235
 30
0.0
  0
VERTEX
  5
631
  8
0
  6
CONTINUOUS
 62
     7
 10
-1.2805502208
 20
108.501884137
 30
0.0
  0
VERTEX
  5
632
  8
0
  6
CONTINUOUS
 62
     7
 10
-1.3100187572
 20
108.4724156006
 30
0.0
  0
VERTEX
  5
633
  8
0
  6
CONTINUOUS
 62
     7
 10
-1.3500253948
 20
108.4324268445
 30
0.0
  0
VERTEX
  5
634
  8
0
  6
CONTINUOUS
 62
     7
 10
-1.3993303569
 20
108.3831218823
 30
0.0
  0
VERTEX
  5
635
  8
0
  6
CONTINUOUS
 62
     7
 10
-1.4564316066
 20
108.3260087117
 30
0.0
  0
VERTEX
  5
636
  8
0
  6
CONTINUOUS
 62
     7
 10
-1.5196363719
 20
108.2628158673
 30
0.0
  0
VERTEX
  5
637
  8
0
  6
CONTINUOUS
 62
     7
 10
-1.5869657787
 20
108.1954685792
 30
0.0
  0
VERTEX
  5
638
  8
0
  6
CONTINUOUS
 62
     7
 10
-1.6564409526
 20
108.1260053261
 30
0.0
  0
SEQEND
  5
732
  8
0
  6
CONTINUOUS
 62
     7
  0
ARC
  5
CB
  8
0
  6
CONTINUOUS
 62
     7
 10
99.0435632435
 20
111.7260078057
 30
0.0
 40
0.4000000000000199
 50
0.0
 51
90.0
  0
LINE
  5
CC
  8
0
  6
CONTINUOUS
 62
     7
 10
-1.2564461025
 20
108.5260061368
 30
0.0
 11
88.1435592381
 21
108.5260061368
 31
0.0
  0
POLYLINE
  5
CD
  8
0
  6
CONTINUOUS
 62
     7
 66
     1
 10
0.0
 20
0.0
 30
0.0
  0
VERTEX
  5
639
  8
0
  6
CONTINUOUS
 62
     7
 10
88.1435592381
 20
108.5260061368
 30
0.0
  0
VERTEX
  5
63A
  8
0
  6
CONTINUOUS
 62
     7
 10
88.1512482373
 20
108.518323098
 30
0.0
  0
VERTEX
  5
63B
  8
0
  6
CONTINUOUS
 62
     7
 10
88.1740172116
 20
108.4955600842
 30
0.0
  0
VERTEX
  5
63C
  8
0
  6
CONTINUOUS
 62
     7
 10
88.2109720913
 20
108.4585932835
 30
0.0
  0
VERTEX
  5
63D
  8
0
  6
CONTINUOUS
 62
     7
 10
88.2607181279
 20
108.4088532074
 30
0.0
  0
VERTEX
  5
63E
  8
0
  6
CONTINUOUS
 62
     7
 10
88.3213360516
 20
108.3482352837
 30
0.0
  0
VERTEX
  5
63F
  8
0
  6
CONTINUOUS
 62
     7
 10
88.3904893605
 20
108.2790819748
 30
0.0
  0
VERTEX
  5
640
  8
0
  6
CONTINUOUS
 62
     7
 10
88.4655316083
 20
108.2040456875
 30
0.0
  0
VERTEX
  5
641
  8
0
  6
CONTINUOUS
 62
     7
 10
88.5435660092
 20
108.1260053261
 30
0.0
  0
SEQEND
  5
731
  8
0
  6
CONTINUOUS
 62
     7
  0
LINE
  5
CE
  8
0
  6
CONTINUOUS
 62
     7
 10
-12.5564377101
 20
50.5260078057
 30
0.0
 11
-12.5564377101
 21
111.7260066613
 31
0.0
  0
LINE
  5
CF
  8
0
  6
CONTINUOUS
 62
     7
 10
-12.15644286
 20
50.5260078057
 30
0.0
 11
-12.5564377101
 21
50.5260078057
 31
0.0
  0
ARC
  5
D0
  8
0
  6
CONTINUOUS
 62
     7
 10
-1.6564367565
 20
111.7260078057
 30
0.0
 40
0.4000000000000199
 50
0.0
 51
90.0
  0
LINE
  5
D1
  8
0
  6
CONTINUOUS
 62
     7
 10
-12.15644286
 20
112.1260074719
 30
0.0
 11
-1.6564409526
 21
112.1260074719
 31
0.0
  0
LINE
  5
D2
  8
0
  6
CONTINUOUS
 62
     7
 10
88.1435592381
 20
108.5260061368
 30
0.0
 11
88.1435592381
 21
111.7260066613
 31
0.0
  0
LINE
  5
D3
  8
0
  6
CONTINUOUS
 62
     7
 10
87.3435576169
 20
114.5260063752
 30
0.0
 11
86.2435658185
 21
114.5260063752
 31
0.0
  0
LINE
  5
D4
  8
0
  6
CONTINUOUS
 62
     7
 10
0.6435592381
 20
114.5260063752
 30
0.0
 11
-0.4564325603
 21
114.5260063752
 31
0.0
  0
LINE
  5
D5
  8
0
  6
CONTINUOUS
 62
     7
 10
200.1435634402
 20
108.5260061368
 30
0.0
 11
200.1435634402
 21
111.7260066613
 31
0.0
  0
POLYLINE
  5
D6
  8
0
  6
CONTINUOUS
 62
     7
 66
     1
 10
0.0
 20
0.0
 30
0.0
  0
VERTEX
  5
642
  8
0
  6
CONTINUOUS
 62
     7
 10
200.1435634402
 20
108.5260061368
 30
0.0
  0
VERTEX
  5
643
  8
0
  6
CONTINUOUS
 62
     7
 10
200.1512494592
 20
108.518323098
 30
0.0
  0
VERTEX
  5
644
  8
0
  6
CONTINUOUS
 62
     7
 10
200.174011728
 20
108.4955600842
 30
0.0
  0
VERTEX
  5
645
  8
0
  6
CONTINUOUS
 62
     7
 10
200.2109755484
 20
108.4585932835
 30
0.0
  0
VERTEX
  5
646
  8
0
  6
CONTINUOUS
 62
     7
 10
200.2607208399
 20
108.4088532074
 30
0.0
  0
VERTEX
  5
647
  8
0
  6
CONTINUOUS
 62
     7
 10
200.3213350383
 20
108.3482352837
 30
0.0
  0
VERTEX
  5
648
  8
0
  6
CONTINUOUS
 62
     7
 10
200.3904898373
 20
108.2790819748
 30
0.0
  0
VERTEX
  5
649
  8
0
  6
CONTINUOUS
 62
     7
 10
200.4655268697
 20
108.2040456875
 30
0.0
  0
VERTEX
  5
64A
  8
0
  6
CONTINUOUS
 62
     7
 10
200.5435635058
 20
108.1260053261
 30
0.0
  0
SEQEND
  5
730
  8
0
  6
CONTINUOUS
 62
     7
  0
LINE
  5
D7
  8
0
  6
CONTINUOUS
 62
     7
 10
99.8435576169
 20
50.5260078057
 30
0.0
 11
99.4435627667
 21
50.5260078057
 31
0.0
  0
LINE
  5
D8
  8
0
  6
CONTINUOUS
 62
     7
 10
99.8435576169
 20
112.1260074719
 30
0.0
 11
110.3435595242
 21
112.1260074719
 31
0.0
  0
LINE
  5
D9
  8
0
  6
CONTINUOUS
 62
     7
 10
110.7435662953
 20
108.5260061368
 30
0.0
 11
200.1435634402
 21
108.5260061368
 31
0.0
  0
POLYLINE
  5
DA
  8
0
  6
CONTINUOUS
 62
     7
 66
     1
 10
0.0
 20
0.0
 30
0.0
  0
VERTEX
  5
64B
  8
0
  6
CONTINUOUS
 62
     7
 10
110.7435662953
 20
108.5260061368
 30
0.0
  0
VERTEX
  5
64C
  8
0
  6
CONTINUOUS
 62
     7
 10
110.7374866215
 20
108.5199324235
 30
0.0
  0
VERTEX
  5
64D
  8
0
  6
CONTINUOUS
 62
     7
 10
110.7194383351
 20
108.501884137
 30
0.0
  0
VERTEX
  5
64E
  8
0
  6
CONTINUOUS
 62
     7
 10
110.6899697987
 20
108.4724156006
 30
0.0
  0
VERTEX
  5
64F
  8
0
  6
CONTINUOUS
 62
     7
 10
110.6499750821
 20
108.4324268445
 30
0.0
  0
VERTEX
  5
650
  8
0
  6
CONTINUOUS
 62
     7
 10
110.6006820408
 20
108.3831218823
 30
0.0
  0
VERTEX
  5
651
  8
0
  6
CONTINUOUS
 62
     7
 10
110.5435688702
 20
108.3260087117
 30
0.0
  0
VERTEX
  5
652
  8
0
  6
CONTINUOUS
 62
     7
 10
110.4803760258
 20
108.2628158673
 30
0.0
  0
VERTEX
  5
653
  8
0
  6
CONTINUOUS
 62
     7
 10
110.4130227772
 20
108.1954685792
 30
0.0
  0
VERTEX
  5
654
  8
0
  6
CONTINUOUS
 62
     7
 10
110.3435595242
 20
108.1260053261
 30
0.0
  0
SEQEND
  5
72F
  8
0
  6
CONTINUOUS
 62
     7
  0
LINE
  5
DB
  8
0
  6
CONTINUOUS
 62
     7
 10
110.7435662953
 20
111.7260066613
 30
0.0
 11
110.7435662953
 21
108.5260061368
 31
0.0
  0
ARC
  5
DC
  8
0
  6
CONTINUOUS
 62
     7
 10
99.8435632435
 20
111.7260078057
 30
0.0
 40
0.4000000000000199
 50
90.0
 51
180.0
  0
ARC
  5
DD
  8
0
  6
CONTINUOUS
 62
     7
 10
110.3435632435
 20
111.7260078057
 30
0.0
 40
0.4000000000000199
 50
0.0
 51
90.0
  0
ARC
  5
DE
  8
0
  6
CONTINUOUS
 62
     7
 10
211.0435632435
 20
111.7260078057
 30
0.0
 40
0.4000000000000199
 50
0.0
 51
90.0
  0
LINE
  5
DF
  8
0
  6
CONTINUOUS
 62
     7
 10
200.5435635058
 20
112.1260074719
 30
0.0
 11
211.0435632245
 21
112.1260074719
 31
0.0
  0
LINE
  5
E0
  8
0
  6
CONTINUOUS
 62
     7
 10
99.8435576169
 20
50.5260078057
 30
0.0
 11
211.0435632245
 21
50.5260078057
 31
0.0
  0
ARC
  5
E1
  8
0
  6
CONTINUOUS
 62
     7
 10
200.5435632435
 20
111.7260078057
 30
0.0
 40
0.4000000000000199
 50
90.0
 51
180.0
  0
LINE
  5
E2
  8
0
  6
CONTINUOUS
 62
     7
 10
211.4435632435
 20
50.5260078057
 30
0.0
 11
211.0435632245
 21
50.5260078057
 31
0.0
  0
LINE
  5
E3
  8
0
  6
CONTINUOUS
 62
     7
 10
199.3435633091
 20
114.5260063752
 30
0.0
 11
198.2435633151
 21
114.5260063752
 31
0.0
  0
LINE
  5
E4
  8
0
  6
CONTINUOUS
 62
     7
 10
112.6435656754
 20
114.5260063752
 30
0.0
 11
111.5435619561
 21
114.5260063752
 31
0.0
  0
ARC
  5
E5
  8
0
  6
CONTINUOUS
 62
     7
 10
333.9435632435
 20
112.9260078057
 30
0.0
 40
0.3999999999999915
 50
270.0
 51
0.0
  0
ARC
  5
E6
  8
0
  6
CONTINUOUS
 62
     7
 10
312.5435632435
 20
112.9260078057
 30
0.0
 40
0.4000000000000341
 50
180.0
 51
270.0
  0
LINE
  5
E7
  8
0
  6
CONTINUOUS
 62
     7
 10
333.9435656277
 20
112.5260082825
 30
0.0
 11
312.5435669629
 21
112.5260082825
 31
0.0
  0
LINE
  5
E8
  8
0
  6
CONTINUOUS
 62
     7
 10
312.1435601918
 20
112.9260090931
 30
0.0
 11
312.1435601918
 21
195.5608932122
 31
0.0
  0
LINE
  5
E9
  8
0
  6
CONTINUOUS
 62
     7
 10
334.3435604779
 20
195.5608932122
 30
0.0
 11
334.3435604779
 21
112.9260090931
 31
0.0
  0
LINE
  5
EA
  8
0
  6
CONTINUOUS
 62
     7
 10
312.1435601918
 20
195.5608932122
 30
0.0
 11
312.1435601918
 21
199.3221489533
 31
0.0
  0
LINE
  5
EB
  8
0
  6
CONTINUOUS
 62
     7
 10
334.3435604779
 20
199.3221489533
 30
0.0
 11
334.3435604779
 21
195.5608932122
 31
0.0
  0
LINE
  5
EC
  8
0
  6
CONTINUOUS
 62
     7
 10
311.2435658185
 20
198.997685109
 30
0.0
 11
311.2435658185
 21
247.8311506852
 31
0.0
  0
ARC
  5
ED
  8
0
  6
CONTINUOUS
 62
     7
 10
311.5442720818
 20
197.8594417016
 30
0.0
 40
1.177294487957305
 50
85.1621430098
 51
104.7985593781
  0
LINE
  5
EE
  8
0
  6
CONTINUOUS
 62
     7
 10
335.2435667721
 20
247.8311506852
 30
0.0
 11
335.2435667721
 21
198.997685109
 31
0.0
  0
ARC
  5
EF
  8
0
  6
CONTINUOUS
 62
     7
 10
334.9428498834
 20
197.8593537257
 30
0.0
 40
1.177382259691685
 50
75.2020342195
 51
94.8375587467
  0
LINE
  5
F0
  8
0
  6
CONTINUOUS
 62
     7
 10
335.0435574261
 20
198.9110795601
 30
0.0
 11
335.0435574261
 21
199.0151135071
 31
0.0
  0
LINE
  5
F1
  8
0
  6
CONTINUOUS
 62
     7
 10
335.0435574261
 20
199.0151135071
 30
0.0
 11
334.3435604779
 21
199.0151135071
 31
0.0
  0
LINE
  5
F2
  8
0
  6
CONTINUOUS
 62
     7
 10
334.843560001
 20
199.0325419053
 30
0.0
 11
334.3435604779
 21
199.0325419053
 31
0.0
  0
LINE
  5
F3
  8
0
  6
CONTINUOUS
 62
     7
 10
335.2435667721
 20
198.9110795601
 30
0.0
 11
335.2435667721
 21
198.997685109
 31
0.0
  0
LINE
  5
F4
  8
0
  6
CONTINUOUS
 62
     7
 10
312.1435601918
 20
199.0325419053
 30
0.0
 11
311.6435606686
 21
199.0325419053
 31
0.0
  0
LINE
  5
F5
  8
0
  6
CONTINUOUS
 62
     7
 10
312.1435601918
 20
199.0151135071
 30
0.0
 11
311.4435632435
 21
199.0151135071
 31
0.0
  0
LINE
  5
F6
  8
0
  6
CONTINUOUS
 62
     7
 10
311.4435632435
 20
199.0151135071
 30
0.0
 11
311.4435632435
 21
198.9110795601
 31
0.0
  0
LINE
  5
F7
  8
0
  6
CONTINUOUS
 62
     7
 10
311.343564531
 20
198.6839262589
 30
0.0
 11
311.2435658185
 21
198.6839262589
 31
0.0
  0
LINE
  5
F8
  8
0
  6
CONTINUOUS
 62
     7
 10
311.2435658185
 20
198.958417569
 30
0.0
 11
311.2435658185
 21
198.997685109
 31
0.0
  0
ARC
  5
F9
  8
0
  6
CONTINUOUS
 62
     7
 10
88.5435632435
 20
112.9260078057
 30
0.0
 40
0.4000000000000057
 50
180.0
 51
270.0
  0
ARC
  5
FA
  8
0
  6
CONTINUOUS
 62
     7
 10
109.9435632435
 20
112.9260078057
 30
0.0
 40
0.4000000000000057
 50
270.0
 51
0.0
  0
LINE
  5
FB
  8
0
  6
CONTINUOUS
 62
     7
 10
109.943564674
 20
112.5260082825
 30
0.0
 11
88.5435660092
 21
112.5260082825
 31
0.0
  0
LINE
  5
FC
  8
0
  6
CONTINUOUS
 62
     7
 10
88.1435592381
 20
112.9260090931
 30
0.0
 11
88.1435592381
 21
195.5608932122
 31
0.0
  0
LINE
  5
FD
  8
0
  6
CONTINUOUS
 62
     7
 10
110.3435595242
 20
195.5608932122
 30
0.0
 11
110.3435595242
 21
112.9260090931
 31
0.0
  0
LINE
  5
FE
  8
0
  6
CONTINUOUS
 62
     7
 10
88.1435592381
 20
195.5608932122
 30
0.0
 11
88.1435592381
 21
199.3221489533
 31
0.0
  0
LINE
  5
FF
  8
0
  6
CONTINUOUS
 62
     7
 10
110.3435595242
 20
199.3221489533
 30
0.0
 11
110.3435595242
 21
195.5608932122
 31
0.0
  0
LINE
  5
100
  8
0
  6
CONTINUOUS
 62
     7
 10
87.2435648648
 20
198.997685109
 30
0.0
 11
87.2435648648
 21
247.8311506852
 31
0.0
  0
ARC
  5
101
  8
0
  6
CONTINUOUS
 62
     7
 10
87.544276808
 20
197.8593765228
 30
0.0
 40
1.177358955564231
 50
85.1626859411
 51
104.7980164469
  0
LINE
  5
102
  8
0
  6
CONTINUOUS
 62
     7
 10
111.2435658185
 20
247.8311506852
 30
0.0
 11
111.2435658185
 21
198.997685109
 31
0.0
  0
ARC
  5
103
  8
0
  6
CONTINUOUS
 62
     7
 10
110.9428489297
 20
197.8593537257
 30
0.0
 40
1.177382259691767
 50
75.2020342195
 51
94.8375587467
  0
LINE
  5
104
  8
0
  6
CONTINUOUS
 62
     7
 10
88.1435592381
 20
199.0151135071
 30
0.0
 11
87.4435622899
 21
199.0151135071
 31
0.0
  0
LINE
  5
105
  8
0
  6
CONTINUOUS
 62
     7
 10
87.4435622899
 20
199.0151135071
 30
0.0
 11
87.4435622899
 21
198.9110795601
 31
0.0
  0
LINE
  5
106
  8
0
  6
CONTINUOUS
 62
     7
 10
87.3435576169
 20
198.6839262589
 30
0.0
 11
87.2435648648
 21
198.6839262589
 31
0.0
  0
LINE
  5
107
  8
0
  6
CONTINUOUS
 62
     7
 10
87.2435648648
 20
198.958417569
 30
0.0
 11
87.2435648648
 21
198.997685109
 31
0.0
  0
LINE
  5
108
  8
0
  6
CONTINUOUS
 62
     7
 10
88.1435592381
 20
199.0325419053
 30
0.0
 11
87.6435597149
 21
199.0325419053
 31
0.0
  0
LINE
  5
109
  8
0
  6
CONTINUOUS
 62
     7
 10
111.0435683934
 20
198.9110795601
 30
0.0
 11
111.0435683934
 21
199.0151135071
 31
0.0
  0
LINE
  5
10A
  8
0
  6
CONTINUOUS
 62
     7
 10
111.0435683934
 20
199.0151135071
 30
0.0
 11
110.3435595242
 21
199.0151135071
 31
0.0
  0
LINE
  5
10B
  8
0
  6
CONTINUOUS
 62
     7
 10
110.8435590474
 20
199.0325419053
 30
0.0
 11
110.3435595242
 21
199.0325419053
 31
0.0
  0
LINE
  5
10C
  8
0
  6
CONTINUOUS
 62
     7
 10
111.2435658185
 20
198.9110795601
 30
0.0
 11
111.2435658185
 21
198.997685109
 31
0.0
  0
ARC
  5
10D
  8
0
  6
CONTINUOUS
 62
     7
 10
221.9435632435
 20
112.9260078057
 30
0.0
 40
0.3999999999999915
 50
270.0
 51
0.0
  0
ARC
  5
10E
  8
0
  6
CONTINUOUS
 62
     7
 10
200.5435632435
 20
112.9260078057
 30
0.0
 40
0.4000000000000057
 50
180.0
 51
270.0
  0
LINE
  5
10F
  8
0
  6
CONTINUOUS
 62
     7
 10
221.9435629157
 20
112.5260082825
 30
0.0
 11
200.5435635058
 21
112.5260082825
 31
0.0
  0
LINE
  5
110
  8
0
  6
CONTINUOUS
 62
     7
 10
222.3435629813
 20
195.5608932122
 30
0.0
 11
222.3435629813
 21
112.9260090931
 31
0.0
  0
LINE
  5
111
  8
0
  6
CONTINUOUS
 62
     7
 10
200.1435634402
 20
112.9260090931
 30
0.0
 11
200.1435634402
 21
195.5608932122
 31
0.0
  0
LINE
  5
112
  8
0
  6
CONTINUOUS
 62
     7
 10
222.3435629813
 20
199.3221489533
 30
0.0
 11
222.3435629813
 21
195.5608932122
 31
0.0
  0
LINE
  5
113
  8
0
  6
CONTINUOUS
 62
     7
 10
200.1435634402
 20
195.5608932122
 30
0.0
 11
200.1435634402
 21
199.3221489533
 31
0.0
  0
LINE
  5
114
  8
0
  6
CONTINUOUS
 62
     7
 10
222.8435632495
 20
199.0325419053
 30
0.0
 11
222.3435629813
 21
199.0325419053
 31
0.0
  0
LINE
  5
115
  8
0
  6
CONTINUOUS
 62
     7
 10
200.1435634402
 20
199.0325419053
 30
0.0
 11
199.643563172
 21
199.0325419053
 31
0.0
  0
LINE
  5
116
  8
0
  6
CONTINUOUS
 62
     7
 10
200.1435634402
 20
199.0151135071
 30
0.0
 11
199.4435635118
 21
199.0151135071
 31
0.0
  0
LINE
  5
117
  8
0
  6
CONTINUOUS
 62
     7
 10
199.4435635118
 20
199.0151135071
 30
0.0
 11
199.4435635118
 21
198.9110795601
 31
0.0
  0
LINE
  5
118
  8
0
  6
CONTINUOUS
 62
     7
 10
199.3435633091
 20
198.6839262589
 30
0.0
 11
199.2435631064
 21
198.6839262589
 31
0.0
  0
LINE
  5
119
  8
0
  6
CONTINUOUS
 62
     7
 10
199.2435631064
 20
198.958417569
 30
0.0
 11
199.2435631064
 21
198.997685109
 31
0.0
  0
ARC
  5
11A
  8
0
  6
CONTINUOUS
 62
     7
 10
199.5442768919
 20
197.8593702381
 30
0.0
 40
1.177365502290193
 50
85.1625481608
 51
104.7980250076
  0
LINE
  5
11B
  8
0
  6
CONTINUOUS
 62
     7
 10
223.2435633151
 20
247.8311506852
 30
0.0
 11
223.2435633151
 21
198.997685109
 31
0.0
  0
ARC
  5
11C
  8
0
  6
CONTINUOUS
 62
     7
 10
222.9428495296
 20
197.8593702381
 30
0.0
 40
1.177365502290373
 50
75.2019749924
 51
94.8374518392
  0
LINE
  5
11D
  8
0
  6
CONTINUOUS
 62
     7
 10
199.2435631064
 20
198.997685109
 30
0.0
 11
199.2435631064
 21
247.8311506852
 31
0.0
  0
LINE
  5
11E
  8
0
  6
CONTINUOUS
 62
     7
 10
223.0435629097
 20
198.9110795601
 30
0.0
 11
223.0435629097
 21
199.0151135071
 31
0.0
  0
LINE
  5
11F
  8
0
  6
CONTINUOUS
 62
     7
 10
223.0435629097
 20
199.0151135071
 30
0.0
 11
222.3435629813
 21
199.0151135071
 31
0.0
  0
LINE
  5
120
  8
0
  6
CONTINUOUS
 62
     7
 10
223.2435633151
 20
198.9110795601
 30
0.0
 11
223.2435633151
 21
198.997685109
 31
0.0
  0
ARC
  5
121
  8
0
  6
CONTINUOUS
 62
     7
 10
435.4435632435
 20
112.9260078057
 30
0.0
 40
0.3999999999999773
 50
270.0
 51
0.0
  0
ARC
  5
122
  8
0
  6
CONTINUOUS
 62
     7
 10
424.5435632435
 20
112.9260078057
 30
0.0
 40
0.3999999999999773
 50
180.0
 51
270.0
  0
LINE
  5
123
  8
0
  6
CONTINUOUS
 62
     7
 10
435.4435641972
 20
112.5260082825
 30
0.0
 11
424.5435674397
 21
112.5260082825
 31
0.0
  0
LINE
  5
124
  8
0
  6
CONTINUOUS
 62
     7
 10
435.8435590474
 20
195.5608932122
 30
0.0
 11
435.8435590474
 21
112.9260090931
 31
0.0
  0
LINE
  5
125
  8
0
  6
CONTINUOUS
 62
     7
 10
424.1435725895
 20
112.9260090931
 30
0.0
 11
424.1435725895
 21
195.5608932122
 31
0.0
  0
LINE
  5
126
  8
0
  6
CONTINUOUS
 62
     7
 10
435.8435590474
 20
199.3221489533
 30
0.0
 11
435.8435590474
 21
195.5608932122
 31
0.0
  0
LINE
  5
127
  8
0
  6
CONTINUOUS
 62
     7
 10
424.1435725895
 20
195.5608932122
 30
0.0
 11
424.1435725895
 21
199.3221489533
 31
0.0
  0
ARC
  5
128
  8
0
  6
CONTINUOUS
 62
     7
 10
-12.5564367565
 20
112.9260078057
 30
0.0
 40
0.400000000000011
 50
180.0
 51
270.0
  0
ARC
  5
129
  8
0
  6
CONTINUOUS
 62
     7
 10
-1.6564367565
 20
112.9260078057
 30
0.0
 40
0.4000000000000115
 50
270.0
 51
0.0
  0
LINE
  5
12A
  8
0
  6
CONTINUOUS
 62
     7
 10
-1.6564409526
 20
112.5260082825
 30
0.0
 11
-12.5564377101
 21
112.5260082825
 31
0.0
  0
LINE
  5
12B
  8
0
  6
CONTINUOUS
 62
     7
 10
-1.2564461025
 20
195.5608932122
 30
0.0
 11
-1.2564461025
 21
112.9260090931
 31
0.0
  0
LINE
  5
12C
  8
0
  6
CONTINUOUS
 62
     7
 10
-12.9564325603
 20
112.9260090931
 30
0.0
 11
-12.9564325603
 21
195.5608932122
 31
0.0
  0
LINE
  5
12D
  8
0
  6
CONTINUOUS
 62
     7
 10
-12.9564325603
 20
195.5608932122
 30
0.0
 11
-12.9564325603
 21
199.3221489533
 31
0.0
  0
LINE
  5
12E
  8
0
  6
CONTINUOUS
 62
     7
 10
-1.2564461025
 20
199.3221489533
 30
0.0
 11
-1.2564461025
 21
195.5608932122
 31
0.0
  0
LINE
  5
12F
  8
0
  6
CONTINUOUS
 62
     7
 10
224.643563172
 20
113.3408454999
 30
0.0
 11
224.643563172
 21
195.2709642991
 31
0.0
  0
LINE
  5
130
  8
0
  6
CONTINUOUS
 62
     7
 10
310.2435608117
 20
195.2709642991
 30
0.0
 11
310.2435608117
 21
113.3408454999
 31
0.0
  0
LINE
  5
131
  8
0
  6
CONTINUOUS
 62
     7
 10
224.643563172
 20
112.7133218392
 30
0.0
 11
224.643563172
 21
113.3408454999
 31
0.0
  0
LINE
  5
132
  8
0
  6
CONTINUOUS
 62
     7
 10
310.2435608117
 20
113.3408454999
 30
0.0
 11
310.2435608117
 21
112.7133218392
 31
0.0
  0
LINE
  5
133
  8
0
  6
CONTINUOUS
 62
     7
 10
311.2435658185
 20
127.9351381405
 30
0.0
 11
311.2435658185
 21
127.926006709
 31
0.0
  0
LINE
  5
134
  8
0
  6
CONTINUOUS
 62
     7
 10
311.2435658185
 20
132.726010476
 30
0.0
 11
311.2435658185
 21
127.9351381405
 31
0.0
  0
LINE
  5
135
  8
0
  6
CONTINUOUS
 62
     7
 10
223.6435633806
 20
127.9351381405
 30
0.0
 11
223.6435633806
 21
127.926006709
 31
0.0
  0
LINE
  5
136
  8
0
  6
CONTINUOUS
 62
     7
 10
223.6435633806
 20
132.726010476
 30
0.0
 11
223.6435633806
 21
127.9351381405
 31
0.0
  0
LINE
  5
137
  8
0
  6
CONTINUOUS
 62
     7
 10
224.643563172
 20
195.2709642991
 30
0.0
 11
224.643563172
 21
198.9309398278
 31
0.0
  0
LINE
  5
138
  8
0
  6
CONTINUOUS
 62
     7
 10
310.2435608117
 20
198.9309398278
 30
0.0
 11
310.2435608117
 21
195.2709642991
 31
0.0
  0
LINE
  5
139
  8
0
  6
CONTINUOUS
 62
     7
 10
224.643563172
 20
126.2267080887
 30
0.0
 11
224.5435629694
 21
126.2267080887
 31
0.0
  0
LINE
  5
13A
  8
0
  6
CONTINUOUS
 62
     7
 10
310.3435654847
 20
126.2267080887
 30
0.0
 11
310.2435608117
 21
126.2267080887
 31
0.0
  0
LINE
  5
13B
  8
0
  6
CONTINUOUS
 62
     7
 10
310.3435654847
 20
126.2267080887
 30
0.0
 11
310.3435654847
 21
125.8606521233
 31
0.0
  0
LINE
  5
13C
  8
0
  6
CONTINUOUS
 62
     7
 10
224.5435629694
 20
126.2267080887
 30
0.0
 11
224.5435629694
 21
125.8606521233
 31
0.0
  0
LINE
  5
13D
  8
0
  6
CONTINUOUS
 62
     7
 10
225.0008855669
 20
199.3473974808
 30
0.0
 11
224.5435629694
 21
199.3473974808
 31
0.0
  0
LINE
  5
13E
  8
0
  6
CONTINUOUS
 62
     7
 10
224.5435629694
 20
199.3473974808
 30
0.0
 11
224.5435629694
 21
132.726010476
 31
0.0
  0
LINE
  5
13F
  8
0
  6
CONTINUOUS
 62
     7
 10
224.5435629694
 20
127.926006709
 30
0.0
 11
224.5435629694
 21
126.2267080887
 31
0.0
  0
LINE
  5
140
  8
0
  6
CONTINUOUS
 62
     7
 10
310.3435654847
 20
199.3473974808
 30
0.0
 11
309.8862428872
 21
199.3473974808
 31
0.0
  0
LINE
  5
141
  8
0
  6
CONTINUOUS
 62
     7
 10
310.3435654847
 20
199.3473974808
 30
0.0
 11
310.3435654847
 21
132.726010476
 31
0.0
  0
LINE
  5
142
  8
0
  6
CONTINUOUS
 62
     7
 10
310.3435654847
 20
127.926006709
 30
0.0
 11
310.3435654847
 21
126.2267080887
 31
0.0
  0
LINE
  5
143
  8
0
  6
CONTINUOUS
 62
     7
 10
224.5435629694
 20
125.8606521233
 30
0.0
 11
224.5526958911
 21
125.8515206917
 31
0.0
  0
LINE
  5
144
  8
0
  6
CONTINUOUS
 62
     7
 10
310.3435654847
 20
125.8606521233
 30
0.0
 11
310.3344280926
 21
125.8515206917
 31
0.0
  0
LINE
  5
145
  8
0
  6
CONTINUOUS
 62
     7
 10
224.643563172
 20
198.9309398278
 30
0.0
 11
224.643563172
 21
198.9496795281
 31
0.0
  0
LINE
  5
146
  8
0
  6
CONTINUOUS
 62
     7
 10
310.2435608117
 20
198.9496795281
 30
0.0
 11
310.2435608117
 21
198.9309398278
 31
0.0
  0
LINE
  5
147
  8
0
  6
CONTINUOUS
 62
     7
 10
338.9435608594
 20
140.5260054215
 30
0.0
 11
419.9435670582
 21
140.5260054215
 31
0.0
  0
ARC
  5
148
  8
0
  6
CONTINUOUS
 62
     7
 10
419.9435728877
 20
138.1260183081
 30
0.0
 40
2.399987113382596
 50
359.9997185354
 51
90.0001391688
  0
ARC
  5
149
  8
0
  6
CONTINUOUS
 62
     7
 10
338.9435520036
 20
138.1260213344
 30
0.0
 40
2.399984087096388
 50
89.9997885829
 51
180.0003537129
  0
LINE
  5
14A
  8
0
  6
CONTINUOUS
 62
     7
 10
422.243567249
 20
133.9260069474
 30
0.0
 11
422.243567249
 21
133.8260082348
 31
0.0
  0
LINE
  5
14B
  8
0
  6
CONTINUOUS
 62
     7
 10
337.0435674397
 20
133.9260069474
 30
0.0
 11
336.5435679165
 21
133.9260069474
 31
0.0
  0
LINE
  5
14C
  8
0
  6
CONTINUOUS
 62
     7
 10
422.343560001
 20
138.1260065182
 30
0.0
 11
422.343560001
 21
133.9260069474
 31
0.0
  0
LINE
  5
14D
  8
0
  6
CONTINUOUS
 62
     7
 10
422.343560001
 20
133.9260069474
 30
0.0
 11
421.8435723988
 21
133.9260069474
 31
0.0
  0
LINE
  5
14E
  8
0
  6
CONTINUOUS
 62
     7
 10
336.5435679165
 20
138.1260065182
 30
0.0
 11
336.5435679165
 21
133.9260069474
 31
0.0
  0
LINE
  5
14F
  8
0
  6
CONTINUOUS
 62
     7
 10
336.6435606686
 20
133.8260082348
 30
0.0
 11
336.6435606686
 21
133.9260069474
 31
0.0
  0
LINE
  5
150
  8
0
  6
CONTINUOUS
 62
     7
 10
336.6435606686
 20
126.3260094269
 30
0.0
 11
336.6435606686
 21
133.8260082348
 31
0.0
  0
LINE
  5
151
  8
0
  6
CONTINUOUS
 62
     7
 10
422.243567249
 20
133.8260082348
 30
0.0
 11
422.243567249
 21
126.3260094269
 31
0.0
  0
LINE
  5
152
  8
0
  6
CONTINUOUS
 62
     7
 10
421.8435723988
 20
125.9260086163
 30
0.0
 11
337.0435674397
 21
125.9260086163
 31
0.0
  0
ARC
  5
153
  8
0
  6
CONTINUOUS
 62
     7
 10
337.0435632435
 20
126.3260078057
 30
0.0
 40
0.4000000000000199
 50
180.0
 51
270.0
  0
ARC
  5
154
  8
0
  6
CONTINUOUS
 62
     7
 10
421.8435632435
 20
126.3260078057
 30
0.0
 40
0.4000000000000341
 50
270.0
 51
0.0
  0
LINE
  5
155
  8
0
  6
CONTINUOUS
 62
     7
 10
423.2435662953
 20
132.726010476
 30
0.0
 11
423.2435662953
 21
127.926006709
 31
0.0
  0
LINE
  5
156
  8
0
  6
CONTINUOUS
 62
     7
 10
335.6435616223
 20
132.726010476
 30
0.0
 11
335.6435616223
 21
127.926006709
 31
0.0
  0
LINE
  5
157
  8
0
  6
CONTINUOUS
 62
     7
 10
112.6435656754
 20
113.3408454999
 30
0.0
 11
112.6435656754
 21
195.2709642991
 31
0.0
  0
LINE
  5
158
  8
0
  6
CONTINUOUS
 62
     7
 10
198.2435633151
 20
195.2709642991
 30
0.0
 11
198.2435633151
 21
113.3408454999
 31
0.0
  0
LINE
  5
159
  8
0
  6
CONTINUOUS
 62
     7
 10
112.6435656754
 20
112.7133218392
 30
0.0
 11
112.6435656754
 21
113.3408454999
 31
0.0
  0
LINE
  5
15A
  8
0
  6
CONTINUOUS
 62
     7
 10
198.2435633151
 20
113.3408454999
 30
0.0
 11
198.2435633151
 21
112.7133218392
 31
0.0
  0
LINE
  5
15B
  8
0
  6
CONTINUOUS
 62
     7
 10
199.2435631064
 20
127.9351381405
 30
0.0
 11
199.2435631064
 21
127.926006709
 31
0.0
  0
LINE
  5
15C
  8
0
  6
CONTINUOUS
 62
     7
 10
199.2435631064
 20
132.726010476
 30
0.0
 11
199.2435631064
 21
127.9351381405
 31
0.0
  0
LINE
  5
15D
  8
0
  6
CONTINUOUS
 62
     7
 10
111.6435606686
 20
127.9351381405
 30
0.0
 11
111.6435606686
 21
127.926006709
 31
0.0
  0
LINE
  5
15E
  8
0
  6
CONTINUOUS
 62
     7
 10
111.6435606686
 20
132.726010476
 30
0.0
 11
111.6435606686
 21
127.9351381405
 31
0.0
  0
LINE
  5
15F
  8
0
  6
CONTINUOUS
 62
     7
 10
198.2435633151
 20
198.9309398278
 30
0.0
 11
198.2435633151
 21
195.2709642991
 31
0.0
  0
LINE
  5
160
  8
0
  6
CONTINUOUS
 62
     7
 10
112.6435656754
 20
195.2709642991
 30
0.0
 11
112.6435656754
 21
198.9309398278
 31
0.0
  0
LINE
  5
161
  8
0
  6
CONTINUOUS
 62
     7
 10
112.6435656754
 20
126.2267080887
 30
0.0
 11
112.5435610024
 21
126.2267080887
 31
0.0
  0
LINE
  5
162
  8
0
  6
CONTINUOUS
 62
     7
 10
198.3435635177
 20
126.2267080887
 30
0.0
 11
198.2435633151
 21
126.2267080887
 31
0.0
  0
LINE
  5
163
  8
0
  6
CONTINUOUS
 62
     7
 10
198.3435635177
 20
126.2267080887
 30
0.0
 11
198.3435635177
 21
125.8606521233
 31
0.0
  0
LINE
  5
164
  8
0
  6
CONTINUOUS
 62
     7
 10
112.5435610024
 20
126.2267080887
 30
0.0
 11
112.5435610024
 21
125.8606521233
 31
0.0
  0
LINE
  5
165
  8
0
  6
CONTINUOUS
 62
     7
 10
198.3435635177
 20
199.3473974808
 30
0.0
 11
197.8862409202
 21
199.3473974808
 31
0.0
  0
LINE
  5
166
  8
0
  6
CONTINUOUS
 62
     7
 10
198.3435635177
 20
199.3473974808
 30
0.0
 11
198.3435635177
 21
132.726010476
 31
0.0
  0
LINE
  5
167
  8
0
  6
CONTINUOUS
 62
     7
 10
198.3435635177
 20
127.926006709
 30
0.0
 11
198.3435635177
 21
126.2267080887
 31
0.0
  0
LINE
  5
168
  8
0
  6
CONTINUOUS
 62
     7
 10
113.0008835999
 20
199.3473974808
 30
0.0
 11
112.5435610024
 21
199.3473974808
 31
0.0
  0
LINE
  5
169
  8
0
  6
CONTINUOUS
 62
     7
 10
112.5435610024
 20
199.3473974808
 30
0.0
 11
112.5435610024
 21
132.726010476
 31
0.0
  0
LINE
  5
16A
  8
0
  6
CONTINUOUS
 62
     7
 10
112.5435610024
 20
127.926006709
 30
0.0
 11
112.5435610024
 21
126.2267080887
 31
0.0
  0
LINE
  5
16B
  8
0
  6
CONTINUOUS
 62
     7
 10
112.5435610024
 20
125.8606521233
 30
0.0
 11
112.5526983944
 21
125.8515206917
 31
0.0
  0
LINE
  5
16C
  8
0
  6
CONTINUOUS
 62
     7
 10
198.3435635177
 20
125.8606521233
 30
0.0
 11
198.334430596
 21
125.8515206917
 31
0.0
  0
LINE
  5
16D
  8
0
  6
CONTINUOUS
 62
     7
 10
198.2435633151
 20
198.9496795281
 30
0.0
 11
198.2435633151
 21
198.9309398278
 31
0.0
  0
LINE
  5
16E
  8
0
  6
CONTINUOUS
 62
     7
 10
112.6435656754
 20
198.9309398278
 30
0.0
 11
112.6435656754
 21
198.9496795281
 31
0.0
  0
LINE
  5
16F
  8
0
  6
CONTINUOUS
 62
     7
 10
0.6435592381
 20
113.3408454999
 30
0.0
 11
0.6435592381
 21
195.2709642991
 31
0.0
  0
LINE
  5
170
  8
0
  6
CONTINUOUS
 62
     7
 10
86.2435658185
 20
195.2709642991
 30
0.0
 11
86.2435658185
 21
113.3408454999
 31
0.0
  0
LINE
  5
171
  8
0
  6
CONTINUOUS
 62
     7
 10
0.6435592381
 20
112.7133218392
 30
0.0
 11
0.6435592381
 21
113.3408454999
 31
0.0
  0
LINE
  5
172
  8
0
  6
CONTINUOUS
 62
     7
 10
86.2435658185
 20
113.3408454999
 30
0.0
 11
86.2435658185
 21
112.7133218392
 31
0.0
  0
LINE
  5
173
  8
0
  6
CONTINUOUS
 62
     7
 10
-0.3564398082
 20
127.9351381405
 30
0.0
 11
-0.3564398082
 21
127.926006709
 31
0.0
  0
LINE
  5
174
  8
0
  6
CONTINUOUS
 62
     7
 10
-0.3564398082
 20
132.726010476
 30
0.0
 11
-0.3564398082
 21
127.9351381405
 31
0.0
  0
LINE
  5
175
  8
0
  6
CONTINUOUS
 62
     7
 10
87.2435648648
 20
127.9351381405
 30
0.0
 11
87.2435648648
 21
127.926006709
 31
0.0
  0
LINE
  5
176
  8
0
  6
CONTINUOUS
 62
     7
 10
87.2435648648
 20
132.726010476
 30
0.0
 11
87.2435648648
 21
127.9351381405
 31
0.0
  0
LINE
  5
177
  8
0
  6
CONTINUOUS
 62
     7
 10
0.6435592381
 20
195.2709642991
 30
0.0
 11
0.6435592381
 21
198.9309398278
 31
0.0
  0
LINE
  5
178
  8
0
  6
CONTINUOUS
 62
     7
 10
86.2435658185
 20
198.9309398278
 30
0.0
 11
86.2435658185
 21
195.2709642991
 31
0.0
  0
LINE
  5
179
  8
0
  6
CONTINUOUS
 62
     7
 10
0.6435592381
 20
126.2267080887
 30
0.0
 11
0.543566486
 21
126.2267080887
 31
0.0
  0
LINE
  5
17A
  8
0
  6
CONTINUOUS
 62
     7
 10
86.3435585705
 20
126.2267080887
 30
0.0
 11
86.2435658185
 21
126.2267080887
 31
0.0
  0
LINE
  5
17B
  8
0
  6
CONTINUOUS
 62
     7
 10
86.3435585705
 20
126.2267080887
 30
0.0
 11
86.3435585705
 21
125.8606521233
 31
0.0
  0
LINE
  5
17C
  8
0
  6
CONTINUOUS
 62
     7
 10
0.543566486
 20
126.2267080887
 30
0.0
 11
0.543566486
 21
125.8606521233
 31
0.0
  0
LINE
  5
17D
  8
0
  6
CONTINUOUS
 62
     7
 10
0.543566486
 20
199.3473974808
 30
0.0
 11
0.543566486
 21
132.726010476
 31
0.0
  0
LINE
  5
17E
  8
0
  6
CONTINUOUS
 62
     7
 10
0.543566486
 20
127.926006709
 30
0.0
 11
0.543566486
 21
126.2267080887
 31
0.0
  0
LINE
  5
17F
  8
0
  6
CONTINUOUS
 62
     7
 10
1.0008771626
 20
199.3473974808
 30
0.0
 11
0.543566486
 21
199.3473974808
 31
0.0
  0
LINE
  5
180
  8
0
  6
CONTINUOUS
 62
     7
 10
86.3435585705
 20
199.3473974808
 30
0.0
 11
85.886235973
 21
199.3473974808
 31
0.0
  0
LINE
  5
181
  8
0
  6
CONTINUOUS
 62
     7
 10
86.3435585705
 20
199.3473974808
 30
0.0
 11
86.3435585705
 21
132.726010476
 31
0.0
  0
LINE
  5
182
  8
0
  6
CONTINUOUS
 62
     7
 10
86.3435585705
 20
127.926006709
 30
0.0
 11
86.3435585705
 21
126.2267080887
 31
0.0
  0
LINE
  5
183
  8
0
  6
CONTINUOUS
 62
     7
 10
0.543566486
 20
125.8606521233
 30
0.0
 11
0.5526979176
 21
125.8515206917
 31
0.0
  0
LINE
  5
184
  8
0
  6
CONTINUOUS
 62
     7
 10
86.3435585705
 20
125.8606521233
 30
0.0
 11
86.334427139
 21
125.8515206917
 31
0.0
  0
LINE
  5
185
  8
0
  6
CONTINUOUS
 62
     7
 10
86.2435658185
 20
198.9496795281
 30
0.0
 11
86.2435658185
 21
198.9309398278
 31
0.0
  0
LINE
  5
186
  8
0
  6
CONTINUOUS
 62
     7
 10
0.6435592381
 20
198.9309398278
 30
0.0
 11
0.6435592381
 21
198.9496795281
 31
0.0
  0
LINE
  5
187
  8
0
  6
CONTINUOUS
 62
     7
 10
424.1435725895
 20
113.1260065182
 30
0.0
 11
423.3435590474
 21
113.1260065182
 31
0.0
  0
LINE
  5
188
  8
0
  6
CONTINUOUS
 62
     7
 10
423.3435590474
 20
113.1260065182
 30
0.0
 11
423.3435590474
 21
113.9957336529
 31
0.0
  0
LINE
  5
189
  8
0
  6
CONTINUOUS
 62
     7
 10
335.5435688702
 20
113.9957336529
 30
0.0
 11
335.5435688702
 21
113.1260065182
 31
0.0
  0
LINE
  5
18A
  8
0
  6
CONTINUOUS
 62
     7
 10
335.5435688702
 20
113.1260065182
 30
0.0
 11
334.743567249
 21
113.1260065182
 31
0.0
  0
LINE
  5
18B
  8
0
  6
CONTINUOUS
 62
     7
 10
334.743567249
 20
113.1260065182
 30
0.0
 11
334.743567249
 21
113.9957336529
 31
0.0
  0
LINE
  5
18C
  8
0
  6
CONTINUOUS
 62
     7
 10
423.3435590474
 20
194.9515668496
 30
0.0
 11
423.3435590474
 21
113.9957336529
 31
0.0
  0
LINE
  5
18D
  8
0
  6
CONTINUOUS
 62
     7
 10
335.5435688702
 20
113.9957336529
 30
0.0
 11
335.5435688702
 21
194.9515668496
 31
0.0
  0
LINE
  5
18E
  8
0
  6
CONTINUOUS
 62
     7
 10
334.743567249
 20
113.9957336529
 30
0.0
 11
334.743567249
 21
194.9515668496
 31
0.0
  0
LINE
  5
18F
  8
0
  6
CONTINUOUS
 62
     7
 10
335.5435688702
 20
195.6068841561
 30
0.0
 11
335.5435688702
 21
194.9515668496
 31
0.0
  0
LINE
  5
190
  8
0
  6
CONTINUOUS
 62
     7
 10
334.743567249
 20
194.9515668496
 30
0.0
 11
334.743567249
 21
195.6068841561
 31
0.0
  0
LINE
  5
191
  8
0
  6
CONTINUOUS
 62
     7
 10
423.3435590474
 20
194.9515668496
 30
0.0
 11
423.3435590474
 21
195.6068841561
 31
0.0
  0
LINE
  5
192
  8
0
  6
CONTINUOUS
 62
     7
 10
335.5435688702
 20
195.6068841561
 30
0.0
 11
335.5435688702
 21
198.8361326798
 31
0.0
  0
LINE
  5
193
  8
0
  6
CONTINUOUS
 62
     7
 10
334.743567249
 20
195.6068841561
 30
0.0
 11
334.743567249
 21
198.8361326798
 31
0.0
  0
LINE
  5
194
  8
0
  6
CONTINUOUS
 62
     7
 10
423.3435590474
 20
198.8361326798
 30
0.0
 11
423.3435590474
 21
195.6068841561
 31
0.0
  0
LINE
  5
195
  8
0
  6
CONTINUOUS
 62
     7
 10
330.5435617177
 20
112.5260082825
 30
0.0
 11
330.5435617177
 21
112.1260074719
 31
0.0
  0
LINE
  5
196
  8
0
  6
CONTINUOUS
 62
     7
 10
334.743567249
 20
116.1260096177
 30
0.0
 11
334.3435604779
 21
116.1260096177
 31
0.0
  0
LINE
  5
197
  8
0
  6
CONTINUOUS
 62
     7
 10
335.5435688702
 20
113.1260065182
 30
0.0
 11
335.5435688702
 21
108.5260061368
 31
0.0
  0
LINE
  5
198
  8
0
  6
CONTINUOUS
 62
     7
 10
428.343554279
 20
112.5260082825
 30
0.0
 11
428.343554279
 21
112.1260074719
 31
0.0
  0
LINE
  5
199
  8
0
  6
CONTINUOUS
 62
     7
 10
423.3435590474
 20
113.1260065182
 30
0.0
 11
423.3435590474
 21
108.5260061368
 31
0.0
  0
LINE
  5
19A
  8
0
  6
CONTINUOUS
 62
     7
 10
423.3435590474
 20
198.8361326798
 30
0.0
 11
423.3435590474
 21
198.9110795601
 31
0.0
  0
LINE
  5
19B
  8
0
  6
CONTINUOUS
 62
     7
 10
335.5435688702
 20
198.9110795601
 30
0.0
 11
335.5435688702
 21
198.8361326798
 31
0.0
  0
LINE
  5
19C
  8
0
  6
CONTINUOUS
 62
     7
 10
334.743567249
 20
198.8361326798
 30
0.0
 11
334.743567249
 21
198.9110795601
 31
0.0
  0
POLYLINE
  5
19D
  8
0
  6
CONTINUOUS
 62
     7
 66
     1
 10
0.0
 20
0.0
 30
0.0
  0
VERTEX
  5
655
  8
0
  6
CONTINUOUS
 62
     7
 10
421.2435682026
 20
246.2727634057
 30
0.0
  0
VERTEX
  5
656
  8
0
  6
CONTINUOUS
 62
     7
 10
421.590848705
 20
246.6160861596
 30
0.0
  0
VERTEX
  5
657
  8
0
  6
CONTINUOUS
 62
     7
 10
421.9276149479
 20
246.9436852082
 30
0.0
  0
VERTEX
  5
658
  8
0
  6
CONTINUOUS
 62
     7
 10
422.243567249
 20
247.2455946549
 30
0.0
  0
VERTEX
  5
659
  8
0
  6
CONTINUOUS
 62
     7
 10
422.529145023
 20
247.5126592263
 30
0.0
  0
VERTEX
  5
65A
  8
0
  6
CONTINUOUS
 62
     7
 10
422.7756459919
 20
247.7367488488
 30
0.0
  0
VERTEX
  5
65B
  8
0
  6
CONTINUOUS
 62
     7
 10
422.9756076542
 20
247.9110685929
 30
0.0
  0
VERTEX
  5
65C
  8
0
  6
CONTINUOUS
 62
     7
 10
423.1229503361
 20
248.0303017243
 30
0.0
  0
VERTEX
  5
65D
  8
0
  6
CONTINUOUS
 62
     7
 10
423.2131679265
 20
248.0908362015
 30
0.0
  0
VERTEX
  5
65E
  8
0
  6
CONTINUOUS
 62
     7
 10
423.2435662953
 20
248.0908362015
 30
0.0
  0
SEQEND
  5
72E
  8
0
  6
CONTINUOUS
 62
     7
  0
LINE
  5
19E
  8
0
  6
CONTINUOUS
 62
     7
 10
423.2435662953
 20
248.0908362015
 30
0.0
 11
423.2435662953
 21
135.5208365067
 31
0.0
  0
ARC
  5
19F
  8
0
  6
CONTINUOUS
 62
     7
 10
417.110542485
 20
131.1340321331
 30
0.0
 40
7.540426623816034
 50
35.5752284857
 51
46.0528233575
  0
LINE
  5
1A0
  8
0
  6
CONTINUOUS
 62
     7
 10
335.6435616223
 20
135.5208365067
 30
0.0
 11
335.6435616223
 21
248.0908362015
 31
0.0
  0
POLYLINE
  5
1A1
  8
0
  6
CONTINUOUS
 62
     7
 66
     1
 10
0.0
 20
0.0
 30
0.0
  0
VERTEX
  5
65F
  8
0
  6
CONTINUOUS
 62
     7
 10
335.6435616223
 20
248.0908362015
 30
0.0
  0
VERTEX
  5
660
  8
0
  6
CONTINUOUS
 62
     7
 10
335.6739480702
 20
248.0908362015
 30
0.0
  0
VERTEX
  5
661
  8
0
  6
CONTINUOUS
 62
     7
 10
335.7641775815
 20
248.0303017243
 30
0.0
  0
VERTEX
  5
662
  8
0
  6
CONTINUOUS
 62
     7
 10
335.9115083424
 20
247.9110685929
 30
0.0
  0
VERTEX
  5
663
  8
0
  6
CONTINUOUS
 62
     7
 10
336.1114700047
 20
247.7367488488
 30
0.0
  0
VERTEX
  5
664
  8
0
  6
CONTINUOUS
 62
     7
 10
336.3579828946
 20
247.5126592263
 30
0.0
  0
VERTEX
  5
665
  8
0
  6
CONTINUOUS
 62
     7
 10
336.6435606686
 20
247.2455946549
 30
0.0
  0
VERTEX
  5
666
  8
0
  6
CONTINUOUS
 62
     7
 10
336.9595248906
 20
246.9436852082
 30
0.0
  0
VERTEX
  5
667
  8
0
  6
CONTINUOUS
 62
     7
 10
337.2962672917
 20
246.6160861596
 30
0.0
  0
VERTEX
  5
668
  8
0
  6
CONTINUOUS
 62
     7
 10
337.6435597149
 20
246.2727634057
 30
0.0
  0
SEQEND
  5
72D
  8
0
  6
CONTINUOUS
 62
     7
  0
ARC
  5
1A2
  8
0
  6
CONTINUOUS
 62
     7
 10
341.7755609036
 20
131.1349169206
 30
0.0
 40
7.539078577783036
 50
133.9462372847
 51
144.425710872
  0
LINE
  5
1A3
  8
0
  6
CONTINUOUS
 62
     7
 10
335.6435616223
 20
135.1199177846
 30
0.0
 11
336.5435679165
 21
135.1199177846
 31
0.0
  0
LINE
  5
1A4
  8
0
  6
CONTINUOUS
 62
     7
 10
422.343560001
 20
135.1199177846
 30
0.0
 11
423.2435662953
 21
135.1199177846
 31
0.0
  0
LINE
  5
1A5
  8
0
  6
CONTINUOUS
 62
     7
 10
423.2435662953
 20
135.5208365067
 30
0.0
 11
423.2435662953
 21
135.1199177846
 31
0.0
  0
LINE
  5
1A6
  8
0
  6
CONTINUOUS
 62
     7
 10
335.6435616223
 20
135.5208365067
 30
0.0
 11
335.6435616223
 21
135.1199177846
 31
0.0
  0
LINE
  5
1A7
  8
0
  6
CONTINUOUS
 62
     7
 10
335.5435688702
 20
247.7895347222
 30
0.0
 11
335.5435688702
 21
198.9110795601
 31
0.0
  0
LINE
  5
1A8
  8
0
  6
CONTINUOUS
 62
     7
 10
423.3435590474
 20
247.7895347222
 30
0.0
 11
423.2435662953
 21
247.7895347222
 31
0.0
  0
LINE
  5
1A9
  8
0
  6
CONTINUOUS
 62
     7
 10
335.6435616223
 20
247.7895347222
 30
0.0
 11
335.5435688702
 21
247.7895347222
 31
0.0
  0
LINE
  5
1AA
  8
0
  6
CONTINUOUS
 62
     7
 10
423.3435590474
 20
247.7895347222
 30
0.0
 11
423.3435590474
 21
198.9110795601
 31
0.0
  0
LINE
  5
1AB
  8
0
  6
CONTINUOUS
 62
     7
 10
336.6435606686
 20
133.5260061368
 30
0.0
 11
335.5435688702
 21
133.5260061368
 31
0.0
  0
LINE
  5
1AC
  8
0
  6
CONTINUOUS
 62
     7
 10
423.3435590474
 20
133.5260061368
 30
0.0
 11
422.243567249
 21
133.5260061368
 31
0.0
  0
LINE
  5
1AD
  8
0
  6
CONTINUOUS
 62
     7
 10
334.3435604779
 20
195.126005803
 30
0.0
 11
334.743567249
 21
195.126005803
 31
0.0
  0
LINE
  5
1AE
  8
0
  6
CONTINUOUS
 62
     7
 10
325.443561813
 20
112.1260074719
 30
0.0
 11
325.443561813
 21
112.5260082825
 31
0.0
  0
LINE
  5
1AF
  8
0
  6
CONTINUOUS
 62
     7
 10
433.4435661046
 20
112.5260082825
 30
0.0
 11
433.4435661046
 21
112.1260074719
 31
0.0
  0
LINE
  5
1B0
  8
0
  6
CONTINUOUS
 62
     7
 10
200.1435634402
 20
113.1260065182
 30
0.0
 11
199.3435633091
 21
113.1260065182
 31
0.0
  0
LINE
  5
1B1
  8
0
  6
CONTINUOUS
 62
     7
 10
199.3435633091
 20
113.1260065182
 30
0.0
 11
199.3435633091
 21
113.9957336529
 31
0.0
  0
LINE
  5
1B2
  8
0
  6
CONTINUOUS
 62
     7
 10
111.5435619561
 20
113.9957336529
 30
0.0
 11
111.5435619561
 21
113.1260065182
 31
0.0
  0
LINE
  5
1B3
  8
0
  6
CONTINUOUS
 62
     7
 10
111.5435619561
 20
113.1260065182
 30
0.0
 11
110.7435662953
 21
113.1260065182
 31
0.0
  0
LINE
  5
1B4
  8
0
  6
CONTINUOUS
 62
     7
 10
110.7435662953
 20
113.1260065182
 30
0.0
 11
110.7435662953
 21
113.9957336529
 31
0.0
  0
LINE
  5
1B5
  8
0
  6
CONTINUOUS
 62
     7
 10
111.5435619561
 20
113.9957336529
 30
0.0
 11
111.5435619561
 21
194.9515668496
 31
0.0
  0
LINE
  5
1B6
  8
0
  6
CONTINUOUS
 62
     7
 10
110.7435662953
 20
113.9957336529
 30
0.0
 11
110.7435662953
 21
194.9515668496
 31
0.0
  0
LINE
  5
1B7
  8
0
  6
CONTINUOUS
 62
     7
 10
199.3435633091
 20
194.9515668496
 30
0.0
 11
199.3435633091
 21
113.9957336529
 31
0.0
  0
LINE
  5
1B8
  8
0
  6
CONTINUOUS
 62
     7
 10
199.3435633091
 20
194.9515668496
 30
0.0
 11
199.3435633091
 21
195.6068841561
 31
0.0
  0
LINE
  5
1B9
  8
0
  6
CONTINUOUS
 62
     7
 10
111.5435619561
 20
195.6068841561
 30
0.0
 11
111.5435619561
 21
194.9515668496
 31
0.0
  0
LINE
  5
1BA
  8
0
  6
CONTINUOUS
 62
     7
 10
110.7435662953
 20
194.9515668496
 30
0.0
 11
110.7435662953
 21
195.6068841561
 31
0.0
  0
LINE
  5
1BB
  8
0
  6
CONTINUOUS
 62
     7
 10
199.3435633091
 20
198.8361326798
 30
0.0
 11
199.3435633091
 21
195.6068841561
 31
0.0
  0
LINE
  5
1BC
  8
0
  6
CONTINUOUS
 62
     7
 10
111.5435619561
 20
195.6068841561
 30
0.0
 11
111.5435619561
 21
198.8361326798
 31
0.0
  0
LINE
  5
1BD
  8
0
  6
CONTINUOUS
 62
     7
 10
110.7435662953
 20
195.6068841561
 30
0.0
 11
110.7435662953
 21
198.8361326798
 31
0.0
  0
LINE
  5
1BE
  8
0
  6
CONTINUOUS
 62
     7
 10
204.3435630111
 20
112.5260082825
 30
0.0
 11
204.3435630111
 21
112.1260074719
 31
0.0
  0
LINE
  5
1BF
  8
0
  6
CONTINUOUS
 62
     7
 10
199.3435633091
 20
113.1260065182
 30
0.0
 11
199.3435633091
 21
108.5260061368
 31
0.0
  0
LINE
  5
1C0
  8
0
  6
CONTINUOUS
 62
     7
 10
106.543560764
 20
112.5260082825
 30
0.0
 11
106.543560764
 21
112.1260074719
 31
0.0
  0
LINE
  5
1C1
  8
0
  6
CONTINUOUS
 62
     7
 10
110.7435662953
 20
116.1260096177
 30
0.0
 11
110.3435595242
 21
116.1260096177
 31
0.0
  0
LINE
  5
1C2
  8
0
  6
CONTINUOUS
 62
     7
 10
111.5435619561
 20
113.1260065182
 30
0.0
 11
111.5435619561
 21
108.5260061368
 31
0.0
  0
LINE
  5
1C3
  8
0
  6
CONTINUOUS
 62
     7
 10
199.3435633091
 20
198.8361326798
 30
0.0
 11
199.3435633091
 21
198.9110795601
 31
0.0
  0
LINE
  5
1C4
  8
0
  6
CONTINUOUS
 62
     7
 10
111.5435619561
 20
198.9110795601
 30
0.0
 11
111.5435619561
 21
198.8361326798
 31
0.0
  0
LINE
  5
1C5
  8
0
  6
CONTINUOUS
 62
     7
 10
110.7435662953
 20
198.8361326798
 30
0.0
 11
110.7435662953
 21
198.9110795601
 31
0.0
  0
POLYLINE
  5
1C6
  8
0
  6
CONTINUOUS
 62
     7
 66
     1
 10
0.0
 20
0.0
 30
0.0
  0
VERTEX
  5
669
  8
0
  6
CONTINUOUS
 62
     7
 10
197.2435627786
 20
246.2727634057
 30
0.0
  0
VERTEX
  5
66A
  8
0
  6
CONTINUOUS
 62
     7
 10
197.5908596722
 20
246.6160861596
 30
0.0
  0
VERTEX
  5
66B
  8
0
  6
CONTINUOUS
 62
     7
 10
197.9276035635
 20
246.9436852082
 30
0.0
  0
VERTEX
  5
66C
  8
0
  6
CONTINUOUS
 62
     7
 10
198.2435633151
 20
247.2455946549
 30
0.0
  0
VERTEX
  5
66D
  8
0
  6
CONTINUOUS
 62
     7
 10
198.5291381089
 20
247.5126592263
 30
0.0
  0
VERTEX
  5
66E
  8
0
  6
CONTINUOUS
 62
     7
 10
198.7756524889
 20
247.7367488488
 30
0.0
  0
VERTEX
  5
66F
  8
0
  6
CONTINUOUS
 62
     7
 10
198.9756141511
 20
247.9110685929
 30
0.0
  0
VERTEX
  5
670
  8
0
  6
CONTINUOUS
 62
     7
 10
199.1229486374
 20
248.0303017243
 30
0.0
  0
VERTEX
  5
671
  8
0
  6
CONTINUOUS
 62
     7
 10
199.2131788937
 20
248.0908362015
 30
0.0
  0
VERTEX
  5
672
  8
0
  6
CONTINUOUS
 62
     7
 10
199.2435631064
 20
248.0908362015
 30
0.0
  0
SEQEND
  5
72C
  8
0
  6
CONTINUOUS
 62
     7
  0
LINE
  5
1C7
  8
0
  6
CONTINUOUS
 62
     7
 10
199.2435631064
 20
248.0908362015
 30
0.0
 11
199.2435631064
 21
247.8311506852
 31
0.0
  0
LINE
  5
1C8
  8
0
  6
CONTINUOUS
 62
     7
 10
199.2435631064
 20
198.958417569
 30
0.0
 11
199.2435631064
 21
135.5208365067
 31
0.0
  0
ARC
  5
1C9
  8
0
  6
CONTINUOUS
 62
     7
 10
193.1096028051
 20
131.1332570525
 30
0.0
 40
7.541639241300149
 50
35.575878735
 51
46.0517507721
  0
ARC
  5
1CA
  8
0
  6
CONTINUOUS
 62
     7
 10
117.7781055675
 20
131.1327484531
 30
0.0
 40
7.542410614852733
 50
133.948761096
 51
144.4235624706
  0
LINE
  5
1CB
  8
0
  6
CONTINUOUS
 62
     7
 10
111.6435606686
 20
135.5208365067
 30
0.0
 11
111.6435606686
 21
248.0908362015
 31
0.0
  0
POLYLINE
  5
1CC
  8
0
  6
CONTINUOUS
 62
     7
 66
     1
 10
0.0
 20
0.0
 30
0.0
  0
VERTEX
  5
673
  8
0
  6
CONTINUOUS
 62
     7
 10
111.6435606686
 20
248.0908362015
 30
0.0
  0
VERTEX
  5
674
  8
0
  6
CONTINUOUS
 62
     7
 10
111.6739471165
 20
248.0908362015
 30
0.0
  0
VERTEX
  5
675
  8
0
  6
CONTINUOUS
 62
     7
 10
111.7641766278
 20
248.0303017243
 30
0.0
  0
VERTEX
  5
676
  8
0
  6
CONTINUOUS
 62
     7
 10
111.9115133492
 20
247.9110685929
 30
0.0
  0
VERTEX
  5
677
  8
0
  6
CONTINUOUS
 62
     7
 10
112.1114750115
 20
247.7367488488
 30
0.0
  0
VERTEX
  5
678
  8
0
  6
CONTINUOUS
 62
     7
 10
112.3579879014
 20
247.5126592263
 30
0.0
  0
VERTEX
  5
679
  8
0
  6
CONTINUOUS
 62
     7
 10
112.6435656754
 20
247.2455946549
 30
0.0
  0
VERTEX
  5
67A
  8
0
  6
CONTINUOUS
 62
     7
 10
112.9595239369
 20
246.9436852082
 30
0.0
  0
VERTEX
  5
67B
  8
0
  6
CONTINUOUS
 62
     7
 10
113.296266338
 20
246.6160861596
 30
0.0
  0
VERTEX
  5
67C
  8
0
  6
CONTINUOUS
 62
     7
 10
113.6435647217
 20
246.2727634057
 30
0.0
  0
SEQEND
  5
72B
  8
0
  6
CONTINUOUS
 62
     7
  0
LINE
  5
1CD
  8
0
  6
CONTINUOUS
 62
     7
 10
111.6435606686
 20
135.1199177846
 30
0.0
 11
112.5435610024
 21
135.1199177846
 31
0.0
  0
LINE
  5
1CE
  8
0
  6
CONTINUOUS
 62
     7
 10
198.3435635177
 20
135.1199177846
 30
0.0
 11
199.2435631064
 21
135.1199177846
 31
0.0
  0
LINE
  5
1CF
  8
0
  6
CONTINUOUS
 62
     7
 10
111.6435606686
 20
135.5208365067
 30
0.0
 11
111.6435606686
 21
135.1199177846
 31
0.0
  0
LINE
  5
1D0
  8
0
  6
CONTINUOUS
 62
     7
 10
199.2435631064
 20
135.5208365067
 30
0.0
 11
199.2435631064
 21
135.1199177846
 31
0.0
  0
LINE
  5
1D1
  8
0
  6
CONTINUOUS
 62
     7
 10
111.5435619561
 20
247.7895347222
 30
0.0
 11
111.5435619561
 21
198.9110795601
 31
0.0
  0
LINE
  5
1D2
  8
0
  6
CONTINUOUS
 62
     7
 10
111.6435606686
 20
247.7895347222
 30
0.0
 11
111.5435619561
 21
247.7895347222
 31
0.0
  0
LINE
  5
1D3
  8
0
  6
CONTINUOUS
 62
     7
 10
112.5435610024
 20
133.5260061368
 30
0.0
 11
111.5435619561
 21
133.5260061368
 31
0.0
  0
LINE
  5
1D4
  8
0
  6
CONTINUOUS
 62
     7
 10
199.3435633091
 20
133.5260061368
 30
0.0
 11
198.3435635177
 21
133.5260061368
 31
0.0
  0
LINE
  5
1D5
  8
0
  6
CONTINUOUS
 62
     7
 10
209.4435632882
 20
112.5260082825
 30
0.0
 11
209.4435632882
 21
112.1260074719
 31
0.0
  0
LINE
  5
1D6
  8
0
  6
CONTINUOUS
 62
     7
 10
110.3435595242
 20
195.126005803
 30
0.0
 11
110.7435662953
 21
195.126005803
 31
0.0
  0
LINE
  5
1D7
  8
0
  6
CONTINUOUS
 62
     7
 10
101.4435608594
 20
112.1260074719
 30
0.0
 11
101.4435608594
 21
112.5260082825
 31
0.0
  0
LINE
  5
1D8
  8
0
  6
CONTINUOUS
 62
     7
 10
223.543563178
 20
113.1260065182
 30
0.0
 11
222.7435630468
 21
113.1260065182
 31
0.0
  0
LINE
  5
1D9
  8
0
  6
CONTINUOUS
 62
     7
 10
223.543563178
 20
113.9957336529
 30
0.0
 11
223.543563178
 21
113.1260065182
 31
0.0
  0
LINE
  5
1DA
  8
0
  6
CONTINUOUS
 62
     7
 10
222.7435630468
 20
113.1260065182
 30
0.0
 11
222.7435630468
 21
113.9957336529
 31
0.0
  0
LINE
  5
1DB
  8
0
  6
CONTINUOUS
 62
     7
 10
312.1435601918
 20
113.1260065182
 30
0.0
 11
311.343564531
 21
113.1260065182
 31
0.0
  0
LINE
  5
1DC
  8
0
  6
CONTINUOUS
 62
     7
 10
311.343564531
 20
113.1260065182
 30
0.0
 11
311.343564531
 21
113.9957336529
 31
0.0
  0
LINE
  5
1DD
  8
0
  6
CONTINUOUS
 62
     7
 10
311.343564531
 20
194.9515668496
 30
0.0
 11
311.343564531
 21
113.9957336529
 31
0.0
  0
LINE
  5
1DE
  8
0
  6
CONTINUOUS
 62
     7
 10
223.543563178
 20
113.9957336529
 30
0.0
 11
223.543563178
 21
194.9515668496
 31
0.0
  0
LINE
  5
1DF
  8
0
  6
CONTINUOUS
 62
     7
 10
222.7435630468
 20
113.9957336529
 30
0.0
 11
222.7435630468
 21
194.9515668496
 31
0.0
  0
LINE
  5
1E0
  8
0
  6
CONTINUOUS
 62
     7
 10
223.543563178
 20
195.6068841561
 30
0.0
 11
223.543563178
 21
194.9515668496
 31
0.0
  0
LINE
  5
1E1
  8
0
  6
CONTINUOUS
 62
     7
 10
222.7435630468
 20
194.9515668496
 30
0.0
 11
222.7435630468
 21
195.6068841561
 31
0.0
  0
LINE
  5
1E2
  8
0
  6
CONTINUOUS
 62
     7
 10
311.343564531
 20
194.9515668496
 30
0.0
 11
311.343564531
 21
195.6068841561
 31
0.0
  0
LINE
  5
1E3
  8
0
  6
CONTINUOUS
 62
     7
 10
311.343564531
 20
198.8361326798
 30
0.0
 11
311.343564531
 21
195.6068841561
 31
0.0
  0
LINE
  5
1E4
  8
0
  6
CONTINUOUS
 62
     7
 10
223.543563178
 20
195.6068841561
 30
0.0
 11
223.543563178
 21
198.8361326798
 31
0.0
  0
LINE
  5
1E5
  8
0
  6
CONTINUOUS
 62
     7
 10
222.7435630468
 20
195.6068841561
 30
0.0
 11
222.7435630468
 21
198.8361326798
 31
0.0
  0
LINE
  5
1E6
  8
0
  6
CONTINUOUS
 62
     7
 10
316.3435657231
 20
112.5260082825
 30
0.0
 11
316.3435657231
 21
112.1260074719
 31
0.0
  0
LINE
  5
1E7
  8
0
  6
CONTINUOUS
 62
     7
 10
311.343564531
 20
113.1260065182
 30
0.0
 11
311.343564531
 21
108.5260061368
 31
0.0
  0
LINE
  5
1E8
  8
0
  6
CONTINUOUS
 62
     7
 10
218.543563476
 20
112.5260082825
 30
0.0
 11
218.543563476
 21
112.1260074719
 31
0.0
  0
LINE
  5
1E9
  8
0
  6
CONTINUOUS
 62
     7
 10
222.7435630468
 20
116.1260096177
 30
0.0
 11
222.3435629813
 21
116.1260096177
 31
0.0
  0
LINE
  5
1EA
  8
0
  6
CONTINUOUS
 62
     7
 10
223.543563178
 20
113.1260065182
 30
0.0
 11
223.543563178
 21
108.5260061368
 31
0.0
  0
LINE
  5
1EB
  8
0
  6
CONTINUOUS
 62
     7
 10
311.343564531
 20
198.8361326798
 30
0.0
 11
311.343564531
 21
198.9110795601
 31
0.0
  0
LINE
  5
1EC
  8
0
  6
CONTINUOUS
 62
     7
 10
223.543563178
 20
198.9110795601
 30
0.0
 11
223.543563178
 21
198.8361326798
 31
0.0
  0
LINE
  5
1ED
  8
0
  6
CONTINUOUS
 62
     7
 10
222.7435630468
 20
198.8361326798
 30
0.0
 11
222.7435630468
 21
198.9110795601
 31
0.0
  0
ARC
  5
1EE
  8
0
  6
CONTINUOUS
 62
     7
 10
305.1090209195
 20
131.1327484531
 30
0.0
 40
7.542410614870535
 50
35.5764375294
 51
46.051238904
  0
ARC
  5
1EF
  8
0
  6
CONTINUOUS
 62
     7
 10
229.777523682
 20
131.1332570525
 30
0.0
 40
7.541639241298788
 50
133.9482492279
 51
144.424121265
  0
LINE
  5
1F0
  8
0
  6
CONTINUOUS
 62
     7
 10
223.6435633806
 20
135.5208365067
 30
0.0
 11
223.6435633806
 21
248.0908362015
 31
0.0
  0
POLYLINE
  5
1F1
  8
0
  6
CONTINUOUS
 62
     7
 66
     1
 10
0.0
 20
0.0
 30
0.0
  0
VERTEX
  5
67D
  8
0
  6
CONTINUOUS
 62
     7
 10
223.6435633806
 20
248.0908362015
 30
0.0
  0
VERTEX
  5
67E
  8
0
  6
CONTINUOUS
 62
     7
 10
223.6739475934
 20
248.0908362015
 30
0.0
  0
VERTEX
  5
67F
  8
0
  6
CONTINUOUS
 62
     7
 10
223.7641778497
 20
248.0303017243
 30
0.0
  0
VERTEX
  5
680
  8
0
  6
CONTINUOUS
 62
     7
 10
223.9115123359
 20
247.9110685929
 30
0.0
  0
VERTEX
  5
681
  8
0
  6
CONTINUOUS
 62
     7
 10
224.1114739982
 20
247.7367488488
 30
0.0
  0
VERTEX
  5
682
  8
0
  6
CONTINUOUS
 62
     7
 10
224.3579883782
 20
247.5126592263
 30
0.0
  0
VERTEX
  5
683
  8
0
  6
CONTINUOUS
 62
     7
 10
224.643563172
 20
247.2455946549
 30
0.0
  0
VERTEX
  5
684
  8
0
  6
CONTINUOUS
 62
     7
 10
224.9595229236
 20
246.9436852082
 30
0.0
  0
VERTEX
  5
685
  8
0
  6
CONTINUOUS
 62
     7
 10
225.2962668149
 20
246.6160861596
 30
0.0
  0
VERTEX
  5
686
  8
0
  6
CONTINUOUS
 62
     7
 10
225.6435637085
 20
246.2727634057
 30
0.0
  0
SEQEND
  5
72A
  8
0
  6
CONTINUOUS
 62
     7
  0
POLYLINE
  5
1F2
  8
0
  6
CONTINUOUS
 62
     7
 66
     1
 10
0.0
 20
0.0
 30
0.0
  0
VERTEX
  5
687
  8
0
  6
CONTINUOUS
 62
     7
 10
309.2435617653
 20
246.2727634057
 30
0.0
  0
VERTEX
  5
688
  8
0
  6
CONTINUOUS
 62
     7
 10
309.5908601491
 20
246.6160861596
 30
0.0
  0
VERTEX
  5
689
  8
0
  6
CONTINUOUS
 62
     7
 10
309.9276025502
 20
246.9436852082
 30
0.0
  0
VERTEX
  5
68A
  8
0
  6
CONTINUOUS
 62
     7
 10
310.2435608117
 20
247.2455946549
 30
0.0
  0
VERTEX
  5
68B
  8
0
  6
CONTINUOUS
 62
     7
 10
310.5291385857
 20
247.5126592263
 30
0.0
  0
VERTEX
  5
68C
  8
0
  6
CONTINUOUS
 62
     7
 10
310.7756514756
 20
247.7367488488
 30
0.0
  0
VERTEX
  5
68D
  8
0
  6
CONTINUOUS
 62
     7
 10
310.9756131379
 20
247.9110685929
 30
0.0
  0
VERTEX
  5
68E
  8
0
  6
CONTINUOUS
 62
     7
 10
311.1229498593
 20
248.0303017243
 30
0.0
  0
VERTEX
  5
68F
  8
0
  6
CONTINUOUS
 62
     7
 10
311.2131793706
 20
248.0908362015
 30
0.0
  0
VERTEX
  5
690
  8
0
  6
CONTINUOUS
 62
     7
 10
311.2435658185
 20
248.0908362015
 30
0.0
  0
SEQEND
  5
729
  8
0
  6
CONTINUOUS
 62
     7
  0
LINE
  5
1F3
  8
0
  6
CONTINUOUS
 62
     7
 10
311.2435658185
 20
248.0908362015
 30
0.0
 11
311.2435658185
 21
247.8311506852
 31
0.0
  0
LINE
  5
1F4
  8
0
  6
CONTINUOUS
 62
     7
 10
311.2435658185
 20
198.958417569
 30
0.0
 11
311.2435658185
 21
135.5208365067
 31
0.0
  0
LINE
  5
1F5
  8
0
  6
CONTINUOUS
 62
     7
 10
223.6435633806
 20
135.1199177846
 30
0.0
 11
224.5435629694
 21
135.1199177846
 31
0.0
  0
LINE
  5
1F6
  8
0
  6
CONTINUOUS
 62
     7
 10
310.3435654847
 20
135.1199177846
 30
0.0
 11
311.2435658185
 21
135.1199177846
 31
0.0
  0
LINE
  5
1F7
  8
0
  6
CONTINUOUS
 62
     7
 10
223.6435633806
 20
135.5208365067
 30
0.0
 11
223.6435633806
 21
135.1199177846
 31
0.0
  0
LINE
  5
1F8
  8
0
  6
CONTINUOUS
 62
     7
 10
311.2435658185
 20
135.5208365067
 30
0.0
 11
311.2435658185
 21
135.1199177846
 31
0.0
  0
LINE
  5
1F9
  8
0
  6
CONTINUOUS
 62
     7
 10
223.543563178
 20
247.7895347222
 30
0.0
 11
223.543563178
 21
198.9110795601
 31
0.0
  0
LINE
  5
1FA
  8
0
  6
CONTINUOUS
 62
     7
 10
223.6435633806
 20
247.7895347222
 30
0.0
 11
223.543563178
 21
247.7895347222
 31
0.0
  0
LINE
  5
1FB
  8
0
  6
CONTINUOUS
 62
     7
 10
224.5435629694
 20
133.5260061368
 30
0.0
 11
223.543563178
 21
133.5260061368
 31
0.0
  0
LINE
  5
1FC
  8
0
  6
CONTINUOUS
 62
     7
 10
311.343564531
 20
133.5260061368
 30
0.0
 11
310.3435654847
 21
133.5260061368
 31
0.0
  0
LINE
  5
1FD
  8
0
  6
CONTINUOUS
 62
     7
 10
321.4435656277
 20
112.5260082825
 30
0.0
 11
321.4435656277
 21
112.1260074719
 31
0.0
  0
LINE
  5
1FE
  8
0
  6
CONTINUOUS
 62
     7
 10
222.3435629813
 20
195.126005803
 30
0.0
 11
222.7435630468
 21
195.126005803
 31
0.0
  0
LINE
  5
1FF
  8
0
  6
CONTINUOUS
 62
     7
 10
213.4435631988
 20
112.1260074719
 30
0.0
 11
213.4435631988
 21
112.5260082825
 31
0.0
  0
LINE
  5
200
  8
0
  6
CONTINUOUS
 62
     7
 10
88.1435592381
 20
113.1260065182
 30
0.0
 11
87.3435576169
 21
113.1260065182
 31
0.0
  0
LINE
  5
201
  8
0
  6
CONTINUOUS
 62
     7
 10
87.3435576169
 20
113.1260065182
 30
0.0
 11
87.3435576169
 21
113.9957336529
 31
0.0
  0
LINE
  5
202
  8
0
  6
CONTINUOUS
 62
     7
 10
-0.4564325603
 20
113.9957336529
 30
0.0
 11
-0.4564325603
 21
113.1260065182
 31
0.0
  0
LINE
  5
203
  8
0
  6
CONTINUOUS
 62
     7
 10
-0.4564325603
 20
113.1260065182
 30
0.0
 11
-1.2564461025
 21
113.1260065182
 31
0.0
  0
LINE
  5
204
  8
0
  6
CONTINUOUS
 62
     7
 10
87.3435576169
 20
194.9515668496
 30
0.0
 11
87.3435576169
 21
113.9957336529
 31
0.0
  0
LINE
  5
205
  8
0
  6
CONTINUOUS
 62
     7
 10
-0.4564325603
 20
113.9957336529
 30
0.0
 11
-0.4564325603
 21
194.9515668496
 31
0.0
  0
LINE
  5
206
  8
0
  6
CONTINUOUS
 62
     7
 10
87.3435576169
 20
194.9515668496
 30
0.0
 11
87.3435576169
 21
195.6068841561
 31
0.0
  0
LINE
  5
207
  8
0
  6
CONTINUOUS
 62
     7
 10
-0.4564325603
 20
195.6068841561
 30
0.0
 11
-0.4564325603
 21
194.9515668496
 31
0.0
  0
LINE
  5
208
  8
0
  6
CONTINUOUS
 62
     7
 10
87.3435576169
 20
198.8361326798
 30
0.0
 11
87.3435576169
 21
195.6068841561
 31
0.0
  0
LINE
  5
209
  8
0
  6
CONTINUOUS
 62
     7
 10
-0.4564325603
 20
195.6068841561
 30
0.0
 11
-0.4564325603
 21
198.8361326798
 31
0.0
  0
LINE
  5
20A
  8
0
  6
CONTINUOUS
 62
     7
 10
92.3435647694
 20
112.5260082825
 30
0.0
 11
92.3435647694
 21
112.1260074719
 31
0.0
  0
LINE
  5
20B
  8
0
  6
CONTINUOUS
 62
     7
 10
87.3435576169
 20
113.1260065182
 30
0.0
 11
87.3435576169
 21
108.5260061368
 31
0.0
  0
LINE
  5
20C
  8
0
  6
CONTINUOUS
 62
     7
 10
-5.4564277919
 20
112.5260082825
 30
0.0
 11
-5.4564277919
 21
112.1260074719
 31
0.0
  0
LINE
  5
20D
  8
0
  6
CONTINUOUS
 62
     7
 10
-0.4564325603
 20
113.1260065182
 30
0.0
 11
-0.4564325603
 21
108.5260061368
 31
0.0
  0
LINE
  5
20E
  8
0
  6
CONTINUOUS
 62
     7
 10
87.3435576169
 20
198.8361326798
 30
0.0
 11
87.3435576169
 21
198.9110795601
 31
0.0
  0
LINE
  5
20F
  8
0
  6
CONTINUOUS
 62
     7
 10
-0.4564325603
 20
198.9110795601
 30
0.0
 11
-0.4564325603
 21
198.8361326798
 31
0.0
  0
LINE
  5
210
  8
0
  6
CONTINUOUS
 62
     7
 10
-0.3564398082
 20
135.5208365067
 30
0.0
 11
-0.3564398082
 21
248.0908362015
 31
0.0
  0
POLYLINE
  5
211
  8
0
  6
CONTINUOUS
 62
     7
 66
     1
 10
0.0
 20
0.0
 30
0.0
  0
VERTEX
  5
691
  8
0
  6
CONTINUOUS
 62
     7
 10
-0.3564398082
 20
248.0908362015
 30
0.0
  0
VERTEX
  5
692
  8
0
  6
CONTINUOUS
 62
     7
 10
-0.3260414394
 20
248.0908362015
 30
0.0
  0
VERTEX
  5
693
  8
0
  6
CONTINUOUS
 62
     7
 10
-0.2358238491
 20
248.0303017243
 30
0.0
  0
VERTEX
  5
694
  8
0
  6
CONTINUOUS
 62
     7
 10
-0.0884811672
 20
247.9110685929
 30
0.0
  0
VERTEX
  5
695
  8
0
  6
CONTINUOUS
 62
     7
 10
0.1114804951
 20
247.7367488488
 30
0.0
  0
VERTEX
  5
696
  8
0
  6
CONTINUOUS
 62
     7
 10
0.3579814641
 20
247.5126592263
 30
0.0
  0
VERTEX
  5
697
  8
0
  6
CONTINUOUS
 62
     7
 10
0.6435592381
 20
247.2455946549
 30
0.0
  0
VERTEX
  5
698
  8
0
  6
CONTINUOUS
 62
     7
 10
0.9595115391
 20
246.9436852082
 30
0.0
  0
VERTEX
  5
699
  8
0
  6
CONTINUOUS
 62
     7
 10
1.2962777821
 20
246.6160861596
 30
0.0
  0
VERTEX
  5
69A
  8
0
  6
CONTINUOUS
 62
     7
 10
1.6435582844
 20
246.2727634057
 30
0.0
  0
SEQEND
  5
728
  8
0
  6
CONTINUOUS
 62
     7
  0
ARC
  5
212
  8
0
  6
CONTINUOUS
 62
     7
 10
5.776584002
 20
131.1340321331
 30
0.0
 40
7.540426623815137
 50
133.9471766425
 51
144.4247715143
  0
POLYLINE
  5
213
  8
0
  6
CONTINUOUS
 62
     7
 66
     1
 10
0.0
 20
0.0
 30
0.0
  0
VERTEX
  5
69B
  8
0
  6
CONTINUOUS
 62
     7
 10
85.2435667721
 20
246.2727634057
 30
0.0
  0
VERTEX
  5
69C
  8
0
  6
CONTINUOUS
 62
     7
 10
85.5908591954
 20
246.6160861596
 30
0.0
  0
VERTEX
  5
69D
  8
0
  6
CONTINUOUS
 62
     7
 10
85.9276015965
 20
246.9436852082
 30
0.0
  0
VERTEX
  5
69E
  8
0
  6
CONTINUOUS
 62
     7
 10
86.2435658185
 20
247.2455946549
 30
0.0
  0
VERTEX
  5
69F
  8
0
  6
CONTINUOUS
 62
     7
 10
86.5291435925
 20
247.5126592263
 30
0.0
  0
VERTEX
  5
6A0
  8
0
  6
CONTINUOUS
 62
     7
 10
86.7756564824
 20
247.7367488488
 30
0.0
  0
VERTEX
  5
6A1
  8
0
  6
CONTINUOUS
 62
     7
 10
86.9756181447
 20
247.9110685929
 30
0.0
  0
VERTEX
  5
6A2
  8
0
  6
CONTINUOUS
 62
     7
 10
87.1229489056
 20
248.0303017243
 30
0.0
  0
VERTEX
  5
6A3
  8
0
  6
CONTINUOUS
 62
     7
 10
87.2131784169
 20
248.0908362015
 30
0.0
  0
VERTEX
  5
6A4
  8
0
  6
CONTINUOUS
 62
     7
 10
87.2435648648
 20
248.0908362015
 30
0.0
  0
SEQEND
  5
727
  8
0
  6
CONTINUOUS
 62
     7
  0
LINE
  5
214
  8
0
  6
CONTINUOUS
 62
     7
 10
87.2435648648
 20
248.0908362015
 30
0.0
 11
87.2435648648
 21
247.8311506852
 31
0.0
  0
LINE
  5
215
  8
0
  6
CONTINUOUS
 62
     7
 10
87.2435648648
 20
198.958417569
 30
0.0
 11
87.2435648648
 21
135.5208365067
 31
0.0
  0
ARC
  5
216
  8
0
  6
CONTINUOUS
 62
     7
 10
81.1115655835
 20
131.1349169206
 30
0.0
 40
7.539078577778506
 50
35.574289128
 51
46.0537627153
  0
LINE
  5
217
  8
0
  6
CONTINUOUS
 62
     7
 10
-0.3564398082
 20
135.1199177846
 30
0.0
 11
0.543566486
 21
135.1199177846
 31
0.0
  0
LINE
  5
218
  8
0
  6
CONTINUOUS
 62
     7
 10
86.3435585705
 20
135.1199177846
 30
0.0
 11
87.2435648648
 21
135.1199177846
 31
0.0
  0
LINE
  5
219
  8
0
  6
CONTINUOUS
 62
     7
 10
87.2435648648
 20
135.5208365067
 30
0.0
 11
87.2435648648
 21
135.1199177846
 31
0.0
  0
LINE
  5
21A
  8
0
  6
CONTINUOUS
 62
     7
 10
-0.3564398082
 20
135.5208365067
 30
0.0
 11
-0.3564398082
 21
135.1199177846
 31
0.0
  0
LINE
  5
21B
  8
0
  6
CONTINUOUS
 62
     7
 10
-0.4564325603
 20
247.7895347222
 30
0.0
 11
-0.4564325603
 21
198.9110795601
 31
0.0
  0
LINE
  5
21C
  8
0
  6
CONTINUOUS
 62
     7
 10
-0.3564398082
 20
247.7895347222
 30
0.0
 11
-0.4564325603
 21
247.7895347222
 31
0.0
  0
LINE
  5
21D
  8
0
  6
CONTINUOUS
 62
     7
 10
0.543566486
 20
133.5260061368
 30
0.0
 11
-0.4564325603
 21
133.5260061368
 31
0.0
  0
LINE
  5
21E
  8
0
  6
CONTINUOUS
 62
     7
 10
87.3435576169
 20
133.5260061368
 30
0.0
 11
86.3435585705
 21
133.5260061368
 31
0.0
  0
LINE
  5
21F
  8
0
  6
CONTINUOUS
 62
     7
 10
97.443564674
 20
112.5260082825
 30
0.0
 11
97.443564674
 21
112.1260074719
 31
0.0
  0
LINE
  5
220
  8
0
  6
CONTINUOUS
 62
     7
 10
-10.5564396175
 20
112.1260074719
 30
0.0
 11
-10.5564396175
 21
112.5260082825
 31
0.0
  0
ARC
  5
221
  8
0
  6
CONTINUOUS
 62
     7
 10
312.5435632435
 20
-95.9965723815
 30
0.0
 40
0.4000000000000341
 50
180.0
 51
270.0
  0
LINE
  5
222
  8
0
  6
CONTINUOUS
 62
     7
 10
312.5435669629
 20
-96.3965725428
 30
0.0
 11
333.9435656277
 21
-96.3965725428
 31
0.0
  0
ARC
  5
223
  8
0
  6
CONTINUOUS
 62
     7
 10
333.9435632435
 20
-95.9965723815
 30
0.0
 40
0.3999999999999915
 50
270.0
 51
0.0
  0
ARC
  5
224
  8
0
  6
CONTINUOUS
 62
     7
 10
88.5435632435
 20
-95.9965723815
 30
0.0
 40
0.4000000000000057
 50
180.0
 51
270.0
  0
ARC
  5
225
  8
0
  6
CONTINUOUS
 62
     7
 10
109.9435632435
 20
-95.9965723815
 30
0.0
 40
0.4000000000000057
 50
270.0
 51
0.0
  0
LINE
  5
226
  8
0
  6
CONTINUOUS
 62
     7
 10
88.5435660092
 20
-96.3965725428
 30
0.0
 11
109.943564674
 21
-96.3965725428
 31
0.0
  0
LINE
  5
227
  8
0
  6
CONTINUOUS
 62
     7
 10
200.5435635058
 20
-96.3965725428
 30
0.0
 11
221.9435629157
 21
-96.3965725428
 31
0.0
  0
ARC
  5
228
  8
0
  6
CONTINUOUS
 62
     7
 10
200.5435632435
 20
-95.9965723815
 30
0.0
 40
0.4000000000000057
 50
180.0
 51
270.0
  0
ARC
  5
229
  8
0
  6
CONTINUOUS
 62
     7
 10
221.9435632435
 20
-95.9965723815
 30
0.0
 40
0.3999999999999915
 50
270.0
 51
0.0
  0
LINE
  5
22A
  8
0
  6
CONTINUOUS
 62
     7
 10
424.5435674397
 20
-96.3965725428
 30
0.0
 11
435.4435641972
 21
-96.3965725428
 31
0.0
  0
ARC
  5
22B
  8
0
  6
CONTINUOUS
 62
     7
 10
424.5435632435
 20
-95.9965723815
 30
0.0
 40
0.3999999999999915
 50
180.0
 51
270.0
  0
ARC
  5
22C
  8
0
  6
CONTINUOUS
 62
     7
 10
435.4435632435
 20
-95.9965723815
 30
0.0
 40
0.3999999999999915
 50
270.0
 51
0.0
  0
LINE
  5
22D
  8
0
  6
CONTINUOUS
 62
     7
 10
-12.5564377101
 20
-96.3965725428
 30
0.0
 11
-1.6564409526
 21
-96.3965725428
 31
0.0
  0
ARC
  5
22E
  8
0
  6
CONTINUOUS
 62
     7
 10
-1.6564367565
 20
-95.9965723815
 30
0.0
 40
0.4000000000000115
 50
270.0
 51
0.0
  0
ARC
  5
22F
  8
0
  6
CONTINUOUS
 62
     7
 10
-12.5564367565
 20
-95.9965723815
 30
0.0
 40
0.400000000000011
 50
180.0
 51
270.0
  0
LINE
  5
230
  8
0
  6
CONTINUOUS
 62
     7
 10
308.1527371613
 20
-74.4139116532
 30
0.0
 11
226.7343898026
 21
-74.4139116532
 31
0.0
  0
LINE
  5
231
  8
0
  6
CONTINUOUS
 62
     7
 10
310.2435608117
 20
-92.8410958773
 30
0.0
 11
311.2435658185
 21
-92.8410958773
 31
0.0
  0
LINE
  5
232
  8
0
  6
CONTINUOUS
 62
     7
 10
311.2435658185
 20
-88.0410950906
 30
0.0
 11
310.2435608117
 21
-88.0410950906
 31
0.0
  0
LINE
  5
233
  8
0
  6
CONTINUOUS
 62
     7
 10
223.6435633806
 20
-92.8410958773
 30
0.0
 11
224.643563172
 21
-92.8410958773
 31
0.0
  0
LINE
  5
234
  8
0
  6
CONTINUOUS
 62
     7
 10
224.643563172
 20
-88.0410950906
 30
0.0
 11
223.6435633806
 21
-88.0410950906
 31
0.0
  0
LINE
  5
235
  8
0
  6
CONTINUOUS
 62
     7
 10
225.0435639826
 20
-96.3423859603
 30
0.0
 11
309.8435659615
 21
-96.3423859603
 31
0.0
  0
ARC
  5
236
  8
0
  6
CONTINUOUS
 62
     7
 10
225.0435632435
 20
-95.9423844981
 30
0.0
 40
0.3999999999999915
 50
180.0
 51
270.0
  0
ARC
  5
237
  8
0
  6
CONTINUOUS
 62
     7
 10
309.8435632435
 20
-95.9423844981
 30
0.0
 40
0.3999999999999915
 50
270.0
 51
0.0
  0
LINE
  5
238
  8
0
  6
CONTINUOUS
 62
     7
 10
335.6435616223
 20
-92.8410958773
 30
0.0
 11
336.5435679165
 21
-92.8410958773
 31
0.0
  0
LINE
  5
239
  8
0
  6
CONTINUOUS
 62
     7
 10
336.5435679165
 20
-88.0410950906
 30
0.0
 11
335.6435616223
 21
-88.0410950906
 31
0.0
  0
LINE
  5
23A
  8
0
  6
CONTINUOUS
 62
     7
 10
422.343560001
 20
-92.8410958773
 30
0.0
 11
423.2435662953
 21
-92.8410958773
 31
0.0
  0
LINE
  5
23B
  8
0
  6
CONTINUOUS
 62
     7
 10
423.2435662953
 20
-88.0410950906
 30
0.0
 11
422.343560001
 21
-88.0410950906
 31
0.0
  0
LINE
  5
23C
  8
0
  6
CONTINUOUS
 62
     7
 10
196.1527366845
 20
-74.4139116532
 30
0.0
 11
114.7343893258
 21
-74.4139116532
 31
0.0
  0
LINE
  5
23D
  8
0
  6
CONTINUOUS
 62
     7
 10
198.2435633151
 20
-92.8410958773
 30
0.0
 11
199.2435631064
 21
-92.8410958773
 31
0.0
  0
LINE
  5
23E
  8
0
  6
CONTINUOUS
 62
     7
 10
199.2435631064
 20
-88.0410950906
 30
0.0
 11
198.2435633151
 21
-88.0410950906
 31
0.0
  0
LINE
  5
23F
  8
0
  6
CONTINUOUS
 62
     7
 10
111.6435606686
 20
-92.8410958773
 30
0.0
 11
112.6435656754
 21
-92.8410958773
 31
0.0
  0
LINE
  5
240
  8
0
  6
CONTINUOUS
 62
     7
 10
112.6435656754
 20
-88.0410950906
 30
0.0
 11
111.6435606686
 21
-88.0410950906
 31
0.0
  0
ARC
  5
241
  8
0
  6
CONTINUOUS
 62
     7
 10
197.8435632435
 20
-95.9423844981
 30
0.0
 40
0.3999999999999915
 50
270.0
 51
0.0
  0
LINE
  5
242
  8
0
  6
CONTINUOUS
 62
     7
 10
113.0435605256
 20
-96.3423859603
 30
0.0
 11
197.8435625044
 21
-96.3423859603
 31
0.0
  0
ARC
  5
243
  8
0
  6
CONTINUOUS
 62
     7
 10
113.0435632435
 20
-95.9423844981
 30
0.0
 40
0.3999999999999915
 50
180.0
 51
270.0
  0
LINE
  5
244
  8
0
  6
CONTINUOUS
 62
     7
 10
84.1527421681
 20
-74.4139116532
 30
0.0
 11
2.7343948094
 21
-74.4139116532
 31
0.0
  0
LINE
  5
245
  8
0
  6
CONTINUOUS
 62
     7
 10
86.2435658185
 20
-92.8410958773
 30
0.0
 11
87.2435648648
 21
-92.8410958773
 31
0.0
  0
LINE
  5
246
  8
0
  6
CONTINUOUS
 62
     7
 10
87.2435648648
 20
-88.0410950906
 30
0.0
 11
86.2435658185
 21
-88.0410950906
 31
0.0
  0
LINE
  5
247
  8
0
  6
CONTINUOUS
 62
     7
 10
-0.3564398082
 20
-92.8410958773
 30
0.0
 11
0.6435592381
 21
-92.8410958773
 31
0.0
  0
LINE
  5
248
  8
0
  6
CONTINUOUS
 62
     7
 10
0.6435592381
 20
-88.0410950906
 30
0.0
 11
-0.3564398082
 21
-88.0410950906
 31
0.0
  0
ARC
  5
249
  8
0
  6
CONTINUOUS
 62
     7
 10
85.8435632435
 20
-95.9423844981
 30
0.0
 40
0.3999999999999915
 50
270.0
 51
0.0
  0
ARC
  5
24A
  8
0
  6
CONTINUOUS
 62
     7
 10
1.0435632435
 20
-95.9423844981
 30
0.0
 40
0.3999999999999915
 50
180.0
 51
270.0
  0
LINE
  5
24B
  8
0
  6
CONTINUOUS
 62
     7
 10
1.0435540883
 20
-96.3423859603
 30
0.0
 11
85.8435590474
 21
-96.3423859603
 31
0.0
  0
LINE
  5
24C
  8
0
  6
CONTINUOUS
 62
     7
 10
337.4692518918
 20
-79.329830063
 30
0.0
 11
421.4178760258
 21
-79.329830063
 31
0.0
  0
LINE
  5
24D
  8
0
  6
CONTINUOUS
 62
     7
 10
423.3435590474
 20
-89.2410945422
 30
0.0
 11
423.2435662953
 21
-89.2410945422
 31
0.0
  0
LINE
  5
24E
  8
0
  6
CONTINUOUS
 62
     7
 10
335.6435616223
 20
-89.2410945422
 30
0.0
 11
335.5435688702
 21
-89.2410945422
 31
0.0
  0
LINE
  5
24F
  8
0
  6
CONTINUOUS
 62
     7
 10
335.5435688702
 20
-91.6410964257
 30
0.0
 11
335.6435616223
 21
-91.6410964257
 31
0.0
  0
LINE
  5
250
  8
0
  6
CONTINUOUS
 62
     7
 10
423.2435662953
 20
-91.6410964257
 30
0.0
 11
423.3435590474
 21
-91.6410964257
 31
0.0
  0
LINE
  5
251
  8
0
  6
CONTINUOUS
 62
     7
 10
334.743567249
 20
-95.6873696572
 30
0.0
 11
335.5435688702
 21
-95.6873696572
 31
0.0
  0
LINE
  5
252
  8
0
  6
CONTINUOUS
 62
     7
 10
423.3435590474
 20
-95.6873696572
 30
0.0
 11
424.1435725895
 21
-95.6873696572
 31
0.0
  0
LINE
  5
253
  8
0
  6
CONTINUOUS
 62
     7
 10
199.3435633091
 20
-89.2410945422
 30
0.0
 11
199.2435631064
 21
-89.2410945422
 31
0.0
  0
LINE
  5
254
  8
0
  6
CONTINUOUS
 62
     7
 10
111.6435606686
 20
-89.2410945422
 30
0.0
 11
111.5435619561
 21
-89.2410945422
 31
0.0
  0
LINE
  5
255
  8
0
  6
CONTINUOUS
 62
     7
 10
111.5435619561
 20
-91.6410964257
 30
0.0
 11
111.6435606686
 21
-91.6410964257
 31
0.0
  0
LINE
  5
256
  8
0
  6
CONTINUOUS
 62
     7
 10
199.2435631064
 20
-91.6410964257
 30
0.0
 11
199.3435633091
 21
-91.6410964257
 31
0.0
  0
LINE
  5
257
  8
0
  6
CONTINUOUS
 62
     7
 10
199.3435633091
 20
-95.6873696572
 30
0.0
 11
200.1435634402
 21
-95.6873696572
 31
0.0
  0
LINE
  5
258
  8
0
  6
CONTINUOUS
 62
     7
 10
110.7435662953
 20
-95.6873696572
 30
0.0
 11
111.5435619561
 21
-95.6873696572
 31
0.0
  0
LINE
  5
259
  8
0
  6
CONTINUOUS
 62
     7
 10
311.343564531
 20
-89.2410945422
 30
0.0
 11
311.2435658185
 21
-89.2410945422
 31
0.0
  0
LINE
  5
25A
  8
0
  6
CONTINUOUS
 62
     7
 10
223.6435633806
 20
-89.2410945422
 30
0.0
 11
223.543563178
 21
-89.2410945422
 31
0.0
  0
LINE
  5
25B
  8
0
  6
CONTINUOUS
 62
     7
 10
223.543563178
 20
-91.6410964257
 30
0.0
 11
223.6435633806
 21
-91.6410964257
 31
0.0
  0
LINE
  5
25C
  8
0
  6
CONTINUOUS
 62
     7
 10
311.2435658185
 20
-91.6410964257
 30
0.0
 11
311.343564531
 21
-91.6410964257
 31
0.0
  0
LINE
  5
25D
  8
0
  6
CONTINUOUS
 62
     7
 10
311.343564531
 20
-95.6873696572
 30
0.0
 11
312.1435601918
 21
-95.6873696572
 31
0.0
  0
LINE
  5
25E
  8
0
  6
CONTINUOUS
 62
     7
 10
222.7435630468
 20
-95.6873696572
 30
0.0
 11
223.543563178
 21
-95.6873696572
 31
0.0
  0
LINE
  5
25F
  8
0
  6
CONTINUOUS
 62
     7
 10
87.3435576169
 20
-89.2410945422
 30
0.0
 11
87.2435648648
 21
-89.2410945422
 31
0.0
  0
LINE
  5
260
  8
0
  6
CONTINUOUS
 62
     7
 10
-0.3564398082
 20
-89.2410945422
 30
0.0
 11
-0.4564325603
 21
-89.2410945422
 31
0.0
  0
LINE
  5
261
  8
0
  6
CONTINUOUS
 62
     7
 10
-0.4564325603
 20
-91.6410964257
 30
0.0
 11
-0.3564398082
 21
-91.6410964257
 31
0.0
  0
LINE
  5
262
  8
0
  6
CONTINUOUS
 62
     7
 10
87.2435648648
 20
-91.6410964257
 30
0.0
 11
87.3435576169
 21
-91.6410964257
 31
0.0
  0
LINE
  5
263
  8
0
  6
CONTINUOUS
 62
     7
 10
87.3435576169
 20
-95.6873696572
 30
0.0
 11
88.1435592381
 21
-95.6873696572
 31
0.0
  0
LINE
  5
264
  8
0
  6
CONTINUOUS
 62
     7
 10
-1.2564461025
 20
-95.6873696572
 30
0.0
 11
-0.4564325603
 21
-95.6873696572
 31
0.0
  0
ARC
  5
265
  8
0
  6
CONTINUOUS
 62
     7
 10
334.3435632435
 20
-86.041095782
 30
0.0
 40
0.4000000000000341
 50
270.0
 51
0.0
  0
LINE
  5
266
  8
0
  6
CONTINUOUS
 62
     7
 10
423.3435590474
 20
-86.4410948283
 30
0.0
 11
422.243567249
 21
-86.4410948283
 31
0.0
  0
LINE
  5
267
  8
0
  6
CONTINUOUS
 62
     7
 10
336.6435606686
 20
-86.4410948283
 30
0.0
 11
335.5435688702
 21
-86.4410948283
 31
0.0
  0
LINE
  5
268
  8
0
  6
CONTINUOUS
 62
     7
 10
334.743567249
 20
-86.4410948283
 30
0.0
 11
334.3435604779
 21
-86.4410948283
 31
0.0
  0
ARC
  5
269
  8
0
  6
CONTINUOUS
 62
     7
 10
222.3435632435
 20
-86.041095782
 30
0.0
 40
0.4000000000000057
 50
270.0
 51
0.0
  0
LINE
  5
26A
  8
0
  6
CONTINUOUS
 62
     7
 10
311.343564531
 20
-86.4410948283
 30
0.0
 11
310.3435654847
 21
-86.4410948283
 31
0.0
  0
LINE
  5
26B
  8
0
  6
CONTINUOUS
 62
     7
 10
224.5435629694
 20
-86.4410948283
 30
0.0
 11
223.543563178
 21
-86.4410948283
 31
0.0
  0
LINE
  5
26C
  8
0
  6
CONTINUOUS
 62
     7
 10
222.7435630468
 20
-86.4410948283
 30
0.0
 11
222.3435629813
 21
-86.4410948283
 31
0.0
  0
LINE
  5
26D
  8
0
  6
CONTINUOUS
 62
     7
 10
87.3435576169
 20
-86.4410948283
 30
0.0
 11
86.3435585705
 21
-86.4410948283
 31
0.0
  0
LINE
  5
26E
  8
0
  6
CONTINUOUS
 62
     7
 10
0.543566486
 20
-86.4410948283
 30
0.0
 11
-0.4564325603
 21
-86.4410948283
 31
0.0
  0
ARC
  5
26F
  8
0
  6
CONTINUOUS
 62
     7
 10
110.3435632435
 20
-86.041095782
 30
0.0
 40
0.3999999999999915
 50
270.0
 51
0.0
  0
LINE
  5
270
  8
0
  6
CONTINUOUS
 62
     7
 10
199.3435633091
 20
-86.4410948283
 30
0.0
 11
198.3435635177
 21
-86.4410948283
 31
0.0
  0
LINE
  5
271
  8
0
  6
CONTINUOUS
 62
     7
 10
112.5435610024
 20
-86.4410948283
 30
0.0
 11
111.5435619561
 21
-86.4410948283
 31
0.0
  0
LINE
  5
272
  8
0
  6
CONTINUOUS
 62
     7
 10
110.7435662953
 20
-86.4410948283
 30
0.0
 11
110.3435595242
 21
-86.4410948283
 31
0.0
  0
LINE
  5
273
  8
0
  6
CONTINUOUS
 62
     7
 10
311.2435658185
 20
-68.1304332144
 30
0.0
 11
311.2435658185
 21
-67.681698156
 31
0.0
  0
ARC
  5
274
  8
0
  6
CONTINUOUS
 62
     7
 10
311.6195259357
 20
-64.4093885979
 30
0.0
 40
3.207575069311325
 50
89.5706720455
 51
94.9355025122
  0
LINE
  5
275
  8
0
  6
CONTINUOUS
 62
     7
 10
335.2435667721
 20
-61.2367659151
 30
0.0
 11
335.2435667721
 21
-68.1304332144
 31
0.0
  0
ARC
  5
276
  8
0
  6
CONTINUOUS
 62
     7
 10
334.9428040053
 20
-62.3754372201
 30
0.0
 40
1.17772262563826
 50
75.2041000517
 51
94.8339174213
  0
LINE
  5
277
  8
0
  6
CONTINUOUS
 62
     7
 10
334.843560001
 20
-61.2019035774
 30
0.0
 11
311.6435606686
 21
-61.2019035774
 31
0.0
  0
LINE
  5
278
  8
0
  6
CONTINUOUS
 62
     7
 10
335.2435667721
 20
-68.1304332144
 30
0.0
 11
335.2435667721
 21
-72.4028077251
 31
0.0
  0
ARC
  5
279
  8
0
  6
CONTINUOUS
 62
     7
 10
334.8443262341
 20
-72.402045106
 30
0.0
 40
0.3992412663778561
 50
269.8900365466
 51
359.8905551894
  0
LINE
  5
27A
  8
0
  6
CONTINUOUS
 62
     7
 10
311.2435658185
 20
-72.4028077251
 30
0.0
 11
311.2435658185
 21
-68.1304332144
 31
0.0
  0
ARC
  5
27B
  8
0
  6
CONTINUOUS
 62
     7
 10
311.642797987
 20
-72.4020534846
 30
0.0
 40
0.3992328809671793
 50
180.1082446514
 51
270.1094560812
  0
LINE
  5
27C
  8
0
  6
CONTINUOUS
 62
     7
 10
334.843560001
 20
-72.8012856371
 30
0.0
 11
333.9435656277
 21
-72.8012856371
 31
0.0
  0
LINE
  5
27D
  8
0
  6
CONTINUOUS
 62
     7
 10
333.9435656277
 20
-72.8012856371
 30
0.0
 11
312.5435669629
 21
-72.8012856371
 31
0.0
  0
LINE
  5
27E
  8
0
  6
CONTINUOUS
 62
     7
 10
312.5435669629
 20
-72.8012856371
 30
0.0
 11
311.6435606686
 21
-72.8012856371
 31
0.0
  0
LINE
  5
27F
  8
0
  6
CONTINUOUS
 62
     7
 10
334.3435604779
 20
-80.7009261376
 30
0.0
 11
334.3435604779
 21
-88.7669574744
 31
0.0
  0
LINE
  5
280
  8
0
  6
CONTINUOUS
 62
     7
 10
312.1435601918
 20
-88.7669574744
 30
0.0
 11
312.1435601918
 21
-80.7009261376
 31
0.0
  0
LINE
  5
281
  8
0
  6
CONTINUOUS
 62
     7
 10
312.1435601918
 20
-80.7009261376
 30
0.0
 11
312.1435601918
 21
-72.8012856371
 31
0.0
  0
LINE
  5
282
  8
0
  6
CONTINUOUS
 62
     7
 10
334.3435604779
 20
-72.8012856371
 30
0.0
 11
334.3435604779
 21
-80.7009261376
 31
0.0
  0
LINE
  5
283
  8
0
  6
CONTINUOUS
 62
     7
 10
312.1435601918
 20
-95.9965717322
 30
0.0
 11
312.1435601918
 21
-88.7669574744
 31
0.0
  0
LINE
  5
284
  8
0
  6
CONTINUOUS
 62
     7
 10
334.3435604779
 20
-88.7669574744
 30
0.0
 11
334.3435604779
 21
-95.9965717322
 31
0.0
  0
LINE
  5
285
  8
0
  6
CONTINUOUS
 62
     7
 10
110.8435590474
 20
-61.2019035774
 30
0.0
 11
87.6435597149
 21
-61.2019035774
 31
0.0
  0
LINE
  5
286
  8
0
  6
CONTINUOUS
 62
     7
 10
111.2435658185
 20
-61.2367659151
 30
0.0
 11
111.2435658185
 21
-68.1304332144
 31
0.0
  0
ARC
  5
287
  8
0
  6
CONTINUOUS
 62
     7
 10
110.9428030516
 20
-62.3754372201
 30
0.0
 40
1.177722625638316
 50
75.2041000517
 51
94.8339174213
  0
LINE
  5
288
  8
0
  6
CONTINUOUS
 62
     7
 10
87.2435648648
 20
-68.1304332144
 30
0.0
 11
87.2435648648
 21
-67.681698156
 31
0.0
  0
ARC
  5
289
  8
0
  6
CONTINUOUS
 62
     7
 10
87.6195722301
 20
-64.4107288757
 30
0.0
 40
3.20891495590165
 50
89.5716949619
 51
94.9343901591
  0
LINE
  5
28A
  8
0
  6
CONTINUOUS
 62
     7
 10
87.2435648648
 20
-72.4028077251
 30
0.0
 11
87.2435648648
 21
-68.1304332144
 31
0.0
  0
ARC
  5
28B
  8
0
  6
CONTINUOUS
 62
     7
 10
87.642805365
 20
-72.4020451212
 30
0.0
 40
0.3992412285500971
 50
180.1094426398
 51
270.1082580927
  0
LINE
  5
28C
  8
0
  6
CONTINUOUS
 62
     7
 10
110.8435590474
 20
-72.8012856371
 30
0.0
 11
109.943564674
 21
-72.8012856371
 31
0.0
  0
LINE
  5
28D
  8
0
  6
CONTINUOUS
 62
     7
 10
109.943564674
 20
-72.8012856371
 30
0.0
 11
88.5435660092
 21
-72.8012856371
 31
0.0
  0
LINE
  5
28E
  8
0
  6
CONTINUOUS
 62
     7
 10
88.5435660092
 20
-72.8012856371
 30
0.0
 11
87.6435597149
 21
-72.8012856371
 31
0.0
  0
LINE
  5
28F
  8
0
  6
CONTINUOUS
 62
     7
 10
111.2435658185
 20
-68.1304332144
 30
0.0
 11
111.2435658185
 21
-72.4028077251
 31
0.0
  0
ARC
  5
290
  8
0
  6
CONTINUOUS
 62
     7
 10
110.8443252804
 20
-72.402045106
 30
0.0
 40
0.3992412663778702
 50
269.8900365466
 51
359.8905551894
  0
LINE
  5
291
  8
0
  6
CONTINUOUS
 62
     7
 10
88.1435592381
 20
-88.7669574744
 30
0.0
 11
88.1435592381
 21
-80.7009261376
 31
0.0
  0
LINE
  5
292
  8
0
  6
CONTINUOUS
 62
     7
 10
110.3435595242
 20
-80.7009261376
 30
0.0
 11
110.3435595242
 21
-88.7669574744
 31
0.0
  0
LINE
  5
293
  8
0
  6
CONTINUOUS
 62
     7
 10
110.3435595242
 20
-72.8012856371
 30
0.0
 11
110.3435595242
 21
-80.7009261376
 31
0.0
  0
LINE
  5
294
  8
0
  6
CONTINUOUS
 62
     7
 10
88.1435592381
 20
-80.7009261376
 30
0.0
 11
88.1435592381
 21
-72.8012856371
 31
0.0
  0
LINE
  5
295
  8
0
  6
CONTINUOUS
 62
     7
 10
88.1435592381
 20
-95.9965717322
 30
0.0
 11
88.1435592381
 21
-88.7669574744
 31
0.0
  0
LINE
  5
296
  8
0
  6
CONTINUOUS
 62
     7
 10
110.3435595242
 20
-88.7669574744
 30
0.0
 11
110.3435595242
 21
-95.9965717322
 31
0.0
  0
LINE
  5
297
  8
0
  6
CONTINUOUS
 62
     7
 10
199.2435631064
 20
-68.1304332144
 30
0.0
 11
199.2435631064
 21
-67.681698156
 31
0.0
  0
ARC
  5
298
  8
0
  6
CONTINUOUS
 62
     7
 10
199.6195398816
 20
-64.4097665327
 30
0.0
 40
3.207952907761221
 50
89.5709269884
 51
94.935191671
  0
LINE
  5
299
  8
0
  6
CONTINUOUS
 62
     7
 10
222.8435632495
 20
-61.2019035774
 30
0.0
 11
199.643563172
 21
-61.2019035774
 31
0.0
  0
LINE
  5
29A
  8
0
  6
CONTINUOUS
 62
     7
 10
223.2435633151
 20
-61.2367659151
 30
0.0
 11
223.2435633151
 21
-68.1304332144
 31
0.0
  0
ARC
  5
29B
  8
0
  6
CONTINUOUS
 62
     7
 10
222.9428036519
 20
-62.375420697
 30
0.0
 40
1.177705857760362
 50
75.2040407567
 51
94.8338105557
  0
LINE
  5
29C
  8
0
  6
CONTINUOUS
 62
     7
 10
222.8435632495
 20
-72.8012856371
 30
0.0
 11
221.9435629157
 21
-72.8012856371
 31
0.0
  0
LINE
  5
29D
  8
0
  6
CONTINUOUS
 62
     7
 10
221.9435629157
 20
-72.8012856371
 30
0.0
 11
200.5435635058
 21
-72.8012856371
 31
0.0
  0
LINE
  5
29E
  8
0
  6
CONTINUOUS
 62
     7
 10
200.5435635058
 20
-72.8012856371
 30
0.0
 11
199.643563172
 21
-72.8012856371
 31
0.0
  0
LINE
  5
29F
  8
0
  6
CONTINUOUS
 62
     7
 10
223.2435633151
 20
-68.1304332144
 30
0.0
 11
223.2435633151
 21
-72.4028077251
 31
0.0
  0
ARC
  5
2A0
  8
0
  6
CONTINUOUS
 62
     7
 10
222.8443229524
 20
-72.4020452692
 30
0.0
 40
0.3992410906873005
 50
269.8909736521
 51
359.890578564
  0
LINE
  5
2A1
  8
0
  6
CONTINUOUS
 62
     7
 10
199.2435631064
 20
-72.4028077251
 30
0.0
 11
199.2435631064
 21
-68.1304332144
 31
0.0
  0
ARC
  5
2A2
  8
0
  6
CONTINUOUS
 62
     7
 10
199.6428034691
 20
-72.4020452692
 30
0.0
 40
0.399241090687272
 50
180.1094214359
 51
270.1090263479
  0
LINE
  5
2A3
  8
0
  6
CONTINUOUS
 62
     7
 10
222.3435629813
 20
-80.7009261376
 30
0.0
 11
222.3435629813
 21
-88.7669574744
 31
0.0
  0
LINE
  5
2A4
  8
0
  6
CONTINUOUS
 62
     7
 10
200.1435634402
 20
-88.7669574744
 30
0.0
 11
200.1435634402
 21
-80.7009261376
 31
0.0
  0
LINE
  5
2A5
  8
0
  6
CONTINUOUS
 62
     7
 10
200.1435634402
 20
-80.7009261376
 30
0.0
 11
200.1435634402
 21
-72.8012856371
 31
0.0
  0
LINE
  5
2A6
  8
0
  6
CONTINUOUS
 62
     7
 10
222.3435629813
 20
-72.8012856371
 30
0.0
 11
222.3435629813
 21
-80.7009261376
 31
0.0
  0
LINE
  5
2A7
  8
0
  6
CONTINUOUS
 62
     7
 10
200.1435634402
 20
-95.9965717322
 30
0.0
 11
200.1435634402
 21
-88.7669574744
 31
0.0
  0
LINE
  5
2A8
  8
0
  6
CONTINUOUS
 62
     7
 10
222.3435629813
 20
-88.7669574744
 30
0.0
 11
222.3435629813
 21
-95.9965717322
 31
0.0
  0
LINE
  5
2A9
  8
0
  6
CONTINUOUS
 62
     7
 10
435.8435590474
 20
-80.7009261376
 30
0.0
 11
435.8435590474
 21
-88.7669574744
 31
0.0
  0
LINE
  5
2AA
  8
0
  6
CONTINUOUS
 62
     7
 10
424.1435725895
 20
-88.7669574744
 30
0.0
 11
424.1435725895
 21
-80.7009261376
 31
0.0
  0
LINE
  5
2AB
  8
0
  6
CONTINUOUS
 62
     7
 10
435.4435641972
 20
-60.441095782
 30
0.0
 11
424.5435674397
 21
-60.441095782
 31
0.0
  0
ARC
  5
2AC
  8
0
  6
CONTINUOUS
 62
     7
 10
424.4443234544
 20
-61.6145281308
 30
0.0
 40
1.177621690471149
 50
85.1656681957
 51
104.7965981454
  0
LINE
  5
2AD
  8
0
  6
CONTINUOUS
 62
     7
 10
424.1435725895
 20
-80.7009261376
 30
0.0
 11
424.1435725895
 21
-60.4759580789
 31
0.0
  0
LINE
  5
2AE
  8
0
  6
CONTINUOUS
 62
     7
 10
435.6435735432
 20
-60.441095782
 30
0.0
 11
435.8435590474
 21
-60.441095782
 31
0.0
  0
ARC
  5
2AF
  8
0
  6
CONTINUOUS
 62
     7
 10
435.4489242656
 20
-64.4963481107
 30
0.0
 40
4.055255871050879
 50
87.2487879058
 51
90.0757311984
  0
LINE
  5
2B0
  8
0
  6
CONTINUOUS
 62
     7
 10
435.8435590474
 20
-60.441095782
 30
0.0
 11
435.8435590474
 21
-80.7009261376
 31
0.0
  0
LINE
  5
2B1
  8
0
  6
CONTINUOUS
 62
     7
 10
435.6435735432
 20
-60.445766444
 30
0.0
 11
435.6435735432
 21
-60.441095782
 31
0.0
  0
LINE
  5
2B2
  8
0
  6
CONTINUOUS
 62
     7
 10
435.8435590474
 20
-88.7669574744
 30
0.0
 11
435.8435590474
 21
-95.9965717322
 31
0.0
  0
LINE
  5
2B3
  8
0
  6
CONTINUOUS
 62
     7
 10
424.1435725895
 20
-95.9965717322
 30
0.0
 11
424.1435725895
 21
-88.7669574744
 31
0.0
  0
LINE
  5
2B4
  8
0
  6
CONTINUOUS
 62
     7
 10
435.6435735432
 20
-60.441095782
 30
0.0
 11
435.4435641972
 21
-60.441095782
 31
0.0
  0
LINE
  5
2B5
  8
0
  6
CONTINUOUS
 62
     7
 10
-1.2564461025
 20
-80.7009261376
 30
0.0
 11
-1.2564461025
 21
-88.7669574744
 31
0.0
  0
LINE
  5
2B6
  8
0
  6
CONTINUOUS
 62
     7
 10
-12.9564325603
 20
-88.7669574744
 30
0.0
 11
-12.9564325603
 21
-80.7009261376
 31
0.0
  0
LINE
  5
2B7
  8
0
  6
CONTINUOUS
 62
     7
 10
-1.6564409526
 20
-60.441095782
 30
0.0
 11
-12.5564377101
 21
-60.441095782
 31
0.0
  0
LINE
  5
2B8
  8
0
  6
CONTINUOUS
 62
     7
 10
-12.9564325603
 20
-60.441095782
 30
0.0
 11
-12.7564470561
 21
-60.441095782
 31
0.0
  0
ARC
  5
2B9
  8
0
  6
CONTINUOUS
 62
     7
 10
-12.5617977785
 20
-64.4963481107
 30
0.0
 40
4.055255871054873
 50
89.9242688016
 51
92.7512120942
  0
LINE
  5
2BA
  8
0
  6
CONTINUOUS
 62
     7
 10
-12.9564325603
 20
-80.7009261376
 30
0.0
 11
-12.9564325603
 21
-60.441095782
 31
0.0
  0
LINE
  5
2BB
  8
0
  6
CONTINUOUS
 62
     7
 10
-12.7564470561
 20
-60.441095782
 30
0.0
 11
-12.7564470561
 21
-60.445766444
 31
0.0
  0
ARC
  5
2BC
  8
0
  6
CONTINUOUS
 62
     7
 10
-1.5571969673
 20
-61.6145281308
 30
0.0
 40
1.177621690470612
 50
75.2034018546
 51
94.8343318043
  0
LINE
  5
2BD
  8
0
  6
CONTINUOUS
 62
     7
 10
-1.2564461025
 20
-60.4759580789
 30
0.0
 11
-1.2564461025
 21
-80.7009261376
 31
0.0
  0
LINE
  5
2BE
  8
0
  6
CONTINUOUS
 62
     7
 10
-12.9564325603
 20
-95.9965717322
 30
0.0
 11
-12.9564325603
 21
-88.7669574744
 31
0.0
  0
LINE
  5
2BF
  8
0
  6
CONTINUOUS
 62
     7
 10
-1.2564461025
 20
-88.7669574744
 30
0.0
 11
-1.2564461025
 21
-95.9965717322
 31
0.0
  0
LINE
  5
2C0
  8
0
  6
CONTINUOUS
 62
     7
 10
-12.5564377101
 20
-60.441095782
 30
0.0
 11
-12.7564470561
 21
-60.441095782
 31
0.0
  0
LINE
  5
2C1
  8
0
  6
CONTINUOUS
 62
     7
 10
224.643563172
 20
-88.7744289166
 30
0.0
 11
224.643563172
 21
-80.9255715734
 31
0.0
  0
LINE
  5
2C2
  8
0
  6
CONTINUOUS
 62
     7
 10
310.2435608117
 20
-80.9255715734
 30
0.0
 11
310.2435608117
 21
-88.7744289166
 31
0.0
  0
ARC
  5
2C3
  8
0
  6
CONTINUOUS
 62
     7
 10
224.9443257801
 20
-81.9622901711
 30
0.0
 40
1.177723588195669
 50
85.1663697938
 51
104.7958795877
  0
LINE
  5
2C4
  8
0
  6
CONTINUOUS
 62
     7
 10
224.643563172
 20
-80.9255715734
 30
0.0
 11
224.643563172
 21
-80.8236178285
 31
0.0
  0
ARC
  5
2C5
  8
0
  6
CONTINUOUS
 62
     7
 10
309.942804075
 20
-81.9622397728
 30
0.0
 40
1.177673361582032
 50
75.2037704187
 51
94.8338324957
  0
LINE
  5
2C6
  8
0
  6
CONTINUOUS
 62
     7
 10
310.2435608117
 20
-80.8236178285
 30
0.0
 11
310.2435608117
 21
-80.9255715734
 31
0.0
  0
LINE
  5
2C7
  8
0
  6
CONTINUOUS
 62
     7
 10
310.3435654847
 20
-80.7887550718
 30
0.0
 11
309.8435659615
 21
-80.7887550718
 31
0.0
  0
LINE
  5
2C8
  8
0
  6
CONTINUOUS
 62
     7
 10
310.3435654847
 20
-80.7887550718
 30
0.0
 11
310.3435654847
 21
-87.185985995
 31
0.0
  0
LINE
  5
2C9
  8
0
  6
CONTINUOUS
 62
     7
 10
310.3435654847
 20
-87.185985995
 30
0.0
 11
310.2435608117
 21
-87.185985995
 31
0.0
  0
LINE
  5
2CA
  8
0
  6
CONTINUOUS
 62
     7
 10
225.0435639826
 20
-80.7887550718
 30
0.0
 11
224.5435629694
 21
-80.7887550718
 31
0.0
  0
LINE
  5
2CB
  8
0
  6
CONTINUOUS
 62
     7
 10
224.5435629694
 20
-76.6047369963
 30
0.0
 11
224.5435629694
 21
-80.7887550718
 31
0.0
  0
LINE
  5
2CC
  8
0
  6
CONTINUOUS
 62
     7
 10
310.3435654847
 20
-76.6047369963
 30
0.0
 11
310.3435654847
 21
-80.7887550718
 31
0.0
  0
LINE
  5
2CD
  8
0
  6
CONTINUOUS
 62
     7
 10
224.643563172
 20
-87.185985995
 30
0.0
 11
224.5435629694
 21
-87.185985995
 31
0.0
  0
LINE
  5
2CE
  8
0
  6
CONTINUOUS
 62
     7
 10
224.5435629694
 20
-80.7887550718
 30
0.0
 11
224.5435629694
 21
-87.185985995
 31
0.0
  0
ARC
  5
2CF
  8
0
  6
CONTINUOUS
 62
     7
 10
308.1795668835
 20
-76.5779102179
 30
0.0
 40
2.164164878665188
 50
359.2897488711
 51
90.7103290696
  0
ARC
  5
2D0
  8
0
  6
CONTINUOUS
 62
     7
 10
226.7075538948
 20
-76.5779025604
 30
0.0
 40
2.164157298478782
 50
89.2895046668
 51
180.7104563628
  0
LINE
  5
2D1
  8
0
  6
CONTINUOUS
 62
     7
 10
310.2435608117
 20
-88.7744289166
 30
0.0
 11
310.2435608117
 21
-95.9423851496
 31
0.0
  0
LINE
  5
2D2
  8
0
  6
CONTINUOUS
 62
     7
 10
224.643563172
 20
-95.9423851496
 30
0.0
 11
224.643563172
 21
-88.7744289166
 31
0.0
  0
LINE
  5
2D3
  8
0
  6
CONTINUOUS
 62
     7
 10
311.2435658185
 20
-88.0410950906
 30
0.0
 11
311.2435658185
 21
-92.8410958773
 31
0.0
  0
LINE
  5
2D4
  8
0
  6
CONTINUOUS
 62
     7
 10
223.6435633806
 20
-88.0410950906
 30
0.0
 11
223.6435633806
 21
-92.8410958773
 31
0.0
  0
LINE
  5
2D5
  8
0
  6
CONTINUOUS
 62
     7
 10
336.5435679165
 20
-160.0410949713
 30
0.0
 11
336.5435679165
 21
-86.6410952336
 31
0.0
  0
POLYLINE
  5
2D6
  8
0
  6
CONTINUOUS
 62
     7
 66
     1
 10
0.0
 20
0.0
 30
0.0
  0
VERTEX
  5
6A5
  8
0
  6
CONTINUOUS
 62
     7
 10
336.5435679165
 20
-86.6410952336
 30
0.0
  0
VERTEX
  5
6A6
  8
0
  6
CONTINUOUS
 62
     7
 10
336.5731079785
 20
-86.6706442363
 30
0.0
  0
VERTEX
  5
6A7
  8
0
  6
CONTINUOUS
 62
     7
 10
336.6610248295
 20
-86.7585610873
 30
0.0
  0
VERTEX
  5
6A8
  8
0
  6
CONTINUOUS
 62
     7
 10
336.8051488606
 20
-86.9026791579
 30
0.0
  0
VERTEX
  5
6A9
  8
0
  6
CONTINUOUS
 62
     7
 10
337.0019276349
 20
-87.0994549519
 30
0.0
  0
VERTEX
  5
6AA
  8
0
  6
CONTINUOUS
 62
     7
 10
337.2465093342
 20
-87.3440396315
 30
0.0
  0
VERTEX
  5
6AB
  8
0
  6
CONTINUOUS
 62
     7
 10
337.5328738896
 20
-87.6304101474
 30
0.0
  0
VERTEX
  5
6AC
  8
0
  6
CONTINUOUS
 62
     7
 10
337.8539879529
 20
-87.9515182502
 30
0.0
  0
VERTEX
  5
6AD
  8
0
  6
CONTINUOUS
 62
     7
 10
338.2019241063
 20
-88.2994544036
 30
0.0
  0
VERTEX
  5
6AE
  8
0
  6
CONTINUOUS
 62
     7
 10
338.5681231228
 20
-88.6656534201
 30
0.0
  0
VERTEX
  5
6AF
  8
0
  6
CONTINUOUS
 62
     7
 10
338.9435608594
 20
-89.0410971171
 30
0.0
  0
SEQEND
  5
726
  8
0
  6
CONTINUOUS
 62
     7
  0
POLYLINE
  5
2D7
  8
0
  6
CONTINUOUS
 62
     7
 66
     1
 10
0.0
 20
0.0
 30
0.0
  0
VERTEX
  5
6B0
  8
0
  6
CONTINUOUS
 62
     7
 10
338.9435608594
 20
-157.6410960681
 30
0.0
  0
VERTEX
  5
6B1
  8
0
  6
CONTINUOUS
 62
     7
 10
338.5681231228
 20
-158.016539765
 30
0.0
  0
VERTEX
  5
6B2
  8
0
  6
CONTINUOUS
 62
     7
 10
338.2019241063
 20
-158.3827387816
 30
0.0
  0
VERTEX
  5
6B3
  8
0
  6
CONTINUOUS
 62
     7
 10
337.8539879529
 20
-158.730674935
 30
0.0
  0
VERTEX
  5
6B4
  8
0
  6
CONTINUOUS
 62
     7
 10
337.5328738896
 20
-159.0517830378
 30
0.0
  0
VERTEX
  5
6B5
  8
0
  6
CONTINUOUS
 62
     7
 10
337.2465093342
 20
-159.3381535536
 30
0.0
  0
VERTEX
  5
6B6
  8
0
  6
CONTINUOUS
 62
     7
 10
337.0019276349
 20
-159.582735253
 30
0.0
  0
VERTEX
  5
6B7
  8
0
  6
CONTINUOUS
 62
     7
 10
336.8051488606
 20
-159.7795140273
 30
0.0
  0
VERTEX
  5
6B8
  8
0
  6
CONTINUOUS
 62
     7
 10
336.6610248295
 20
-159.9236320979
 30
0.0
  0
VERTEX
  5
6B9
  8
0
  6
CONTINUOUS
 62
     7
 10
336.5731079785
 20
-160.0115489489
 30
0.0
  0
VERTEX
  5
6BA
  8
0
  6
CONTINUOUS
 62
     7
 10
336.5435679165
 20
-160.0410949713
 30
0.0
  0
SEQEND
  5
725
  8
0
  6
CONTINUOUS
 62
     7
  0
LINE
  5
2D8
  8
0
  6
CONTINUOUS
 62
     7
 10
336.5435679165
 20
-86.6410952336
 30
0.0
 11
422.343560001
 21
-86.6410952336
 31
0.0
  0
POLYLINE
  5
2D9
  8
0
  6
CONTINUOUS
 62
     7
 66
     1
 10
0.0
 20
0.0
 30
0.0
  0
VERTEX
  5
6BB
  8
0
  6
CONTINUOUS
 62
     7
 10
422.343560001
 20
-86.6410952336
 30
0.0
  0
VERTEX
  5
6BC
  8
0
  6
CONTINUOUS
 62
     7
 10
422.3140199391
 20
-86.6706442363
 30
0.0
  0
VERTEX
  5
6BD
  8
0
  6
CONTINUOUS
 62
     7
 10
422.2260911671
 20
-86.7585610873
 30
0.0
  0
VERTEX
  5
6BE
  8
0
  6
CONTINUOUS
 62
     7
 10
422.0819671361
 20
-86.9026791579
 30
0.0
  0
VERTEX
  5
6BF
  8
0
  6
CONTINUOUS
 62
     7
 10
421.8852002827
 20
-87.0994549519
 30
0.0
  0
VERTEX
  5
6C0
  8
0
  6
CONTINUOUS
 62
     7
 10
421.6406305043
 20
-87.3440396315
 30
0.0
  0
VERTEX
  5
6C1
  8
0
  6
CONTINUOUS
 62
     7
 10
421.3542421071
 20
-87.6304101474
 30
0.0
  0
VERTEX
  5
6C2
  8
0
  6
CONTINUOUS
 62
     7
 10
421.0331399647
 20
-87.9515182502
 30
0.0
  0
VERTEX
  5
6C3
  8
0
  6
CONTINUOUS
 62
     7
 10
420.6852157322
 20
-88.2994544036
 30
0.0
  0
VERTEX
  5
6C4
  8
0
  6
CONTINUOUS
 62
     7
 10
420.3190047947
 20
-88.6656534201
 30
0.0
  0
VERTEX
  5
6C5
  8
0
  6
CONTINUOUS
 62
     7
 10
419.9435670582
 20
-89.0410971171
 30
0.0
  0
SEQEND
  5
724
  8
0
  6
CONTINUOUS
 62
     7
  0
LINE
  5
2DA
  8
0
  6
CONTINUOUS
 62
     7
 10
422.343560001
 20
-86.6410952336
 30
0.0
 11
422.343560001
 21
-160.0410949713
 31
0.0
  0
POLYLINE
  5
2DB
  8
0
  6
CONTINUOUS
 62
     7
 66
     1
 10
0.0
 20
0.0
 30
0.0
  0
VERTEX
  5
6C6
  8
0
  6
CONTINUOUS
 62
     7
 10
419.9435670582
 20
-157.6410960681
 30
0.0
  0
VERTEX
  5
6C7
  8
0
  6
CONTINUOUS
 62
     7
 10
420.3190047947
 20
-158.016539765
 30
0.0
  0
VERTEX
  5
6C8
  8
0
  6
CONTINUOUS
 62
     7
 10
420.6852157322
 20
-158.3827387816
 30
0.0
  0
VERTEX
  5
6C9
  8
0
  6
CONTINUOUS
 62
     7
 10
421.0331399647
 20
-158.730674935
 30
0.0
  0
VERTEX
  5
6CA
  8
0
  6
CONTINUOUS
 62
     7
 10
421.3542421071
 20
-159.0517830378
 30
0.0
  0
VERTEX
  5
6CB
  8
0
  6
CONTINUOUS
 62
     7
 10
421.6406305043
 20
-159.3381535536
 30
0.0
  0
VERTEX
  5
6CC
  8
0
  6
CONTINUOUS
 62
     7
 10
421.8852002827
 20
-159.582735253
 30
0.0
  0
VERTEX
  5
6CD
  8
0
  6
CONTINUOUS
 62
     7
 10
422.0819671361
 20
-159.7795140273
 30
0.0
  0
VERTEX
  5
6CE
  8
0
  6
CONTINUOUS
 62
     7
 10
422.2260911671
 20
-159.9236320979
 30
0.0
  0
VERTEX
  5
6CF
  8
0
  6
CONTINUOUS
 62
     7
 10
422.3140199391
 20
-160.0115489489
 30
0.0
  0
VERTEX
  5
6D0
  8
0
  6
CONTINUOUS
 62
     7
 10
422.343560001
 20
-160.0410949713
 30
0.0
  0
SEQEND
  5
723
  8
0
  6
CONTINUOUS
 62
     7
  0
LINE
  5
2DC
  8
0
  6
CONTINUOUS
 62
     7
 10
422.343560001
 20
-160.0410949713
 30
0.0
 11
336.5435679165
 21
-160.0410949713
 31
0.0
  0
LINE
  5
2DD
  8
0
  6
CONTINUOUS
 62
     7
 10
336.6435606686
 20
-86.6410952336
 30
0.0
 11
336.6435606686
 21
-79.1424464709
 31
0.0
  0
LINE
  5
2DE
  8
0
  6
CONTINUOUS
 62
     7
 10
422.243567249
 20
-79.1424464709
 30
0.0
 11
422.243567249
 21
-86.6410952336
 31
0.0
  0
LINE
  5
2DF
  8
0
  6
CONTINUOUS
 62
     7
 10
335.6435616223
 20
-88.0410950906
 30
0.0
 11
335.6435616223
 21
-92.8410958773
 31
0.0
  0
LINE
  5
2E0
  8
0
  6
CONTINUOUS
 62
     7
 10
423.2435662953
 20
-88.0410950906
 30
0.0
 11
423.2435662953
 21
-92.8410958773
 31
0.0
  0
LINE
  5
2E1
  8
0
  6
CONTINUOUS
 62
     7
 10
198.2435633151
 20
-80.9255715734
 30
0.0
 11
198.2435633151
 21
-88.7744289166
 31
0.0
  0
LINE
  5
2E2
  8
0
  6
CONTINUOUS
 62
     7
 10
112.6435656754
 20
-88.7744289166
 30
0.0
 11
112.6435656754
 21
-80.9255715734
 31
0.0
  0
ARC
  5
2E3
  8
0
  6
CONTINUOUS
 62
     7
 10
197.942800707
 20
-81.9622901711
 30
0.0
 40
1.177723588195963
 50
75.2041204123
 51
94.8336302062
  0
LINE
  5
2E4
  8
0
  6
CONTINUOUS
 62
     7
 10
198.2435633151
 20
-80.8236178285
 30
0.0
 11
198.2435633151
 21
-80.9255715734
 31
0.0
  0
ARC
  5
2E5
  8
0
  6
CONTINUOUS
 62
     7
 10
112.9443224121
 20
-81.9622397728
 30
0.0
 40
1.177673361582216
 50
85.1661675043
 51
104.7962295813
  0
LINE
  5
2E6
  8
0
  6
CONTINUOUS
 62
     7
 10
112.6435656754
 20
-80.9255715734
 30
0.0
 11
112.6435656754
 21
-80.8236178285
 31
0.0
  0
LINE
  5
2E7
  8
0
  6
CONTINUOUS
 62
     7
 10
198.3435635177
 20
-80.7887550718
 30
0.0
 11
197.8435625044
 21
-80.7887550718
 31
0.0
  0
LINE
  5
2E8
  8
0
  6
CONTINUOUS
 62
     7
 10
113.0435605256
 20
-80.7887550718
 30
0.0
 11
112.5435610024
 21
-80.7887550718
 31
0.0
  0
LINE
  5
2E9
  8
0
  6
CONTINUOUS
 62
     7
 10
112.5435610024
 20
-76.6047369963
 30
0.0
 11
112.5435610024
 21
-80.7887550718
 31
0.0
  0
LINE
  5
2EA
  8
0
  6
CONTINUOUS
 62
     7
 10
198.3435635177
 20
-76.6047369963
 30
0.0
 11
198.3435635177
 21
-80.7887550718
 31
0.0
  0
LINE
  5
2EB
  8
0
  6
CONTINUOUS
 62
     7
 10
112.6435656754
 20
-87.185985995
 30
0.0
 11
112.5435610024
 21
-87.185985995
 31
0.0
  0
LINE
  5
2EC
  8
0
  6
CONTINUOUS
 62
     7
 10
112.5435610024
 20
-80.7887550718
 30
0.0
 11
112.5435610024
 21
-87.185985995
 31
0.0
  0
LINE
  5
2ED
  8
0
  6
CONTINUOUS
 62
     7
 10
198.3435635177
 20
-80.7887550718
 30
0.0
 11
198.3435635177
 21
-87.185985995
 31
0.0
  0
LINE
  5
2EE
  8
0
  6
CONTINUOUS
 62
     7
 10
198.3435635177
 20
-87.185985995
 30
0.0
 11
198.2435633151
 21
-87.185985995
 31
0.0
  0
ARC
  5
2EF
  8
0
  6
CONTINUOUS
 62
     7
 10
196.1795725922
 20
-76.5779025604
 30
0.0
 40
2.164157298478797
 50
359.2895436372
 51
90.7104953332
  0
ARC
  5
2F0
  8
0
  6
CONTINUOUS
 62
     7
 10
114.7075596036
 20
-76.5779102179
 30
0.0
 40
2.164164878665033
 50
89.2896709304
 51
180.7102511289
  0
LINE
  5
2F1
  8
0
  6
CONTINUOUS
 62
     7
 10
198.2435633151
 20
-88.7744289166
 30
0.0
 11
198.2435633151
 21
-95.9423851496
 31
0.0
  0
LINE
  5
2F2
  8
0
  6
CONTINUOUS
 62
     7
 10
112.6435656754
 20
-95.9423851496
 30
0.0
 11
112.6435656754
 21
-88.7744289166
 31
0.0
  0
LINE
  5
2F3
  8
0
  6
CONTINUOUS
 62
     7
 10
199.2435631064
 20
-88.0410950906
 30
0.0
 11
199.2435631064
 21
-92.8410958773
 31
0.0
  0
LINE
  5
2F4
  8
0
  6
CONTINUOUS
 62
     7
 10
111.6435606686
 20
-88.0410950906
 30
0.0
 11
111.6435606686
 21
-92.8410958773
 31
0.0
  0
LINE
  5
2F5
  8
0
  6
CONTINUOUS
 62
     7
 10
86.2435658185
 20
-80.9255715734
 30
0.0
 11
86.2435658185
 21
-88.7744289166
 31
0.0
  0
LINE
  5
2F6
  8
0
  6
CONTINUOUS
 62
     7
 10
0.6435592381
 20
-88.7744289166
 30
0.0
 11
0.6435592381
 21
-80.9255715734
 31
0.0
  0
ARC
  5
2F7
  8
0
  6
CONTINUOUS
 62
     7
 10
85.9428001947
 20
-81.9623078049
 30
0.0
 40
1.177741407383273
 50
75.204197646
 51
94.8337006722
  0
LINE
  5
2F8
  8
0
  6
CONTINUOUS
 62
     7
 10
86.2435658185
 20
-80.8236178285
 30
0.0
 11
86.2435658185
 21
-80.9255715734
 31
0.0
  0
ARC
  5
2F9
  8
0
  6
CONTINUOUS
 62
     7
 10
0.9443199192
 20
-81.9622850281
 30
0.0
 40
1.177718123622375
 50
85.1665442406
 51
104.7958528451
  0
LINE
  5
2FA
  8
0
  6
CONTINUOUS
 62
     7
 10
0.6435592381
 20
-80.9255715734
 30
0.0
 11
0.6435592381
 21
-80.8236178285
 31
0.0
  0
LINE
  5
2FB
  8
0
  6
CONTINUOUS
 62
     7
 10
86.3435585705
 20
-80.7887550718
 30
0.0
 11
85.8435590474
 21
-80.7887550718
 31
0.0
  0
LINE
  5
2FC
  8
0
  6
CONTINUOUS
 62
     7
 10
1.0435540883
 20
-80.7887550718
 30
0.0
 11
0.543566486
 21
-80.7887550718
 31
0.0
  0
LINE
  5
2FD
  8
0
  6
CONTINUOUS
 62
     7
 10
0.543566486
 20
-76.6047369963
 30
0.0
 11
0.543566486
 21
-80.7887550718
 31
0.0
  0
LINE
  5
2FE
  8
0
  6
CONTINUOUS
 62
     7
 10
86.3435585705
 20
-76.6047369963
 30
0.0
 11
86.3435585705
 21
-80.7887550718
 31
0.0
  0
LINE
  5
2FF
  8
0
  6
CONTINUOUS
 62
     7
 10
0.6435592381
 20
-87.185985995
 30
0.0
 11
0.543566486
 21
-87.185985995
 31
0.0
  0
LINE
  5
300
  8
0
  6
CONTINUOUS
 62
     7
 10
0.543566486
 20
-80.7887550718
 30
0.0
 11
0.543566486
 21
-87.185985995
 31
0.0
  0
LINE
  5
301
  8
0
  6
CONTINUOUS
 62
     7
 10
86.3435585705
 20
-87.185985995
 30
0.0
 11
86.2435658185
 21
-87.185985995
 31
0.0
  0
LINE
  5
302
  8
0
  6
CONTINUOUS
 62
     7
 10
86.3435585705
 20
-80.7887550718
 30
0.0
 11
86.3435585705
 21
-87.185985995
 31
0.0
  0
ARC
  5
303
  8
0
  6
CONTINUOUS
 62
     7
 10
2.7075492531
 20
-76.5778943838
 30
0.0
 40
2.164149242121963
 50
89.2892465584
 51
180.7106755009
  0
ARC
  5
304
  8
0
  6
CONTINUOUS
 62
     7
 10
84.1795788959
 20
-76.5778914374
 30
0.0
 40
2.164146186437511
 50
359.2892454833
 51
90.7105206938
  0
LINE
  5
305
  8
0
  6
CONTINUOUS
 62
     7
 10
0.6435592381
 20
-95.9423851496
 30
0.0
 11
0.6435592381
 21
-88.7744289166
 31
0.0
  0
LINE
  5
306
  8
0
  6
CONTINUOUS
 62
     7
 10
86.2435658185
 20
-88.7744289166
 30
0.0
 11
86.2435658185
 21
-95.9423851496
 31
0.0
  0
LINE
  5
307
  8
0
  6
CONTINUOUS
 62
     7
 10
87.2435648648
 20
-88.0410950906
 30
0.0
 11
87.2435648648
 21
-92.8410958773
 31
0.0
  0
LINE
  5
308
  8
0
  6
CONTINUOUS
 62
     7
 10
-0.3564398082
 20
-88.0410950906
 30
0.0
 11
-0.3564398082
 21
-92.8410958773
 31
0.0
  0
ARC
  5
309
  8
0
  6
CONTINUOUS
 62
     7
 10
337.8564111128
 20
-67.6193580423
 30
0.0
 40
2.213145332971099
 50
180.9368450698
 51
264.4809921554
  0
ARC
  5
30A
  8
0
  6
CONTINUOUS
 62
     7
 10
421.0313928866
 20
-67.6199821075
 30
0.0
 40
2.212459222781142
 50
275.5031349337
 51
359.0790278411
  0
LINE
  5
30B
  8
0
  6
CONTINUOUS
 62
     7
 10
423.2435662953
 20
-67.6555436379
 30
0.0
 11
423.2435662953
 21
-77.5041427738
 31
0.0
  0
ARC
  5
30C
  8
0
  6
CONTINUOUS
 62
     7
 10
421.4362419062
 20
-77.5250733073
 30
0.0
 40
1.807445582793533
 50
263.8806426154
 51
0.6635099011
  0
LINE
  5
30D
  8
0
  6
CONTINUOUS
 62
     7
 10
335.6435616223
 20
-77.5041427738
 30
0.0
 11
335.6435616223
 21
-67.6555436379
 31
0.0
  0
ARC
  5
30E
  8
0
  6
CONTINUOUS
 62
     7
 10
337.4514532627
 20
-77.5244492956
 30
0.0
 40
1.808005679874952
 50
179.3564719009
 51
276.0993755825
  0
LINE
  5
30F
  8
0
  6
CONTINUOUS
 62
     7
 10
423.2435662953
 20
-63.0730476505
 30
0.0
 11
335.6435616223
 21
-63.0730476505
 31
0.0
  0
LINE
  5
310
  8
0
  6
CONTINUOUS
 62
     7
 10
423.2435662953
 20
-67.6555436379
 30
0.0
 11
423.2435662953
 21
-63.0730476505
 31
0.0
  0
LINE
  5
311
  8
0
  6
CONTINUOUS
 62
     7
 10
335.6435616223
 20
-67.6555436379
 30
0.0
 11
335.6435616223
 21
-63.0730476505
 31
0.0
  0
LINE
  5
312
  8
0
  6
CONTINUOUS
 62
     7
 10
423.3435590474
 20
-60.441095782
 30
0.0
 11
335.5435688702
 21
-60.441095782
 31
0.0
  0
LINE
  5
313
  8
0
  6
CONTINUOUS
 62
     7
 10
423.3435590474
 20
-60.441095782
 30
0.0
 11
423.3435590474
 21
-63.0643321476
 31
0.0
  0
LINE
  5
314
  8
0
  6
CONTINUOUS
 62
     7
 10
423.3435590474
 20
-63.0643321476
 30
0.0
 11
335.5435688702
 21
-63.0643321476
 31
0.0
  0
LINE
  5
315
  8
0
  6
CONTINUOUS
 62
     7
 10
335.5435688702
 20
-60.441095782
 30
0.0
 11
335.5435688702
 21
-63.0643321476
 31
0.0
  0
LINE
  5
316
  8
0
  6
CONTINUOUS
 62
     7
 10
335.6435616223
 20
-73.0610963232
 30
0.0
 11
335.5435688702
 21
-73.0610963232
 31
0.0
  0
LINE
  5
317
  8
0
  6
CONTINUOUS
 62
     7
 10
335.5435688702
 20
-63.0643321476
 30
0.0
 11
335.5435688702
 21
-67.4432207174
 31
0.0
  0
LINE
  5
318
  8
0
  6
CONTINUOUS
 62
     7
 10
423.3435590474
 20
-63.0643321476
 30
0.0
 11
423.3435590474
 21
-67.4432207174
 31
0.0
  0
LINE
  5
319
  8
0
  6
CONTINUOUS
 62
     7
 10
423.3435590474
 20
-73.0610963232
 30
0.0
 11
423.2435662953
 21
-73.0610963232
 31
0.0
  0
LINE
  5
31A
  8
0
  6
CONTINUOUS
 62
     7
 10
423.3435590474
 20
-81.2176179415
 30
0.0
 11
423.3435590474
 21
-80.8097999818
 31
0.0
  0
LINE
  5
31B
  8
0
  6
CONTINUOUS
 62
     7
 10
335.5435688702
 20
-80.8097999818
 30
0.0
 11
335.5435688702
 21
-81.2176179415
 31
0.0
  0
LINE
  5
31C
  8
0
  6
CONTINUOUS
 62
     7
 10
334.743567249
 20
-81.2176179415
 30
0.0
 11
334.743567249
 21
-80.8097999818
 31
0.0
  0
LINE
  5
31D
  8
0
  6
CONTINUOUS
 62
     7
 10
335.5435688702
 20
-80.8097999818
 30
0.0
 11
335.5435688702
 21
-67.4432207174
 31
0.0
  0
LINE
  5
31E
  8
0
  6
CONTINUOUS
 62
     7
 10
334.743567249
 20
-80.8097999818
 30
0.0
 11
334.743567249
 21
-72.8012856371
 31
0.0
  0
LINE
  5
31F
  8
0
  6
CONTINUOUS
 62
     7
 10
334.743567249
 20
-61.2019035774
 30
0.0
 11
334.743567249
 21
-60.441095782
 31
0.0
  0
LINE
  5
320
  8
0
  6
CONTINUOUS
 62
     7
 10
334.743567249
 20
-60.441095782
 30
0.0
 11
335.5435688702
 21
-60.441095782
 31
0.0
  0
LINE
  5
321
  8
0
  6
CONTINUOUS
 62
     7
 10
423.3435590474
 20
-67.4432207174
 30
0.0
 11
423.3435590474
 21
-80.8097999818
 31
0.0
  0
LINE
  5
322
  8
0
  6
CONTINUOUS
 62
     7
 10
424.1435725895
 20
-60.441095782
 30
0.0
 11
424.1435725895
 21
-60.4759580789
 31
0.0
  0
LINE
  5
323
  8
0
  6
CONTINUOUS
 62
     7
 10
424.1435725895
 20
-60.441095782
 30
0.0
 11
423.3435590474
 21
-60.441095782
 31
0.0
  0
LINE
  5
324
  8
0
  6
CONTINUOUS
 62
     7
 10
335.5435688702
 20
-88.1427448518
 30
0.0
 11
335.5435688702
 21
-81.2176179415
 31
0.0
  0
LINE
  5
325
  8
0
  6
CONTINUOUS
 62
     7
 10
334.743567249
 20
-88.1427448518
 30
0.0
 11
334.743567249
 21
-81.2176179415
 31
0.0
  0
LINE
  5
326
  8
0
  6
CONTINUOUS
 62
     7
 10
423.3435590474
 20
-81.2176179415
 30
0.0
 11
423.3435590474
 21
-88.1427448518
 31
0.0
  0
LINE
  5
327
  8
0
  6
CONTINUOUS
 62
     7
 10
335.5435688702
 20
-88.1427448518
 30
0.0
 11
335.5435688702
 21
-88.6016082293
 31
0.0
  0
LINE
  5
328
  8
0
  6
CONTINUOUS
 62
     7
 10
334.743567249
 20
-88.6016082293
 30
0.0
 11
334.743567249
 21
-88.1427448518
 31
0.0
  0
LINE
  5
329
  8
0
  6
CONTINUOUS
 62
     7
 10
423.3435590474
 20
-88.6016082293
 30
0.0
 11
423.3435590474
 21
-88.1427448518
 31
0.0
  0
LINE
  5
32A
  8
0
  6
CONTINUOUS
 62
     7
 10
327.4435599057
 20
-60.441095782
 30
0.0
 11
334.743567249
 21
-60.441095782
 31
0.0
  0
LINE
  5
32B
  8
0
  6
CONTINUOUS
 62
     7
 10
424.1435725895
 20
-60.441095782
 30
0.0
 11
424.5435674397
 21
-60.441095782
 31
0.0
  0
LINE
  5
32C
  8
0
  6
CONTINUOUS
 62
     7
 10
325.443561813
 20
-61.2019035774
 30
0.0
 11
325.443561813
 21
-60.441095782
 31
0.0
  0
LINE
  5
32D
  8
0
  6
CONTINUOUS
 62
     7
 10
325.443561813
 20
-60.441095782
 30
0.0
 11
327.4435599057
 21
-60.441095782
 31
0.0
  0
LINE
  5
32E
  8
0
  6
CONTINUOUS
 62
     7
 10
423.3435590474
 20
-88.6016082293
 30
0.0
 11
423.3435590474
 21
-95.6843238599
 31
0.0
  0
LINE
  5
32F
  8
0
  6
CONTINUOUS
 62
     7
 10
335.5435688702
 20
-95.6843238599
 30
0.0
 11
335.5435688702
 21
-88.6016082293
 31
0.0
  0
LINE
  5
330
  8
0
  6
CONTINUOUS
 62
     7
 10
334.743567249
 20
-95.6843238599
 30
0.0
 11
334.743567249
 21
-88.6016082293
 31
0.0
  0
LINE
  5
331
  8
0
  6
CONTINUOUS
 62
     7
 10
323.4435637204
 20
-61.2019035774
 30
0.0
 11
323.4435637204
 21
-60.441095782
 31
0.0
  0
LINE
  5
332
  8
0
  6
CONTINUOUS
 62
     7
 10
323.4435637204
 20
-60.441095782
 30
0.0
 11
325.443561813
 21
-60.441095782
 31
0.0
  0
LINE
  5
333
  8
0
  6
CONTINUOUS
 62
     7
 10
334.743567249
 20
-85.0410964615
 30
0.0
 11
334.3435604779
 21
-85.0410964615
 31
0.0
  0
LINE
  5
334
  8
0
  6
CONTINUOUS
 62
     7
 10
334.3435604779
 20
-84.2410963303
 30
0.0
 11
334.743567249
 21
-84.2410963303
 31
0.0
  0
LINE
  5
335
  8
0
  6
CONTINUOUS
 62
     7
 10
335.5435688702
 20
-95.6843238599
 30
0.0
 11
335.5435688702
 21
-95.6873696572
 31
0.0
  0
LINE
  5
336
  8
0
  6
CONTINUOUS
 62
     7
 10
334.743567249
 20
-95.6873696572
 30
0.0
 11
334.743567249
 21
-95.6843238599
 31
0.0
  0
LINE
  5
337
  8
0
  6
CONTINUOUS
 62
     7
 10
423.3435590474
 20
-95.6873696572
 30
0.0
 11
423.3435590474
 21
-95.6843238599
 31
0.0
  0
ARC
  5
338
  8
0
  6
CONTINUOUS
 62
     7
 10
113.8564127124
 20
-67.6193550999
 30
0.0
 40
2.213147934081819
 50
180.9369201549
 51
264.4810872792
  0
ARC
  5
339
  8
0
  6
CONTINUOUS
 62
     7
 10
197.0313949914
 20
-67.619986775
 30
0.0
 40
2.212453854811294
 50
275.502952451
 51
359.0791464954
  0
LINE
  5
33A
  8
0
  6
CONTINUOUS
 62
     7
 10
199.2435631064
 20
-67.6555436379
 30
0.0
 11
199.2435631064
 21
-67.681698156
 31
0.0
  0
LINE
  5
33B
  8
0
  6
CONTINUOUS
 62
     7
 10
199.2435631064
 20
-72.4028077251
 30
0.0
 11
199.2435631064
 21
-77.5041427738
 31
0.0
  0
ARC
  5
33C
  8
0
  6
CONTINUOUS
 62
     7
 10
197.4420196713
 20
-77.5297293097
 30
0.0
 40
1.80172512318826
 50
300.0250199792
 51
0.8136922658
  0
LINE
  5
33D
  8
0
  6
CONTINUOUS
 62
     7
 10
111.6435606686
 20
-77.5041427738
 30
0.0
 11
111.6435606686
 21
-67.6555436379
 31
0.0
  0
ARC
  5
33E
  8
0
  6
CONTINUOUS
 62
     7
 10
113.445123219
 20
-77.5297180356
 30
0.0
 40
1.801744076433297
 50
179.1866748483
 51
239.9746536325
  0
LINE
  5
33F
  8
0
  6
CONTINUOUS
 62
     7
 10
199.2435631064
 20
-63.0730476505
 30
0.0
 11
111.6435606686
 21
-63.0730476505
 31
0.0
  0
LINE
  5
340
  8
0
  6
CONTINUOUS
 62
     7
 10
199.2435631064
 20
-67.6555436379
 30
0.0
 11
199.2435631064
 21
-63.0730476505
 31
0.0
  0
LINE
  5
341
  8
0
  6
CONTINUOUS
 62
     7
 10
111.6435606686
 20
-67.6555436379
 30
0.0
 11
111.6435606686
 21
-63.0730476505
 31
0.0
  0
LINE
  5
342
  8
0
  6
CONTINUOUS
 62
     7
 10
199.3435633091
 20
-60.441095782
 30
0.0
 11
111.5435619561
 21
-60.441095782
 31
0.0
  0
LINE
  5
343
  8
0
  6
CONTINUOUS
 62
     7
 10
199.3435633091
 20
-60.441095782
 30
0.0
 11
199.3435633091
 21
-63.0643321476
 31
0.0
  0
LINE
  5
344
  8
0
  6
CONTINUOUS
 62
     7
 10
199.3435633091
 20
-63.0643321476
 30
0.0
 11
111.5435619561
 21
-63.0643321476
 31
0.0
  0
LINE
  5
345
  8
0
  6
CONTINUOUS
 62
     7
 10
111.5435619561
 20
-60.441095782
 30
0.0
 11
111.5435619561
 21
-63.0643321476
 31
0.0
  0
LINE
  5
346
  8
0
  6
CONTINUOUS
 62
     7
 10
111.6435606686
 20
-73.0610963232
 30
0.0
 11
111.5435619561
 21
-73.0610963232
 31
0.0
  0
LINE
  5
347
  8
0
  6
CONTINUOUS
 62
     7
 10
111.5435619561
 20
-63.0643321476
 30
0.0
 11
111.5435619561
 21
-67.4432207174
 31
0.0
  0
LINE
  5
348
  8
0
  6
CONTINUOUS
 62
     7
 10
199.3435633091
 20
-63.0643321476
 30
0.0
 11
199.3435633091
 21
-63.0761431805
 31
0.0
  0
LINE
  5
349
  8
0
  6
CONTINUOUS
 62
     7
 10
199.3435633091
 20
-73.0610963232
 30
0.0
 11
199.2435631064
 21
-73.0610963232
 31
0.0
  0
LINE
  5
34A
  8
0
  6
CONTINUOUS
 62
     7
 10
199.3435633091
 20
-81.2176179415
 30
0.0
 11
199.3435633091
 21
-80.8097999818
 31
0.0
  0
LINE
  5
34B
  8
0
  6
CONTINUOUS
 62
     7
 10
111.5435619561
 20
-80.8097999818
 30
0.0
 11
111.5435619561
 21
-81.2176179415
 31
0.0
  0
LINE
  5
34C
  8
0
  6
CONTINUOUS
 62
     7
 10
110.7435662953
 20
-81.2176179415
 30
0.0
 11
110.7435662953
 21
-80.8097999818
 31
0.0
  0
LINE
  5
34D
  8
0
  6
CONTINUOUS
 62
     7
 10
111.5435619561
 20
-80.8097999818
 30
0.0
 11
111.5435619561
 21
-67.4432207174
 31
0.0
  0
LINE
  5
34E
  8
0
  6
CONTINUOUS
 62
     7
 10
110.7435662953
 20
-80.8097999818
 30
0.0
 11
110.7435662953
 21
-72.8012856371
 31
0.0
  0
LINE
  5
34F
  8
0
  6
CONTINUOUS
 62
     7
 10
110.7435662953
 20
-61.2019035774
 30
0.0
 11
110.7435662953
 21
-60.441095782
 31
0.0
  0
LINE
  5
350
  8
0
  6
CONTINUOUS
 62
     7
 10
110.7435662953
 20
-60.441095782
 30
0.0
 11
111.5435619561
 21
-60.441095782
 31
0.0
  0
LINE
  5
351
  8
0
  6
CONTINUOUS
 62
     7
 10
200.1435634402
 20
-60.441095782
 30
0.0
 11
200.1435634402
 21
-61.2019035774
 31
0.0
  0
LINE
  5
352
  8
0
  6
CONTINUOUS
 62
     7
 10
199.3435633091
 20
-72.666375739
 30
0.0
 11
199.3435633091
 21
-80.8097999818
 31
0.0
  0
LINE
  5
353
  8
0
  6
CONTINUOUS
 62
     7
 10
200.1435634402
 20
-60.441095782
 30
0.0
 11
199.3435633091
 21
-60.441095782
 31
0.0
  0
LINE
  5
354
  8
0
  6
CONTINUOUS
 62
     7
 10
111.5435619561
 20
-88.1427448518
 30
0.0
 11
111.5435619561
 21
-81.2176179415
 31
0.0
  0
LINE
  5
355
  8
0
  6
CONTINUOUS
 62
     7
 10
110.7435662953
 20
-88.1427448518
 30
0.0
 11
110.7435662953
 21
-81.2176179415
 31
0.0
  0
LINE
  5
356
  8
0
  6
CONTINUOUS
 62
     7
 10
199.3435633091
 20
-81.2176179415
 30
0.0
 11
199.3435633091
 21
-88.1427448518
 31
0.0
  0
LINE
  5
357
  8
0
  6
CONTINUOUS
 62
     7
 10
111.5435619561
 20
-88.1427448518
 30
0.0
 11
111.5435619561
 21
-88.6016082293
 31
0.0
  0
LINE
  5
358
  8
0
  6
CONTINUOUS
 62
     7
 10
110.7435662953
 20
-88.6016082293
 30
0.0
 11
110.7435662953
 21
-88.1427448518
 31
0.0
  0
LINE
  5
359
  8
0
  6
CONTINUOUS
 62
     7
 10
199.3435633091
 20
-88.6016082293
 30
0.0
 11
199.3435633091
 21
-88.1427448518
 31
0.0
  0
LINE
  5
35A
  8
0
  6
CONTINUOUS
 62
     7
 10
103.443558952
 20
-60.441095782
 30
0.0
 11
110.7435662953
 21
-60.441095782
 31
0.0
  0
LINE
  5
35B
  8
0
  6
CONTINUOUS
 62
     7
 10
200.1435634402
 20
-60.441095782
 30
0.0
 11
207.4435633329
 21
-60.441095782
 31
0.0
  0
LINE
  5
35C
  8
0
  6
CONTINUOUS
 62
     7
 10
209.4435632882
 20
-60.441095782
 30
0.0
 11
209.4435632882
 21
-61.2019035774
 31
0.0
  0
LINE
  5
35D
  8
0
  6
CONTINUOUS
 62
     7
 10
207.4435633329
 20
-60.441095782
 30
0.0
 11
209.4435632882
 21
-60.441095782
 31
0.0
  0
LINE
  5
35E
  8
0
  6
CONTINUOUS
 62
     7
 10
101.4435608594
 20
-61.2019035774
 30
0.0
 11
101.4435608594
 21
-60.441095782
 31
0.0
  0
LINE
  5
35F
  8
0
  6
CONTINUOUS
 62
     7
 10
101.4435608594
 20
-60.441095782
 30
0.0
 11
103.443558952
 21
-60.441095782
 31
0.0
  0
LINE
  5
360
  8
0
  6
CONTINUOUS
 62
     7
 10
199.3435633091
 20
-88.6016082293
 30
0.0
 11
199.3435633091
 21
-95.6843238599
 31
0.0
  0
LINE
  5
361
  8
0
  6
CONTINUOUS
 62
     7
 10
111.5435619561
 20
-95.6843238599
 30
0.0
 11
111.5435619561
 21
-88.6016082293
 31
0.0
  0
LINE
  5
362
  8
0
  6
CONTINUOUS
 62
     7
 10
110.7435662953
 20
-95.6843238599
 30
0.0
 11
110.7435662953
 21
-88.6016082293
 31
0.0
  0
LINE
  5
363
  8
0
  6
CONTINUOUS
 62
     7
 10
211.4435632435
 20
-61.2019035774
 30
0.0
 11
211.4435632435
 21
-60.441095782
 31
0.0
  0
LINE
  5
364
  8
0
  6
CONTINUOUS
 62
     7
 10
209.4435632882
 20
-60.441095782
 30
0.0
 11
211.4435632435
 21
-60.441095782
 31
0.0
  0
LINE
  5
365
  8
0
  6
CONTINUOUS
 62
     7
 10
99.4435627667
 20
-61.2019035774
 30
0.0
 11
99.4435627667
 21
-60.441095782
 31
0.0
  0
LINE
  5
366
  8
0
  6
CONTINUOUS
 62
     7
 10
99.4435627667
 20
-60.441095782
 30
0.0
 11
101.4435608594
 21
-60.441095782
 31
0.0
  0
LINE
  5
367
  8
0
  6
CONTINUOUS
 62
     7
 10
110.7435662953
 20
-85.0410964615
 30
0.0
 11
110.3435595242
 21
-85.0410964615
 31
0.0
  0
LINE
  5
368
  8
0
  6
CONTINUOUS
 62
     7
 10
110.3435595242
 20
-84.2410963303
 30
0.0
 11
110.7435662953
 21
-84.2410963303
 31
0.0
  0
LINE
  5
369
  8
0
  6
CONTINUOUS
 62
     7
 10
199.3435633091
 20
-95.6873696572
 30
0.0
 11
199.3435633091
 21
-95.6843238599
 31
0.0
  0
LINE
  5
36A
  8
0
  6
CONTINUOUS
 62
     7
 10
111.5435619561
 20
-95.6843238599
 30
0.0
 11
111.5435619561
 21
-95.6873696572
 31
0.0
  0
LINE
  5
36B
  8
0
  6
CONTINUOUS
 62
     7
 10
110.7435662953
 20
-95.6873696572
 30
0.0
 11
110.7435662953
 21
-95.6843238599
 31
0.0
  0
ARC
  5
36C
  8
0
  6
CONTINUOUS
 62
     7
 10
309.0313915086
 20
-67.619980692
 30
0.0
 40
2.212460146565757
 50
275.5030010018
 51
359.0789915641
  0
LINE
  5
36D
  8
0
  6
CONTINUOUS
 62
     7
 10
311.2435658185
 20
-67.6555436379
 30
0.0
 11
311.2435658185
 21
-67.681698156
 31
0.0
  0
LINE
  5
36E
  8
0
  6
CONTINUOUS
 62
     7
 10
311.2435658185
 20
-72.4028077251
 30
0.0
 11
311.2435658185
 21
-77.5041427738
 31
0.0
  0
ARC
  5
36F
  8
0
  6
CONTINUOUS
 62
     7
 10
309.4420032681
 20
-77.5297180356
 30
0.0
 40
1.801744076433726
 50
300.0253463675
 51
0.8133251517
  0
ARC
  5
370
  8
0
  6
CONTINUOUS
 62
     7
 10
225.8564106762
 20
-67.6193598488
 30
0.0
 40
2.213143108811658
 50
180.9367992377
 51
264.4811018159
  0
LINE
  5
371
  8
0
  6
CONTINUOUS
 62
     7
 10
223.6435633806
 20
-77.5041427738
 30
0.0
 11
223.6435633806
 21
-67.6555436379
 31
0.0
  0
ARC
  5
372
  8
0
  6
CONTINUOUS
 62
     7
 10
225.4451068158
 20
-77.5297293097
 30
0.0
 40
1.80172512318809
 50
179.1863077342
 51
239.9749800208
  0
LINE
  5
373
  8
0
  6
CONTINUOUS
 62
     7
 10
311.2435658185
 20
-63.0730476505
 30
0.0
 11
223.6435633806
 21
-63.0730476505
 31
0.0
  0
LINE
  5
374
  8
0
  6
CONTINUOUS
 62
     7
 10
311.2435658185
 20
-67.6555436379
 30
0.0
 11
311.2435658185
 21
-63.0730476505
 31
0.0
  0
LINE
  5
375
  8
0
  6
CONTINUOUS
 62
     7
 10
223.6435633806
 20
-67.6555436379
 30
0.0
 11
223.6435633806
 21
-63.0730476505
 31
0.0
  0
LINE
  5
376
  8
0
  6
CONTINUOUS
 62
     7
 10
311.343564531
 20
-60.441095782
 30
0.0
 11
223.543563178
 21
-60.441095782
 31
0.0
  0
LINE
  5
377
  8
0
  6
CONTINUOUS
 62
     7
 10
311.343564531
 20
-60.441095782
 30
0.0
 11
311.343564531
 21
-63.0643321476
 31
0.0
  0
LINE
  5
378
  8
0
  6
CONTINUOUS
 62
     7
 10
311.343564531
 20
-63.0643321476
 30
0.0
 11
223.543563178
 21
-63.0643321476
 31
0.0
  0
LINE
  5
379
  8
0
  6
CONTINUOUS
 62
     7
 10
223.543563178
 20
-60.441095782
 30
0.0
 11
223.543563178
 21
-63.0643321476
 31
0.0
  0
LINE
  5
37A
  8
0
  6
CONTINUOUS
 62
     7
 10
223.6435633806
 20
-73.0610963232
 30
0.0
 11
223.543563178
 21
-73.0610963232
 31
0.0
  0
LINE
  5
37B
  8
0
  6
CONTINUOUS
 62
     7
 10
311.343564531
 20
-63.0643321476
 30
0.0
 11
311.343564531
 21
-63.0761431805
 31
0.0
  0
LINE
  5
37C
  8
0
  6
CONTINUOUS
 62
     7
 10
311.343564531
 20
-73.0610963232
 30
0.0
 11
311.2435658185
 21
-73.0610963232
 31
0.0
  0
LINE
  5
37D
  8
0
  6
CONTINUOUS
 62
     7
 10
223.543563178
 20
-63.0643321476
 30
0.0
 11
223.543563178
 21
-67.4432207174
 31
0.0
  0
LINE
  5
37E
  8
0
  6
CONTINUOUS
 62
     7
 10
223.543563178
 20
-80.8097999818
 30
0.0
 11
223.543563178
 21
-81.2176179415
 31
0.0
  0
LINE
  5
37F
  8
0
  6
CONTINUOUS
 62
     7
 10
222.7435630468
 20
-81.2176179415
 30
0.0
 11
222.7435630468
 21
-80.8097999818
 31
0.0
  0
LINE
  5
380
  8
0
  6
CONTINUOUS
 62
     7
 10
311.343564531
 20
-81.2176179415
 30
0.0
 11
311.343564531
 21
-80.8097999818
 31
0.0
  0
LINE
  5
381
  8
0
  6
CONTINUOUS
 62
     7
 10
312.1435601918
 20
-60.441095782
 30
0.0
 11
312.1435601918
 21
-61.2019035774
 31
0.0
  0
LINE
  5
382
  8
0
  6
CONTINUOUS
 62
     7
 10
311.343564531
 20
-72.666375739
 30
0.0
 11
311.343564531
 21
-80.8097999818
 31
0.0
  0
LINE
  5
383
  8
0
  6
CONTINUOUS
 62
     7
 10
312.1435601918
 20
-60.441095782
 30
0.0
 11
311.343564531
 21
-60.441095782
 31
0.0
  0
LINE
  5
384
  8
0
  6
CONTINUOUS
 62
     7
 10
223.543563178
 20
-80.8097999818
 30
0.0
 11
223.543563178
 21
-67.4432207174
 31
0.0
  0
LINE
  5
385
  8
0
  6
CONTINUOUS
 62
     7
 10
222.7435630468
 20
-80.8097999818
 30
0.0
 11
222.7435630468
 21
-72.8012856371
 31
0.0
  0
LINE
  5
386
  8
0
  6
CONTINUOUS
 62
     7
 10
222.7435630468
 20
-61.2019035774
 30
0.0
 11
222.7435630468
 21
-60.441095782
 31
0.0
  0
LINE
  5
387
  8
0
  6
CONTINUOUS
 62
     7
 10
222.7435630468
 20
-60.441095782
 30
0.0
 11
223.543563178
 21
-60.441095782
 31
0.0
  0
LINE
  5
388
  8
0
  6
CONTINUOUS
 62
     7
 10
223.543563178
 20
-88.1427448518
 30
0.0
 11
223.543563178
 21
-81.2176179415
 31
0.0
  0
LINE
  5
389
  8
0
  6
CONTINUOUS
 62
     7
 10
222.7435630468
 20
-88.1427448518
 30
0.0
 11
222.7435630468
 21
-81.2176179415
 31
0.0
  0
LINE
  5
38A
  8
0
  6
CONTINUOUS
 62
     7
 10
311.343564531
 20
-81.2176179415
 30
0.0
 11
311.343564531
 21
-88.1427448518
 31
0.0
  0
LINE
  5
38B
  8
0
  6
CONTINUOUS
 62
     7
 10
223.543563178
 20
-88.1427448518
 30
0.0
 11
223.543563178
 21
-88.6016082293
 31
0.0
  0
LINE
  5
38C
  8
0
  6
CONTINUOUS
 62
     7
 10
222.7435630468
 20
-88.6016082293
 30
0.0
 11
222.7435630468
 21
-88.1427448518
 31
0.0
  0
LINE
  5
38D
  8
0
  6
CONTINUOUS
 62
     7
 10
311.343564531
 20
-88.6016082293
 30
0.0
 11
311.343564531
 21
-88.1427448518
 31
0.0
  0
LINE
  5
38E
  8
0
  6
CONTINUOUS
 62
     7
 10
312.1435601918
 20
-60.441095782
 30
0.0
 11
319.4435675351
 21
-60.441095782
 31
0.0
  0
LINE
  5
38F
  8
0
  6
CONTINUOUS
 62
     7
 10
213.4435631988
 20
-61.2019035774
 30
0.0
 11
213.4435631988
 21
-60.441095782
 31
0.0
  0
LINE
  5
390
  8
0
  6
CONTINUOUS
 62
     7
 10
213.4435631988
 20
-60.441095782
 30
0.0
 11
215.4435631541
 21
-60.441095782
 31
0.0
  0
LINE
  5
391
  8
0
  6
CONTINUOUS
 62
     7
 10
215.4435631541
 20
-60.441095782
 30
0.0
 11
222.7435630468
 21
-60.441095782
 31
0.0
  0
LINE
  5
392
  8
0
  6
CONTINUOUS
 62
     7
 10
321.4435656277
 20
-60.441095782
 30
0.0
 11
321.4435656277
 21
-61.2019035774
 31
0.0
  0
LINE
  5
393
  8
0
  6
CONTINUOUS
 62
     7
 10
319.4435675351
 20
-60.441095782
 30
0.0
 11
321.4435656277
 21
-60.441095782
 31
0.0
  0
LINE
  5
394
  8
0
  6
CONTINUOUS
 62
     7
 10
311.343564531
 20
-88.6016082293
 30
0.0
 11
311.343564531
 21
-95.6843238599
 31
0.0
  0
LINE
  5
395
  8
0
  6
CONTINUOUS
 62
     7
 10
223.543563178
 20
-95.6843238599
 30
0.0
 11
223.543563178
 21
-88.6016082293
 31
0.0
  0
LINE
  5
396
  8
0
  6
CONTINUOUS
 62
     7
 10
222.7435630468
 20
-95.6843238599
 30
0.0
 11
222.7435630468
 21
-88.6016082293
 31
0.0
  0
LINE
  5
397
  8
0
  6
CONTINUOUS
 62
     7
 10
321.4435656277
 20
-60.441095782
 30
0.0
 11
323.4435637204
 21
-60.441095782
 31
0.0
  0
LINE
  5
398
  8
0
  6
CONTINUOUS
 62
     7
 10
211.4435632435
 20
-60.441095782
 30
0.0
 11
213.4435631988
 21
-60.441095782
 31
0.0
  0
LINE
  5
399
  8
0
  6
CONTINUOUS
 62
     7
 10
222.7435630468
 20
-85.0410964615
 30
0.0
 11
222.3435629813
 21
-85.0410964615
 31
0.0
  0
LINE
  5
39A
  8
0
  6
CONTINUOUS
 62
     7
 10
222.3435629813
 20
-84.2410963303
 30
0.0
 11
222.7435630468
 21
-84.2410963303
 31
0.0
  0
LINE
  5
39B
  8
0
  6
CONTINUOUS
 62
     7
 10
311.343564531
 20
-95.6873696572
 30
0.0
 11
311.343564531
 21
-95.6843238599
 31
0.0
  0
LINE
  5
39C
  8
0
  6
CONTINUOUS
 62
     7
 10
223.543563178
 20
-95.6843238599
 30
0.0
 11
223.543563178
 21
-95.6873696572
 31
0.0
  0
LINE
  5
39D
  8
0
  6
CONTINUOUS
 62
     7
 10
222.7435630468
 20
-95.6873696572
 30
0.0
 11
222.7435630468
 21
-95.6843238599
 31
0.0
  0
ARC
  5
39E
  8
0
  6
CONTINUOUS
 62
     7
 10
85.0313938298
 20
-67.6199842986
 30
0.0
 40
2.212456814220016
 50
275.5030791883
 51
359.0790835865
  0
LINE
  5
39F
  8
0
  6
CONTINUOUS
 62
     7
 10
87.2435648648
 20
-67.6555436379
 30
0.0
 11
87.2435648648
 21
-67.681698156
 31
0.0
  0
LINE
  5
3A0
  8
0
  6
CONTINUOUS
 62
     7
 10
87.2435648648
 20
-72.4028077251
 30
0.0
 11
87.2435648648
 21
-77.5041427738
 31
0.0
  0
ARC
  5
3A1
  8
0
  6
CONTINUOUS
 62
     7
 10
85.4420513245
 20
-77.5297424663
 30
0.0
 40
1.80169541823334
 50
300.0242215958
 51
0.8141241188
  0
ARC
  5
3A2
  8
0
  6
CONTINUOUS
 62
     7
 10
1.8564027989
 20
-67.6193643961
 30
0.0
 40
2.21313834661488
 50
180.9366835124
 51
264.4811537128
  0
LINE
  5
3A3
  8
0
  6
CONTINUOUS
 62
     7
 10
-0.3564398082
 20
-77.5041427738
 30
0.0
 11
-0.3564398082
 21
-67.6555436379
 31
0.0
  0
ARC
  5
3A4
  8
0
  6
CONTINUOUS
 62
     7
 10
1.4451384897
 20
-77.5297057075
 30
0.0
 40
1.801759647415704
 50
179.1870739489
 51
239.9745803366
  0
LINE
  5
3A5
  8
0
  6
CONTINUOUS
 62
     7
 10
87.2435648648
 20
-63.0730476505
 30
0.0
 11
-0.3564398082
 21
-63.0730476505
 31
0.0
  0
LINE
  5
3A6
  8
0
  6
CONTINUOUS
 62
     7
 10
-0.3564398082
 20
-67.6555436379
 30
0.0
 11
-0.3564398082
 21
-63.0730476505
 31
0.0
  0
LINE
  5
3A7
  8
0
  6
CONTINUOUS
 62
     7
 10
87.2435648648
 20
-67.6555436379
 30
0.0
 11
87.2435648648
 21
-63.0730476505
 31
0.0
  0
LINE
  5
3A8
  8
0
  6
CONTINUOUS
 62
     7
 10
-0.3564398082
 20
-73.0610963232
 30
0.0
 11
-0.4564325603
 21
-73.0610963232
 31
0.0
  0
LINE
  5
3A9
  8
0
  6
CONTINUOUS
 62
     7
 10
-0.4564325603
 20
-63.0643321476
 30
0.0
 11
-0.4564325603
 21
-67.4432207174
 31
0.0
  0
LINE
  5
3AA
  8
0
  6
CONTINUOUS
 62
     7
 10
87.3435576169
 20
-63.0643321476
 30
0.0
 11
-0.4564325603
 21
-63.0643321476
 31
0.0
  0
LINE
  5
3AB
  8
0
  6
CONTINUOUS
 62
     7
 10
87.3435576169
 20
-63.0643321476
 30
0.0
 11
87.3435576169
 21
-63.0761431805
 31
0.0
  0
LINE
  5
3AC
  8
0
  6
CONTINUOUS
 62
     7
 10
87.3435576169
 20
-73.0610963232
 30
0.0
 11
87.2435648648
 21
-73.0610963232
 31
0.0
  0
LINE
  5
3AD
  8
0
  6
CONTINUOUS
 62
     7
 10
87.3435576169
 20
-60.441095782
 30
0.0
 11
-0.4564325603
 21
-60.441095782
 31
0.0
  0
LINE
  5
3AE
  8
0
  6
CONTINUOUS
 62
     7
 10
87.3435576169
 20
-60.441095782
 30
0.0
 11
87.3435576169
 21
-63.0643321476
 31
0.0
  0
LINE
  5
3AF
  8
0
  6
CONTINUOUS
 62
     7
 10
-0.4564325603
 20
-60.441095782
 30
0.0
 11
-0.4564325603
 21
-63.0643321476
 31
0.0
  0
LINE
  5
3B0
  8
0
  6
CONTINUOUS
 62
     7
 10
87.3435576169
 20
-81.2176179415
 30
0.0
 11
87.3435576169
 21
-80.8097999818
 31
0.0
  0
LINE
  5
3B1
  8
0
  6
CONTINUOUS
 62
     7
 10
-0.4564325603
 20
-80.8097999818
 30
0.0
 11
-0.4564325603
 21
-81.2176179415
 31
0.0
  0
LINE
  5
3B2
  8
0
  6
CONTINUOUS
 62
     7
 10
87.3435576169
 20
-72.666375739
 30
0.0
 11
87.3435576169
 21
-80.8097999818
 31
0.0
  0
LINE
  5
3B3
  8
0
  6
CONTINUOUS
 62
     7
 10
88.1435592381
 20
-60.441095782
 30
0.0
 11
88.1435592381
 21
-61.2019035774
 31
0.0
  0
LINE
  5
3B4
  8
0
  6
CONTINUOUS
 62
     7
 10
88.1435592381
 20
-60.441095782
 30
0.0
 11
87.3435576169
 21
-60.441095782
 31
0.0
  0
LINE
  5
3B5
  8
0
  6
CONTINUOUS
 62
     7
 10
-0.4564325603
 20
-80.8097999818
 30
0.0
 11
-0.4564325603
 21
-67.4432207174
 31
0.0
  0
LINE
  5
3B6
  8
0
  6
CONTINUOUS
 62
     7
 10
-1.2564461025
 20
-60.4759580789
 30
0.0
 11
-1.2564461025
 21
-60.441095782
 31
0.0
  0
LINE
  5
3B7
  8
0
  6
CONTINUOUS
 62
     7
 10
-1.2564461025
 20
-60.441095782
 30
0.0
 11
-0.4564325603
 21
-60.441095782
 31
0.0
  0
LINE
  5
3B8
  8
0
  6
CONTINUOUS
 62
     7
 10
-0.4564325603
 20
-88.1427448518
 30
0.0
 11
-0.4564325603
 21
-81.2176179415
 31
0.0
  0
LINE
  5
3B9
  8
0
  6
CONTINUOUS
 62
     7
 10
87.3435576169
 20
-81.2176179415
 30
0.0
 11
87.3435576169
 21
-88.1427448518
 31
0.0
  0
LINE
  5
3BA
  8
0
  6
CONTINUOUS
 62
     7
 10
-0.4564325603
 20
-88.1427448518
 30
0.0
 11
-0.4564325603
 21
-88.6016082293
 31
0.0
  0
LINE
  5
3BB
  8
0
  6
CONTINUOUS
 62
     7
 10
87.3435576169
 20
-88.6016082293
 30
0.0
 11
87.3435576169
 21
-88.1427448518
 31
0.0
  0
LINE
  5
3BC
  8
0
  6
CONTINUOUS
 62
     7
 10
-1.6564409526
 20
-60.441095782
 30
0.0
 11
-1.2564461025
 21
-60.441095782
 31
0.0
  0
LINE
  5
3BD
  8
0
  6
CONTINUOUS
 62
     7
 10
88.1435592381
 20
-60.441095782
 30
0.0
 11
95.4435665814
 21
-60.441095782
 31
0.0
  0
LINE
  5
3BE
  8
0
  6
CONTINUOUS
 62
     7
 10
97.443564674
 20
-60.441095782
 30
0.0
 11
97.443564674
 21
-61.2019035774
 31
0.0
  0
LINE
  5
3BF
  8
0
  6
CONTINUOUS
 62
     7
 10
95.4435665814
 20
-60.441095782
 30
0.0
 11
97.443564674
 21
-60.441095782
 31
0.0
  0
LINE
  5
3C0
  8
0
  6
CONTINUOUS
 62
     7
 10
-0.4564325603
 20
-95.6843238599
 30
0.0
 11
-0.4564325603
 21
-88.6016082293
 31
0.0
  0
LINE
  5
3C1
  8
0
  6
CONTINUOUS
 62
     7
 10
87.3435576169
 20
-88.6016082293
 30
0.0
 11
87.3435576169
 21
-95.6843238599
 31
0.0
  0
LINE
  5
3C2
  8
0
  6
CONTINUOUS
 62
     7
 10
97.443564674
 20
-60.441095782
 30
0.0
 11
99.4435627667
 21
-60.441095782
 31
0.0
  0
LINE
  5
3C3
  8
0
  6
CONTINUOUS
 62
     7
 10
87.3435576169
 20
-95.6873696572
 30
0.0
 11
87.3435576169
 21
-95.6843238599
 31
0.0
  0
LINE
  5
3C4
  8
0
  6
CONTINUOUS
 62
     7
 10
-0.4564325603
 20
-95.6843238599
 30
0.0
 11
-0.4564325603
 21
-95.6873696572
 31
0.0
  0
LINE
  5
3C5
  8
0
  6
CONTINUOUS
 62
     7
 10
478.1087610901
 20
50.5260078057
 30
0.0
 11
503.708762306
 21
50.5260078057
 31
0.0
  0
LINE
  5
3C6
  8
0
  6
CONTINUOUS
 62
     7
 10
478.1087610901
 20
111.7260066613
 30
0.0
 11
478.1087610901
 21
50.5260078057
 31
0.0
  0
LINE
  5
3C7
  8
0
  6
CONTINUOUS
 62
     7
 10
478.1087610901
 20
112.1260074719
 30
0.0
 11
503.708762306
 21
112.1260074719
 31
0.0
  0
LINE
  5
3C8
  8
0
  6
CONTINUOUS
 62
     7
 10
478.1087610901
 20
111.7260066613
 30
0.0
 11
478.1087610901
 21
112.1260074719
 31
0.0
  0
LINE
  5
3C9
  8
0
  6
CONTINUOUS
 62
     7
 10
504.1087601364
 20
111.7260066613
 30
0.0
 11
504.1087601364
 21
50.5260078057
 31
0.0
  0
LINE
  5
3CA
  8
0
  6
CONTINUOUS
 62
     7
 10
504.1087601364
 20
50.5260078057
 30
0.0
 11
503.708762306
 21
50.5260078057
 31
0.0
  0
ARC
  5
3CB
  8
0
  6
CONTINUOUS
 62
     7
 10
503.7087610901
 20
111.7260078057
 30
0.0
 40
0.4000000000000341
 50
0.0
 51
90.0
  0
LINE
  5
3CC
  8
0
  6
CONTINUOUS
 62
     7
 10
480.7320054651
 20
247.7894512757
 30
0.0
 11
485.7632365108
 21
248.2296196564
 31
0.0
  0
ARC
  5
3CD
  8
0
  6
CONTINUOUS
 62
     7
 10
485.7980984935
 20
247.8311451226
 30
0.0
 40
0.4000000000000077
 50
22.2493115512
 51
95.0
  0
LINE
  5
3CE
  8
0
  6
CONTINUOUS
 62
     7
 10
478.1087610901
 20
197.5496379479
 30
0.0
 11
478.1087610901
 21
112.9260090931
 31
0.0
  0
LINE
  5
3CF
  8
0
  6
CONTINUOUS
 62
     7
 10
478.1087610901
 20
197.8973714455
 30
0.0
 11
478.1134317521
 21
197.8977767571
 31
0.0
  0
POLYLINE
  5
3D0
  8
0
  6
CONTINUOUS
 62
     7
 66
     1
 10
0.0
 20
0.0
 30
0.0
  0
VERTEX
  5
6D1
  8
0
  6
CONTINUOUS
 62
     7
 10
478.1134317521
 20
197.8977767571
 30
0.0
  0
VERTEX
  5
6D2
  8
0
  6
CONTINUOUS
 62
     7
 10
478.1123563434
 20
197.9100672349
 30
0.0
  0
VERTEX
  5
6D3
  8
0
  6
CONTINUOUS
 62
     7
 10
478.1114148244
 20
197.9208318337
 30
0.0
  0
VERTEX
  5
6D4
  8
0
  6
CONTINUOUS
 62
     7
 10
478.1106112277
 20
197.9300228699
 30
0.0
  0
VERTEX
  5
6D5
  8
0
  6
CONTINUOUS
 62
     7
 10
478.109948994
 20
197.9375926598
 30
0.0
  0
VERTEX
  5
6D6
  8
0
  6
CONTINUOUS
 62
     7
 10
478.1094309593
 20
197.9435054406
 30
0.0
  0
VERTEX
  5
6D7
  8
0
  6
CONTINUOUS
 62
     7
 10
478.1090593419
 20
197.9477612122
 30
0.0
  0
VERTEX
  5
6D8
  8
0
  6
CONTINUOUS
 62
     7
 10
478.1088357329
 20
197.950312291
 30
0.0
  0
VERTEX
  5
6D9
  8
0
  6
CONTINUOUS
 62
     7
 10
478.1087610901
 20
197.9511705979
 30
0.0
  0
SEQEND
  5
722
  8
0
  6
CONTINUOUS
 62
     7
  0
LINE
  5
3D1
  8
0
  6
CONTINUOUS
 62
     7
 10
478.1087610901
 20
197.9511705979
 30
0.0
 11
498.333728689
 21
199.7206179246
 31
0.0
  0
LINE
  5
3D2
  8
0
  6
CONTINUOUS
 62
     7
 10
478.1087610901
 20
197.5496379479
 30
0.0
 11
478.1087610901
 21
197.8973714455
 31
0.0
  0
LINE
  5
3D3
  8
0
  6
CONTINUOUS
 62
     7
 10
513.6642370403
 20
112.5260082825
 30
0.0
 11
478.1087610901
 21
112.5260082825
 31
0.0
  0
LINE
  5
3D4
  8
0
  6
CONTINUOUS
 62
     7
 10
478.1087610901
 20
112.5260082825
 30
0.0
 11
478.1087610901
 21
112.9260090931
 31
0.0
  0
LINE
  5
3D5
  8
0
  6
CONTINUOUS
 62
     7
 10
506.8331006945
 20
195.5957500084
 30
0.0
 11
514.0627149523
 21
112.9608718499
 31
0.0
  0
ARC
  5
3D6
  8
0
  6
CONTINUOUS
 62
     7
 10
498.3685913275
 20
199.3221443691
 30
0.0
 40
0.4000000000000127
 50
65.0
 51
95.0
  0
LINE
  5
3D7
  8
0
  6
CONTINUOUS
 62
     7
 10
498.537639159
 20
199.6846644028
 30
0.0
 11
506.6036704958
 21
195.9234205826
 31
0.0
  0
ARC
  5
3D8
  8
0
  6
CONTINUOUS
 62
     7
 10
506.4346220704
 20
195.5608924628
 30
0.0
 40
0.3999999999999899
 50
5.0
 51
65.0
  0
ARC
  5
3D9
  8
0
  6
CONTINUOUS
 62
     7
 10
513.6642376897
 20
112.9260078057
 30
0.0
 40
0.3999999999999819
 50
270.0
 51
5.0
  0
LINE
  5
3DA
  8
0
  6
CONTINUOUS
 62
     7
 10
577.7087602795
 20
133.9260069474
 30
0.0
 11
512.2285041988
 21
133.9260069474
 31
0.0
  0
LINE
  5
3DB
  8
0
  6
CONTINUOUS
 62
     7
 10
577.7087602795
 20
138.1260065182
 30
0.0
 11
577.7087602795
 21
133.9260069474
 31
0.0
  0
LINE
  5
3DC
  8
0
  6
CONTINUOUS
 62
     7
 10
511.6510782421
 20
140.5260054215
 30
0.0
 11
575.3087613762
 21
140.5260054215
 31
0.0
  0
ARC
  5
3DD
  8
0
  6
CONTINUOUS
 62
     7
 10
575.3087689269
 20
138.126014069
 30
0.0
 40
2.399991352544701
 50
359.9998197387
 51
90.0001802613
  0
LINE
  5
3DE
  8
0
  6
CONTINUOUS
 62
     7
 10
572.9518387497
 20
125.9260086163
 30
0.0
 11
512.9284117401
 21
125.9260086163
 31
0.0
  0
LINE
  5
3DF
  8
0
  6
CONTINUOUS
 62
     7
 10
577.6283774555
 20
133.6260048493
 30
0.0
 11
573.2982490242
 21
126.1260060414
 31
0.0
  0
ARC
  5
3E0
  8
0
  6
CONTINUOUS
 62
     7
 10
572.9518391519
 20
126.3260078057
 30
0.0
 40
0.4000000000000807
 50
270.0
 51
330.0
  0
ARC
  5
3E1
  8
0
  6
CONTINUOUS
 62
     7
 10
577.1087610901
 20
133.9260078057
 30
0.0
 40
0.6000000000000227
 50
330.0
 51
0.0
  0
ARC
  5
3E2
  8
0
  6
CONTINUOUS
 62
     7
 10
506.43744798
 20
112.7133216821
 30
0.0
 40
0.4000000000000035
 50
207.9230096112
 51
275.0
  0
LINE
  5
3E3
  8
0
  6
CONTINUOUS
 62
     7
 10
508.8859263838
 20
112.5260082825
 30
0.0
 11
506.4723107994
 21
112.314840947
 31
0.0
  0
LINE
  5
3E4
  8
0
  6
CONTINUOUS
 62
     7
 10
478.1087610901
 20
112.1260074719
 30
0.0
 11
478.1087610901
 21
112.5260082825
 31
0.0
  0
LINE
  5
3E5
  8
0
  6
CONTINUOUS
 62
     7
 10
478.9087611281
 20
112.1260074719
 30
0.0
 11
478.9087611281
 21
112.5260082825
 31
0.0
  0
LINE
  5
3E6
  8
0
  6
CONTINUOUS
 62
     7
 10
501.9087616384
 20
112.5260082825
 30
0.0
 11
501.9087616384
 21
112.1260074719
 31
0.0
  0
LINE
  5
3E7
  8
0
  6
CONTINUOUS
 62
     7
 10
502.7087617696
 20
112.5260082825
 30
0.0
 11
502.7087617696
 21
112.1260074719
 31
0.0
  0
LINE
  5
3E8
  8
0
  6
CONTINUOUS
 62
     7
 10
478.1087610901
 20
247.5600329979
 30
0.0
 11
480.7319974557
 21
247.7895347222
 31
0.0
  0
LINE
  5
3E9
  8
0
  6
CONTINUOUS
 62
     7
 10
480.7319974557
 20
247.7895347222
 30
0.0
 11
485.0392419875
 21
198.5575048073
 31
0.0
  0
LINE
  5
3EA
  8
0
  6
CONTINUOUS
 62
     7
 10
478.1087610901
 20
197.8973714455
 30
0.0
 11
478.1087610901
 21
247.5600329979
 31
0.0
  0
LINE
  5
3EB
  8
0
  6
CONTINUOUS
 62
     7
 10
485.323208946
 20
248.0908362015
 30
0.0
 11
480.7407129586
 21
247.6899234398
 31
0.0
  0
LINE
  5
3EC
  8
0
  6
CONTINUOUS
 62
     7
 10
487.4899093092
 20
246.2727634057
 30
0.0
 11
491.6141275347
 21
199.1327373131
 31
0.0
  0
ARC
  5
3ED
  8
0
  6
CONTINUOUS
 62
     7
 10
485.4975238007
 20
246.0984508985
 30
0.0
 40
1.999996216115906
 50
5.0000388656
 51
95.0001063734
  0
ARC
  5
3EE
  8
0
  6
CONTINUOUS
 62
     7
 10
721.0416807037
 20
247.8311451226
 30
0.0
 40
0.4000000000000057
 50
90.0
 51
180.0
  0
LINE
  5
3EF
  8
0
  6
CONTINUOUS
 62
     7
 10
744.2416832786
 20
248.2311455353
 30
0.0
 11
721.0416839462
 21
248.2311455353
 31
0.0
  0
ARC
  5
3F0
  8
0
  6
CONTINUOUS
 62
     7
 10
744.2416807037
 20
247.8311451226
 30
0.0
 40
0.4000000000000909
 50
0.0
 51
90.0
  0
ARC
  5
3F1
  8
0
  6
CONTINUOUS
 62
     7
 10
945.0416807037
 20
247.8311451226
 30
0.0
 40
0.4000000000000057
 50
90.0
 51
180.0
  0
LINE
  5
3F2
  8
0
  6
CONTINUOUS
 62
     7
 10
968.2416842323
 20
248.2311455353
 30
0.0
 11
945.0416848999
 21
248.2311455353
 31
0.0
  0
ARC
  5
3F3
  8
0
  6
CONTINUOUS
 62
     7
 10
968.2416807037
 20
247.8311451226
 30
0.0
 40
0.4000000000000057
 50
0.0
 51
90.0
  0
ARC
  5
3F4
  8
0
  6
CONTINUOUS
 62
     7
 10
833.0416807037
 20
247.8311451226
 30
0.0
 40
0.4000000000000057
 50
90.0
 51
180.0
  0
LINE
  5
3F5
  8
0
  6
CONTINUOUS
 62
     7
 10
856.2416807752
 20
248.2311455353
 30
0.0
 11
833.0416806977
 21
248.2311455353
 31
0.0
  0
ARC
  5
3F6
  8
0
  6
CONTINUOUS
 62
     7
 10
856.2416807037
 20
247.8311451226
 30
0.0
 40
0.4000000000000057
 50
0.0
 51
90.0
  0
ARC
  5
3F7
  8
0
  6
CONTINUOUS
 62
     7
 10
620.4416807037
 20
199.3221443691
 30
0.0
 40
0.4000000000000341
 50
90.0
 51
180.0
  0
LINE
  5
3F8
  8
0
  6
CONTINUOUS
 62
     7
 10
631.3416765075
 20
199.7221438035
 30
0.0
 11
620.44167975
 21
199.7221438035
 31
0.0
  0
ARC
  5
3F9
  8
0
  6
CONTINUOUS
 62
     7
 10
631.3416807037
 20
199.3221443691
 30
0.0
 40
0.4000000000000341
 50
0.0
 51
90.0
  0
ARC
  5
3FA
  8
0
  6
CONTINUOUS
 62
     7
 10
1057.5416807037
 20
199.3221443691
 30
0.0
 40
0.4000000000000909
 50
90.0
 51
180.0
  0
LINE
  5
3FB
  8
0
  6
CONTINUOUS
 62
     7
 10
1068.4416816574
 20
199.7221438035
 30
0.0
 11
1057.5416848999
 21
199.7221438035
 31
0.0
  0
ARC
  5
3FC
  8
0
  6
CONTINUOUS
 62
     7
 10
1068.4416807037
 20
199.3221443691
 30
0.0
 40
0.4000000000000909
 50
0.0
 51
90.0
  0
LINE
  5
3FD
  8
0
  6
CONTINUOUS
 62
     7
 10
745.5508158546
 20
125.8515206917
 30
0.0
 11
831.3325480562
 21
125.8515206917
 31
0.0
  0
LINE
  5
3FE
  8
0
  6
CONTINUOUS
 62
     7
 10
745.5416784626
 20
132.726010476
 30
0.0
 11
744.6416781288
 21
132.726010476
 31
0.0
  0
LINE
  5
3FF
  8
0
  6
CONTINUOUS
 62
     7
 10
744.6416781288
 20
127.926006709
 30
0.0
 11
745.5416784626
 21
127.926006709
 31
0.0
  0
LINE
  5
400
  8
0
  6
CONTINUOUS
 62
     7
 10
832.2416805666
 20
132.726010476
 30
0.0
 11
831.3416809779
 21
132.726010476
 31
0.0
  0
LINE
  5
401
  8
0
  6
CONTINUOUS
 62
     7
 10
831.3416809779
 20
127.926006709
 30
0.0
 11
832.2416805666
 21
127.926006709
 31
0.0
  0
LINE
  5
402
  8
0
  6
CONTINUOUS
 62
     7
 10
633.6416766983
 20
132.726010476
 30
0.0
 11
632.6416776519
 21
132.726010476
 31
0.0
  0
LINE
  5
403
  8
0
  6
CONTINUOUS
 62
     7
 10
632.6416776519
 20
127.926006709
 30
0.0
 11
633.6416766983
 21
127.926006709
 31
0.0
  0
LINE
  5
404
  8
0
  6
CONTINUOUS
 62
     7
 10
720.2416823249
 20
132.726010476
 30
0.0
 11
719.2416832786
 21
132.726010476
 31
0.0
  0
LINE
  5
405
  8
0
  6
CONTINUOUS
 62
     7
 10
719.2416832786
 20
127.926006709
 30
0.0
 11
720.2416823249
 21
127.926006709
 31
0.0
  0
LINE
  5
406
  8
0
  6
CONTINUOUS
 62
     7
 10
857.5508133512
 20
125.8515206917
 30
0.0
 11
943.3325455528
 21
125.8515206917
 31
0.0
  0
LINE
  5
407
  8
0
  6
CONTINUOUS
 62
     7
 10
857.5416804295
 20
132.726010476
 30
0.0
 11
856.6416808408
 21
132.726010476
 31
0.0
  0
LINE
  5
408
  8
0
  6
CONTINUOUS
 62
     7
 10
856.6416808408
 20
127.926006709
 30
0.0
 11
857.5416804295
 21
127.926006709
 31
0.0
  0
LINE
  5
409
  8
0
  6
CONTINUOUS
 62
     7
 10
944.2416832786
 20
132.726010476
 30
0.0
 11
943.3416829448
 21
132.726010476
 31
0.0
  0
LINE
  5
40A
  8
0
  6
CONTINUOUS
 62
     7
 10
943.3416829448
 20
127.926006709
 30
0.0
 11
944.2416832786
 21
127.926006709
 31
0.0
  0
LINE
  5
40B
  8
0
  6
CONTINUOUS
 62
     7
 10
969.5508168083
 20
125.8515206917
 30
0.0
 11
1055.3325460296
 21
125.8515206917
 31
0.0
  0
LINE
  5
40C
  8
0
  6
CONTINUOUS
 62
     7
 10
969.5416853767
 20
132.726010476
 30
0.0
 11
968.6416790824
 21
132.726010476
 31
0.0
  0
LINE
  5
40D
  8
0
  6
CONTINUOUS
 62
     7
 10
968.6416790824
 20
127.926006709
 30
0.0
 11
969.5416853767
 21
127.926006709
 31
0.0
  0
LINE
  5
40E
  8
0
  6
CONTINUOUS
 62
     7
 10
1056.2416837554
 20
132.726010476
 30
0.0
 11
1055.3416774612
 21
132.726010476
 31
0.0
  0
LINE
  5
40F
  8
0
  6
CONTINUOUS
 62
     7
 10
1055.3416774612
 20
127.926006709
 30
0.0
 11
1056.2416837554
 21
127.926006709
 31
0.0
  0
LINE
  5
410
  8
0
  6
CONTINUOUS
 62
     7
 10
720.2340648513
 20
248.0984417542
 30
0.0
 11
632.6492832046
 21
248.0984417542
 31
0.0
  0
LINE
  5
411
  8
0
  6
CONTINUOUS
 62
     7
 10
632.5416848999
 20
198.9110795601
 30
0.0
 11
631.7416713577
 21
198.9110795601
 31
0.0
  0
LINE
  5
412
  8
0
  6
CONTINUOUS
 62
     7
 10
721.1416766983
 20
198.9110795601
 30
0.0
 11
720.8416865211
 21
198.9110795601
 31
0.0
  0
LINE
  5
413
  8
0
  6
CONTINUOUS
 62
     7
 10
720.6416771751
 20
198.9110795601
 30
0.0
 11
720.341675077
 21
198.9110795601
 31
0.0
  0
LINE
  5
414
  8
0
  6
CONTINUOUS
 62
     7
 10
632.5416848999
 20
129.1260091408
 30
0.0
 11
632.6416776519
 21
129.1260091408
 31
0.0
  0
LINE
  5
415
  8
0
  6
CONTINUOUS
 62
     7
 10
720.2416823249
 20
129.1260091408
 30
0.0
 11
720.341675077
 21
129.1260091408
 31
0.0
  0
LINE
  5
416
  8
0
  6
CONTINUOUS
 62
     7
 10
720.341675077
 20
131.5260080441
 30
0.0
 11
720.2416823249
 21
131.5260080441
 31
0.0
  0
LINE
  5
417
  8
0
  6
CONTINUOUS
 62
     7
 10
632.6416776519
 20
131.5260080441
 30
0.0
 11
632.5416848999
 21
131.5260080441
 31
0.0
  0
LINE
  5
418
  8
0
  6
CONTINUOUS
 62
     7
 10
944.2340717655
 20
248.0984417542
 30
0.0
 11
856.6492916089
 21
248.0984417542
 31
0.0
  0
LINE
  5
419
  8
0
  6
CONTINUOUS
 62
     7
 10
856.4416804355
 20
198.9110795601
 30
0.0
 11
855.741680507
 21
198.9110795601
 31
0.0
  0
LINE
  5
41A
  8
0
  6
CONTINUOUS
 62
     7
 10
945.1416776519
 20
198.9110795601
 30
0.0
 11
944.8416755538
 21
198.9110795601
 31
0.0
  0
LINE
  5
41B
  8
0
  6
CONTINUOUS
 62
     7
 10
944.6416781288
 20
198.9110795601
 30
0.0
 11
944.3416819911
 21
198.9110795601
 31
0.0
  0
LINE
  5
41C
  8
0
  6
CONTINUOUS
 62
     7
 10
856.5416806381
 20
129.1260091408
 30
0.0
 11
856.6416808408
 21
129.1260091408
 31
0.0
  0
LINE
  5
41D
  8
0
  6
CONTINUOUS
 62
     7
 10
944.2416832786
 20
129.1260091408
 30
0.0
 11
944.3416819911
 21
129.1260091408
 31
0.0
  0
LINE
  5
41E
  8
0
  6
CONTINUOUS
 62
     7
 10
944.3416819911
 20
131.5260080441
 30
0.0
 11
944.2416832786
 21
131.5260080441
 31
0.0
  0
LINE
  5
41F
  8
0
  6
CONTINUOUS
 62
     7
 10
856.6416808408
 20
131.5260080441
 30
0.0
 11
856.5416806381
 21
131.5260080441
 31
0.0
  0
LINE
  5
420
  8
0
  6
CONTINUOUS
 62
     7
 10
832.2340697985
 20
248.0984417542
 30
0.0
 11
744.6492896419
 21
248.0984417542
 31
0.0
  0
LINE
  5
421
  8
0
  6
CONTINUOUS
 62
     7
 10
744.4416807037
 20
198.9110795601
 30
0.0
 11
743.7416837554
 21
198.9110795601
 31
0.0
  0
LINE
  5
422
  8
0
  6
CONTINUOUS
 62
     7
 10
833.1416809004
 20
198.9110795601
 30
0.0
 11
832.8416810375
 21
198.9110795601
 31
0.0
  0
LINE
  5
423
  8
0
  6
CONTINUOUS
 62
     7
 10
832.6416806322
 20
198.9110795601
 30
0.0
 11
832.3416807693
 21
198.9110795601
 31
0.0
  0
LINE
  5
424
  8
0
  6
CONTINUOUS
 62
     7
 10
744.5416794162
 20
129.1260091408
 30
0.0
 11
744.6416781288
 21
129.1260091408
 31
0.0
  0
LINE
  5
425
  8
0
  6
CONTINUOUS
 62
     7
 10
832.2416805666
 20
129.1260091408
 30
0.0
 11
832.3416807693
 21
129.1260091408
 31
0.0
  0
LINE
  5
426
  8
0
  6
CONTINUOUS
 62
     7
 10
832.3416807693
 20
131.5260080441
 30
0.0
 11
832.2416805666
 21
131.5260080441
 31
0.0
  0
LINE
  5
427
  8
0
  6
CONTINUOUS
 62
     7
 10
744.6416781288
 20
131.5260080441
 30
0.0
 11
744.5416794162
 21
131.5260080441
 31
0.0
  0
LINE
  5
428
  8
0
  6
CONTINUOUS
 62
     7
 10
1056.2340782028
 20
248.0984417542
 30
0.0
 11
968.649296556
 21
248.0984417542
 31
0.0
  0
LINE
  5
429
  8
0
  6
CONTINUOUS
 62
     7
 10
968.4416816574
 20
198.9110795601
 30
0.0
 11
967.7416847091
 21
198.9110795601
 31
0.0
  0
LINE
  5
42A
  8
0
  6
CONTINUOUS
 62
     7
 10
1057.1416900497
 20
198.9110795601
 30
0.0
 11
1056.3416765075
 21
198.9110795601
 31
0.0
  0
LINE
  5
42B
  8
0
  6
CONTINUOUS
 62
     7
 10
968.5416863304
 20
129.1260091408
 30
0.0
 11
968.6416790824
 21
129.1260091408
 31
0.0
  0
LINE
  5
42C
  8
0
  6
CONTINUOUS
 62
     7
 10
1056.2416837554
 20
129.1260091408
 30
0.0
 11
1056.3416765075
 21
129.1260091408
 31
0.0
  0
LINE
  5
42D
  8
0
  6
CONTINUOUS
 62
     7
 10
1056.3416765075
 20
131.5260080441
 30
0.0
 11
1056.2416837554
 21
131.5260080441
 31
0.0
  0
LINE
  5
42E
  8
0
  6
CONTINUOUS
 62
     7
 10
968.6416790824
 20
131.5260080441
 30
0.0
 11
968.5416863304
 21
131.5260080441
 31
0.0
  0
LINE
  5
42F
  8
0
  6
CONTINUOUS
 62
     7
 10
622.4416778427
 20
112.1260074719
 30
0.0
 11
622.4416778427
 21
108.3260087117
 31
0.0
  0
LINE
  5
430
  8
0
  6
CONTINUOUS
 62
     7
 10
620.641689096
 20
108.3260087117
 30
0.0
 11
622.4416778427
 21
108.3260087117
 31
0.0
  0
LINE
  5
431
  8
0
  6
CONTINUOUS
 62
     7
 10
620.641689096
 20
108.3260087117
 30
0.0
 11
620.641689096
 21
50.5260078057
 31
0.0
  0
LINE
  5
432
  8
0
  6
CONTINUOUS
 62
     7
 10
620.8416746002
 20
112.1260074719
 30
0.0
 11
622.4416778427
 21
112.1260074719
 31
0.0
  0
LINE
  5
433
  8
0
  6
CONTINUOUS
 62
     7
 10
620.44167975
 20
111.7260066613
 30
0.0
 11
620.44167975
 21
50.5260078057
 31
0.0
  0
ARC
  5
434
  8
0
  6
CONTINUOUS
 62
     7
 10
620.8416807037
 20
111.7260078057
 30
0.0
 40
0.4000000000000909
 50
90.0
 51
180.0
  0
LINE
  5
435
  8
0
  6
CONTINUOUS
 62
     7
 10
620.44167975
 20
50.5260078057
 30
0.0
 11
620.641689096
 21
50.5260078057
 31
0.0
  0
LINE
  5
436
  8
0
  6
CONTINUOUS
 62
     7
 10
632.5416848999
 20
108.3260087117
 30
0.0
 11
632.5416848999
 21
114.5260063752
 31
0.0
  0
LINE
  5
437
  8
0
  6
CONTINUOUS
 62
     7
 10
632.5416848999
 20
114.5260063752
 30
0.0
 11
720.341675077
 21
114.5260063752
 31
0.0
  0
LINE
  5
438
  8
0
  6
CONTINUOUS
 62
     7
 10
720.341675077
 20
108.3260087117
 30
0.0
 11
720.341675077
 21
114.5260063752
 31
0.0
  0
LINE
  5
439
  8
0
  6
CONTINUOUS
 62
     7
 10
632.5416848999
 20
108.3260087117
 30
0.0
 11
720.341675077
 21
108.3260087117
 31
0.0
  0
LINE
  5
43A
  8
0
  6
CONTINUOUS
 62
     7
 10
732.2416828018
 20
108.3260087117
 30
0.0
 11
732.2416828018
 21
50.5260078057
 31
0.0
  0
LINE
  5
43B
  8
0
  6
CONTINUOUS
 62
     7
 10
730.4416821342
 20
112.1260074719
 30
0.0
 11
730.4416821342
 21
108.3260087117
 31
0.0
  0
ARC
  5
43C
  8
0
  6
CONTINUOUS
 62
     7
 10
732.0416807037
 20
111.7260078057
 30
0.0
 40
0.4000000000000199
 50
0.0
 51
90.0
  0
LINE
  5
43D
  8
0
  6
CONTINUOUS
 62
     7
 10
732.4416802268
 20
111.7260066613
 30
0.0
 11
732.4416802268
 21
50.5260078057
 31
0.0
  0
LINE
  5
43E
  8
0
  6
CONTINUOUS
 62
     7
 10
730.4416821342
 20
112.1260074719
 30
0.0
 11
732.0416853767
 21
112.1260074719
 31
0.0
  0
LINE
  5
43F
  8
0
  6
CONTINUOUS
 62
     7
 10
730.4416821342
 20
108.3260087117
 30
0.0
 11
732.2416828018
 21
108.3260087117
 31
0.0
  0
LINE
  5
440
  8
0
  6
CONTINUOUS
 62
     7
 10
732.2416828018
 20
50.5260078057
 30
0.0
 11
732.4416802268
 21
50.5260078057
 31
0.0
  0
LINE
  5
441
  8
0
  6
CONTINUOUS
 62
     7
 10
732.2416828018
 20
50.5260078057
 30
0.0
 11
730.4416821342
 21
50.5260078057
 31
0.0
  0
LINE
  5
442
  8
0
  6
CONTINUOUS
 62
     7
 10
713.4416864257
 20
50.5260078057
 30
0.0
 11
639.4416854721
 21
50.5260078057
 31
0.0
  0
LINE
  5
443
  8
0
  6
CONTINUOUS
 62
     7
 10
622.4416778427
 20
50.5260078057
 30
0.0
 11
620.641689096
 21
50.5260078057
 31
0.0
  0
LINE
  5
444
  8
0
  6
CONTINUOUS
 62
     7
 10
734.4416783195
 20
112.1260074719
 30
0.0
 11
734.4416783195
 21
108.3260087117
 31
0.0
  0
LINE
  5
445
  8
0
  6
CONTINUOUS
 62
     7
 10
732.6416776519
 20
108.3260087117
 30
0.0
 11
734.4416783195
 21
108.3260087117
 31
0.0
  0
LINE
  5
446
  8
0
  6
CONTINUOUS
 62
     7
 10
732.6416776519
 20
108.3260087117
 30
0.0
 11
732.6416776519
 21
50.5260078057
 31
0.0
  0
LINE
  5
447
  8
0
  6
CONTINUOUS
 62
     7
 10
732.841675077
 20
112.1260074719
 30
0.0
 11
734.4416783195
 21
112.1260074719
 31
0.0
  0
ARC
  5
448
  8
0
  6
CONTINUOUS
 62
     7
 10
732.8416807037
 20
111.7260078057
 30
0.0
 40
0.4000000000000909
 50
90.0
 51
180.0
  0
LINE
  5
449
  8
0
  6
CONTINUOUS
 62
     7
 10
732.4416802268
 20
50.5260078057
 30
0.0
 11
732.6416776519
 21
50.5260078057
 31
0.0
  0
LINE
  5
44A
  8
0
  6
CONTINUOUS
 62
     7
 10
744.5416794162
 20
108.3260087117
 30
0.0
 11
744.5416794162
 21
114.5260063752
 31
0.0
  0
LINE
  5
44B
  8
0
  6
CONTINUOUS
 62
     7
 10
744.5416794162
 20
114.5260063752
 30
0.0
 11
832.3416807693
 21
114.5260063752
 31
0.0
  0
LINE
  5
44C
  8
0
  6
CONTINUOUS
 62
     7
 10
832.3416807693
 20
108.3260087117
 30
0.0
 11
832.3416807693
 21
114.5260063752
 31
0.0
  0
LINE
  5
44D
  8
0
  6
CONTINUOUS
 62
     7
 10
744.5416794162
 20
108.3260087117
 30
0.0
 11
832.3416807693
 21
108.3260087117
 31
0.0
  0
LINE
  5
44E
  8
0
  6
CONTINUOUS
 62
     7
 10
844.2416806942
 20
108.3260087117
 30
0.0
 11
844.2416806942
 21
50.5260078057
 31
0.0
  0
LINE
  5
44F
  8
0
  6
CONTINUOUS
 62
     7
 10
842.4416807484
 20
112.1260074719
 30
0.0
 11
842.4416807484
 21
108.3260087117
 31
0.0
  0
ARC
  5
450
  8
0
  6
CONTINUOUS
 62
     7
 10
844.0416807037
 20
111.7260078057
 30
0.0
 40
0.4000000000000909
 50
0.0
 51
90.0
  0
LINE
  5
451
  8
0
  6
CONTINUOUS
 62
     7
 10
844.4416807037
 20
111.7260066613
 30
0.0
 11
844.4416807037
 21
50.5260078057
 31
0.0
  0
LINE
  5
452
  8
0
  6
CONTINUOUS
 62
     7
 10
842.4416807484
 20
112.1260074719
 30
0.0
 11
844.0416806847
 21
112.1260074719
 31
0.0
  0
LINE
  5
453
  8
0
  6
CONTINUOUS
 62
     7
 10
842.4416807484
 20
108.3260087117
 30
0.0
 11
844.2416806942
 21
108.3260087117
 31
0.0
  0
LINE
  5
454
  8
0
  6
CONTINUOUS
 62
     7
 10
844.2416806942
 20
50.5260078057
 30
0.0
 11
844.4416807037
 21
50.5260078057
 31
0.0
  0
LINE
  5
455
  8
0
  6
CONTINUOUS
 62
     7
 10
844.2416806942
 20
50.5260078057
 30
0.0
 11
842.4416807484
 21
50.5260078057
 31
0.0
  0
LINE
  5
456
  8
0
  6
CONTINUOUS
 62
     7
 10
825.4416809421
 20
50.5260078057
 30
0.0
 11
751.4416799884
 21
50.5260078057
 31
0.0
  0
LINE
  5
457
  8
0
  6
CONTINUOUS
 62
     7
 10
734.4416783195
 20
50.5260078057
 30
0.0
 11
732.6416776519
 21
50.5260078057
 31
0.0
  0
LINE
  5
458
  8
0
  6
CONTINUOUS
 62
     7
 10
958.4416792732
 20
112.1260074719
 30
0.0
 11
958.4416792732
 21
108.3260087117
 31
0.0
  0
LINE
  5
459
  8
0
  6
CONTINUOUS
 62
     7
 10
956.6416786056
 20
108.3260087117
 30
0.0
 11
958.4416792732
 21
108.3260087117
 31
0.0
  0
LINE
  5
45A
  8
0
  6
CONTINUOUS
 62
     7
 10
956.6416786056
 20
108.3260087117
 30
0.0
 11
956.6416786056
 21
50.5260078057
 31
0.0
  0
LINE
  5
45B
  8
0
  6
CONTINUOUS
 62
     7
 10
956.4416811805
 20
111.7260066613
 30
0.0
 11
956.4416811805
 21
50.5260078057
 31
0.0
  0
ARC
  5
45C
  8
0
  6
CONTINUOUS
 62
     7
 10
956.8416807037
 20
111.7260078057
 30
0.0
 40
0.4000000000000909
 50
90.0
 51
180.0
  0
LINE
  5
45D
  8
0
  6
CONTINUOUS
 62
     7
 10
956.8416760307
 20
112.1260074719
 30
0.0
 11
958.4416792732
 21
112.1260074719
 31
0.0
  0
LINE
  5
45E
  8
0
  6
CONTINUOUS
 62
     7
 10
956.4416811805
 20
50.5260078057
 30
0.0
 11
956.6416786056
 21
50.5260078057
 31
0.0
  0
LINE
  5
45F
  8
0
  6
CONTINUOUS
 62
     7
 10
968.5416863304
 20
114.5260063752
 30
0.0
 11
1056.3416765075
 21
114.5260063752
 31
0.0
  0
LINE
  5
460
  8
0
  6
CONTINUOUS
 62
     7
 10
1056.3416765075
 20
108.3260087117
 30
0.0
 11
1056.3416765075
 21
114.5260063752
 31
0.0
  0
LINE
  5
461
  8
0
  6
CONTINUOUS
 62
     7
 10
968.5416863304
 20
108.3260087117
 30
0.0
 11
968.5416863304
 21
114.5260063752
 31
0.0
  0
LINE
  5
462
  8
0
  6
CONTINUOUS
 62
     7
 10
968.5416863304
 20
108.3260087117
 30
0.0
 11
1056.3416765075
 21
108.3260087117
 31
0.0
  0
LINE
  5
463
  8
0
  6
CONTINUOUS
 62
     7
 10
1068.2416723114
 20
108.3260087117
 30
0.0
 11
1068.2416723114
 21
50.5260078057
 31
0.0
  0
ARC
  5
464
  8
0
  6
CONTINUOUS
 62
     7
 10
1068.0416807037
 20
111.7260078057
 30
0.0
 40
0.4000000000000199
 50
0.0
 51
90.0
  0
LINE
  5
465
  8
0
  6
CONTINUOUS
 62
     7
 10
1068.4416816574
 20
111.7260066613
 30
0.0
 11
1068.4416816574
 21
50.5260078057
 31
0.0
  0
LINE
  5
466
  8
0
  6
CONTINUOUS
 62
     7
 10
1066.4416835647
 20
112.1260074719
 30
0.0
 11
1066.4416835647
 21
108.3260087117
 31
0.0
  0
LINE
  5
467
  8
0
  6
CONTINUOUS
 62
     7
 10
1066.4416835647
 20
112.1260074719
 30
0.0
 11
1068.0416868072
 21
112.1260074719
 31
0.0
  0
LINE
  5
468
  8
0
  6
CONTINUOUS
 62
     7
 10
1066.4416835647
 20
108.3260087117
 30
0.0
 11
1068.2416723114
 21
108.3260087117
 31
0.0
  0
LINE
  5
469
  8
0
  6
CONTINUOUS
 62
     7
 10
1068.2416723114
 20
50.5260078057
 30
0.0
 11
1068.4416816574
 21
50.5260078057
 31
0.0
  0
LINE
  5
46A
  8
0
  6
CONTINUOUS
 62
     7
 10
1068.2416723114
 20
50.5260078057
 30
0.0
 11
1066.4416835647
 21
50.5260078057
 31
0.0
  0
LINE
  5
46B
  8
0
  6
CONTINUOUS
 62
     7
 10
1049.4416759353
 20
50.5260078057
 30
0.0
 11
975.4416749816
 21
50.5260078057
 31
0.0
  0
LINE
  5
46C
  8
0
  6
CONTINUOUS
 62
     7
 10
958.4416792732
 20
50.5260078057
 30
0.0
 11
956.6416786056
 21
50.5260078057
 31
0.0
  0
LINE
  5
46D
  8
0
  6
CONTINUOUS
 62
     7
 10
846.441680659
 20
112.1260074719
 30
0.0
 11
846.441680659
 21
108.3260087117
 31
0.0
  0
LINE
  5
46E
  8
0
  6
CONTINUOUS
 62
     7
 10
844.6416807132
 20
108.3260087117
 30
0.0
 11
846.441680659
 21
108.3260087117
 31
0.0
  0
LINE
  5
46F
  8
0
  6
CONTINUOUS
 62
     7
 10
844.6416807132
 20
108.3260087117
 30
0.0
 11
844.6416807132
 21
50.5260078057
 31
0.0
  0
LINE
  5
470
  8
0
  6
CONTINUOUS
 62
     7
 10
844.4416807037
 20
50.5260078057
 30
0.0
 11
844.6416807132
 21
50.5260078057
 31
0.0
  0
ARC
  5
471
  8
0
  6
CONTINUOUS
 62
     7
 10
844.8416807037
 20
111.7260078057
 30
0.0
 40
0.4000000000000199
 50
90.0
 51
180.0
  0
LINE
  5
472
  8
0
  6
CONTINUOUS
 62
     7
 10
844.8416807227
 20
112.1260074719
 30
0.0
 11
846.441680659
 21
112.1260074719
 31
0.0
  0
LINE
  5
473
  8
0
  6
CONTINUOUS
 62
     7
 10
944.3416819911
 20
108.3260087117
 30
0.0
 11
944.3416819911
 21
114.5260063752
 31
0.0
  0
LINE
  5
474
  8
0
  6
CONTINUOUS
 62
     7
 10
856.5416806381
 20
114.5260063752
 30
0.0
 11
944.3416819911
 21
114.5260063752
 31
0.0
  0
LINE
  5
475
  8
0
  6
CONTINUOUS
 62
     7
 10
856.5416806381
 20
108.3260087117
 30
0.0
 11
856.5416806381
 21
114.5260063752
 31
0.0
  0
LINE
  5
476
  8
0
  6
CONTINUOUS
 62
     7
 10
856.5416806381
 20
108.3260087117
 30
0.0
 11
944.3416819911
 21
108.3260087117
 31
0.0
  0
LINE
  5
477
  8
0
  6
CONTINUOUS
 62
     7
 10
956.2416837554
 20
108.3260087117
 30
0.0
 11
956.2416837554
 21
50.5260078057
 31
0.0
  0
ARC
  5
478
  8
0
  6
CONTINUOUS
 62
     7
 10
956.0416807037
 20
111.7260078057
 30
0.0
 40
0.4000000000000199
 50
0.0
 51
90.0
  0
LINE
  5
479
  8
0
  6
CONTINUOUS
 62
     7
 10
954.4416830879
 20
112.1260074719
 30
0.0
 11
954.4416830879
 21
108.3260087117
 31
0.0
  0
LINE
  5
47A
  8
0
  6
CONTINUOUS
 62
     7
 10
954.4416830879
 20
112.1260074719
 30
0.0
 11
956.0416863304
 21
112.1260074719
 31
0.0
  0
LINE
  5
47B
  8
0
  6
CONTINUOUS
 62
     7
 10
954.4416830879
 20
108.3260087117
 30
0.0
 11
956.2416837554
 21
108.3260087117
 31
0.0
  0
LINE
  5
47C
  8
0
  6
CONTINUOUS
 62
     7
 10
956.2416837554
 20
50.5260078057
 30
0.0
 11
956.4416811805
 21
50.5260078057
 31
0.0
  0
LINE
  5
47D
  8
0
  6
CONTINUOUS
 62
     7
 10
956.2416837554
 20
50.5260078057
 30
0.0
 11
954.4416830879
 21
50.5260078057
 31
0.0
  0
LINE
  5
47E
  8
0
  6
CONTINUOUS
 62
     7
 10
937.4416814189
 20
50.5260078057
 30
0.0
 11
863.4416804653
 21
50.5260078057
 31
0.0
  0
LINE
  5
47F
  8
0
  6
CONTINUOUS
 62
     7
 10
846.441680659
 20
50.5260078057
 30
0.0
 11
844.6416807132
 21
50.5260078057
 31
0.0
  0
LINE
  5
480
  8
0
  6
CONTINUOUS
 62
     7
 10
734.4416783195
 20
112.7260057076
 30
0.0
 11
730.4416821342
 21
112.7260057076
 31
0.0
  0
LINE
  5
481
  8
0
  6
CONTINUOUS
 62
     7
 10
730.4416821342
 20
112.5260082825
 30
0.0
 11
734.4416783195
 21
112.5260082825
 31
0.0
  0
LINE
  5
482
  8
0
  6
CONTINUOUS
 62
     7
 10
744.4416807037
 20
243.6417309388
 30
0.0
 11
744.5416794162
 21
243.6417309388
 31
0.0
  0
LINE
  5
483
  8
0
  6
CONTINUOUS
 62
     7
 10
744.4416807037
 20
243.6417309388
 30
0.0
 11
744.4416807037
 21
247.4272696122
 31
0.0
  0
LINE
  5
484
  8
0
  6
CONTINUOUS
 62
     7
 10
720.8416865211
 20
247.4272696122
 30
0.0
 11
744.4416807037
 21
247.4272696122
 31
0.0
  0
LINE
  5
485
  8
0
  6
CONTINUOUS
 62
     7
 10
720.8416865211
 20
247.4272696122
 30
0.0
 11
720.8416865211
 21
243.6417309388
 31
0.0
  0
LINE
  5
486
  8
0
  6
CONTINUOUS
 62
     7
 10
720.8416865211
 20
243.6417309388
 30
0.0
 11
720.6416771751
 21
243.6417309388
 31
0.0
  0
LINE
  5
487
  8
0
  6
CONTINUOUS
 62
     7
 10
720.6416771751
 20
247.2280232056
 30
0.0
 11
720.6416771751
 21
243.6417309388
 31
0.0
  0
ARC
  5
488
  8
0
  6
CONTINUOUS
 62
     7
 10
721.0409097049
 20
247.2272716113
 30
0.0
 40
0.3992332372968915
 50
89.8888850414
 51
179.8921352073
  0
LINE
  5
489
  8
0
  6
CONTINUOUS
 62
     7
 10
721.0416839462
 20
247.6265040978
 30
0.0
 11
744.2416832786
 21
247.6265040978
 31
0.0
  0
ARC
  5
48A
  8
0
  6
CONTINUOUS
 62
     7
 10
744.24191727
 20
247.2260206363
 30
0.0
 40
0.4004835298294198
 50
41.5393418363
 51
90.0334763269
  0
LINE
  5
48B
  8
0
  6
CONTINUOUS
 62
     7
 10
720.6416771751
 20
247.2280232056
 30
0.0
 11
720.6416771751
 21
247.8311506852
 31
0.0
  0
LINE
  5
48C
  8
0
  6
CONTINUOUS
 62
     7
 10
720.8416865211
 20
198.6839262589
 30
0.0
 11
720.6416771751
 21
198.6839262589
 31
0.0
  0
LINE
  5
48D
  8
0
  6
CONTINUOUS
 62
     7
 10
720.6416771751
 20
198.6839262589
 30
0.0
 11
720.6416771751
 21
243.6417309388
 31
0.0
  0
LINE
  5
48E
  8
0
  6
CONTINUOUS
 62
     7
 10
720.8416865211
 20
198.6839262589
 30
0.0
 11
720.8416865211
 21
243.6417309388
 31
0.0
  0
LINE
  5
48F
  8
0
  6
CONTINUOUS
 62
     7
 10
744.4416807037
 20
198.6839262589
 30
0.0
 11
744.5416794162
 21
198.6839262589
 31
0.0
  0
LINE
  5
490
  8
0
  6
CONTINUOUS
 62
     7
 10
744.4416807037
 20
198.6839262589
 30
0.0
 11
744.4416807037
 21
243.6417309388
 31
0.0
  0
LINE
  5
491
  8
0
  6
CONTINUOUS
 62
     7
 10
721.9416783195
 20
199.0151135071
 30
0.0
 11
743.3416769844
 21
199.0151135071
 31
0.0
  0
LINE
  5
492
  8
0
  6
CONTINUOUS
 62
     7
 10
720.8416865211
 20
199.0151135071
 30
0.0
 11
721.9416783195
 21
199.0151135071
 31
0.0
  0
LINE
  5
493
  8
0
  6
CONTINUOUS
 62
     7
 10
743.3416769844
 20
199.0151135071
 30
0.0
 11
744.4416807037
 21
199.0151135071
 31
0.0
  0
ARC
  5
494
  8
0
  6
CONTINUOUS
 62
     7
 10
721.9409297557
 20
198.2846799406
 30
0.0
 40
0.3992470200993443
 50
89.8925738485
 51
179.8901539317
  0
LINE
  5
495
  8
0
  6
CONTINUOUS
 62
     7
 10
721.5416834693
 20
198.2854453667
 30
0.0
 11
721.5416834693
 21
199.0151135071
 31
0.0
  0
ARC
  5
496
  8
0
  6
CONTINUOUS
 62
     7
 10
743.3424324821
 20
198.2846749571
 30
0.0
 40
0.3992520166441341
 50
0.1105598651
 51
90.1084198862
  0
LINE
  5
497
  8
0
  6
CONTINUOUS
 62
     7
 10
721.7416808944
 20
198.4846798523
 30
0.0
 11
743.5416863304
 21
198.4846798523
 31
0.0
  0
LINE
  5
498
  8
0
  6
CONTINUOUS
 62
     7
 10
721.9416783195
 20
198.6839262589
 30
0.0
 11
743.3416769844
 21
198.6839262589
 31
0.0
  0
LINE
  5
499
  8
0
  6
CONTINUOUS
 62
     7
 10
743.7416837554
 20
198.2854453667
 30
0.0
 11
743.7416837554
 21
197.8650299653
 31
0.0
  0
LINE
  5
49A
  8
0
  6
CONTINUOUS
 62
     7
 10
721.5416834693
 20
198.2854453667
 30
0.0
 11
721.5416834693
 21
195.126005803
 31
0.0
  0
LINE
  5
49B
  8
0
  6
CONTINUOUS
 62
     7
 10
743.5416863304
 20
198.4846798523
 30
0.0
 11
743.5416863304
 21
195.126005803
 31
0.0
  0
LINE
  5
49C
  8
0
  6
CONTINUOUS
 62
     7
 10
721.7416808944
 20
198.4846798523
 30
0.0
 11
721.7416808944
 21
195.126005803
 31
0.0
  0
LINE
  5
49D
  8
0
  6
CONTINUOUS
 62
     7
 10
743.7416837554
 20
199.0151135071
 30
0.0
 11
743.7416837554
 21
198.2854453667
 31
0.0
  0
LINE
  5
49E
  8
0
  6
CONTINUOUS
 62
     7
 10
721.7416808944
 20
195.6933585747
 30
0.0
 11
743.5416863304
 21
195.6933585747
 31
0.0
  0
LINE
  5
49F
  8
0
  6
CONTINUOUS
 62
     7
 10
958.4416792732
 20
112.7260057076
 30
0.0
 11
954.4416830879
 21
112.7260057076
 31
0.0
  0
LINE
  5
4A0
  8
0
  6
CONTINUOUS
 62
     7
 10
954.4416830879
 20
112.5260082825
 30
0.0
 11
958.4416792732
 21
112.5260082825
 31
0.0
  0
LINE
  5
4A1
  8
0
  6
CONTINUOUS
 62
     7
 10
944.6416781288
 20
247.2280232056
 30
0.0
 11
944.6416781288
 21
247.8311506852
 31
0.0
  0
ARC
  5
4A2
  8
0
  6
CONTINUOUS
 62
     7
 10
945.0409106586
 20
247.2272716113
 30
0.0
 40
0.3992332372972232
 50
89.8888850415
 51
179.8921352073
  0
LINE
  5
4A3
  8
0
  6
CONTINUOUS
 62
     7
 10
968.4416816574
 20
243.6417309388
 30
0.0
 11
968.5416863304
 21
243.6417309388
 31
0.0
  0
LINE
  5
4A4
  8
0
  6
CONTINUOUS
 62
     7
 10
968.4416816574
 20
243.6417309388
 30
0.0
 11
968.4416816574
 21
247.4272696122
 31
0.0
  0
LINE
  5
4A5
  8
0
  6
CONTINUOUS
 62
     7
 10
944.8416755538
 20
247.4272696122
 30
0.0
 11
968.4416816574
 21
247.4272696122
 31
0.0
  0
LINE
  5
4A6
  8
0
  6
CONTINUOUS
 62
     7
 10
944.8416755538
 20
247.4272696122
 30
0.0
 11
944.8416755538
 21
243.6417309388
 31
0.0
  0
LINE
  5
4A7
  8
0
  6
CONTINUOUS
 62
     7
 10
944.8416755538
 20
243.6417309388
 30
0.0
 11
944.6416781288
 21
243.6417309388
 31
0.0
  0
LINE
  5
4A8
  8
0
  6
CONTINUOUS
 62
     7
 10
944.6416781288
 20
247.2280232056
 30
0.0
 11
944.6416781288
 21
243.6417309388
 31
0.0
  0
LINE
  5
4A9
  8
0
  6
CONTINUOUS
 62
     7
 10
945.0416848999
 20
247.6265040978
 30
0.0
 11
968.2416842323
 21
247.6265040978
 31
0.0
  0
ARC
  5
4AA
  8
0
  6
CONTINUOUS
 62
     7
 10
968.2418628594
 20
247.2258842769
 30
0.0
 40
0.4006198606756809
 50
41.5481229252
 51
90.0255468604
  0
LINE
  5
4AB
  8
0
  6
CONTINUOUS
 62
     7
 10
944.8416755538
 20
198.6839262589
 30
0.0
 11
944.6416781288
 21
198.6839262589
 31
0.0
  0
LINE
  5
4AC
  8
0
  6
CONTINUOUS
 62
     7
 10
944.6416781288
 20
198.6839262589
 30
0.0
 11
944.6416781288
 21
243.6417309388
 31
0.0
  0
LINE
  5
4AD
  8
0
  6
CONTINUOUS
 62
     7
 10
944.8416755538
 20
198.6839262589
 30
0.0
 11
944.8416755538
 21
243.6417309388
 31
0.0
  0
LINE
  5
4AE
  8
0
  6
CONTINUOUS
 62
     7
 10
968.4416816574
 20
198.6839262589
 30
0.0
 11
968.5416863304
 21
198.6839262589
 31
0.0
  0
LINE
  5
4AF
  8
0
  6
CONTINUOUS
 62
     7
 10
968.4416816574
 20
198.6839262589
 30
0.0
 11
968.4416816574
 21
243.6417309388
 31
0.0
  0
LINE
  5
4B0
  8
0
  6
CONTINUOUS
 62
     7
 10
945.9416792732
 20
199.0151135071
 30
0.0
 11
967.341677938
 21
199.0151135071
 31
0.0
  0
LINE
  5
4B1
  8
0
  6
CONTINUOUS
 62
     7
 10
944.8416755538
 20
199.0151135071
 30
0.0
 11
945.9416792732
 21
199.0151135071
 31
0.0
  0
LINE
  5
4B2
  8
0
  6
CONTINUOUS
 62
     7
 10
967.341677938
 20
199.0151135071
 30
0.0
 11
968.4416816574
 21
199.0151135071
 31
0.0
  0
ARC
  5
4B3
  8
0
  6
CONTINUOUS
 62
     7
 10
967.3424214981
 20
198.2846629737
 30
0.0
 40
0.3992639776128237
 50
0.1122762162
 51
90.1067035351
  0
LINE
  5
4B4
  8
0
  6
CONTINUOUS
 62
     7
 10
945.7416818481
 20
198.4846798523
 30
0.0
 11
967.5416753631
 21
198.4846798523
 31
0.0
  0
ARC
  5
4B5
  8
0
  6
CONTINUOUS
 62
     7
 10
945.9409307094
 20
198.2846799406
 30
0.0
 40
0.3992470200994581
 50
89.8925738485
 51
179.8901539316
  0
LINE
  5
4B6
  8
0
  6
CONTINUOUS
 62
     7
 10
945.9416792732
 20
198.6839262589
 30
0.0
 11
967.341677938
 21
198.6839262589
 31
0.0
  0
LINE
  5
4B7
  8
0
  6
CONTINUOUS
 62
     7
 10
967.7416847091
 20
198.2854453667
 30
0.0
 11
967.7416847091
 21
197.8650299653
 31
0.0
  0
LINE
  5
4B8
  8
0
  6
CONTINUOUS
 62
     7
 10
945.541684423
 20
198.2854453667
 30
0.0
 11
945.541684423
 21
195.126005803
 31
0.0
  0
LINE
  5
4B9
  8
0
  6
CONTINUOUS
 62
     7
 10
967.5416753631
 20
198.4846798523
 30
0.0
 11
967.5416753631
 21
195.126005803
 31
0.0
  0
LINE
  5
4BA
  8
0
  6
CONTINUOUS
 62
     7
 10
945.7416818481
 20
198.4846798523
 30
0.0
 11
945.7416818481
 21
195.126005803
 31
0.0
  0
LINE
  5
4BB
  8
0
  6
CONTINUOUS
 62
     7
 10
945.541684423
 20
198.2854453667
 30
0.0
 11
945.541684423
 21
199.0151135071
 31
0.0
  0
LINE
  5
4BC
  8
0
  6
CONTINUOUS
 62
     7
 10
967.7416847091
 20
199.0151135071
 30
0.0
 11
967.7416847091
 21
198.2854453667
 31
0.0
  0
LINE
  5
4BD
  8
0
  6
CONTINUOUS
 62
     7
 10
945.7416818481
 20
195.6933585747
 30
0.0
 11
967.5416753631
 21
195.6933585747
 31
0.0
  0
LINE
  5
4BE
  8
0
  6
CONTINUOUS
 62
     7
 10
846.441680659
 20
112.7260057076
 30
0.0
 11
842.4416807484
 21
112.7260057076
 31
0.0
  0
LINE
  5
4BF
  8
0
  6
CONTINUOUS
 62
     7
 10
842.4416807484
 20
112.5260082825
 30
0.0
 11
846.441680659
 21
112.5260082825
 31
0.0
  0
LINE
  5
4C0
  8
0
  6
CONTINUOUS
 62
     7
 10
832.6416806322
 20
247.2280232056
 30
0.0
 11
832.6416806322
 21
247.8311506852
 31
0.0
  0
ARC
  5
4C1
  8
0
  6
CONTINUOUS
 62
     7
 10
833.0409129866
 20
247.2272717744
 30
0.0
 40
0.3992330615612177
 50
89.8898221582
 51
179.8921585708
  0
LINE
  5
4C2
  8
0
  6
CONTINUOUS
 62
     7
 10
856.4416804355
 20
243.6417309388
 30
0.0
 11
856.5416806381
 21
243.6417309388
 31
0.0
  0
LINE
  5
4C3
  8
0
  6
CONTINUOUS
 62
     7
 10
856.4416804355
 20
243.6417309388
 30
0.0
 11
856.4416804355
 21
247.4272696122
 31
0.0
  0
LINE
  5
4C4
  8
0
  6
CONTINUOUS
 62
     7
 10
832.8416810375
 20
247.4272696122
 30
0.0
 11
856.4416804355
 21
247.4272696122
 31
0.0
  0
LINE
  5
4C5
  8
0
  6
CONTINUOUS
 62
     7
 10
832.8416810375
 20
247.4272696122
 30
0.0
 11
832.8416810375
 21
243.6417309388
 31
0.0
  0
LINE
  5
4C6
  8
0
  6
CONTINUOUS
 62
     7
 10
832.8416810375
 20
243.6417309388
 30
0.0
 11
832.6416806322
 21
243.6417309388
 31
0.0
  0
LINE
  5
4C7
  8
0
  6
CONTINUOUS
 62
     7
 10
832.6416806322
 20
247.2280232056
 30
0.0
 11
832.6416806322
 21
243.6417309388
 31
0.0
  0
LINE
  5
4C8
  8
0
  6
CONTINUOUS
 62
     7
 10
833.0416806977
 20
247.6265040978
 30
0.0
 11
856.2416807752
 21
247.6265040978
 31
0.0
  0
ARC
  5
4C9
  8
0
  6
CONTINUOUS
 62
     7
 10
856.2419015135
 20
247.2259828878
 30
0.0
 40
0.4005212708032581
 50
41.541773146
 51
90.0315772844
  0
LINE
  5
4CA
  8
0
  6
CONTINUOUS
 62
     7
 10
832.8416810375
 20
198.6839262589
 30
0.0
 11
832.6416806322
 21
198.6839262589
 31
0.0
  0
LINE
  5
4CB
  8
0
  6
CONTINUOUS
 62
     7
 10
832.6416806322
 20
198.6839262589
 30
0.0
 11
832.6416806322
 21
243.6417309388
 31
0.0
  0
LINE
  5
4CC
  8
0
  6
CONTINUOUS
 62
     7
 10
832.8416810375
 20
198.6839262589
 30
0.0
 11
832.8416810375
 21
243.6417309388
 31
0.0
  0
LINE
  5
4CD
  8
0
  6
CONTINUOUS
 62
     7
 10
856.4416804355
 20
198.6839262589
 30
0.0
 11
856.5416806381
 21
198.6839262589
 31
0.0
  0
LINE
  5
4CE
  8
0
  6
CONTINUOUS
 62
     7
 10
856.4416804355
 20
198.6839262589
 30
0.0
 11
856.4416804355
 21
243.6417309388
 31
0.0
  0
LINE
  5
4CF
  8
0
  6
CONTINUOUS
 62
     7
 10
833.9416810315
 20
199.0151135071
 30
0.0
 11
855.3416804414
 21
199.0151135071
 31
0.0
  0
LINE
  5
4D0
  8
0
  6
CONTINUOUS
 62
     7
 10
832.8416810375
 20
199.0151135071
 30
0.0
 11
833.9416810315
 21
199.0151135071
 31
0.0
  0
LINE
  5
4D1
  8
0
  6
CONTINUOUS
 62
     7
 10
855.3416804414
 20
199.0151135071
 30
0.0
 11
856.4416804355
 21
199.0151135071
 31
0.0
  0
ARC
  5
4D2
  8
0
  6
CONTINUOUS
 62
     7
 10
833.9409316412
 20
198.2846755448
 30
0.0
 40
0.3992514173889478
 50
89.8924564135
 51
179.8895243154
  0
LINE
  5
4D3
  8
0
  6
CONTINUOUS
 62
     7
 10
833.5416809659
 20
198.2854453667
 30
0.0
 11
833.5416809659
 21
199.0151135071
 31
0.0
  0
ARC
  5
4D4
  8
0
  6
CONTINUOUS
 62
     7
 10
855.3424294089
 20
198.2846751203
 30
0.0
 40
0.3992518410618969
 50
0.1105364818
 51
90.1074827893
  0
LINE
  5
4D5
  8
0
  6
CONTINUOUS
 62
     7
 10
833.7416806262
 20
198.4846798523
 30
0.0
 11
855.5416808467
 21
198.4846798523
 31
0.0
  0
LINE
  5
4D6
  8
0
  6
CONTINUOUS
 62
     7
 10
833.9416810315
 20
198.6839262589
 30
0.0
 11
855.3416804414
 21
198.6839262589
 31
0.0
  0
LINE
  5
4D7
  8
0
  6
CONTINUOUS
 62
     7
 10
855.741680507
 20
198.2854453667
 30
0.0
 11
855.741680507
 21
197.8650299653
 31
0.0
  0
LINE
  5
4D8
  8
0
  6
CONTINUOUS
 62
     7
 10
833.5416809659
 20
198.2854453667
 30
0.0
 11
833.5416809659
 21
195.126005803
 31
0.0
  0
LINE
  5
4D9
  8
0
  6
CONTINUOUS
 62
     7
 10
855.5416808467
 20
198.4846798523
 30
0.0
 11
855.5416808467
 21
195.126005803
 31
0.0
  0
LINE
  5
4DA
  8
0
  6
CONTINUOUS
 62
     7
 10
833.7416806262
 20
198.4846798523
 30
0.0
 11
833.7416806262
 21
195.126005803
 31
0.0
  0
LINE
  5
4DB
  8
0
  6
CONTINUOUS
 62
     7
 10
855.741680507
 20
199.0151135071
 30
0.0
 11
855.741680507
 21
198.2854453667
 31
0.0
  0
LINE
  5
4DC
  8
0
  6
CONTINUOUS
 62
     7
 10
833.7416806262
 20
195.6933585747
 30
0.0
 11
855.5416808467
 21
195.6933585747
 31
0.0
  0
LINE
  5
4DD
  8
0
  6
CONTINUOUS
 62
     7
 10
620.44167975
 20
112.5260082825
 30
0.0
 11
622.0416829925
 21
112.5260082825
 31
0.0
  0
ARC
  5
4DE
  8
0
  6
CONTINUOUS
 62
     7
 10
620.4416807037
 20
112.9260078057
 30
0.0
 40
0.4000000000000057
 50
180.0
 51
270.0
  0
LINE
  5
4DF
  8
0
  6
CONTINUOUS
 62
     7
 10
620.0416848999
 20
197.5496379479
 30
0.0
 11
620.0416848999
 21
112.9260090931
 31
0.0
  0
ARC
  5
4E0
  8
0
  6
CONTINUOUS
 62
     7
 10
620.443473452
 20
197.5499384868
 30
0.0
 40
0.4017886645456303
 50
120.1497444168
 51
180.0428573922
  0
LINE
  5
4E1
  8
0
  6
CONTINUOUS
 62
     7
 10
620.241670404
 20
112.7260057076
 30
0.0
 11
620.241670404
 21
197.8973714455
 31
0.0
  0
LINE
  5
4E2
  8
0
  6
CONTINUOUS
 62
     7
 10
620.241670404
 20
112.7260057076
 30
0.0
 11
622.0416829925
 21
112.7260057076
 31
0.0
  0
LINE
  5
4E3
  8
0
  6
CONTINUOUS
 62
     7
 10
622.0416829925
 20
112.7260057076
 30
0.0
 11
622.0416829925
 21
112.5260082825
 31
0.0
  0
ARC
  5
4E4
  8
0
  6
CONTINUOUS
 62
     7
 10
620.4416679441
 20
197.549907854
 30
0.0
 40
0.4012627440440807
 50
89.9983142432
 51
119.8955498535
  0
LINE
  5
4E5
  8
0
  6
CONTINUOUS
 62
     7
 10
620.0416848999
 20
197.5496379479
 30
0.0
 11
620.0416848999
 21
199.3221489533
 31
0.0
  0
LINE
  5
4E6
  8
0
  6
CONTINUOUS
 62
     7
 10
620.241670404
 20
197.8977767571
 30
0.0
 11
620.241670404
 21
197.8973714455
 31
0.0
  0
LINE
  5
4E7
  8
0
  6
CONTINUOUS
 62
     7
 10
620.241670404
 20
197.7519241913
 30
0.0
 11
631.5416858535
 21
197.7519241913
 31
0.0
  0
LINE
  5
4E8
  8
0
  6
CONTINUOUS
 62
     7
 10
620.44167975
 20
197.9511705979
 30
0.0
 11
631.3416765075
 21
197.9511705979
 31
0.0
  0
ARC
  5
4E9
  8
0
  6
CONTINUOUS
 62
     7
 10
631.3424300207
 20
197.5519292477
 30
0.0
 40
0.399242061221246
 50
0.1091344385
 51
90.1081377813
  0
LINE
  5
4EA
  8
0
  6
CONTINUOUS
 62
     7
 10
631.7416713577
 20
197.5526897057
 30
0.0
 11
631.7416713577
 21
197.1322743043
 31
0.0
  0
LINE
  5
4EB
  8
0
  6
CONTINUOUS
 62
     7
 10
631.5416858535
 20
195.126005803
 30
0.0
 11
631.5416858535
 21
197.7519241913
 31
0.0
  0
LINE
  5
4EC
  8
0
  6
CONTINUOUS
 62
     7
 10
631.7416713577
 20
199.3221489533
 30
0.0
 11
631.7416713577
 21
197.5526897057
 31
0.0
  0
LINE
  5
4ED
  8
0
  6
CONTINUOUS
 62
     7
 10
622.4416778427
 20
112.7260057076
 30
0.0
 11
622.0416829925
 21
112.7260057076
 31
0.0
  0
LINE
  5
4EE
  8
0
  6
CONTINUOUS
 62
     7
 10
622.0416829925
 20
112.5260082825
 30
0.0
 11
622.4416778427
 21
112.5260082825
 31
0.0
  0
LINE
  5
4EF
  8
0
  6
CONTINUOUS
 62
     7
 10
620.241670404
 20
195.6933585747
 30
0.0
 11
631.5416858535
 21
195.6933585747
 31
0.0
  0
LINE
  5
4F0
  8
0
  6
CONTINUOUS
 62
     7
 10
1066.8416784149
 20
112.7260057076
 30
0.0
 11
1068.6416910034
 21
112.7260057076
 31
0.0
  0
LINE
  5
4F1
  8
0
  6
CONTINUOUS
 62
     7
 10
1068.6416910034
 20
197.8973714455
 30
0.0
 11
1068.6416910034
 21
112.7260057076
 31
0.0
  0
ARC
  5
4F2
  8
0
  6
CONTINUOUS
 62
     7
 10
1068.4398133753
 20
197.549895595
 30
0.0
 40
0.4018632148040641
 50
359.9632658791
 51
59.8441323117
  0
LINE
  5
4F3
  8
0
  6
CONTINUOUS
 62
     7
 10
1068.8416765075
 20
197.5496379479
 30
0.0
 11
1068.8416765075
 21
112.9260090931
 31
0.0
  0
ARC
  5
4F4
  8
0
  6
CONTINUOUS
 62
     7
 10
1068.4416807037
 20
112.9260078057
 30
0.0
 40
0.4000000000000909
 50
270.0
 51
0.0
  0
LINE
  5
4F5
  8
0
  6
CONTINUOUS
 62
     7
 10
1066.8416784149
 20
112.5260082825
 30
0.0
 11
1068.4416816574
 21
112.5260082825
 31
0.0
  0
LINE
  5
4F6
  8
0
  6
CONTINUOUS
 62
     7
 10
1066.8416784149
 20
112.7260057076
 30
0.0
 11
1066.8416784149
 21
112.5260082825
 31
0.0
  0
ARC
  5
4F7
  8
0
  6
CONTINUOUS
 62
     7
 10
1068.4416934633
 20
197.549907854
 30
0.0
 40
0.4012627440460469
 50
60.1044501465
 51
90.0016857568
  0
LINE
  5
4F8
  8
0
  6
CONTINUOUS
 62
     7
 10
1068.8416765075
 20
199.3221489533
 30
0.0
 11
1068.8416765075
 21
197.5496379479
 31
0.0
  0
LINE
  5
4F9
  8
0
  6
CONTINUOUS
 62
     7
 10
1068.6416910034
 20
197.8973714455
 30
0.0
 11
1068.6416910034
 21
197.8977767571
 31
0.0
  0
LINE
  5
4FA
  8
0
  6
CONTINUOUS
 62
     7
 10
1057.3416755538
 20
197.7519241913
 30
0.0
 11
1068.6416910034
 21
197.7519241913
 31
0.0
  0
ARC
  5
4FB
  8
0
  6
CONTINUOUS
 62
     7
 10
1057.5409313867
 20
197.5519292477
 30
0.0
 40
0.3992420612210139
 50
89.8918622187
 51
179.8908655615
  0
LINE
  5
4FC
  8
0
  6
CONTINUOUS
 62
     7
 10
1057.5416848999
 20
197.9511705979
 30
0.0
 11
1068.4416816574
 21
197.9511705979
 31
0.0
  0
LINE
  5
4FD
  8
0
  6
CONTINUOUS
 62
     7
 10
1057.1416900497
 20
197.5526897057
 30
0.0
 11
1057.1416900497
 21
197.1322743043
 31
0.0
  0
LINE
  5
4FE
  8
0
  6
CONTINUOUS
 62
     7
 10
1057.3416755538
 20
197.7519241913
 30
0.0
 11
1057.3416755538
 21
195.126005803
 31
0.0
  0
LINE
  5
4FF
  8
0
  6
CONTINUOUS
 62
     7
 10
1057.1416900497
 20
197.5526897057
 30
0.0
 11
1057.1416900497
 21
199.3221489533
 31
0.0
  0
LINE
  5
500
  8
0
  6
CONTINUOUS
 62
     7
 10
1066.8416784149
 20
112.7260057076
 30
0.0
 11
1066.4416835647
 21
112.7260057076
 31
0.0
  0
LINE
  5
501
  8
0
  6
CONTINUOUS
 62
     7
 10
1066.4416835647
 20
112.5260082825
 30
0.0
 11
1066.8416784149
 21
112.5260082825
 31
0.0
  0
LINE
  5
502
  8
0
  6
CONTINUOUS
 62
     7
 10
1057.3416755538
 20
195.6933585747
 30
0.0
 11
1068.6416910034
 21
195.6933585747
 31
0.0
  0
LINE
  5
503
  8
0
  6
CONTINUOUS
 62
     7
 10
745.5416784626
 20
125.8606521233
 30
0.0
 11
745.5416784626
 21
133.5260061368
 31
0.0
  0
POLYLINE
  5
504
  8
0
  6
CONTINUOUS
 62
     7
 66
     1
 10
0.0
 20
0.0
 30
0.0
  0
VERTEX
  5
6DA
  8
0
  6
CONTINUOUS
 62
     7
 10
745.5416784626
 20
125.8606521233
 30
0.0
  0
VERTEX
  5
6DB
  8
0
  6
CONTINUOUS
 62
     7
 10
745.5712304454
 20
125.8573679074
 30
0.0
  0
VERTEX
  5
6DC
  8
0
  6
CONTINUOUS
 62
     7
 10
745.6591472965
 20
125.9130326851
 30
0.0
  0
VERTEX
  5
6DD
  8
0
  6
CONTINUOUS
 62
     7
 10
745.8032653671
 20
126.0262815102
 30
0.0
  0
VERTEX
  5
6DE
  8
0
  6
CONTINUOUS
 62
     7
 10
746.0000381809
 20
126.1943189248
 30
0.0
  0
VERTEX
  5
6DF
  8
0
  6
CONTINUOUS
 62
     7
 10
746.2446258407
 20
126.4130143269
 30
0.0
  0
VERTEX
  5
6E0
  8
0
  6
CONTINUOUS
 62
     7
 10
746.5309963565
 20
126.6769794568
 30
0.0
  0
VERTEX
  5
6E1
  8
0
  6
CONTINUOUS
 62
     7
 10
746.8521044593
 20
126.9797114476
 30
0.0
  0
VERTEX
  5
6E2
  8
0
  6
CONTINUOUS
 62
     7
 10
747.2000406127
 20
127.3137656792
 30
0.0
  0
VERTEX
  5
6E3
  8
0
  6
CONTINUOUS
 62
     7
 10
747.5662396293
 20
127.6709107502
 30
0.0
  0
VERTEX
  5
6E4
  8
0
  6
CONTINUOUS
 62
     7
 10
747.9416833263
 20
128.0423490151
 30
0.0
  0
SEQEND
  5
721
  8
0
  6
CONTINUOUS
 62
     7
  0
LINE
  5
505
  8
0
  6
CONTINUOUS
 62
     7
 10
831.3416809779
 20
133.5260061368
 30
0.0
 11
831.3416809779
 21
125.8606521233
 31
0.0
  0
POLYLINE
  5
506
  8
0
  6
CONTINUOUS
 62
     7
 66
     1
 10
0.0
 20
0.0
 30
0.0
  0
VERTEX
  5
6E5
  8
0
  6
CONTINUOUS
 62
     7
 10
831.3416809779
 20
125.8606521233
 30
0.0
  0
VERTEX
  5
6E6
  8
0
  6
CONTINUOUS
 62
     7
 10
831.3121334653
 20
125.8573679074
 30
0.0
  0
VERTEX
  5
6E7
  8
0
  6
CONTINUOUS
 62
     7
 10
831.2242166143
 20
125.9130326851
 30
0.0
  0
VERTEX
  5
6E8
  8
0
  6
CONTINUOUS
 62
     7
 10
831.0800970536
 20
126.0262815102
 30
0.0
  0
VERTEX
  5
6E9
  8
0
  6
CONTINUOUS
 62
     7
 10
830.8833212595
 20
126.1943189248
 30
0.0
  0
VERTEX
  5
6EA
  8
0
  6
CONTINUOUS
 62
     7
 10
830.6387365799
 20
126.4130143269
 30
0.0
  0
VERTEX
  5
6EB
  8
0
  6
CONTINUOUS
 62
     7
 10
830.352364574
 20
126.6769794568
 30
0.0
  0
VERTEX
  5
6EC
  8
0
  6
CONTINUOUS
 62
     7
 10
830.0312579613
 20
126.9797114476
 30
0.0
  0
VERTEX
  5
6ED
  8
0
  6
CONTINUOUS
 62
     7
 10
829.6833218079
 20
127.3137656792
 30
0.0
  0
VERTEX
  5
6EE
  8
0
  6
CONTINUOUS
 62
     7
 10
829.3171227913
 20
127.6709107502
 30
0.0
  0
VERTEX
  5
6EF
  8
0
  6
CONTINUOUS
 62
     7
 10
828.9416805845
 20
128.0423490151
 30
0.0
  0
SEQEND
  5
720
  8
0
  6
CONTINUOUS
 62
     7
  0
LINE
  5
507
  8
0
  6
CONTINUOUS
 62
     7
 10
745.6416831356
 20
114.5260063752
 30
0.0
 11
745.6416831356
 21
125.8515206917
 31
0.0
  0
LINE
  5
508
  8
0
  6
CONTINUOUS
 62
     7
 10
831.2416807752
 20
125.8515206917
 30
0.0
 11
831.2416807752
 21
114.5260063752
 31
0.0
  0
LINE
  5
509
  8
0
  6
CONTINUOUS
 62
     7
 10
744.6416781288
 20
127.926006709
 30
0.0
 11
744.6416781288
 21
132.726010476
 31
0.0
  0
LINE
  5
50A
  8
0
  6
CONTINUOUS
 62
     7
 10
832.2416805666
 20
127.926006709
 30
0.0
 11
832.2416805666
 21
132.726010476
 31
0.0
  0
ARC
  5
50B
  8
0
  6
CONTINUOUS
 62
     7
 10
634.0416807037
 20
126.3260078057
 30
0.0
 40
0.4000000000000909
 50
180.0
 51
270.0
  0
LINE
  5
50C
  8
0
  6
CONTINUOUS
 62
     7
 10
633.6416766983
 20
126.3260094269
 30
0.0
 11
633.6416766983
 21
133.5260061368
 31
0.0
  0
LINE
  5
50D
  8
0
  6
CONTINUOUS
 62
     7
 10
718.8416765075
 20
125.9260086163
 30
0.0
 11
634.0416715484
 21
125.9260086163
 31
0.0
  0
ARC
  5
50E
  8
0
  6
CONTINUOUS
 62
     7
 10
718.8416807037
 20
126.3260078057
 30
0.0
 40
0.3999999999999915
 50
270.0
 51
0.0
  0
LINE
  5
50F
  8
0
  6
CONTINUOUS
 62
     7
 10
719.2416832786
 20
133.5260061368
 30
0.0
 11
719.2416832786
 21
126.3260094269
 31
0.0
  0
LINE
  5
510
  8
0
  6
CONTINUOUS
 62
     7
 10
632.6416776519
 20
130.3260056122
 30
0.0
 11
632.6416776519
 21
132.726010476
 31
0.0
  0
LINE
  5
511
  8
0
  6
CONTINUOUS
 62
     7
 10
632.6416776519
 20
127.926006709
 30
0.0
 11
632.6416776519
 21
130.3260056122
 31
0.0
  0
LINE
  5
512
  8
0
  6
CONTINUOUS
 62
     7
 10
720.2416823249
 20
130.3260056122
 30
0.0
 11
720.2416823249
 21
132.726010476
 31
0.0
  0
LINE
  5
513
  8
0
  6
CONTINUOUS
 62
     7
 10
720.2416823249
 20
127.926006709
 30
0.0
 11
720.2416823249
 21
130.3260056122
 31
0.0
  0
LINE
  5
514
  8
0
  6
CONTINUOUS
 62
     7
 10
857.5416804295
 20
125.8606521233
 30
0.0
 11
857.5416804295
 21
133.5260061368
 31
0.0
  0
POLYLINE
  5
515
  8
0
  6
CONTINUOUS
 62
     7
 66
     1
 10
0.0
 20
0.0
 30
0.0
  0
VERTEX
  5
6F0
  8
0
  6
CONTINUOUS
 62
     7
 10
857.5416804295
 20
125.8606521233
 30
0.0
  0
VERTEX
  5
6F1
  8
0
  6
CONTINUOUS
 62
     7
 10
857.571227942
 20
125.8573679074
 30
0.0
  0
VERTEX
  5
6F2
  8
0
  6
CONTINUOUS
 62
     7
 10
857.6591447931
 20
125.9130326851
 30
0.0
  0
VERTEX
  5
6F3
  8
0
  6
CONTINUOUS
 62
     7
 10
857.8032643538
 20
126.0262815102
 30
0.0
  0
VERTEX
  5
6F4
  8
0
  6
CONTINUOUS
 62
     7
 10
858.0000401478
 20
126.1943189248
 30
0.0
  0
VERTEX
  5
6F5
  8
0
  6
CONTINUOUS
 62
     7
 10
858.2446248274
 20
126.4130143269
 30
0.0
  0
VERTEX
  5
6F6
  8
0
  6
CONTINUOUS
 62
     7
 10
858.5309968334
 20
126.6769794568
 30
0.0
  0
VERTEX
  5
6F7
  8
0
  6
CONTINUOUS
 62
     7
 10
858.8521034461
 20
126.9797114476
 30
0.0
  0
VERTEX
  5
6F8
  8
0
  6
CONTINUOUS
 62
     7
 10
859.2000395995
 20
127.3137656792
 30
0.0
  0
VERTEX
  5
6F9
  8
0
  6
CONTINUOUS
 62
     7
 10
859.566238616
 20
127.6709107502
 30
0.0
  0
VERTEX
  5
6FA
  8
0
  6
CONTINUOUS
 62
     7
 10
859.9416808229
 20
128.0423490151
 30
0.0
  0
SEQEND
  5
71F
  8
0
  6
CONTINUOUS
 62
     7
  0
LINE
  5
516
  8
0
  6
CONTINUOUS
 62
     7
 10
943.3416829448
 20
133.5260061368
 30
0.0
 11
943.3416829448
 21
125.8606521233
 31
0.0
  0
POLYLINE
  5
517
  8
0
  6
CONTINUOUS
 62
     7
 66
     1
 10
0.0
 20
0.0
 30
0.0
  0
VERTEX
  5
6FB
  8
0
  6
CONTINUOUS
 62
     7
 10
943.3416829448
 20
125.8606521233
 30
0.0
  0
VERTEX
  5
6FC
  8
0
  6
CONTINUOUS
 62
     7
 10
943.3121309619
 20
125.8573679074
 30
0.0
  0
VERTEX
  5
6FD
  8
0
  6
CONTINUOUS
 62
     7
 10
943.2242141109
 20
125.9130326851
 30
0.0
  0
VERTEX
  5
6FE
  8
0
  6
CONTINUOUS
 62
     7
 10
943.0800960403
 20
126.0262815102
 30
0.0
  0
VERTEX
  5
6FF
  8
0
  6
CONTINUOUS
 62
     7
 10
942.8833232265
 20
126.1943189248
 30
0.0
  0
VERTEX
  5
700
  8
0
  6
CONTINUOUS
 62
     7
 10
942.6387355667
 20
126.4130143269
 30
0.0
  0
VERTEX
  5
701
  8
0
  6
CONTINUOUS
 62
     7
 10
942.3523650508
 20
126.6769794568
 30
0.0
  0
VERTEX
  5
702
  8
0
  6
CONTINUOUS
 62
     7
 10
942.031256948
 20
126.9797114476
 30
0.0
  0
VERTEX
  5
703
  8
0
  6
CONTINUOUS
 62
     7
 10
941.6833207946
 20
127.3137656792
 30
0.0
  0
VERTEX
  5
704
  8
0
  6
CONTINUOUS
 62
     7
 10
941.3171217781
 20
127.6709107502
 30
0.0
  0
VERTEX
  5
705
  8
0
  6
CONTINUOUS
 62
     7
 10
940.9416780811
 20
128.0423490151
 30
0.0
  0
SEQEND
  5
71E
  8
0
  6
CONTINUOUS
 62
     7
  0
LINE
  5
518
  8
0
  6
CONTINUOUS
 62
     7
 10
857.6416806322
 20
114.5260063752
 30
0.0
 11
857.6416806322
 21
125.8515206917
 31
0.0
  0
LINE
  5
519
  8
0
  6
CONTINUOUS
 62
     7
 10
943.2416782718
 20
125.8515206917
 30
0.0
 11
943.2416782718
 21
114.5260063752
 31
0.0
  0
LINE
  5
51A
  8
0
  6
CONTINUOUS
 62
     7
 10
856.6416808408
 20
127.926006709
 30
0.0
 11
856.6416808408
 21
132.726010476
 31
0.0
  0
LINE
  5
51B
  8
0
  6
CONTINUOUS
 62
     7
 10
944.2416832786
 20
127.926006709
 30
0.0
 11
944.2416832786
 21
132.726010476
 31
0.0
  0
LINE
  5
51C
  8
0
  6
CONTINUOUS
 62
     7
 10
969.5416853767
 20
125.8606521233
 30
0.0
 11
969.5416853767
 21
133.5260061368
 31
0.0
  0
POLYLINE
  5
51D
  8
0
  6
CONTINUOUS
 62
     7
 66
     1
 10
0.0
 20
0.0
 30
0.0
  0
VERTEX
  5
706
  8
0
  6
CONTINUOUS
 62
     7
 10
969.5416853767
 20
125.8606521233
 30
0.0
  0
VERTEX
  5
707
  8
0
  6
CONTINUOUS
 62
     7
 10
969.5712254386
 20
125.8573679074
 30
0.0
  0
VERTEX
  5
708
  8
0
  6
CONTINUOUS
 62
     7
 10
969.6591422897
 20
125.9130326851
 30
0.0
  0
VERTEX
  5
709
  8
0
  6
CONTINUOUS
 62
     7
 10
969.8032663208
 20
126.0262815102
 30
0.0
  0
VERTEX
  5
70A
  8
0
  6
CONTINUOUS
 62
     7
 10
970.000045095
 20
126.1943189248
 30
0.0
  0
VERTEX
  5
70B
  8
0
  6
CONTINUOUS
 62
     7
 10
970.2446267944
 20
126.4130143269
 30
0.0
  0
VERTEX
  5
70C
  8
0
  6
CONTINUOUS
 62
     7
 10
970.5309913497
 20
126.6769794568
 30
0.0
  0
VERTEX
  5
70D
  8
0
  6
CONTINUOUS
 62
     7
 10
970.852105413
 20
126.9797114476
 30
0.0
  0
VERTEX
  5
70E
  8
0
  6
CONTINUOUS
 62
     7
 10
971.2000415664
 20
127.3137656792
 30
0.0
  0
VERTEX
  5
70F
  8
0
  6
CONTINUOUS
 62
     7
 10
971.566240583
 20
127.6709107502
 30
0.0
  0
VERTEX
  5
710
  8
0
  6
CONTINUOUS
 62
     7
 10
971.9416783195
 20
128.0423490151
 30
0.0
  0
SEQEND
  5
71D
  8
0
  6
CONTINUOUS
 62
     7
  0
LINE
  5
51E
  8
0
  6
CONTINUOUS
 62
     7
 10
1055.3416774612
 20
133.5260061368
 30
0.0
 11
1055.3416774612
 21
125.8606521233
 31
0.0
  0
POLYLINE
  5
51F
  8
0
  6
CONTINUOUS
 62
     7
 66
     1
 10
0.0
 20
0.0
 30
0.0
  0
VERTEX
  5
711
  8
0
  6
CONTINUOUS
 62
     7
 10
1055.3416774612
 20
125.8606521233
 30
0.0
  0
VERTEX
  5
712
  8
0
  6
CONTINUOUS
 62
     7
 10
1055.3121373992
 20
125.8573679074
 30
0.0
  0
VERTEX
  5
713
  8
0
  6
CONTINUOUS
 62
     7
 10
1055.2242086273
 20
125.9130326851
 30
0.0
  0
VERTEX
  5
714
  8
0
  6
CONTINUOUS
 62
     7
 10
1055.0800845962
 20
126.0262815102
 30
0.0
  0
VERTEX
  5
715
  8
0
  6
CONTINUOUS
 62
     7
 10
1054.8833177429
 20
126.1943189248
 30
0.0
  0
VERTEX
  5
716
  8
0
  6
CONTINUOUS
 62
     7
 10
1054.6387479644
 20
126.4130143269
 30
0.0
  0
VERTEX
  5
717
  8
0
  6
CONTINUOUS
 62
     7
 10
1054.3523595672
 20
126.6769794568
 30
0.0
  0
VERTEX
  5
718
  8
0
  6
CONTINUOUS
 62
     7
 10
1054.0312574249
 20
126.9797114476
 30
0.0
  0
VERTEX
  5
719
  8
0
  6
CONTINUOUS
 62
     7
 10
1053.6833331924
 20
127.3137656792
 30
0.0
  0
VERTEX
  5
71A
  8
0
  6
CONTINUOUS
 62
     7
 10
1053.3171222549
 20
127.6709107502
 30
0.0
  0
VERTEX
  5
71B
  8
0
  6
CONTINUOUS
 62
     7
 10
1052.9416845184
 20
128.0423490151
 30
0.0
  0
SEQEND
  5
71C
  8
0
  6
CONTINUOUS
 62
     7
  0
LINE
  5
520
  8
0
  6
CONTINUOUS
 62
     7
 10
969.6416781288
 20
114.5260063752
 30
0.0
 11
969.6416781288
 21
125.8515206917
 31
0.0
  0
LINE
  5
521
  8
0
  6
CONTINUOUS
 62
     7
 10
1055.2416847091
 20
125.8515206917
 30
0.0
 11
1055.2416847091
 21
114.5260063752
 31
0.0
  0
LINE
  5
522
  8
0
  6
CONTINUOUS
 62
     7
 10
968.6416790824
 20
127.926006709
 30
0.0
 11
968.6416790824
 21
132.726010476
 31
0.0
  0
LINE
  5
523
  8
0
  6
CONTINUOUS
 62
     7
 10
1056.2416837554
 20
127.926006709
 30
0.0
 11
1056.2416837554
 21
132.726010476
 31
0.0
  0
CIRCLE
  5
524
  8
0
  6
CONTINUOUS
 62
     7
 10
726.4416807037
 20
190.5260078057
 30
0.0
 40
1.100000000000023
  0
CIRCLE
  5
525
  8
0
  6
CONTINUOUS
 62
     7
 10
726.4416807037
 20
118.5260078057
 30
0.0
 40
1.100000000000023
  0
CIRCLE
  5
526
  8
0
  6
CONTINUOUS
 62
     7
 10
626.4416807037
 20
190.5260078057
 30
0.0
 40
1.100000000000023
  0
CIRCLE
  5
527
  8
0
  6
CONTINUOUS
 62
     7
 10
626.4416807037
 20
118.5260078057
 30
0.0
 40
1.100000000000023
  0
LINE
  5
528
  8
0
  6
CONTINUOUS
 62
     7
 10
632.5416848999
 20
185.983559285
 30
0.0
 11
720.341675077
 21
185.983559285
 31
0.0
  0
LINE
  5
529
  8
0
  6
CONTINUOUS
 62
     7
 10
632.5416848999
 20
66.5260074481
 30
0.0
 11
632.5416848999
 21
185.983559285
 31
0.0
  0
LINE
  5
52A
  8
0
  6
CONTINUOUS
 62
     7
 10
632.5416848999
 20
66.5260074481
 30
0.0
 11
622.4416778427
 21
66.5260074481
 31
0.0
  0
LINE
  5
52B
  8
0
  6
CONTINUOUS
 62
     7
 10
622.4416778427
 20
121.9260064705
 30
0.0
 11
622.4416778427
 21
66.5260074481
 31
0.0
  0
LINE
  5
52C
  8
0
  6
CONTINUOUS
 62
     7
 10
620.44167975
 20
121.9260064705
 30
0.0
 11
622.4416778427
 21
121.9260064705
 31
0.0
  0
LINE
  5
52D
  8
0
  6
CONTINUOUS
 62
     7
 10
620.44167975
 20
123.9260105237
 30
0.0
 11
620.44167975
 21
121.9260064705
 31
0.0
  0
LINE
  5
52E
  8
0
  6
CONTINUOUS
 62
     7
 10
622.4416778427
 20
123.9260105237
 30
0.0
 11
620.44167975
 21
123.9260105237
 31
0.0
  0
LINE
  5
52F
  8
0
  6
CONTINUOUS
 62
     7
 10
622.4416778427
 20
187.1260134324
 30
0.0
 11
622.4416778427
 21
123.9260105237
 31
0.0
  0
LINE
  5
530
  8
0
  6
CONTINUOUS
 62
     7
 10
620.44167975
 20
187.1260134324
 30
0.0
 11
622.4416778427
 21
187.1260134324
 31
0.0
  0
LINE
  5
531
  8
0
  6
CONTINUOUS
 62
     7
 10
620.44167975
 20
189.126011525
 30
0.0
 11
620.44167975
 21
187.1260134324
 31
0.0
  0
LINE
  5
532
  8
0
  6
CONTINUOUS
 62
     7
 10
622.4416778427
 20
189.126011525
 30
0.0
 11
620.44167975
 21
189.126011525
 31
0.0
  0
LINE
  5
533
  8
0
  6
CONTINUOUS
 62
     7
 10
622.4416778427
 20
193.1260077103
 30
0.0
 11
622.4416778427
 21
189.126011525
 31
0.0
  0
ARC
  5
534
  8
0
  6
CONTINUOUS
 62
     7
 10
624.4416807037
 20
193.1260078057
 30
0.0
 40
2.0
 50
90.0
 51
180.0
  0
LINE
  5
535
  8
0
  6
CONTINUOUS
 62
     7
 10
631.7416713577
 20
195.126005803
 30
0.0
 11
624.4416759353
 21
195.126005803
 31
0.0
  0
LINE
  5
536
  8
0
  6
CONTINUOUS
 62
     7
 10
631.7416713577
 20
195.126005803
 30
0.0
 11
631.7416713577
 21
197.1260038956
 31
0.0
  0
LINE
  5
537
  8
0
  6
CONTINUOUS
 62
     7
 10
631.7416713577
 20
197.1260038956
 30
0.0
 11
632.5416848999
 21
197.1260038956
 31
0.0
  0
LINE
  5
538
  8
0
  6
CONTINUOUS
 62
     7
 10
632.5416848999
 20
197.1260038956
 30
0.0
 11
632.5416848999
 21
247.5600329979
 31
0.0
  0
LINE
  5
539
  8
0
  6
CONTINUOUS
 62
     7
 10
632.5416848999
 20
247.5600329979
 30
0.0
 11
720.341675077
 21
247.5600329979
 31
0.0
  0
LINE
  5
53A
  8
0
  6
CONTINUOUS
 62
     7
 10
720.341675077
 20
197.1260038956
 30
0.0
 11
720.341675077
 21
247.5600329979
 31
0.0
  0
LINE
  5
53B
  8
0
  6
CONTINUOUS
 62
     7
 10
721.1416766983
 20
197.1260038956
 30
0.0
 11
720.341675077
 21
197.1260038956
 31
0.0
  0
LINE
  5
53C
  8
0
  6
CONTINUOUS
 62
     7
 10
721.1416766983
 20
197.1260038956
 30
0.0
 11
721.1416766983
 21
195.126005803
 31
0.0
  0
LINE
  5
53D
  8
0
  6
CONTINUOUS
 62
     7
 10
728.4416840415
 20
195.126005803
 30
0.0
 11
721.1416766983
 21
195.126005803
 31
0.0
  0
ARC
  5
53E
  8
0
  6
CONTINUOUS
 62
     7
 10
728.4416807037
 20
193.1260078057
 30
0.0
 40
2.0
 50
0.0
 51
90.0
  0
LINE
  5
53F
  8
0
  6
CONTINUOUS
 62
     7
 10
730.4416821342
 20
189.126011525
 30
0.0
 11
730.4416821342
 21
193.1260077103
 31
0.0
  0
LINE
  5
540
  8
0
  6
CONTINUOUS
 62
     7
 10
732.4416802268
 20
189.126011525
 30
0.0
 11
730.4416821342
 21
189.126011525
 31
0.0
  0
LINE
  5
541
  8
0
  6
CONTINUOUS
 62
     7
 10
732.4416802268
 20
187.1260134324
 30
0.0
 11
732.4416802268
 21
189.126011525
 31
0.0
  0
LINE
  5
542
  8
0
  6
CONTINUOUS
 62
     7
 10
730.4416821342
 20
187.1260134324
 30
0.0
 11
732.4416802268
 21
187.1260134324
 31
0.0
  0
LINE
  5
543
  8
0
  6
CONTINUOUS
 62
     7
 10
730.4416821342
 20
123.9260105237
 30
0.0
 11
730.4416821342
 21
187.1260134324
 31
0.0
  0
LINE
  5
544
  8
0
  6
CONTINUOUS
 62
     7
 10
732.4416802268
 20
123.9260105237
 30
0.0
 11
730.4416821342
 21
123.9260105237
 31
0.0
  0
LINE
  5
545
  8
0
  6
CONTINUOUS
 62
     7
 10
732.4416802268
 20
121.9260064705
 30
0.0
 11
732.4416802268
 21
123.9260105237
 31
0.0
  0
LINE
  5
546
  8
0
  6
CONTINUOUS
 62
     7
 10
730.4416821342
 20
121.9260064705
 30
0.0
 11
732.4416802268
 21
121.9260064705
 31
0.0
  0
LINE
  5
547
  8
0
  6
CONTINUOUS
 62
     7
 10
730.4416821342
 20
66.5260074481
 30
0.0
 11
730.4416821342
 21
121.9260064705
 31
0.0
  0
LINE
  5
548
  8
0
  6
CONTINUOUS
 62
     7
 10
730.4416821342
 20
66.5260074481
 30
0.0
 11
720.341675077
 21
66.5260074481
 31
0.0
  0
LINE
  5
549
  8
0
  6
CONTINUOUS
 62
     7
 10
720.341675077
 20
185.983559285
 30
0.0
 11
720.341675077
 21
66.5260074481
 31
0.0
  0
CIRCLE
  5
54A
  8
0
  6
CONTINUOUS
 62
     7
 10
626.4416807037
 20
74.5260078057
 30
0.0
 40
1.099999999999909
  0
CIRCLE
  5
54B
  8
0
  6
CONTINUOUS
 62
     7
 10
726.4416807037
 20
74.5260078057
 30
0.0
 40
1.100000000000023
  0
LINE
  5
54C
  8
0
  6
CONTINUOUS
 62
     7
 10
632.5416848999
 20
133.5260061368
 30
0.0
 11
720.341675077
 21
133.5260061368
 31
0.0
  0
LINE
  5
54D
  8
0
  6
CONTINUOUS
 62
     7
 10
631.7416713577
 20
197.1260038956
 30
0.0
 11
631.7416713577
 21
197.1322743043
 31
0.0
  0
LINE
  5
54E
  8
0
  6
CONTINUOUS
 62
     7
 10
632.5416848999
 20
247.5600329979
 30
0.0
 11
632.5416848999
 21
247.7895347222
 31
0.0
  0
LINE
  5
54F
  8
0
  6
CONTINUOUS
 62
     7
 10
632.5416848999
 20
247.7895347222
 30
0.0
 11
720.341675077
 21
247.7895347222
 31
0.0
  0
LINE
  5
550
  8
0
  6
CONTINUOUS
 62
     7
 10
720.341675077
 20
247.5600329979
 30
0.0
 11
720.341675077
 21
247.7895347222
 31
0.0
  0
LINE
  5
551
  8
0
  6
CONTINUOUS
 62
     7
 10
721.1416766983
 20
198.9080397233
 30
0.0
 11
721.1416766983
 21
197.1260038956
 31
0.0
  0
LINE
  5
552
  8
0
  6
CONTINUOUS
 62
     7
 10
632.6416776519
 20
248.0908362015
 30
0.0
 11
632.6416776519
 21
247.7895347222
 31
0.0
  0
LINE
  5
553
  8
0
  6
CONTINUOUS
 62
     7
 10
720.2416823249
 20
248.0908362015
 30
0.0
 11
720.2416823249
 21
247.7895347222
 31
0.0
  0
LINE
  5
554
  8
0
  6
CONTINUOUS
 62
     7
 10
639.4416854721
 20
50.5260078057
 30
0.0
 11
622.4416778427
 21
50.5260078057
 31
0.0
  0
LINE
  5
555
  8
0
  6
CONTINUOUS
 62
     7
 10
639.4416854721
 20
59.6260076209
 30
0.0
 11
632.5416848999
 21
66.5260074481
 31
0.0
  0
LINE
  5
556
  8
0
  6
CONTINUOUS
 62
     7
 10
639.4416854721
 20
50.5260078057
 30
0.0
 11
639.4416854721
 21
59.6260076209
 31
0.0
  0
LINE
  5
557
  8
0
  6
CONTINUOUS
 62
     7
 10
622.4416778427
 20
50.5260078057
 30
0.0
 11
622.4416778427
 21
66.5260074481
 31
0.0
  0
LINE
  5
558
  8
0
  6
CONTINUOUS
 62
     7
 10
730.4416821342
 20
50.5260078057
 30
0.0
 11
713.4416864257
 21
50.5260078057
 31
0.0
  0
LINE
  5
559
  8
0
  6
CONTINUOUS
 62
     7
 10
713.4416864257
 20
59.6260076209
 30
0.0
 11
713.4416864257
 21
50.5260078057
 31
0.0
  0
LINE
  5
55A
  8
0
  6
CONTINUOUS
 62
     7
 10
720.341675077
 20
66.5260074481
 30
0.0
 11
713.4416864257
 21
59.6260076209
 31
0.0
  0
LINE
  5
55B
  8
0
  6
CONTINUOUS
 62
     7
 10
730.4416821342
 20
50.5260078057
 30
0.0
 11
730.4416821342
 21
66.5260074481
 31
0.0
  0
LINE
  5
55C
  8
0
  6
CONTINUOUS
 62
     7
 10
632.6492832046
 20
248.0984417542
 30
0.0
 11
632.6416776519
 21
248.0908362015
 31
0.0
  0
LINE
  5
55D
  8
0
  6
CONTINUOUS
 62
     7
 10
720.2416823249
 20
248.0908362015
 30
0.0
 11
720.2340648513
 21
248.0984417542
 31
0.0
  0
LINE
  5
55E
  8
0
  6
CONTINUOUS
 62
     7
 10
721.1416766983
 20
198.9110795601
 30
0.0
 11
721.1416766983
 21
198.9080397233
 31
0.0
  0
CIRCLE
  5
55F
  8
0
  6
CONTINUOUS
 62
     7
 10
950.4416807037
 20
190.5260078057
 30
0.0
 40
1.100000000000023
  0
CIRCLE
  5
560
  8
0
  6
CONTINUOUS
 62
     7
 10
950.4416807037
 20
118.5260078057
 30
0.0
 40
1.100000000000023
  0
CIRCLE
  5
561
  8
0
  6
CONTINUOUS
 62
     7
 10
850.4416807037
 20
190.5260078057
 30
0.0
 40
1.100000000000023
  0
CIRCLE
  5
562
  8
0
  6
CONTINUOUS
 62
     7
 10
850.4416807037
 20
118.5260078057
 30
0.0
 40
1.100000000000023
  0
LINE
  5
563
  8
0
  6
CONTINUOUS
 62
     7
 10
856.5416806381
 20
185.983559285
 30
0.0
 11
944.3416819911
 21
185.983559285
 31
0.0
  0
LINE
  5
564
  8
0
  6
CONTINUOUS
 62
     7
 10
856.5416806381
 20
66.5260074481
 30
0.0
 11
856.5416806381
 21
185.983559285
 31
0.0
  0
LINE
  5
565
  8
0
  6
CONTINUOUS
 62
     7
 10
856.5416806381
 20
66.5260074481
 30
0.0
 11
846.441680659
 21
66.5260074481
 31
0.0
  0
LINE
  5
566
  8
0
  6
CONTINUOUS
 62
     7
 10
846.441680659
 20
121.9260064705
 30
0.0
 11
846.441680659
 21
66.5260074481
 31
0.0
  0
LINE
  5
567
  8
0
  6
CONTINUOUS
 62
     7
 10
844.4416807037
 20
121.9260064705
 30
0.0
 11
846.441680659
 21
121.9260064705
 31
0.0
  0
LINE
  5
568
  8
0
  6
CONTINUOUS
 62
     7
 10
844.4416807037
 20
123.9260105237
 30
0.0
 11
844.4416807037
 21
121.9260064705
 31
0.0
  0
LINE
  5
569
  8
0
  6
CONTINUOUS
 62
     7
 10
846.441680659
 20
123.9260105237
 30
0.0
 11
844.4416807037
 21
123.9260105237
 31
0.0
  0
LINE
  5
56A
  8
0
  6
CONTINUOUS
 62
     7
 10
846.441680659
 20
187.1260134324
 30
0.0
 11
846.441680659
 21
123.9260105237
 31
0.0
  0
LINE
  5
56B
  8
0
  6
CONTINUOUS
 62
     7
 10
844.4416807037
 20
189.126011525
 30
0.0
 11
844.4416807037
 21
187.1260134324
 31
0.0
  0
LINE
  5
56C
  8
0
  6
CONTINUOUS
 62
     7
 10
846.441680659
 20
193.1260077103
 30
0.0
 11
846.441680659
 21
189.126011525
 31
0.0
  0
ARC
  5
56D
  8
0
  6
CONTINUOUS
 62
     7
 10
848.4416807037
 20
193.1260078057
 30
0.0
 40
2.0
 50
90.0
 51
180.0
  0
LINE
  5
56E
  8
0
  6
CONTINUOUS
 62
     7
 10
855.741680507
 20
195.126005803
 30
0.0
 11
848.4416806143
 21
195.126005803
 31
0.0
  0
LINE
  5
56F
  8
0
  6
CONTINUOUS
 62
     7
 10
855.741680507
 20
195.126005803
 30
0.0
 11
855.741680507
 21
197.1260038956
 31
0.0
  0
LINE
  5
570
  8
0
  6
CONTINUOUS
 62
     7
 10
855.741680507
 20
197.1260038956
 30
0.0
 11
856.5416806381
 21
197.1260038956
 31
0.0
  0
LINE
  5
571
  8
0
  6
CONTINUOUS
 62
     7
 10
856.5416806381
 20
197.1260038956
 30
0.0
 11
856.5416806381
 21
247.5600329979
 31
0.0
  0
LINE
  5
572
  8
0
  6
CONTINUOUS
 62
     7
 10
856.5416806381
 20
247.5600329979
 30
0.0
 11
944.3416819911
 21
247.5600329979
 31
0.0
  0
LINE
  5
573
  8
0
  6
CONTINUOUS
 62
     7
 10
944.3416819911
 20
197.1260038956
 30
0.0
 11
944.3416819911
 21
247.5600329979
 31
0.0
  0
LINE
  5
574
  8
0
  6
CONTINUOUS
 62
     7
 10
945.1416776519
 20
197.1260038956
 30
0.0
 11
944.3416819911
 21
197.1260038956
 31
0.0
  0
LINE
  5
575
  8
0
  6
CONTINUOUS
 62
     7
 10
945.1416776519
 20
197.1260038956
 30
0.0
 11
945.1416776519
 21
195.126005803
 31
0.0
  0
LINE
  5
576
  8
0
  6
CONTINUOUS
 62
     7
 10
952.4416849952
 20
195.126005803
 30
0.0
 11
945.1416776519
 21
195.126005803
 31
0.0
  0
ARC
  5
577
  8
0
  6
CONTINUOUS
 62
     7
 10
952.4416807037
 20
193.1260078057
 30
0.0
 40
2.0
 50
0.0
 51
90.0
  0
LINE
  5
578
  8
0
  6
CONTINUOUS
 62
     7
 10
954.4416830879
 20
189.126011525
 30
0.0
 11
954.4416830879
 21
193.1260077103
 31
0.0
  0
LINE
  5
579
  8
0
  6
CONTINUOUS
 62
     7
 10
956.4416811805
 20
189.126011525
 30
0.0
 11
954.4416830879
 21
189.126011525
 31
0.0
  0
LINE
  5
57A
  8
0
  6
CONTINUOUS
 62
     7
 10
956.4416811805
 20
187.1260134324
 30
0.0
 11
956.4416811805
 21
189.126011525
 31
0.0
  0
LINE
  5
57B
  8
0
  6
CONTINUOUS
 62
     7
 10
954.4416830879
 20
187.1260134324
 30
0.0
 11
956.4416811805
 21
187.1260134324
 31
0.0
  0
LINE
  5
57C
  8
0
  6
CONTINUOUS
 62
     7
 10
954.4416830879
 20
123.9260105237
 30
0.0
 11
954.4416830879
 21
187.1260134324
 31
0.0
  0
LINE
  5
57D
  8
0
  6
CONTINUOUS
 62
     7
 10
956.4416811805
 20
123.9260105237
 30
0.0
 11
954.4416830879
 21
123.9260105237
 31
0.0
  0
LINE
  5
57E
  8
0
  6
CONTINUOUS
 62
     7
 10
956.4416811805
 20
121.9260064705
 30
0.0
 11
956.4416811805
 21
123.9260105237
 31
0.0
  0
LINE
  5
57F
  8
0
  6
CONTINUOUS
 62
     7
 10
954.4416830879
 20
121.9260064705
 30
0.0
 11
956.4416811805
 21
121.9260064705
 31
0.0
  0
LINE
  5
580
  8
0
  6
CONTINUOUS
 62
     7
 10
954.4416830879
 20
66.5260074481
 30
0.0
 11
954.4416830879
 21
121.9260064705
 31
0.0
  0
LINE
  5
581
  8
0
  6
CONTINUOUS
 62
     7
 10
954.4416830879
 20
66.5260074481
 30
0.0
 11
944.3416819911
 21
66.5260074481
 31
0.0
  0
LINE
  5
582
  8
0
  6
CONTINUOUS
 62
     7
 10
944.3416819911
 20
185.983559285
 30
0.0
 11
944.3416819911
 21
66.5260074481
 31
0.0
  0
CIRCLE
  5
583
  8
0
  6
CONTINUOUS
 62
     7
 10
850.4416807037
 20
74.5260078057
 30
0.0
 40
1.100000000000023
  0
CIRCLE
  5
584
  8
0
  6
CONTINUOUS
 62
     7
 10
950.4416807037
 20
74.5260078057
 30
0.0
 40
1.100000000000023
  0
LINE
  5
585
  8
0
  6
CONTINUOUS
 62
     7
 10
846.441680659
 20
189.126011525
 30
0.0
 11
844.4416807037
 21
189.126011525
 31
0.0
  0
LINE
  5
586
  8
0
  6
CONTINUOUS
 62
     7
 10
844.4416807037
 20
187.1260134324
 30
0.0
 11
846.441680659
 21
187.1260134324
 31
0.0
  0
LINE
  5
587
  8
0
  6
CONTINUOUS
 62
     7
 10
856.5416806381
 20
133.5260061368
 30
0.0
 11
944.3416819911
 21
133.5260061368
 31
0.0
  0
LINE
  5
588
  8
0
  6
CONTINUOUS
 62
     7
 10
855.741680507
 20
197.1260038956
 30
0.0
 11
855.741680507
 21
197.8650299653
 31
0.0
  0
LINE
  5
589
  8
0
  6
CONTINUOUS
 62
     7
 10
856.5416806381
 20
247.5600329979
 30
0.0
 11
856.5416806381
 21
247.7895347222
 31
0.0
  0
LINE
  5
58A
  8
0
  6
CONTINUOUS
 62
     7
 10
856.5416806381
 20
247.7895347222
 30
0.0
 11
944.3416819911
 21
247.7895347222
 31
0.0
  0
LINE
  5
58B
  8
0
  6
CONTINUOUS
 62
     7
 10
944.3416819911
 20
247.5600329979
 30
0.0
 11
944.3416819911
 21
247.7895347222
 31
0.0
  0
LINE
  5
58C
  8
0
  6
CONTINUOUS
 62
     7
 10
945.1416776519
 20
198.9080397233
 30
0.0
 11
945.1416776519
 21
197.1260038956
 31
0.0
  0
LINE
  5
58D
  8
0
  6
CONTINUOUS
 62
     7
 10
856.6416808408
 20
248.0908362015
 30
0.0
 11
856.6416808408
 21
247.7895347222
 31
0.0
  0
LINE
  5
58E
  8
0
  6
CONTINUOUS
 62
     7
 10
944.2416832786
 20
248.0908362015
 30
0.0
 11
944.2416832786
 21
247.7895347222
 31
0.0
  0
LINE
  5
58F
  8
0
  6
CONTINUOUS
 62
     7
 10
863.4416804653
 20
50.5260078057
 30
0.0
 11
846.441680659
 21
50.5260078057
 31
0.0
  0
LINE
  5
590
  8
0
  6
CONTINUOUS
 62
     7
 10
863.4416804653
 20
59.6260076209
 30
0.0
 11
856.5416806381
 21
66.5260074481
 31
0.0
  0
LINE
  5
591
  8
0
  6
CONTINUOUS
 62
     7
 10
863.4416804653
 20
50.5260078057
 30
0.0
 11
863.4416804653
 21
59.6260076209
 31
0.0
  0
LINE
  5
592
  8
0
  6
CONTINUOUS
 62
     7
 10
846.441680659
 20
50.5260078057
 30
0.0
 11
846.441680659
 21
66.5260074481
 31
0.0
  0
LINE
  5
593
  8
0
  6
CONTINUOUS
 62
     7
 10
954.4416830879
 20
50.5260078057
 30
0.0
 11
937.4416814189
 21
50.5260078057
 31
0.0
  0
LINE
  5
594
  8
0
  6
CONTINUOUS
 62
     7
 10
937.4416814189
 20
59.6260076209
 30
0.0
 11
937.4416814189
 21
50.5260078057
 31
0.0
  0
LINE
  5
595
  8
0
  6
CONTINUOUS
 62
     7
 10
944.3416819911
 20
66.5260074481
 30
0.0
 11
937.4416814189
 21
59.6260076209
 31
0.0
  0
LINE
  5
596
  8
0
  6
CONTINUOUS
 62
     7
 10
954.4416830879
 20
50.5260078057
 30
0.0
 11
954.4416830879
 21
66.5260074481
 31
0.0
  0
LINE
  5
597
  8
0
  6
CONTINUOUS
 62
     7
 10
944.2416832786
 20
248.0908362015
 30
0.0
 11
944.2340717655
 21
248.0984417542
 31
0.0
  0
LINE
  5
598
  8
0
  6
CONTINUOUS
 62
     7
 10
856.6492916089
 20
248.0984417542
 30
0.0
 11
856.6416808408
 21
248.0908362015
 31
0.0
  0
LINE
  5
599
  8
0
  6
CONTINUOUS
 62
     7
 10
945.1416776519
 20
198.9110795601
 30
0.0
 11
945.1416776519
 21
198.9080397233
 31
0.0
  0
CIRCLE
  5
59A
  8
0
  6
CONTINUOUS
 62
     7
 10
838.4416807037
 20
190.5260078057
 30
0.0
 40
1.100000000000023
  0
CIRCLE
  5
59B
  8
0
  6
CONTINUOUS
 62
     7
 10
838.4416807037
 20
118.5260078057
 30
0.0
 40
1.100000000000023
  0
CIRCLE
  5
59C
  8
0
  6
CONTINUOUS
 62
     7
 10
738.4416807037
 20
190.5260078057
 30
0.0
 40
1.100000000000136
  0
CIRCLE
  5
59D
  8
0
  6
CONTINUOUS
 62
     7
 10
738.4416807037
 20
118.5260078057
 30
0.0
 40
1.100000000000136
  0
LINE
  5
59E
  8
0
  6
CONTINUOUS
 62
     7
 10
744.5416794162
 20
185.983559285
 30
0.0
 11
832.3416807693
 21
185.983559285
 31
0.0
  0
LINE
  5
59F
  8
0
  6
CONTINUOUS
 62
     7
 10
744.5416794162
 20
66.5260074481
 30
0.0
 11
744.5416794162
 21
185.983559285
 31
0.0
  0
LINE
  5
5A0
  8
0
  6
CONTINUOUS
 62
     7
 10
744.5416794162
 20
66.5260074481
 30
0.0
 11
734.4416783195
 21
66.5260074481
 31
0.0
  0
LINE
  5
5A1
  8
0
  6
CONTINUOUS
 62
     7
 10
734.4416783195
 20
121.9260064705
 30
0.0
 11
734.4416783195
 21
66.5260074481
 31
0.0
  0
LINE
  5
5A2
  8
0
  6
CONTINUOUS
 62
     7
 10
732.4416802268
 20
121.9260064705
 30
0.0
 11
734.4416783195
 21
121.9260064705
 31
0.0
  0
LINE
  5
5A3
  8
0
  6
CONTINUOUS
 62
     7
 10
734.4416783195
 20
123.9260105237
 30
0.0
 11
732.4416802268
 21
123.9260105237
 31
0.0
  0
LINE
  5
5A4
  8
0
  6
CONTINUOUS
 62
     7
 10
734.4416783195
 20
187.1260134324
 30
0.0
 11
734.4416783195
 21
123.9260105237
 31
0.0
  0
LINE
  5
5A5
  8
0
  6
CONTINUOUS
 62
     7
 10
734.4416783195
 20
193.1260077103
 30
0.0
 11
734.4416783195
 21
189.126011525
 31
0.0
  0
ARC
  5
5A6
  8
0
  6
CONTINUOUS
 62
     7
 10
736.4416807037
 20
193.1260078057
 30
0.0
 40
2.0
 50
90.0
 51
180.0
  0
LINE
  5
5A7
  8
0
  6
CONTINUOUS
 62
     7
 10
743.7416837554
 20
195.126005803
 30
0.0
 11
736.4416764122
 21
195.126005803
 31
0.0
  0
LINE
  5
5A8
  8
0
  6
CONTINUOUS
 62
     7
 10
743.7416837554
 20
195.126005803
 30
0.0
 11
743.7416837554
 21
197.1260038956
 31
0.0
  0
LINE
  5
5A9
  8
0
  6
CONTINUOUS
 62
     7
 10
743.7416837554
 20
197.1260038956
 30
0.0
 11
744.5416794162
 21
197.1260038956
 31
0.0
  0
LINE
  5
5AA
  8
0
  6
CONTINUOUS
 62
     7
 10
744.5416794162
 20
197.1260038956
 30
0.0
 11
744.5416794162
 21
247.5600329979
 31
0.0
  0
LINE
  5
5AB
  8
0
  6
CONTINUOUS
 62
     7
 10
744.5416794162
 20
247.5600329979
 30
0.0
 11
832.3416807693
 21
247.5600329979
 31
0.0
  0
LINE
  5
5AC
  8
0
  6
CONTINUOUS
 62
     7
 10
832.3416807693
 20
197.1260038956
 30
0.0
 11
832.3416807693
 21
247.5600329979
 31
0.0
  0
LINE
  5
5AD
  8
0
  6
CONTINUOUS
 62
     7
 10
833.1416809004
 20
197.1260038956
 30
0.0
 11
832.3416807693
 21
197.1260038956
 31
0.0
  0
LINE
  5
5AE
  8
0
  6
CONTINUOUS
 62
     7
 10
833.1416809004
 20
197.1260038956
 30
0.0
 11
833.1416809004
 21
195.126005803
 31
0.0
  0
LINE
  5
5AF
  8
0
  6
CONTINUOUS
 62
     7
 10
840.4416807931
 20
195.126005803
 30
0.0
 11
833.1416809004
 21
195.126005803
 31
0.0
  0
ARC
  5
5B0
  8
0
  6
CONTINUOUS
 62
     7
 10
840.4416807037
 20
193.1260078057
 30
0.0
 40
2.0
 50
0.0
 51
90.0
  0
LINE
  5
5B1
  8
0
  6
CONTINUOUS
 62
     7
 10
842.4416807484
 20
189.126011525
 30
0.0
 11
842.4416807484
 21
193.1260077103
 31
0.0
  0
LINE
  5
5B2
  8
0
  6
CONTINUOUS
 62
     7
 10
844.4416807037
 20
189.126011525
 30
0.0
 11
842.4416807484
 21
189.126011525
 31
0.0
  0
LINE
  5
5B3
  8
0
  6
CONTINUOUS
 62
     7
 10
842.4416807484
 20
187.1260134324
 30
0.0
 11
844.4416807037
 21
187.1260134324
 31
0.0
  0
LINE
  5
5B4
  8
0
  6
CONTINUOUS
 62
     7
 10
842.4416807484
 20
123.9260105237
 30
0.0
 11
842.4416807484
 21
187.1260134324
 31
0.0
  0
LINE
  5
5B5
  8
0
  6
CONTINUOUS
 62
     7
 10
844.4416807037
 20
123.9260105237
 30
0.0
 11
842.4416807484
 21
123.9260105237
 31
0.0
  0
LINE
  5
5B6
  8
0
  6
CONTINUOUS
 62
     7
 10
842.4416807484
 20
121.9260064705
 30
0.0
 11
844.4416807037
 21
121.9260064705
 31
0.0
  0
LINE
  5
5B7
  8
0
  6
CONTINUOUS
 62
     7
 10
842.4416807484
 20
66.5260074481
 30
0.0
 11
842.4416807484
 21
121.9260064705
 31
0.0
  0
LINE
  5
5B8
  8
0
  6
CONTINUOUS
 62
     7
 10
842.4416807484
 20
66.5260074481
 30
0.0
 11
832.3416807693
 21
66.5260074481
 31
0.0
  0
LINE
  5
5B9
  8
0
  6
CONTINUOUS
 62
     7
 10
832.3416807693
 20
185.983559285
 30
0.0
 11
832.3416807693
 21
66.5260074481
 31
0.0
  0
CIRCLE
  5
5BA
  8
0
  6
CONTINUOUS
 62
     7
 10
738.4416807037
 20
74.5260078057
 30
0.0
 40
1.099999999999909
  0
CIRCLE
  5
5BB
  8
0
  6
CONTINUOUS
 62
     7
 10
838.4416807037
 20
74.5260078057
 30
0.0
 40
1.100000000000023
  0
LINE
  5
5BC
  8
0
  6
CONTINUOUS
 62
     7
 10
732.4416802268
 20
187.1260134324
 30
0.0
 11
734.4416783195
 21
187.1260134324
 31
0.0
  0
LINE
  5
5BD
  8
0
  6
CONTINUOUS
 62
     7
 10
734.4416783195
 20
189.126011525
 30
0.0
 11
732.4416802268
 21
189.126011525
 31
0.0
  0
LINE
  5
5BE
  8
0
  6
CONTINUOUS
 62
     7
 10
744.5416794162
 20
133.5260061368
 30
0.0
 11
832.3416807693
 21
133.5260061368
 31
0.0
  0
LINE
  5
5BF
  8
0
  6
CONTINUOUS
 62
     7
 10
743.7416837554
 20
197.1260038956
 30
0.0
 11
743.7416837554
 21
197.8650299653
 31
0.0
  0
LINE
  5
5C0
  8
0
  6
CONTINUOUS
 62
     7
 10
744.5416794162
 20
247.7895347222
 30
0.0
 11
832.3416807693
 21
247.7895347222
 31
0.0
  0
LINE
  5
5C1
  8
0
  6
CONTINUOUS
 62
     7
 10
832.3416807693
 20
247.5600329979
 30
0.0
 11
832.3416807693
 21
247.7895347222
 31
0.0
  0
LINE
  5
5C2
  8
0
  6
CONTINUOUS
 62
     7
 10
744.5416794162
 20
247.5600329979
 30
0.0
 11
744.5416794162
 21
247.7895347222
 31
0.0
  0
LINE
  5
5C3
  8
0
  6
CONTINUOUS
 62
     7
 10
833.1416809004
 20
198.9080397233
 30
0.0
 11
833.1416809004
 21
197.1260038956
 31
0.0
  0
LINE
  5
5C4
  8
0
  6
CONTINUOUS
 62
     7
 10
744.6416781288
 20
248.0908362015
 30
0.0
 11
744.6416781288
 21
247.7895347222
 31
0.0
  0
LINE
  5
5C5
  8
0
  6
CONTINUOUS
 62
     7
 10
832.2416805666
 20
248.0908362015
 30
0.0
 11
832.2416805666
 21
247.7895347222
 31
0.0
  0
LINE
  5
5C6
  8
0
  6
CONTINUOUS
 62
     7
 10
751.4416799884
 20
50.5260078057
 30
0.0
 11
734.4416783195
 21
50.5260078057
 31
0.0
  0
LINE
  5
5C7
  8
0
  6
CONTINUOUS
 62
     7
 10
751.4416799884
 20
59.6260076209
 30
0.0
 11
744.5416794162
 21
66.5260074481
 31
0.0
  0
LINE
  5
5C8
  8
0
  6
CONTINUOUS
 62
     7
 10
751.4416799884
 20
50.5260078057
 30
0.0
 11
751.4416799884
 21
59.6260076209
 31
0.0
  0
LINE
  5
5C9
  8
0
  6
CONTINUOUS
 62
     7
 10
734.4416783195
 20
50.5260078057
 30
0.0
 11
734.4416783195
 21
66.5260074481
 31
0.0
  0
LINE
  5
5CA
  8
0
  6
CONTINUOUS
 62
     7
 10
842.4416807484
 20
50.5260078057
 30
0.0
 11
825.4416809421
 21
50.5260078057
 31
0.0
  0
LINE
  5
5CB
  8
0
  6
CONTINUOUS
 62
     7
 10
825.4416809421
 20
59.6260076209
 30
0.0
 11
825.4416809421
 21
50.5260078057
 31
0.0
  0
LINE
  5
5CC
  8
0
  6
CONTINUOUS
 62
     7
 10
832.3416807693
 20
66.5260074481
 30
0.0
 11
825.4416809421
 21
59.6260076209
 31
0.0
  0
LINE
  5
5CD
  8
0
  6
CONTINUOUS
 62
     7
 10
842.4416807484
 20
50.5260078057
 30
0.0
 11
842.4416807484
 21
66.5260074481
 31
0.0
  0
LINE
  5
5CE
  8
0
  6
CONTINUOUS
 62
     7
 10
744.6492896419
 20
248.0984417542
 30
0.0
 11
744.6416781288
 21
248.0908362015
 31
0.0
  0
LINE
  5
5CF
  8
0
  6
CONTINUOUS
 62
     7
 10
832.2416805666
 20
248.0908362015
 30
0.0
 11
832.2340697985
 21
248.0984417542
 31
0.0
  0
LINE
  5
5D0
  8
0
  6
CONTINUOUS
 62
     7
 10
833.1416809004
 20
198.9110795601
 30
0.0
 11
833.1416809004
 21
198.9080397233
 31
0.0
  0
CIRCLE
  5
5D1
  8
0
  6
CONTINUOUS
 62
     7
 10
1062.4416807037
 20
190.5260078057
 30
0.0
 40
1.099999999999909
  0
CIRCLE
  5
5D2
  8
0
  6
CONTINUOUS
 62
     7
 10
1062.4416807037
 20
118.5260078057
 30
0.0
 40
1.099999999999909
  0
CIRCLE
  5
5D3
  8
0
  6
CONTINUOUS
 62
     7
 10
962.4416807037
 20
190.5260078057
 30
0.0
 40
1.100000000000023
  0
CIRCLE
  5
5D4
  8
0
  6
CONTINUOUS
 62
     7
 10
962.4416807037
 20
118.5260078057
 30
0.0
 40
1.100000000000023
  0
LINE
  5
5D5
  8
0
  6
CONTINUOUS
 62
     7
 10
968.5416863304
 20
185.983559285
 30
0.0
 11
1056.3416765075
 21
185.983559285
 31
0.0
  0
LINE
  5
5D6
  8
0
  6
CONTINUOUS
 62
     7
 10
968.5416863304
 20
66.5260074481
 30
0.0
 11
968.5416863304
 21
185.983559285
 31
0.0
  0
LINE
  5
5D7
  8
0
  6
CONTINUOUS
 62
     7
 10
968.5416863304
 20
66.5260074481
 30
0.0
 11
958.4416792732
 21
66.5260074481
 31
0.0
  0
LINE
  5
5D8
  8
0
  6
CONTINUOUS
 62
     7
 10
958.4416792732
 20
121.9260064705
 30
0.0
 11
958.4416792732
 21
66.5260074481
 31
0.0
  0
LINE
  5
5D9
  8
0
  6
CONTINUOUS
 62
     7
 10
956.4416811805
 20
121.9260064705
 30
0.0
 11
958.4416792732
 21
121.9260064705
 31
0.0
  0
LINE
  5
5DA
  8
0
  6
CONTINUOUS
 62
     7
 10
958.4416792732
 20
123.9260105237
 30
0.0
 11
956.4416811805
 21
123.9260105237
 31
0.0
  0
LINE
  5
5DB
  8
0
  6
CONTINUOUS
 62
     7
 10
958.4416792732
 20
187.1260134324
 30
0.0
 11
958.4416792732
 21
123.9260105237
 31
0.0
  0
LINE
  5
5DC
  8
0
  6
CONTINUOUS
 62
     7
 10
958.4416792732
 20
193.1260077103
 30
0.0
 11
958.4416792732
 21
189.126011525
 31
0.0
  0
ARC
  5
5DD
  8
0
  6
CONTINUOUS
 62
     7
 10
960.4416807037
 20
193.1260078057
 30
0.0
 40
2.0
 50
90.0
 51
180.0
  0
LINE
  5
5DE
  8
0
  6
CONTINUOUS
 62
     7
 10
967.7416847091
 20
195.126005803
 30
0.0
 11
960.4416773658
 21
195.126005803
 31
0.0
  0
LINE
  5
5DF
  8
0
  6
CONTINUOUS
 62
     7
 10
967.7416847091
 20
195.126005803
 30
0.0
 11
967.7416847091
 21
197.1260038956
 31
0.0
  0
LINE
  5
5E0
  8
0
  6
CONTINUOUS
 62
     7
 10
967.7416847091
 20
197.1260038956
 30
0.0
 11
968.5416863304
 21
197.1260038956
 31
0.0
  0
LINE
  5
5E1
  8
0
  6
CONTINUOUS
 62
     7
 10
968.5416863304
 20
197.1260038956
 30
0.0
 11
968.5416863304
 21
247.5600329979
 31
0.0
  0
LINE
  5
5E2
  8
0
  6
CONTINUOUS
 62
     7
 10
968.5416863304
 20
247.5600329979
 30
0.0
 11
1056.3416765075
 21
247.5600329979
 31
0.0
  0
LINE
  5
5E3
  8
0
  6
CONTINUOUS
 62
     7
 10
1056.3416765075
 20
197.1260038956
 30
0.0
 11
1056.3416765075
 21
247.5600329979
 31
0.0
  0
LINE
  5
5E4
  8
0
  6
CONTINUOUS
 62
     7
 10
1057.1416900497
 20
197.1260038956
 30
0.0
 11
1056.3416765075
 21
197.1260038956
 31
0.0
  0
LINE
  5
5E5
  8
0
  6
CONTINUOUS
 62
     7
 10
1057.1416900497
 20
197.1260038956
 30
0.0
 11
1057.1416900497
 21
195.126005803
 31
0.0
  0
LINE
  5
5E6
  8
0
  6
CONTINUOUS
 62
     7
 10
1064.4416854721
 20
195.126005803
 30
0.0
 11
1057.1416900497
 21
195.126005803
 31
0.0
  0
ARC
  5
5E7
  8
0
  6
CONTINUOUS
 62
     7
 10
1064.4416807037
 20
193.1260078057
 30
0.0
 40
2.0
 50
0.0
 51
90.0
  0
LINE
  5
5E8
  8
0
  6
CONTINUOUS
 62
     7
 10
1066.4416835647
 20
189.126011525
 30
0.0
 11
1066.4416835647
 21
193.1260077103
 31
0.0
  0
LINE
  5
5E9
  8
0
  6
CONTINUOUS
 62
     7
 10
1068.4416816574
 20
189.126011525
 30
0.0
 11
1066.4416835647
 21
189.126011525
 31
0.0
  0
LINE
  5
5EA
  8
0
  6
CONTINUOUS
 62
     7
 10
1068.4416816574
 20
187.1260134324
 30
0.0
 11
1068.4416816574
 21
189.126011525
 31
0.0
  0
LINE
  5
5EB
  8
0
  6
CONTINUOUS
 62
     7
 10
1066.4416835647
 20
187.1260134324
 30
0.0
 11
1068.4416816574
 21
187.1260134324
 31
0.0
  0
LINE
  5
5EC
  8
0
  6
CONTINUOUS
 62
     7
 10
1066.4416835647
 20
123.9260105237
 30
0.0
 11
1066.4416835647
 21
187.1260134324
 31
0.0
  0
LINE
  5
5ED
  8
0
  6
CONTINUOUS
 62
     7
 10
1068.4416816574
 20
123.9260105237
 30
0.0
 11
1066.4416835647
 21
123.9260105237
 31
0.0
  0
LINE
  5
5EE
  8
0
  6
CONTINUOUS
 62
     7
 10
1068.4416816574
 20
121.9260064705
 30
0.0
 11
1068.4416816574
 21
123.9260105237
 31
0.0
  0
LINE
  5
5EF
  8
0
  6
CONTINUOUS
 62
     7
 10
1066.4416835647
 20
121.9260064705
 30
0.0
 11
1068.4416816574
 21
121.9260064705
 31
0.0
  0
LINE
  5
5F0
  8
0
  6
CONTINUOUS
 62
     7
 10
1066.4416835647
 20
66.5260074481
 30
0.0
 11
1066.4416835647
 21
121.9260064705
 31
0.0
  0
LINE
  5
5F1
  8
0
  6
CONTINUOUS
 62
     7
 10
1066.4416835647
 20
66.5260074481
 30
0.0
 11
1056.3416765075
 21
66.5260074481
 31
0.0
  0
LINE
  5
5F2
  8
0
  6
CONTINUOUS
 62
     7
 10
1056.3416765075
 20
185.983559285
 30
0.0
 11
1056.3416765075
 21
66.5260074481
 31
0.0
  0
CIRCLE
  5
5F3
  8
0
  6
CONTINUOUS
 62
     7
 10
962.4416807037
 20
74.5260078057
 30
0.0
 40
1.100000000000023
  0
CIRCLE
  5
5F4
  8
0
  6
CONTINUOUS
 62
     7
 10
1062.4416807037
 20
74.5260078057
 30
0.0
 40
1.099999999999909
  0
LINE
  5
5F5
  8
0
  6
CONTINUOUS
 62
     7
 10
956.4416811805
 20
187.1260134324
 30
0.0
 11
958.4416792732
 21
187.1260134324
 31
0.0
  0
LINE
  5
5F6
  8
0
  6
CONTINUOUS
 62
     7
 10
958.4416792732
 20
189.126011525
 30
0.0
 11
956.4416811805
 21
189.126011525
 31
0.0
  0
LINE
  5
5F7
  8
0
  6
CONTINUOUS
 62
     7
 10
968.5416863304
 20
133.5260061368
 30
0.0
 11
1056.3416765075
 21
133.5260061368
 31
0.0
  0
LINE
  5
5F8
  8
0
  6
CONTINUOUS
 62
     7
 10
967.7416847091
 20
197.1260038956
 30
0.0
 11
967.7416847091
 21
197.8650299653
 31
0.0
  0
LINE
  5
5F9
  8
0
  6
CONTINUOUS
 62
     7
 10
968.5416863304
 20
247.7895347222
 30
0.0
 11
1056.3416765075
 21
247.7895347222
 31
0.0
  0
LINE
  5
5FA
  8
0
  6
CONTINUOUS
 62
     7
 10
1056.3416765075
 20
247.5600329979
 30
0.0
 11
1056.3416765075
 21
247.7895347222
 31
0.0
  0
LINE
  5
5FB
  8
0
  6
CONTINUOUS
 62
     7
 10
968.5416863304
 20
247.5600329979
 30
0.0
 11
968.5416863304
 21
247.7895347222
 31
0.0
  0
LINE
  5
5FC
  8
0
  6
CONTINUOUS
 62
     7
 10
1057.1416900497
 20
197.1322743043
 30
0.0
 11
1057.1416900497
 21
197.1260038956
 31
0.0
  0
LINE
  5
5FD
  8
0
  6
CONTINUOUS
 62
     7
 10
968.6416790824
 20
248.0908362015
 30
0.0
 11
968.6416790824
 21
247.7895347222
 31
0.0
  0
LINE
  5
5FE
  8
0
  6
CONTINUOUS
 62
     7
 10
1056.2416837554
 20
248.0908362015
 30
0.0
 11
1056.2416837554
 21
247.7895347222
 31
0.0
  0
LINE
  5
5FF
  8
0
  6
CONTINUOUS
 62
     7
 10
975.4416749816
 20
50.5260078057
 30
0.0
 11
958.4416792732
 21
50.5260078057
 31
0.0
  0
LINE
  5
600
  8
0
  6
CONTINUOUS
 62
     7
 10
975.4416749816
 20
59.6260076209
 30
0.0
 11
968.5416863304
 21
66.5260074481
 31
0.0
  0
LINE
  5
601
  8
0
  6
CONTINUOUS
 62
     7
 10
975.4416749816
 20
50.5260078057
 30
0.0
 11
975.4416749816
 21
59.6260076209
 31
0.0
  0
LINE
  5
602
  8
0
  6
CONTINUOUS
 62
     7
 10
958.4416792732
 20
50.5260078057
 30
0.0
 11
958.4416792732
 21
66.5260074481
 31
0.0
  0
LINE
  5
603
  8
0
  6
CONTINUOUS
 62
     7
 10
1066.4416835647
 20
50.5260078057
 30
0.0
 11
1049.4416759353
 21
50.5260078057
 31
0.0
  0
LINE
  5
604
  8
0
  6
CONTINUOUS
 62
     7
 10
1049.4416759353
 20
59.6260076209
 30
0.0
 11
1049.4416759353
 21
50.5260078057
 31
0.0
  0
LINE
  5
605
  8
0
  6
CONTINUOUS
 62
     7
 10
1056.3416765075
 20
66.5260074481
 30
0.0
 11
1049.4416759353
 21
59.6260076209
 31
0.0
  0
LINE
  5
606
  8
0
  6
CONTINUOUS
 62
     7
 10
1066.4416835647
 20
50.5260078057
 30
0.0
 11
1066.4416835647
 21
66.5260074481
 31
0.0
  0
LINE
  5
607
  8
0
  6
CONTINUOUS
 62
     7
 10
968.649296556
 20
248.0984417542
 30
0.0
 11
968.6416790824
 21
248.0908362015
 31
0.0
  0
LINE
  5
608
  8
0
  6
CONTINUOUS
 62
     7
 10
1056.2416837554
 20
248.0908362015
 30
0.0
 11
1056.2340782028
 21
248.0984417542
 31
0.0
  0
ENDSEC
  0
EOF
