  0
SECTION
  2
HEADER
  9
$ACADVER
  1
AC1009
  9
$DWGCODEPAGE
  3
ansi_1252
  9
$INSBASE
 10
0.0
 20
0.0
 30
0.0
  9
$EXTMIN
 10
0.0
 20
0.0
 30
0.0
  9
$EXTMAX
 10
420.0
 20
297.0
 30
0.0
  9
$LIMMIN
 10
0.0
 20
0.0
  9
$LIMMAX
 10
420.0
 20
297.0
  9
$ORTHOMODE
 70
     0
  9
$REGENMODE
 70
     1
  9
$FILLMODE
 70
     1
  9
$QTEXTMODE
 70
     0
  9
$MIRRTEXT
 70
     1
  9
$DRAGMODE
 70
     2
  9
$LTSCALE
 40
1.0
  9
$OSMODE
 70
    37
  9
$ATTMODE
 70
     1
  9
$TEXTSIZE
 40
3.5
  9
$TRACEWID
 40
1.0
  9
$TEXTSTYLE
  7
STANDARD
  9
$CLAYER
  8
0
  9
$CELTYPE
  6
BYLAYER
  9
$CECOLOR
 62
   256
  9
$DIMSCALE
 40
1.0
  9
$DIMASZ
 40
4.0
  9
$DIMEXO
 40
0.0
  9
$DIMDLI
 40
3.75
  9
$DIMRND
 40
0.0
  9
$DIMDLE
 40
0.0
  9
$DIMEXE
 40
2.0
  9
$DIMTP
 40
0.0
  9
$DIMTM
 40
0.0
  9
$DIMTXT
 40
3.5
  9
$DIMCEN
 40
2.5
  9
$DIMTSZ
 40
0.0
  9
$DIMTOL
 70
     0
  9
$DIMLIM
 70
     0
  9
$DIMTIH
 70
     1
  9
$DIMTOH
 70
     1
  9
$DIMSE1
 70
     0
  9
$DIMSE2
 70
     0
  9
$DIMTAD
 70
     1
  9
$DIMZIN
 70
     0
  9
$DIMBLK
  1

  9
$DIMASO
 70
     1
  9
$DIMSHO
 70
     1
  9
$DIMPOST
  1

  9
$DIMAPOST
  1

  9
$DIMALT
 70
     0
  9
$DIMALTD
 70
     3
  9
$DIMALTF
 40
0.0393700787
  9
$DIMLFAC
 40
5.0
  9
$DIMTOFL
 70
     1
  9
$DIMTVP
 40
0.0
  9
$DIMTIX
 70
     0
  9
$DIMSOXD
 70
     0
  9
$DIMSAH
 70
     0
  9
$DIMBLK1
  1

  9
$DIMBLK2
  1

  9
$DIMSTYLE
  2
ISO-25
  9
$DIMCLRD
 70
     0
  9
$DIMCLRE
 70
     0
  9
$DIMCLRT
 70
     0
  9
$DIMTFAC
 40
1.0
  9
$DIMGAP
 40
1.524
  9
$LUNITS
 70
     2
  9
$LUPREC
 70
     2
  9
$SKETCHINC
 40
1.0
  9
$FILLETRAD
 40
10.0
  9
$AUNITS
 70
     0
  9
$AUPREC
 70
     2
  9
$MENU
  1
.
  9
$ELEVATION
 40
0.0
  9
$PELEVATION
 40
0.0
  9
$THICKNESS
 40
0.0
  9
$LIMCHECK
 70
     0
  9
$CHAMFERA
 40
10.0
  9
$CHAMFERB
 40
10.0
  9
$SKPOLY
 70
     0
  9
$TDCREATE
 40
2457801.452108738
  9
$TDUPDATE
 40
2457801.452109028
  9
$TDINDWG
 40
0.0000000116
  9
$TDUSRTIMER
 40
0.0000000116
  9
$USRTIMER
 70
     1
  9
$ANGBASE
 50
0.0
  9
$ANGDIR
 70
     0
  9
$PDMODE
 70
     0
  9
$PDSIZE
 40
-1.0
  9
$PLINEWID
 40
0.0
  9
$COORDS
 70
     1
  9
$SPLFRAME
 70
     0
  9
$SPLINETYPE
 70
     6
  9
$SPLINESEGS
 70
     8
  9
$ATTDIA
 70
     0
  9
$ATTREQ
 70
     1
  9
$HANDLING
 70
     1
  9
$HANDSEED
  5
584
  9
$SURFTAB1
 70
     6
  9
$SURFTAB2
 70
     6
  9
$SURFTYPE
 70
     6
  9
$SURFU
 70
     6
  9
$SURFV
 70
     6
  9
$UCSNAME
  2

  9
$UCSORG
 10
0.0
 20
0.0
 30
0.0
  9
$UCSXDIR
 10
1.0
 20
0.0
 30
0.0
  9
$UCSYDIR
 10
0.0
 20
1.0
 30
0.0
  9
$PUCSNAME
  2

  9
$PUCSORG
 10
0.0
 20
0.0
 30
0.0
  9
$PUCSXDIR
 10
1.0
 20
0.0
 30
0.0
  9
$PUCSYDIR
 10
0.0
 20
1.0
 30
0.0
  9
$USERI1
 70
     0
  9
$USERI2
 70
     0
  9
$USERI3
 70
     0
  9
$USERI4
 70
     0
  9
$USERI5
 70
     0
  9
$USERR1
 40
0.0
  9
$USERR2
 40
0.0
  9
$USERR3
 40
0.0
  9
$USERR4
 40
0.0
  9
$USERR5
 40
0.0
  9
$WORLDVIEW
 70
     1
  9
$SHADEDGE
 70
     3
  9
$SHADEDIF
 70
    70
  9
$TILEMODE
 70
     1
  9
$MAXACTVP
 70
    64
  9
$PLIMCHECK
 70
     0
  9
$PEXTMIN
 10
1.0000000000E+20
 20
1.0000000000E+20
 30
1.0000000000E+20
  9
$PEXTMAX
 10
-1.0000000000E+20
 20
-1.0000000000E+20
 30
-1.0000000000E+20
  9
$PLIMMIN
 10
0.0
 20
0.0
  9
$PLIMMAX
 10
420.0
 20
297.0
  9
$UNITMODE
 70
     0
  9
$VISRETAIN
 70
     1
  9
$PLINEGEN
 70
     0
  9
$PSLTSCALE
 70
     1
  0
ENDSEC
  0
SECTION
  2
TABLES
  0
TABLE
  2
VPORT
 70
     1
  0
VPORT
  2
*ACTIVE
 70
     0
 10
0.0
 20
0.0
 11
1.0
 21
1.0
 12
210.0
 22
148.5
 13
0.0
 23
0.0
 14
10.0
 24
10.0
 15
10.0
 25
10.0
 16
0.0
 26
0.0
 36
1.0
 17
0.0
 27
0.0
 37
0.0
 40
297.0
 41
1.4141414141
 42
50.0
 43
0.0
 44
0.0
 50
0.0
 51
0.0
 71
     0
 72
  2000
 73
     1
 74
     3
 75
     0
 76
     0
 77
     0
 78
     0
  0
ENDTAB
  0
TABLE
  2
LTYPE
 70
     6
  0
LTYPE
  2
CONTINUOUS
 70
     0
  3
Solid line
 72
    65
 73
     0
 40
0.0
  0
LTYPE
  2
HIDDEN
 70
     0
  3
Hidden __ __ __ __ __ __ __ __ __ __ __ __ __ __
 72
    65
 73
     2
 40
1.905
 49
1.27
 49
-0.635
  0
LTYPE
  2
PHANTOM
 70
     0
  3
Phantom ______  __  __  ______  __  __  ______
 72
    65
 73
     6
 40
12.7
 49
6.35
 49
-1.27
 49
1.27
 49
-1.27
 49
1.27
 49
-1.27
  0
LTYPE
  2
CENTER
 70
     0
  3
Center ____ _ ____ _ ____ _ ____ _ ____ _ ____
 72
    65
 73
     4
 40
10.16
 49
6.35
 49
-1.27
 49
1.27
 49
-1.27
  0
LTYPE
  2
CENTERX2
 70
     0
  3
Center (2x) ________  __  ________  __  _____
 72
    65
 73
     4
 40
20.32
 49
12.7
 49
-2.54
 49
2.54
 49
-2.54
  0
LTYPE
  2
DOT2
 70
     0
  3
Dot (.5x) ........................................
 72
    65
 73
     2
 40
0.635
 49
0.0
 49
-0.635
  0
ENDTAB
  0
TABLE
  2
LAYER
 70
     2
  0
LAYER
  2
0
 70
     0
 62
     7
  6
CONTINUOUS
  0
LAYER
  2
FORMAT
 70
     0
 62
     7
  6
CONTINUOUS
  0
ENDTAB
  0
TABLE
  2
STYLE
 70
     1
  0
STYLE
  2
STANDARD
 70
     0
 40
0.0
 41
1.0
 50
0.0
 71
     0
 42
3.5
  3
txt
  4

  0
ENDTAB
  0
TABLE
  2
VIEW
 70
     0
  0
ENDTAB
  0
TABLE
  2
UCS
 70
     0
  0
ENDTAB
  0
TABLE
  2
APPID
 70
     1
  0
APPID
  2
ACAD
 70
     0
  0
ENDTAB
  0
TABLE
  2
DIMSTYLE
 70
     1
  0
DIMSTYLE
  2
ISO-25
 70
     0
  3

  4

  5

  6

  7

 40
1.0
 41
2.5
 42
0.625
 43
3.75
 44
1.25
 45
0.0
 46
0.0
 47
0.0
 48
0.0
140
2.5
141
2.5
142
0.0
143
0.0393700787
144
1.0
145
0.0
146
1.0
147
0.625
 71
     0
 72
     0
 73
     0
 74
     0
 75
     0
 76
     0
 77
     1
 78
     8
170
     0
171
     3
172
     1
173
     0
174
     0
175
     0
176
     0
177
     0
178
     0
  0
ENDTAB
  0
ENDSEC
  0
SECTION
  2
BLOCKS
  0
BLOCK
  8
0
  2
$MODEL_SPACE
 70
     0
 10
0.0
 20
0.0
 30
0.0
  3
$MODEL_SPACE
  1

  0
ENDBLK
  5
21
  8
0
  0
BLOCK
 67
     1
  8
0
  2
$PAPER_SPACE
 70
     0
 10
0.0
 20
0.0
 30
0.0
  3
$PAPER_SPACE
  1

  0
ENDBLK
  5
1D
 67
     1
  8
0
  0
ENDSEC
  0
SECTION
  2
ENTITIES
  0
ARC
  5
45
  8
0
  6
CONTINUOUS
 62
     7
 10
158.2840169029
 20
204.7014308656
 30
0.0
 40
0.4000000000000057
 50
0.0
 51
90.0
  0
ARC
  5
46
  8
0
  6
CONTINUOUS
 62
     7
 10
136.8840169029
 20
204.7014308656
 30
0.0
 40
0.4000000000000057
 50
90.0
 51
180.0
  0
LINE
  5
47
  8
0
  6
CONTINUOUS
 62
     7
 10
158.2840155916
 20
205.1014303
 30
0.0
 11
136.8840139465
 21
205.1014303
 31
0.0
  0
ARC
  5
48
  8
0
  6
CONTINUOUS
 62
     7
 10
159.1840169029
 20
253.2104316191
 30
0.0
 40
0.4000000000000057
 50
0.0
 51
90.0
  0
LINE
  5
49
  8
0
  6
CONTINUOUS
 62
     7
 10
159.1840159254
 20
253.6104320319
 30
0.0
 11
135.9840195732
 21
253.6104320319
 31
0.0
  0
ARC
  5
4A
  8
0
  6
CONTINUOUS
 62
     7
 10
135.9840169029
 20
253.2104316191
 30
0.0
 40
0.4000000000000057
 50
90.0
 51
180.0
  0
ARC
  5
4B
  8
0
  6
CONTINUOUS
 62
     7
 10
270.2840169029
 20
204.7014308656
 30
0.0
 40
0.4000000000000057
 50
0.0
 51
90.0
  0
ARC
  5
4C
  8
0
  6
CONTINUOUS
 62
     7
 10
248.8840169029
 20
204.7014308656
 30
0.0
 40
0.4000000000000057
 50
90.0
 51
180.0
  0
LINE
  5
4D
  8
0
  6
CONTINUOUS
 62
     7
 10
270.2840190487
 20
205.1014303
 30
0.0
 11
248.8840174036
 21
205.1014303
 31
0.0
  0
LINE
  5
4E
  8
0
  6
CONTINUOUS
 62
     7
 10
271.1840193825
 20
253.6104320319
 30
0.0
 11
247.9840170698
 21
253.6104320319
 31
0.0
  0
ARC
  5
4F
  8
0
  6
CONTINUOUS
 62
     7
 10
247.9840169029
 20
253.2104316191
 30
0.0
 40
0.4000000000000341
 50
90.0
 51
180.0
  0
ARC
  5
50
  8
0
  6
CONTINUOUS
 62
     7
 10
271.1840169029
 20
253.2104316191
 30
0.0
 40
0.4000000000000341
 50
0.0
 51
90.0
  0
ARC
  5
51
  8
0
  6
CONTINUOUS
 62
     7
 10
360.8840169029
 20
204.7014308656
 30
0.0
 40
0.4000000000000341
 50
90.0
 51
180.0
  0
ARC
  5
52
  8
0
  6
CONTINUOUS
 62
     7
 10
371.7840169029
 20
204.7014308656
 30
0.0
 40
0.4000000000000057
 50
0.0
 51
90.0
  0
LINE
  5
53
  8
0
  6
CONTINUOUS
 62
     7
 10
371.7840116577
 20
205.1014303
 30
0.0
 11
360.8840149002
 21
205.1014303
 31
0.0
  0
ARC
  5
54
  8
0
  6
CONTINUOUS
 62
     7
 10
35.7840169029
 20
204.7014308656
 30
0.0
 40
0.4000000000000057
 50
90.0
 51
180.0
  0
ARC
  5
55
  8
0
  6
CONTINUOUS
 62
     7
 10
46.6840169029
 20
204.7014308656
 30
0.0
 40
0.4000000000000057
 50
0.0
 51
90.0
  0
LINE
  5
56
  8
0
  6
CONTINUOUS
 62
     7
 10
46.6840189056
 20
205.1014303
 30
0.0
 11
35.7840221481
 21
205.1014303
 31
0.0
  0
LINE
  5
57
  8
0
  6
CONTINUOUS
 62
     7
 10
271.9840150433
 20
133.3052932055
 30
0.0
 11
272.9840140896
 21
133.3052932055
 31
0.0
  0
LINE
  5
58
  8
0
  6
CONTINUOUS
 62
     7
 10
272.9840140896
 20
138.1052969725
 30
0.0
 11
271.9840150433
 21
138.1052969725
 31
0.0
  0
LINE
  5
59
  8
0
  6
CONTINUOUS
 62
     7
 10
358.5840147095
 20
133.3052932055
 30
0.0
 11
359.5840137558
 21
133.3052932055
 31
0.0
  0
LINE
  5
5A
  8
0
  6
CONTINUOUS
 62
     7
 10
359.5840137558
 20
138.1052969725
 30
0.0
 11
358.5840147095
 21
138.1052969725
 31
0.0
  0
LINE
  5
5B
  8
0
  6
CONTINUOUS
 62
     7
 10
246.5840172129
 20
133.3052932055
 30
0.0
 11
247.5840162592
 21
133.3052932055
 31
0.0
  0
LINE
  5
5C
  8
0
  6
CONTINUOUS
 62
     7
 10
247.5840162592
 20
138.1052969725
 30
0.0
 11
246.5840172129
 21
138.1052969725
 31
0.0
  0
LINE
  5
5D
  8
0
  6
CONTINUOUS
 62
     7
 10
159.9840175467
 20
133.3052932055
 30
0.0
 11
160.984016593
 21
133.3052932055
 31
0.0
  0
LINE
  5
5E
  8
0
  6
CONTINUOUS
 62
     7
 10
160.984016593
 20
138.1052969725
 30
0.0
 11
159.9840175467
 21
138.1052969725
 31
0.0
  0
LINE
  5
5F
  8
0
  6
CONTINUOUS
 62
     7
 10
161.3840174036
 20
117.6926075251
 30
0.0
 11
246.1840164023
 21
117.6926075251
 31
0.0
  0
ARC
  5
60
  8
0
  6
CONTINUOUS
 62
     7
 10
161.3840169029
 20
118.0926081786
 30
0.0
 40
0.4000000000000057
 50
180.0
 51
270.0
  0
ARC
  5
61
  8
0
  6
CONTINUOUS
 62
     7
 10
246.1840169029
 20
118.0926081786
 30
0.0
 40
0.4000000000000057
 50
270.0
 51
0.0
  0
LINE
  5
62
  8
0
  6
CONTINUOUS
 62
     7
 10
160.893149312
 20
131.2308071883
 30
0.0
 11
160.984016593
 21
131.2308071883
 31
0.0
  0
LINE
  5
63
  8
0
  6
CONTINUOUS
 62
     7
 10
246.5840172129
 20
131.2308071883
 30
0.0
 11
246.6748844938
 21
131.2308071883
 31
0.0
  0
ARC
  5
64
  8
0
  6
CONTINUOUS
 62
     7
 10
161.3840169029
 20
204.3289677967
 30
0.0
 40
0.4000000000000057
 50
90.0
 51
180.0
  0
ARC
  5
65
  8
0
  6
CONTINUOUS
 62
     7
 10
246.1840169029
 20
204.3289677967
 30
0.0
 40
0.4000000000000057
 50
0.0
 51
90.0
  0
LINE
  5
66
  8
0
  6
CONTINUOUS
 62
     7
 10
246.1840164023
 20
204.7289727957
 30
0.0
 11
161.3840174036
 21
204.7289727957
 31
0.0
  0
LINE
  5
67
  8
0
  6
CONTINUOUS
 62
     7
 10
47.9840200501
 20
133.3052932055
 30
0.0
 11
48.9840190964
 21
133.3052932055
 31
0.0
  0
LINE
  5
68
  8
0
  6
CONTINUOUS
 62
     7
 10
48.9840190964
 20
138.1052969725
 30
0.0
 11
47.9840200501
 21
138.1052969725
 31
0.0
  0
LINE
  5
69
  8
0
  6
CONTINUOUS
 62
     7
 10
134.5840197163
 20
133.3052932055
 30
0.0
 11
135.5840187626
 21
133.3052932055
 31
0.0
  0
LINE
  5
6A
  8
0
  6
CONTINUOUS
 62
     7
 10
135.5840187626
 20
138.1052969725
 30
0.0
 11
134.5840197163
 21
138.1052969725
 31
0.0
  0
ARC
  5
6B
  8
0
  6
CONTINUOUS
 62
     7
 10
49.3840169029
 20
118.0926081786
 30
0.0
 40
0.4000000000000128
 50
180.0
 51
270.0
  0
ARC
  5
6C
  8
0
  6
CONTINUOUS
 62
     7
 10
134.1840169029
 20
118.0926081786
 30
0.0
 40
0.4000000000000057
 50
270.0
 51
0.0
  0
LINE
  5
6D
  8
0
  6
CONTINUOUS
 62
     7
 10
49.3840139465
 20
117.6926075251
 30
0.0
 11
134.1840189056
 21
117.6926075251
 31
0.0
  0
LINE
  5
6E
  8
0
  6
CONTINUOUS
 62
     7
 10
48.893145855
 20
131.2308071883
 30
0.0
 11
48.9840190964
 21
131.2308071883
 31
0.0
  0
LINE
  5
6F
  8
0
  6
CONTINUOUS
 62
     7
 10
134.5840197163
 20
131.2308071883
 30
0.0
 11
134.6748869972
 21
131.2308071883
 31
0.0
  0
ARC
  5
70
  8
0
  6
CONTINUOUS
 62
     7
 10
49.3840169029
 20
204.3289677967
 30
0.0
 40
0.4000000000000128
 50
90.0
 51
180.0
  0
ARC
  5
71
  8
0
  6
CONTINUOUS
 62
     7
 10
134.1840169029
 20
204.3289677967
 30
0.0
 40
0.4000000000000057
 50
0.0
 51
90.0
  0
LINE
  5
72
  8
0
  6
CONTINUOUS
 62
     7
 10
134.1840189056
 20
204.7289727957
 30
0.0
 11
49.3840139465
 21
204.7289727957
 31
0.0
  0
LINE
  5
73
  8
0
  6
CONTINUOUS
 62
     7
 10
247.684017952
 20
136.9052945406
 30
0.0
 11
247.5840162592
 21
136.9052945406
 31
0.0
  0
LINE
  5
74
  8
0
  6
CONTINUOUS
 62
     7
 10
159.9840175467
 20
136.9052945406
 30
0.0
 11
159.8840158539
 21
136.9052945406
 31
0.0
  0
LINE
  5
75
  8
0
  6
CONTINUOUS
 62
     7
 10
159.8840158539
 20
134.5052956374
 30
0.0
 11
159.9840175467
 21
134.5052956374
 31
0.0
  0
LINE
  5
76
  8
0
  6
CONTINUOUS
 62
     7
 10
247.5840162592
 20
134.5052956374
 30
0.0
 11
247.684017952
 21
134.5052956374
 31
0.0
  0
LINE
  5
77
  8
0
  6
CONTINUOUS
 62
     7
 10
159.8840158539
 20
204.2903660567
 30
0.0
 11
159.0840172129
 21
204.2903660567
 31
0.0
  0
LINE
  5
78
  8
0
  6
CONTINUOUS
 62
     7
 10
248.484016593
 20
204.2903660567
 30
0.0
 11
247.684017952
 21
204.2903660567
 31
0.0
  0
LINE
  5
79
  8
0
  6
CONTINUOUS
 62
     7
 10
247.5764077263
 20
253.4777282507
 30
0.0
 11
159.9916260796
 21
253.4777282507
 31
0.0
  0
LINE
  5
7A
  8
0
  6
CONTINUOUS
 62
     7
 10
135.6840174751
 20
136.9052945406
 30
0.0
 11
135.5840187626
 21
136.9052945406
 31
0.0
  0
LINE
  5
7B
  8
0
  6
CONTINUOUS
 62
     7
 10
47.9840200501
 20
136.9052945406
 30
0.0
 11
47.8840153771
 21
136.9052945406
 31
0.0
  0
LINE
  5
7C
  8
0
  6
CONTINUOUS
 62
     7
 10
47.8840153771
 20
134.5052956374
 30
0.0
 11
47.9840200501
 21
134.5052956374
 31
0.0
  0
LINE
  5
7D
  8
0
  6
CONTINUOUS
 62
     7
 10
135.5840187626
 20
134.5052956374
 30
0.0
 11
135.6840174751
 21
134.5052956374
 31
0.0
  0
LINE
  5
7E
  8
0
  6
CONTINUOUS
 62
     7
 10
136.4840190964
 20
204.2903660567
 30
0.0
 11
135.6840174751
 21
204.2903660567
 31
0.0
  0
LINE
  5
7F
  8
0
  6
CONTINUOUS
 62
     7
 10
47.8840153771
 20
204.2903660567
 30
0.0
 11
47.0840137558
 21
204.2903660567
 31
0.0
  0
LINE
  5
80
  8
0
  6
CONTINUOUS
 62
     7
 10
135.5764072495
 20
253.4777282507
 30
0.0
 11
47.9916256027
 21
253.4777282507
 31
0.0
  0
LINE
  5
81
  8
0
  6
CONTINUOUS
 62
     7
 10
359.6840184288
 20
136.9052945406
 30
0.0
 11
359.5840137558
 21
136.9052945406
 31
0.0
  0
LINE
  5
82
  8
0
  6
CONTINUOUS
 62
     7
 10
271.9840150433
 20
136.9052945406
 30
0.0
 11
271.8840163307
 21
136.9052945406
 31
0.0
  0
LINE
  5
83
  8
0
  6
CONTINUOUS
 62
     7
 10
271.8840163307
 20
134.5052956374
 30
0.0
 11
271.9840150433
 21
134.5052956374
 31
0.0
  0
LINE
  5
84
  8
0
  6
CONTINUOUS
 62
     7
 10
359.5840137558
 20
134.5052956374
 30
0.0
 11
359.6840184288
 21
134.5052956374
 31
0.0
  0
LINE
  5
85
  8
0
  6
CONTINUOUS
 62
     7
 10
360.4840200501
 20
204.2903660567
 30
0.0
 11
359.6840184288
 21
204.2903660567
 31
0.0
  0
LINE
  5
86
  8
0
  6
CONTINUOUS
 62
     7
 10
271.8840163307
 20
204.2903660567
 30
0.0
 11
271.0840147095
 21
204.2903660567
 31
0.0
  0
LINE
  5
87
  8
0
  6
CONTINUOUS
 62
     7
 10
359.5764082031
 20
253.4777282507
 30
0.0
 11
271.9916265564
 21
253.4777282507
 31
0.0
  0
LINE
  5
88
  8
0
  6
CONTINUOUS
 62
     7
 10
248.8840174036
 20
117.5052939684
 30
0.0
 11
259.3840163307
 21
117.5052939684
 31
0.0
  0
ARC
  5
89
  8
0
  6
CONTINUOUS
 62
     7
 10
259.3840169029
 20
117.1052943022
 30
0.0
 40
0.4000000000000057
 50
0.0
 51
90.0
  0
LINE
  5
8A
  8
0
  6
CONTINUOUS
 62
     7
 10
248.484016593
 20
113.9052926333
 30
0.0
 11
248.484016593
 21
117.1052931578
 31
0.0
  0
POLYLINE
  5
8B
  8
0
  6
CONTINUOUS
 62
     7
 66
     1
 10
0.0
 20
0.0
 30
0.0
  0
VERTEX
  5
499
  8
0
  6
CONTINUOUS
 62
     7
 10
248.484016593
 20
113.9052926333
 30
0.0
  0
VERTEX
  5
49A
  8
0
  6
CONTINUOUS
 62
     7
 10
248.4917026119
 20
113.8976095946
 30
0.0
  0
VERTEX
  5
49B
  8
0
  6
CONTINUOUS
 62
     7
 10
248.5144656258
 20
113.8748465807
 30
0.0
  0
VERTEX
  5
49C
  8
0
  6
CONTINUOUS
 62
     7
 10
248.5514294462
 20
113.83787978
 30
0.0
  0
VERTEX
  5
49D
  8
0
  6
CONTINUOUS
 62
     7
 10
248.6011754828
 20
113.788139704
 30
0.0
  0
VERTEX
  5
49E
  8
0
  6
CONTINUOUS
 62
     7
 10
248.661787446
 20
113.7275217802
 30
0.0
  0
VERTEX
  5
49F
  8
0
  6
CONTINUOUS
 62
     7
 10
248.7309437351
 20
113.6583684714
 30
0.0
  0
VERTEX
  5
4A0
  8
0
  6
CONTINUOUS
 62
     7
 10
248.8059800224
 20
113.5833321841
 30
0.0
  0
VERTEX
  5
4A1
  8
0
  6
CONTINUOUS
 62
     7
 10
248.8840174036
 20
113.5052918227
 30
0.0
  0
SEQEND
  5
583
  8
0
  6
CONTINUOUS
 62
     7
  0
LINE
  5
8C
  8
0
  6
CONTINUOUS
 62
     7
 10
259.7840171414
 20
117.1052931578
 30
0.0
 11
259.7840171414
 21
55.9052943022
 31
0.0
  0
LINE
  5
8D
  8
0
  6
CONTINUOUS
 62
     7
 10
259.7840171414
 20
55.9052943022
 30
0.0
 11
259.3840163307
 21
55.9052943022
 31
0.0
  0
LINE
  5
8E
  8
0
  6
CONTINUOUS
 62
     7
 10
147.7840166645
 20
55.9052943022
 30
0.0
 11
147.7840166645
 21
117.1052931578
 31
0.0
  0
LINE
  5
8F
  8
0
  6
CONTINUOUS
 62
     7
 10
148.1840174751
 20
55.9052943022
 30
0.0
 11
147.7840166645
 21
55.9052943022
 31
0.0
  0
LINE
  5
90
  8
0
  6
CONTINUOUS
 62
     7
 10
159.0840172129
 20
113.9052926333
 30
0.0
 11
248.484016593
 21
113.9052926333
 31
0.0
  0
POLYLINE
  5
91
  8
0
  6
CONTINUOUS
 62
     7
 66
     1
 10
0.0
 20
0.0
 30
0.0
  0
VERTEX
  5
4A2
  8
0
  6
CONTINUOUS
 62
     7
 10
159.0840172129
 20
113.9052926333
 30
0.0
  0
VERTEX
  5
4A3
  8
0
  6
CONTINUOUS
 62
     7
 10
159.0779405193
 20
113.89921892
 30
0.0
  0
VERTEX
  5
4A4
  8
0
  6
CONTINUOUS
 62
     7
 10
159.0598952131
 20
113.8811706335
 30
0.0
  0
VERTEX
  5
4A5
  8
0
  6
CONTINUOUS
 62
     7
 10
159.0304266768
 20
113.8517020972
 30
0.0
  0
VERTEX
  5
4A6
  8
0
  6
CONTINUOUS
 62
     7
 10
158.9904349403
 20
113.811713341
 30
0.0
  0
VERTEX
  5
4A7
  8
0
  6
CONTINUOUS
 62
     7
 10
158.9411329584
 20
113.7624083788
 30
0.0
  0
VERTEX
  5
4A8
  8
0
  6
CONTINUOUS
 62
     7
 10
158.8840168076
 20
113.7052952082
 30
0.0
  0
VERTEX
  5
4A9
  8
0
  6
CONTINUOUS
 62
     7
 10
158.8208239632
 20
113.6421023638
 30
0.0
  0
VERTEX
  5
4AA
  8
0
  6
CONTINUOUS
 62
     7
 10
158.753476675
 20
113.5747550757
 30
0.0
  0
VERTEX
  5
4AB
  8
0
  6
CONTINUOUS
 62
     7
 10
158.6840164023
 20
113.5052918227
 30
0.0
  0
SEQEND
  5
582
  8
0
  6
CONTINUOUS
 62
     7
  0
LINE
  5
92
  8
0
  6
CONTINUOUS
 62
     7
 10
148.1840174751
 20
55.9052943022
 30
0.0
 11
259.3840163307
 21
55.9052943022
 31
0.0
  0
ARC
  5
93
  8
0
  6
CONTINUOUS
 62
     7
 10
248.8840169029
 20
117.1052943022
 30
0.0
 40
0.4000000000000057
 50
90.0
 51
180.0
  0
ARC
  5
94
  8
0
  6
CONTINUOUS
 62
     7
 10
158.6840169029
 20
117.1052943022
 30
0.0
 40
0.4000000000000057
 50
0.0
 51
90.0
  0
LINE
  5
95
  8
0
  6
CONTINUOUS
 62
     7
 10
148.1840174751
 20
117.5052939684
 30
0.0
 11
158.6840164023
 21
117.5052939684
 31
0.0
  0
LINE
  5
96
  8
0
  6
CONTINUOUS
 62
     7
 10
159.0840172129
 20
117.1052931578
 30
0.0
 11
159.0840172129
 21
113.9052926333
 31
0.0
  0
ARC
  5
97
  8
0
  6
CONTINUOUS
 62
     7
 10
148.1840169029
 20
117.1052943022
 30
0.0
 40
0.4000000000000057
 50
90.0
 51
180.0
  0
LINE
  5
98
  8
0
  6
CONTINUOUS
 62
     7
 10
247.684017952
 20
119.9052928717
 30
0.0
 11
246.5840172129
 21
119.9052928717
 31
0.0
  0
LINE
  5
99
  8
0
  6
CONTINUOUS
 62
     7
 10
160.984016593
 20
119.9052928717
 30
0.0
 11
159.8840158539
 21
119.9052928717
 31
0.0
  0
LINE
  5
9A
  8
0
  6
CONTINUOUS
 62
     7
 10
136.4840190964
 20
113.9052926333
 30
0.0
 11
136.4840190964
 21
117.1052931578
 31
0.0
  0
POLYLINE
  5
9B
  8
0
  6
CONTINUOUS
 62
     7
 66
     1
 10
0.0
 20
0.0
 30
0.0
  0
VERTEX
  5
4AC
  8
0
  6
CONTINUOUS
 62
     7
 10
136.4840190964
 20
113.9052926333
 30
0.0
  0
VERTEX
  5
4AD
  8
0
  6
CONTINUOUS
 62
     7
 10
136.4917021351
 20
113.8976095946
 30
0.0
  0
VERTEX
  5
4AE
  8
0
  6
CONTINUOUS
 62
     7
 10
136.5144651489
 20
113.8748465807
 30
0.0
  0
VERTEX
  5
4AF
  8
0
  6
CONTINUOUS
 62
     7
 10
136.5514319496
 20
113.83787978
 30
0.0
  0
VERTEX
  5
4B0
  8
0
  6
CONTINUOUS
 62
     7
 10
136.6011720257
 20
113.788139704
 30
0.0
  0
VERTEX
  5
4B1
  8
0
  6
CONTINUOUS
 62
     7
 10
136.6617899494
 20
113.7275217802
 30
0.0
  0
VERTEX
  5
4B2
  8
0
  6
CONTINUOUS
 62
     7
 10
136.7309432583
 20
113.6583684714
 30
0.0
  0
VERTEX
  5
4B3
  8
0
  6
CONTINUOUS
 62
     7
 10
136.8059795456
 20
113.5833321841
 30
0.0
  0
VERTEX
  5
4B4
  8
0
  6
CONTINUOUS
 62
     7
 10
136.8840139465
 20
113.5052918227
 30
0.0
  0
SEQEND
  5
581
  8
0
  6
CONTINUOUS
 62
     7
  0
ARC
  5
9C
  8
0
  6
CONTINUOUS
 62
     7
 10
36.1840169029
 20
117.1052943022
 30
0.0
 40
0.4000000000000128
 50
90.0
 51
180.0
  0
LINE
  5
9D
  8
0
  6
CONTINUOUS
 62
     7
 10
47.0840137558
 20
113.9052926333
 30
0.0
 11
136.4840190964
 21
113.9052926333
 31
0.0
  0
POLYLINE
  5
9E
  8
0
  6
CONTINUOUS
 62
     7
 66
     1
 10
0.0
 20
0.0
 30
0.0
  0
VERTEX
  5
4B5
  8
0
  6
CONTINUOUS
 62
     7
 10
47.0840137558
 20
113.9052926333
 30
0.0
  0
VERTEX
  5
4B6
  8
0
  6
CONTINUOUS
 62
     7
 10
47.077934082
 20
113.89921892
 30
0.0
  0
VERTEX
  5
4B7
  8
0
  6
CONTINUOUS
 62
     7
 10
47.0598977165
 20
113.8811706335
 30
0.0
  0
VERTEX
  5
4B8
  8
0
  6
CONTINUOUS
 62
     7
 10
47.0304291802
 20
113.8517020972
 30
0.0
  0
VERTEX
  5
4B9
  8
0
  6
CONTINUOUS
 62
     7
 10
46.9904344635
 20
113.811713341
 30
0.0
  0
VERTEX
  5
4BA
  8
0
  6
CONTINUOUS
 62
     7
 10
46.9411295014
 20
113.7624083788
 30
0.0
  0
VERTEX
  5
4BB
  8
0
  6
CONTINUOUS
 62
     7
 10
46.8840163307
 20
113.7052952082
 30
0.0
  0
VERTEX
  5
4BC
  8
0
  6
CONTINUOUS
 62
     7
 10
46.8208234863
 20
113.6421023638
 30
0.0
  0
VERTEX
  5
4BD
  8
0
  6
CONTINUOUS
 62
     7
 10
46.7534702377
 20
113.5747550757
 30
0.0
  0
VERTEX
  5
4BE
  8
0
  6
CONTINUOUS
 62
     7
 10
46.6840189056
 20
113.5052918227
 30
0.0
  0
SEQEND
  5
580
  8
0
  6
CONTINUOUS
 62
     7
  0
LINE
  5
9F
  8
0
  6
CONTINUOUS
 62
     7
 10
47.0840137558
 20
117.1052931578
 30
0.0
 11
47.0840137558
 21
113.9052926333
 31
0.0
  0
ARC
  5
A0
  8
0
  6
CONTINUOUS
 62
     7
 10
46.6840169029
 20
117.1052943022
 30
0.0
 40
0.4000000000000057
 50
0.0
 51
90.0
  0
LINE
  5
A1
  8
0
  6
CONTINUOUS
 62
     7
 10
35.7840221481
 20
55.9052943022
 30
0.0
 11
35.7840221481
 21
117.1052931578
 31
0.0
  0
LINE
  5
A2
  8
0
  6
CONTINUOUS
 62
     7
 10
36.1840169983
 20
55.9052943022
 30
0.0
 11
35.7840221481
 21
55.9052943022
 31
0.0
  0
ARC
  5
A3
  8
0
  6
CONTINUOUS
 62
     7
 10
147.3840169029
 20
117.1052943022
 30
0.0
 40
0.4000000000000057
 50
0.0
 51
90.0
  0
ARC
  5
A4
  8
0
  6
CONTINUOUS
 62
     7
 10
136.8840169029
 20
117.1052943022
 30
0.0
 40
0.4000000000000057
 50
90.0
 51
180.0
  0
LINE
  5
A5
  8
0
  6
CONTINUOUS
 62
     7
 10
36.1840169983
 20
55.9052943022
 30
0.0
 11
147.3840158539
 21
55.9052943022
 31
0.0
  0
LINE
  5
A6
  8
0
  6
CONTINUOUS
 62
     7
 10
36.1840169983
 20
117.5052939684
 30
0.0
 11
46.6840189056
 21
117.5052939684
 31
0.0
  0
LINE
  5
A7
  8
0
  6
CONTINUOUS
 62
     7
 10
136.8840139465
 20
117.5052939684
 30
0.0
 11
147.3840158539
 21
117.5052939684
 31
0.0
  0
LINE
  5
A8
  8
0
  6
CONTINUOUS
 62
     7
 10
147.7840166645
 20
55.9052943022
 30
0.0
 11
147.3840158539
 21
55.9052943022
 31
0.0
  0
LINE
  5
A9
  8
0
  6
CONTINUOUS
 62
     7
 10
135.6840174751
 20
119.9052928717
 30
0.0
 11
134.5840197163
 21
119.9052928717
 31
0.0
  0
LINE
  5
AA
  8
0
  6
CONTINUOUS
 62
     7
 10
48.9840190964
 20
119.9052928717
 30
0.0
 11
47.8840153771
 21
119.9052928717
 31
0.0
  0
ARC
  5
AB
  8
0
  6
CONTINUOUS
 62
     7
 10
270.6840169029
 20
117.1052943022
 30
0.0
 40
0.4000000000000341
 50
0.0
 51
90.0
  0
LINE
  5
AC
  8
0
  6
CONTINUOUS
 62
     7
 10
371.7840116577
 20
117.1052931578
 30
0.0
 11
371.7840116577
 21
55.9052943022
 31
0.0
  0
LINE
  5
AD
  8
0
  6
CONTINUOUS
 62
     7
 10
371.7840116577
 20
55.9052943022
 30
0.0
 11
371.3840168076
 21
55.9052943022
 31
0.0
  0
LINE
  5
AE
  8
0
  6
CONTINUOUS
 62
     7
 10
260.184017952
 20
117.5052939684
 30
0.0
 11
270.6840198593
 21
117.5052939684
 31
0.0
  0
ARC
  5
AF
  8
0
  6
CONTINUOUS
 62
     7
 10
260.1840169029
 20
117.1052943022
 30
0.0
 40
0.4000000000000057
 50
90.0
 51
180.0
  0
LINE
  5
B0
  8
0
  6
CONTINUOUS
 62
     7
 10
360.4840200501
 20
113.9052926333
 30
0.0
 11
360.4840200501
 21
117.1052931578
 31
0.0
  0
POLYLINE
  5
B1
  8
0
  6
CONTINUOUS
 62
     7
 66
     1
 10
0.0
 20
0.0
 30
0.0
  0
VERTEX
  5
4BF
  8
0
  6
CONTINUOUS
 62
     7
 10
360.4840200501
 20
113.9052926333
 30
0.0
  0
VERTEX
  5
4C0
  8
0
  6
CONTINUOUS
 62
     7
 10
360.4916971283
 20
113.8976095946
 30
0.0
  0
VERTEX
  5
4C1
  8
0
  6
CONTINUOUS
 62
     7
 10
360.5144661026
 20
113.8748465807
 30
0.0
  0
VERTEX
  5
4C2
  8
0
  6
CONTINUOUS
 62
     7
 10
360.5514329033
 20
113.83787978
 30
0.0
  0
VERTEX
  5
4C3
  8
0
  6
CONTINUOUS
 62
     7
 10
360.6011789398
 20
113.788139704
 30
0.0
  0
VERTEX
  5
4C4
  8
0
  6
CONTINUOUS
 62
     7
 10
360.6617849426
 20
113.7275217802
 30
0.0
  0
VERTEX
  5
4C5
  8
0
  6
CONTINUOUS
 62
     7
 10
360.7309382515
 20
113.6583684714
 30
0.0
  0
VERTEX
  5
4C6
  8
0
  6
CONTINUOUS
 62
     7
 10
360.8059804993
 20
113.5833321841
 30
0.0
  0
VERTEX
  5
4C7
  8
0
  6
CONTINUOUS
 62
     7
 10
360.8840149002
 20
113.5052918227
 30
0.0
  0
SEQEND
  5
57F
  8
0
  6
CONTINUOUS
 62
     7
  0
LINE
  5
B2
  8
0
  6
CONTINUOUS
 62
     7
 10
271.0840147095
 20
117.1052931578
 30
0.0
 11
271.0840147095
 21
113.9052926333
 31
0.0
  0
POLYLINE
  5
B3
  8
0
  6
CONTINUOUS
 62
     7
 66
     1
 10
0.0
 20
0.0
 30
0.0
  0
VERTEX
  5
4C8
  8
0
  6
CONTINUOUS
 62
     7
 10
271.0840147095
 20
113.9052926333
 30
0.0
  0
VERTEX
  5
4C9
  8
0
  6
CONTINUOUS
 62
     7
 10
271.0779409962
 20
113.89921892
 30
0.0
  0
VERTEX
  5
4CA
  8
0
  6
CONTINUOUS
 62
     7
 10
271.0598927097
 20
113.8811706335
 30
0.0
  0
VERTEX
  5
4CB
  8
0
  6
CONTINUOUS
 62
     7
 10
271.0304241734
 20
113.8517020972
 30
0.0
  0
VERTEX
  5
4CC
  8
0
  6
CONTINUOUS
 62
     7
 10
270.9904354172
 20
113.811713341
 30
0.0
  0
VERTEX
  5
4CD
  8
0
  6
CONTINUOUS
 62
     7
 10
270.941130455
 20
113.7624083788
 30
0.0
  0
VERTEX
  5
4CE
  8
0
  6
CONTINUOUS
 62
     7
 10
270.8840172844
 20
113.7052952082
 30
0.0
  0
VERTEX
  5
4CF
  8
0
  6
CONTINUOUS
 62
     7
 10
270.82082444
 20
113.6421023638
 30
0.0
  0
VERTEX
  5
4D0
  8
0
  6
CONTINUOUS
 62
     7
 10
270.7534771519
 20
113.5747550757
 30
0.0
  0
VERTEX
  5
4D1
  8
0
  6
CONTINUOUS
 62
     7
 10
270.6840198593
 20
113.5052918227
 30
0.0
  0
SEQEND
  5
57E
  8
0
  6
CONTINUOUS
 62
     7
  0
ARC
  5
B4
  8
0
  6
CONTINUOUS
 62
     7
 10
360.8840169029
 20
117.1052943022
 30
0.0
 40
0.4000000000000909
 50
90.0
 51
180.0
  0
ARC
  5
B5
  8
0
  6
CONTINUOUS
 62
     7
 10
371.3840169029
 20
117.1052943022
 30
0.0
 40
0.4000000000000341
 50
0.0
 51
90.0
  0
LINE
  5
B6
  8
0
  6
CONTINUOUS
 62
     7
 10
260.184017952
 20
55.9052943022
 30
0.0
 11
371.3840168076
 21
55.9052943022
 31
0.0
  0
LINE
  5
B7
  8
0
  6
CONTINUOUS
 62
     7
 10
260.184017952
 20
55.9052943022
 30
0.0
 11
259.7840171414
 21
55.9052943022
 31
0.0
  0
LINE
  5
B8
  8
0
  6
CONTINUOUS
 62
     7
 10
271.0840147095
 20
113.9052926333
 30
0.0
 11
360.4840200501
 21
113.9052926333
 31
0.0
  0
LINE
  5
B9
  8
0
  6
CONTINUOUS
 62
     7
 10
360.8840149002
 20
117.5052939684
 30
0.0
 11
371.3840168076
 21
117.5052939684
 31
0.0
  0
LINE
  5
BA
  8
0
  6
CONTINUOUS
 62
     7
 10
359.6840184288
 20
119.9052928717
 30
0.0
 11
271.8840163307
 21
119.9052928717
 31
0.0
  0
ARC
  5
BB
  8
0
  6
CONTINUOUS
 62
     7
 10
158.2840169029
 20
118.3052943022
 30
0.0
 40
0.4000000000000057
 50
270.0
 51
0.0
  0
ARC
  5
BC
  8
0
  6
CONTINUOUS
 62
     7
 10
136.8840169029
 20
118.3052943022
 30
0.0
 40
0.4000000000000057
 50
180.0
 51
270.0
  0
LINE
  5
BD
  8
0
  6
CONTINUOUS
 62
     7
 10
158.2840155916
 20
117.9052947791
 30
0.0
 11
136.8840139465
 21
117.9052947791
 31
0.0
  0
LINE
  5
BE
  8
0
  6
CONTINUOUS
 62
     7
 10
136.4840190964
 20
118.3052955897
 30
0.0
 11
136.4840190964
 21
200.9401797087
 31
0.0
  0
LINE
  5
BF
  8
0
  6
CONTINUOUS
 62
     7
 10
158.6840164023
 20
200.9401797087
 30
0.0
 11
158.6840164023
 21
118.3052955897
 31
0.0
  0
LINE
  5
C0
  8
0
  6
CONTINUOUS
 62
     7
 10
158.6840164023
 20
204.7014354498
 30
0.0
 11
158.6840164023
 21
200.9401797087
 31
0.0
  0
LINE
  5
C1
  8
0
  6
CONTINUOUS
 62
     7
 10
136.4840190964
 20
200.9401797087
 30
0.0
 11
136.4840190964
 21
204.7014354498
 31
0.0
  0
LINE
  5
C2
  8
0
  6
CONTINUOUS
 62
     7
 10
159.3840163307
 20
204.2903660567
 30
0.0
 11
159.3840163307
 21
204.3944000037
 31
0.0
  0
LINE
  5
C3
  8
0
  6
CONTINUOUS
 62
     7
 10
159.3840163307
 20
204.3944000037
 30
0.0
 11
158.6840164023
 21
204.3944000037
 31
0.0
  0
LINE
  5
C4
  8
0
  6
CONTINUOUS
 62
     7
 10
159.1840159254
 20
204.4118284018
 30
0.0
 11
158.6840164023
 21
204.4118284018
 31
0.0
  0
ARC
  5
C5
  8
0
  6
CONTINUOUS
 62
     7
 10
159.2833025355
 20
203.2386540933
 30
0.0
 40
1.17736816207035
 50
75.2019882922
 51
94.8374569991
  0
LINE
  5
C6
  8
0
  6
CONTINUOUS
 62
     7
 10
159.584016736
 20
204.2903660567
 30
0.0
 11
159.584016736
 21
204.3769716055
 31
0.0
  0
LINE
  5
C7
  8
0
  6
CONTINUOUS
 62
     7
 10
135.5840187626
 20
204.3769716055
 30
0.0
 11
135.5840187626
 21
253.2104371817
 31
0.0
  0
ARC
  5
C8
  8
0
  6
CONTINUOUS
 62
     7
 10
135.8847292384
 20
203.2386968363
 30
0.0
 40
1.177325885470272
 50
85.1621869642
 51
104.7983677445
  0
LINE
  5
C9
  8
0
  6
CONTINUOUS
 62
     7
 10
159.584016736
 20
253.2104371817
 30
0.0
 11
159.584016736
 21
204.3769716055
 31
0.0
  0
LINE
  5
CA
  8
0
  6
CONTINUOUS
 62
     7
 10
136.4840190964
 20
204.3944000037
 30
0.0
 11
135.7840161877
 21
204.3944000037
 31
0.0
  0
LINE
  5
CB
  8
0
  6
CONTINUOUS
 62
     7
 10
135.7840161877
 20
204.3944000037
 30
0.0
 11
135.7840161877
 21
204.2903660567
 31
0.0
  0
LINE
  5
CC
  8
0
  6
CONTINUOUS
 62
     7
 10
135.6840174751
 20
204.0632127554
 30
0.0
 11
135.5840187626
 21
204.0632127554
 31
0.0
  0
LINE
  5
CD
  8
0
  6
CONTINUOUS
 62
     7
 10
135.5840187626
 20
204.3377040656
 30
0.0
 11
135.5840187626
 21
204.3769716055
 31
0.0
  0
LINE
  5
CE
  8
0
  6
CONTINUOUS
 62
     7
 10
136.4840190964
 20
204.4118284018
 30
0.0
 11
135.9840195732
 21
204.4118284018
 31
0.0
  0
ARC
  5
CF
  8
0
  6
CONTINUOUS
 62
     7
 10
248.8840169029
 20
118.3052943022
 30
0.0
 40
0.3999999999999915
 50
180.0
 51
270.0
  0
ARC
  5
D0
  8
0
  6
CONTINUOUS
 62
     7
 10
270.2840169029
 20
118.3052943022
 30
0.0
 40
0.3999999999999915
 50
270.0
 51
0.0
  0
LINE
  5
D1
  8
0
  6
CONTINUOUS
 62
     7
 10
270.2840190487
 20
117.9052947791
 30
0.0
 11
248.8840174036
 21
117.9052947791
 31
0.0
  0
LINE
  5
D2
  8
0
  6
CONTINUOUS
 62
     7
 10
270.6840198593
 20
200.9401797087
 30
0.0
 11
270.6840198593
 21
118.3052955897
 31
0.0
  0
LINE
  5
D3
  8
0
  6
CONTINUOUS
 62
     7
 10
248.484016593
 20
118.3052955897
 30
0.0
 11
248.484016593
 21
200.9401797087
 31
0.0
  0
LINE
  5
D4
  8
0
  6
CONTINUOUS
 62
     7
 10
270.6840198593
 20
204.7014354498
 30
0.0
 11
270.6840198593
 21
200.9401797087
 31
0.0
  0
LINE
  5
D5
  8
0
  6
CONTINUOUS
 62
     7
 10
248.484016593
 20
200.9401797087
 30
0.0
 11
248.484016593
 21
204.7014354498
 31
0.0
  0
LINE
  5
D6
  8
0
  6
CONTINUOUS
 62
     7
 10
247.5840162592
 20
204.3769716055
 30
0.0
 11
247.5840162592
 21
253.2104371817
 31
0.0
  0
ARC
  5
D7
  8
0
  6
CONTINUOUS
 62
     7
 10
247.88473156
 20
203.2386414674
 30
0.0
 40
1.17738065019374
 50
85.1626481659
 51
104.7979065428
  0
LINE
  5
D8
  8
0
  6
CONTINUOUS
 62
     7
 10
271.5840142326
 20
253.2104371817
 30
0.0
 11
271.5840142326
 21
204.3769716055
 31
0.0
  0
ARC
  5
D9
  8
0
  6
CONTINUOUS
 62
     7
 10
271.2833062296
 20
203.2387082348
 30
0.0
 40
1.177314233387244
 50
75.2016069197
 51
94.8376906923
  0
LINE
  5
DA
  8
0
  6
CONTINUOUS
 62
     7
 10
271.1840193825
 20
204.4118284018
 30
0.0
 11
270.6840198593
 21
204.4118284018
 31
0.0
  0
LINE
  5
DB
  8
0
  6
CONTINUOUS
 62
     7
 10
248.484016593
 20
204.4118284018
 30
0.0
 11
247.9840170698
 21
204.4118284018
 31
0.0
  0
LINE
  5
DC
  8
0
  6
CONTINUOUS
 62
     7
 10
248.484016593
 20
204.3944000037
 30
0.0
 11
247.7840166645
 21
204.3944000037
 31
0.0
  0
LINE
  5
DD
  8
0
  6
CONTINUOUS
 62
     7
 10
247.7840166645
 20
204.3944000037
 30
0.0
 11
247.7840166645
 21
204.2903660567
 31
0.0
  0
LINE
  5
DE
  8
0
  6
CONTINUOUS
 62
     7
 10
247.684017952
 20
204.0632127554
 30
0.0
 11
247.5840162592
 21
204.0632127554
 31
0.0
  0
LINE
  5
DF
  8
0
  6
CONTINUOUS
 62
     7
 10
247.5840162592
 20
204.3377040656
 30
0.0
 11
247.5840162592
 21
204.3769716055
 31
0.0
  0
LINE
  5
E0
  8
0
  6
CONTINUOUS
 62
     7
 10
271.3840168076
 20
204.2903660567
 30
0.0
 11
271.3840168076
 21
204.3944000037
 31
0.0
  0
LINE
  5
E1
  8
0
  6
CONTINUOUS
 62
     7
 10
271.3840168076
 20
204.3944000037
 30
0.0
 11
270.6840198593
 21
204.3944000037
 31
0.0
  0
LINE
  5
E2
  8
0
  6
CONTINUOUS
 62
     7
 10
271.5840142326
 20
204.2903660567
 30
0.0
 11
271.5840142326
 21
204.3769716055
 31
0.0
  0
ARC
  5
E3
  8
0
  6
CONTINUOUS
 62
     7
 10
371.7840169029
 20
118.3052943022
 30
0.0
 40
0.3999999999999773
 50
270.0
 51
0.0
  0
LINE
  5
E4
  8
0
  6
CONTINUOUS
 62
     7
 10
371.7840116577
 20
117.9052947791
 30
0.0
 11
360.8840149002
 21
117.9052947791
 31
0.0
  0
ARC
  5
E5
  8
0
  6
CONTINUOUS
 62
     7
 10
360.8840169029
 20
118.3052943022
 30
0.0
 40
0.4000000000000341
 50
180.0
 51
270.0
  0
LINE
  5
E6
  8
0
  6
CONTINUOUS
 62
     7
 10
372.1840184288
 20
200.9401797087
 30
0.0
 11
372.1840184288
 21
118.3052955897
 31
0.0
  0
LINE
  5
E7
  8
0
  6
CONTINUOUS
 62
     7
 10
360.4840200501
 20
118.3052955897
 30
0.0
 11
360.4840200501
 21
200.9401797087
 31
0.0
  0
LINE
  5
E8
  8
0
  6
CONTINUOUS
 62
     7
 10
372.1840184288
 20
204.7014354498
 30
0.0
 11
372.1840184288
 21
200.9401797087
 31
0.0
  0
LINE
  5
E9
  8
0
  6
CONTINUOUS
 62
     7
 10
360.4840200501
 20
200.9401797087
 30
0.0
 11
360.4840200501
 21
204.7014354498
 31
0.0
  0
ARC
  5
EA
  8
0
  6
CONTINUOUS
 62
     7
 10
46.6840169029
 20
118.3052943022
 30
0.0
 40
0.3999999999999844
 50
270.0
 51
0.0
  0
ARC
  5
EB
  8
0
  6
CONTINUOUS
 62
     7
 10
35.7840169029
 20
118.3052943022
 30
0.0
 40
0.3999999999999844
 50
180.0
 51
270.0
  0
LINE
  5
EC
  8
0
  6
CONTINUOUS
 62
     7
 10
46.6840189056
 20
117.9052947791
 30
0.0
 11
35.7840221481
 21
117.9052947791
 31
0.0
  0
LINE
  5
ED
  8
0
  6
CONTINUOUS
 62
     7
 10
35.3840153771
 20
118.3052955897
 30
0.0
 11
35.3840153771
 21
200.9401797087
 31
0.0
  0
LINE
  5
EE
  8
0
  6
CONTINUOUS
 62
     7
 10
47.0840137558
 20
200.9401797087
 30
0.0
 11
47.0840137558
 21
118.3052955897
 31
0.0
  0
LINE
  5
EF
  8
0
  6
CONTINUOUS
 62
     7
 10
35.3840153771
 20
200.9401797087
 30
0.0
 11
35.3840153771
 21
204.7014354498
 31
0.0
  0
LINE
  5
F0
  8
0
  6
CONTINUOUS
 62
     7
 10
47.0840137558
 20
204.7014354498
 30
0.0
 11
47.0840137558
 21
200.9401797087
 31
0.0
  0
LINE
  5
F1
  8
0
  6
CONTINUOUS
 62
     7
 10
272.9840140896
 20
139.2052947314
 30
0.0
 11
272.9840140896
 21
139.3052934439
 31
0.0
  0
LINE
  5
F2
  8
0
  6
CONTINUOUS
 62
     7
 10
275.2840142803
 20
145.905291918
 30
0.0
 11
356.2840145187
 21
145.905291918
 31
0.0
  0
ARC
  5
F3
  8
0
  6
CONTINUOUS
 62
     7
 10
356.2840207644
 20
143.5052932999
 30
0.0
 40
2.399998618124715
 50
359.9999931924
 51
90.0001491031
  0
ARC
  5
F4
  8
0
  6
CONTINUOUS
 62
     7
 10
275.2840197476
 20
143.5052875475
 30
0.0
 40
2.400004370506767
 50
90.0001305202
 51
179.9998694798
  0
LINE
  5
F5
  8
0
  6
CONTINUOUS
 62
     7
 10
358.5840147095
 20
139.3052934439
 30
0.0
 11
358.5840147095
 21
139.2052947314
 31
0.0
  0
LINE
  5
F6
  8
0
  6
CONTINUOUS
 62
     7
 10
358.6840193825
 20
139.3052934439
 30
0.0
 11
358.1840198593
 21
139.3052934439
 31
0.0
  0
LINE
  5
F7
  8
0
  6
CONTINUOUS
 62
     7
 10
273.3840149002
 20
139.3052934439
 30
0.0
 11
272.8840153771
 21
139.3052934439
 31
0.0
  0
LINE
  5
F8
  8
0
  6
CONTINUOUS
 62
     7
 10
272.8840153771
 20
143.5052930148
 30
0.0
 11
272.8840153771
 21
139.3052934439
 31
0.0
  0
LINE
  5
F9
  8
0
  6
CONTINUOUS
 62
     7
 10
358.6840193825
 20
143.5052930148
 30
0.0
 11
358.6840193825
 21
139.3052934439
 31
0.0
  0
LINE
  5
FA
  8
0
  6
CONTINUOUS
 62
     7
 10
272.9840140896
 20
131.7052959235
 30
0.0
 11
272.9840140896
 21
139.2052947314
 31
0.0
  0
LINE
  5
FB
  8
0
  6
CONTINUOUS
 62
     7
 10
358.5840147095
 20
139.2052947314
 30
0.0
 11
358.5840147095
 21
131.7052959235
 31
0.0
  0
ARC
  5
FC
  8
0
  6
CONTINUOUS
 62
     7
 10
273.3840169029
 20
131.7052943022
 30
0.0
 40
0.4000000000000057
 50
180.0
 51
270.0
  0
LINE
  5
FD
  8
0
  6
CONTINUOUS
 62
     7
 10
358.1840198593
 20
131.3052951128
 30
0.0
 11
273.3840149002
 21
131.3052951128
 31
0.0
  0
ARC
  5
FE
  8
0
  6
CONTINUOUS
 62
     7
 10
358.1840169029
 20
131.7052943022
 30
0.0
 40
0.4000000000000057
 50
270.0
 51
0.0
  0
LINE
  5
FF
  8
0
  6
CONTINUOUS
 62
     7
 10
271.9840150433
 20
138.1052969725
 30
0.0
 11
271.9840150433
 21
133.3052932055
 31
0.0
  0
LINE
  5
100
  8
0
  6
CONTINUOUS
 62
     7
 10
359.5840137558
 20
138.1052969725
 30
0.0
 11
359.5840137558
 21
133.3052932055
 31
0.0
  0
LINE
  5
101
  8
0
  6
CONTINUOUS
 62
     7
 10
246.5840172129
 20
200.6502507956
 30
0.0
 11
246.5840172129
 21
118.7201319964
 31
0.0
  0
LINE
  5
102
  8
0
  6
CONTINUOUS
 62
     7
 10
160.984016593
 20
118.7201319964
 30
0.0
 11
160.984016593
 21
200.6502507956
 31
0.0
  0
LINE
  5
103
  8
0
  6
CONTINUOUS
 62
     7
 10
160.984016593
 20
118.0926083357
 30
0.0
 11
160.984016593
 21
118.7201319964
 31
0.0
  0
LINE
  5
104
  8
0
  6
CONTINUOUS
 62
     7
 10
246.5840172129
 20
118.7201319964
 30
0.0
 11
246.5840172129
 21
118.0926083357
 31
0.0
  0
LINE
  5
105
  8
0
  6
CONTINUOUS
 62
     7
 10
247.5840162592
 20
133.3144246371
 30
0.0
 11
247.5840162592
 21
133.3052932055
 31
0.0
  0
LINE
  5
106
  8
0
  6
CONTINUOUS
 62
     7
 10
247.5840162592
 20
138.1052969725
 30
0.0
 11
247.5840162592
 21
133.3144246371
 31
0.0
  0
LINE
  5
107
  8
0
  6
CONTINUOUS
 62
     7
 10
159.9840175467
 20
133.3144246371
 30
0.0
 11
159.9840175467
 21
133.3052932055
 31
0.0
  0
LINE
  5
108
  8
0
  6
CONTINUOUS
 62
     7
 10
159.9840175467
 20
138.1052969725
 30
0.0
 11
159.9840175467
 21
133.3144246371
 31
0.0
  0
LINE
  5
109
  8
0
  6
CONTINUOUS
 62
     7
 10
160.984016593
 20
200.6502507956
 30
0.0
 11
160.984016593
 21
204.3102263243
 31
0.0
  0
LINE
  5
10A
  8
0
  6
CONTINUOUS
 62
     7
 10
246.5840172129
 20
204.3102263243
 30
0.0
 11
246.5840172129
 21
200.6502507956
 31
0.0
  0
LINE
  5
10B
  8
0
  6
CONTINUOUS
 62
     7
 10
160.984016593
 20
131.6059945853
 30
0.0
 11
160.8840178804
 21
131.6059945853
 31
0.0
  0
LINE
  5
10C
  8
0
  6
CONTINUOUS
 62
     7
 10
246.6840159254
 20
131.6059945853
 30
0.0
 11
246.5840172129
 21
131.6059945853
 31
0.0
  0
LINE
  5
10D
  8
0
  6
CONTINUOUS
 62
     7
 10
246.6840159254
 20
131.6059945853
 30
0.0
 11
246.6840159254
 21
131.2399386198
 31
0.0
  0
LINE
  5
10E
  8
0
  6
CONTINUOUS
 62
     7
 10
160.8840178804
 20
131.6059945853
 30
0.0
 11
160.8840178804
 21
131.2399386198
 31
0.0
  0
LINE
  5
10F
  8
0
  6
CONTINUOUS
 62
     7
 10
160.8840178804
 20
204.7266839774
 30
0.0
 11
160.8840178804
 21
138.1052969725
 31
0.0
  0
LINE
  5
110
  8
0
  6
CONTINUOUS
 62
     7
 10
160.8840178804
 20
133.3052932055
 30
0.0
 11
160.8840178804
 21
131.6059945853
 31
0.0
  0
LINE
  5
111
  8
0
  6
CONTINUOUS
 62
     7
 10
161.341340478
 20
204.7266839774
 30
0.0
 11
160.8840178804
 21
204.7266839774
 31
0.0
  0
LINE
  5
112
  8
0
  6
CONTINUOUS
 62
     7
 10
246.6840159254
 20
204.7266839774
 30
0.0
 11
246.2266933279
 21
204.7266839774
 31
0.0
  0
LINE
  5
113
  8
0
  6
CONTINUOUS
 62
     7
 10
246.6840159254
 20
204.7266839774
 30
0.0
 11
246.6840159254
 21
138.1052969725
 31
0.0
  0
LINE
  5
114
  8
0
  6
CONTINUOUS
 62
     7
 10
246.6840159254
 20
133.3052932055
 30
0.0
 11
246.6840159254
 21
131.6059945853
 31
0.0
  0
LINE
  5
115
  8
0
  6
CONTINUOUS
 62
     7
 10
160.8840178804
 20
131.2399386198
 30
0.0
 11
160.893149312
 21
131.2308071883
 31
0.0
  0
LINE
  5
116
  8
0
  6
CONTINUOUS
 62
     7
 10
246.6840159254
 20
131.2399386198
 30
0.0
 11
246.6748844938
 21
131.2308071883
 31
0.0
  0
LINE
  5
117
  8
0
  6
CONTINUOUS
 62
     7
 10
160.984016593
 20
204.3102263243
 30
0.0
 11
160.984016593
 21
204.3289660246
 31
0.0
  0
LINE
  5
118
  8
0
  6
CONTINUOUS
 62
     7
 10
246.5840172129
 20
204.3289660246
 30
0.0
 11
246.5840172129
 21
204.3102263243
 31
0.0
  0
LINE
  5
119
  8
0
  6
CONTINUOUS
 62
     7
 10
48.9840190964
 20
118.7201319964
 30
0.0
 11
48.9840190964
 21
200.6502507956
 31
0.0
  0
LINE
  5
11A
  8
0
  6
CONTINUOUS
 62
     7
 10
134.5840197163
 20
200.6502507956
 30
0.0
 11
134.5840197163
 21
118.7201319964
 31
0.0
  0
LINE
  5
11B
  8
0
  6
CONTINUOUS
 62
     7
 10
48.9840190964
 20
118.0926083357
 30
0.0
 11
48.9840190964
 21
118.7201319964
 31
0.0
  0
LINE
  5
11C
  8
0
  6
CONTINUOUS
 62
     7
 10
134.5840197163
 20
118.7201319964
 30
0.0
 11
134.5840197163
 21
118.0926083357
 31
0.0
  0
LINE
  5
11D
  8
0
  6
CONTINUOUS
 62
     7
 10
47.9840200501
 20
133.3144246371
 30
0.0
 11
47.9840200501
 21
133.3052932055
 31
0.0
  0
LINE
  5
11E
  8
0
  6
CONTINUOUS
 62
     7
 10
47.9840200501
 20
138.1052969725
 30
0.0
 11
47.9840200501
 21
133.3144246371
 31
0.0
  0
LINE
  5
11F
  8
0
  6
CONTINUOUS
 62
     7
 10
135.5840187626
 20
133.3144246371
 30
0.0
 11
135.5840187626
 21
133.3052932055
 31
0.0
  0
LINE
  5
120
  8
0
  6
CONTINUOUS
 62
     7
 10
135.5840187626
 20
138.1052969725
 30
0.0
 11
135.5840187626
 21
133.3144246371
 31
0.0
  0
LINE
  5
121
  8
0
  6
CONTINUOUS
 62
     7
 10
48.9840190964
 20
200.6502507956
 30
0.0
 11
48.9840190964
 21
204.3102263243
 31
0.0
  0
LINE
  5
122
  8
0
  6
CONTINUOUS
 62
     7
 10
134.5840197163
 20
204.3102263243
 30
0.0
 11
134.5840197163
 21
200.6502507956
 31
0.0
  0
LINE
  5
123
  8
0
  6
CONTINUOUS
 62
     7
 10
48.9840190964
 20
131.6059945853
 30
0.0
 11
48.8840144234
 21
131.6059945853
 31
0.0
  0
LINE
  5
124
  8
0
  6
CONTINUOUS
 62
     7
 10
134.6840184288
 20
131.6059945853
 30
0.0
 11
134.5840197163
 21
131.6059945853
 31
0.0
  0
LINE
  5
125
  8
0
  6
CONTINUOUS
 62
     7
 10
134.6840184288
 20
131.6059945853
 30
0.0
 11
134.6840184288
 21
131.2399386198
 31
0.0
  0
LINE
  5
126
  8
0
  6
CONTINUOUS
 62
     7
 10
48.8840144234
 20
131.6059945853
 30
0.0
 11
48.8840144234
 21
131.2399386198
 31
0.0
  0
LINE
  5
127
  8
0
  6
CONTINUOUS
 62
     7
 10
48.8840144234
 20
204.7266839774
 30
0.0
 11
48.8840144234
 21
138.1052969725
 31
0.0
  0
LINE
  5
128
  8
0
  6
CONTINUOUS
 62
     7
 10
48.8840144234
 20
133.3052932055
 30
0.0
 11
48.8840144234
 21
131.6059945853
 31
0.0
  0
LINE
  5
129
  8
0
  6
CONTINUOUS
 62
     7
 10
49.3413370209
 20
204.7266839774
 30
0.0
 11
48.8840144234
 21
204.7266839774
 31
0.0
  0
LINE
  5
12A
  8
0
  6
CONTINUOUS
 62
     7
 10
134.6840184288
 20
204.7266839774
 30
0.0
 11
134.2266958313
 21
204.7266839774
 31
0.0
  0
LINE
  5
12B
  8
0
  6
CONTINUOUS
 62
     7
 10
134.6840184288
 20
204.7266839774
 30
0.0
 11
134.6840184288
 21
138.1052969725
 31
0.0
  0
LINE
  5
12C
  8
0
  6
CONTINUOUS
 62
     7
 10
134.6840184288
 20
133.3052932055
 30
0.0
 11
134.6840184288
 21
131.6059945853
 31
0.0
  0
LINE
  5
12D
  8
0
  6
CONTINUOUS
 62
     7
 10
48.8840144234
 20
131.2399386198
 30
0.0
 11
48.893145855
 21
131.2308071883
 31
0.0
  0
LINE
  5
12E
  8
0
  6
CONTINUOUS
 62
     7
 10
134.6840184288
 20
131.2399386198
 30
0.0
 11
134.6748869972
 21
131.2308071883
 31
0.0
  0
LINE
  5
12F
  8
0
  6
CONTINUOUS
 62
     7
 10
48.9840190964
 20
204.3102263243
 30
0.0
 11
48.9840190964
 21
204.3289660246
 31
0.0
  0
LINE
  5
130
  8
0
  6
CONTINUOUS
 62
     7
 10
134.5840197163
 20
204.3289660246
 30
0.0
 11
134.5840197163
 21
204.3102263243
 31
0.0
  0
LINE
  5
131
  8
0
  6
CONTINUOUS
 62
     7
 10
248.484016593
 20
118.5052930148
 30
0.0
 11
247.684017952
 21
118.5052930148
 31
0.0
  0
LINE
  5
132
  8
0
  6
CONTINUOUS
 62
     7
 10
247.684017952
 20
118.5052930148
 30
0.0
 11
247.684017952
 21
119.3750201495
 31
0.0
  0
LINE
  5
133
  8
0
  6
CONTINUOUS
 62
     7
 10
159.8840158539
 20
118.5052930148
 30
0.0
 11
159.0840172129
 21
118.5052930148
 31
0.0
  0
LINE
  5
134
  8
0
  6
CONTINUOUS
 62
     7
 10
159.8840158539
 20
119.3750201495
 30
0.0
 11
159.8840158539
 21
118.5052930148
 31
0.0
  0
LINE
  5
135
  8
0
  6
CONTINUOUS
 62
     7
 10
159.0840172129
 20
118.5052930148
 30
0.0
 11
159.0840172129
 21
119.3750201495
 31
0.0
  0
LINE
  5
136
  8
0
  6
CONTINUOUS
 62
     7
 10
159.8840158539
 20
119.3750201495
 30
0.0
 11
159.8840158539
 21
200.3308533461
 31
0.0
  0
LINE
  5
137
  8
0
  6
CONTINUOUS
 62
     7
 10
159.0840172129
 20
119.3750201495
 30
0.0
 11
159.0840172129
 21
200.3308533461
 31
0.0
  0
LINE
  5
138
  8
0
  6
CONTINUOUS
 62
     7
 10
247.684017952
 20
200.3308533461
 30
0.0
 11
247.684017952
 21
119.3750201495
 31
0.0
  0
LINE
  5
139
  8
0
  6
CONTINUOUS
 62
     7
 10
247.684017952
 20
200.3308533461
 30
0.0
 11
247.684017952
 21
200.9861706526
 31
0.0
  0
LINE
  5
13A
  8
0
  6
CONTINUOUS
 62
     7
 10
159.8840158539
 20
200.9861706526
 30
0.0
 11
159.8840158539
 21
200.3308533461
 31
0.0
  0
LINE
  5
13B
  8
0
  6
CONTINUOUS
 62
     7
 10
159.0840172129
 20
200.3308533461
 30
0.0
 11
159.0840172129
 21
200.9861706526
 31
0.0
  0
LINE
  5
13C
  8
0
  6
CONTINUOUS
 62
     7
 10
159.8840158539
 20
200.9861706526
 30
0.0
 11
159.8840158539
 21
204.2154191763
 31
0.0
  0
LINE
  5
13D
  8
0
  6
CONTINUOUS
 62
     7
 10
159.0840172129
 20
200.9861706526
 30
0.0
 11
159.0840172129
 21
204.2154191763
 31
0.0
  0
LINE
  5
13E
  8
0
  6
CONTINUOUS
 62
     7
 10
247.684017952
 20
204.2154191763
 30
0.0
 11
247.684017952
 21
200.9861706526
 31
0.0
  0
LINE
  5
13F
  8
0
  6
CONTINUOUS
 62
     7
 10
252.6840161638
 20
117.9052947791
 30
0.0
 11
252.6840161638
 21
117.5052939684
 31
0.0
  0
LINE
  5
140
  8
0
  6
CONTINUOUS
 62
     7
 10
247.684017952
 20
118.5052930148
 30
0.0
 11
247.684017952
 21
113.9052926333
 31
0.0
  0
LINE
  5
141
  8
0
  6
CONTINUOUS
 62
     7
 10
159.0840172129
 20
121.5052961142
 30
0.0
 11
158.6840164023
 21
121.5052961142
 31
0.0
  0
LINE
  5
142
  8
0
  6
CONTINUOUS
 62
     7
 10
154.884017642
 20
117.9052947791
 30
0.0
 11
154.884017642
 21
117.5052939684
 31
0.0
  0
LINE
  5
143
  8
0
  6
CONTINUOUS
 62
     7
 10
159.8840158539
 20
118.5052930148
 30
0.0
 11
159.8840158539
 21
113.9052926333
 31
0.0
  0
LINE
  5
144
  8
0
  6
CONTINUOUS
 62
     7
 10
159.8840158539
 20
204.2903660567
 30
0.0
 11
159.8840158539
 21
204.2154191763
 31
0.0
  0
LINE
  5
145
  8
0
  6
CONTINUOUS
 62
     7
 10
159.0840172129
 20
204.2154191763
 30
0.0
 11
159.0840172129
 21
204.2903660567
 31
0.0
  0
LINE
  5
146
  8
0
  6
CONTINUOUS
 62
     7
 10
247.684017952
 20
204.2154191763
 30
0.0
 11
247.684017952
 21
204.2903660567
 31
0.0
  0
LINE
  5
147
  8
0
  6
CONTINUOUS
 62
     7
 10
159.9840175467
 20
140.9001230032
 30
0.0
 11
159.9840175467
 21
253.4701226981
 31
0.0
  0
POLYLINE
  5
148
  8
0
  6
CONTINUOUS
 62
     7
 66
     1
 10
0.0
 20
0.0
 30
0.0
  0
VERTEX
  5
4D2
  8
0
  6
CONTINUOUS
 62
     7
 10
159.9840175467
 20
253.4701226981
 30
0.0
  0
VERTEX
  5
4D3
  8
0
  6
CONTINUOUS
 62
     7
 10
160.0144010143
 20
253.4701226981
 30
0.0
  0
VERTEX
  5
4D4
  8
0
  6
CONTINUOUS
 62
     7
 10
160.1046305256
 20
253.4095882208
 30
0.0
  0
VERTEX
  5
4D5
  8
0
  6
CONTINUOUS
 62
     7
 10
160.251967247
 20
253.2903550894
 30
0.0
  0
VERTEX
  5
4D6
  8
0
  6
CONTINUOUS
 62
     7
 10
160.4519289093
 20
253.1160353453
 30
0.0
  0
VERTEX
  5
4D7
  8
0
  6
CONTINUOUS
 62
     7
 10
160.6984417992
 20
252.8919457228
 30
0.0
  0
VERTEX
  5
4D8
  8
0
  6
CONTINUOUS
 62
     7
 10
160.984016593
 20
252.6248811514
 30
0.0
  0
VERTEX
  5
4D9
  8
0
  6
CONTINUOUS
 62
     7
 10
161.2999778347
 20
252.3229717047
 30
0.0
  0
VERTEX
  5
4DA
  8
0
  6
CONTINUOUS
 62
     7
 10
161.6367202358
 20
251.9953726561
 30
0.0
  0
VERTEX
  5
4DB
  8
0
  6
CONTINUOUS
 62
     7
 10
161.9840156393
 20
251.6520499022
 30
0.0
  0
SEQEND
  5
57D
  8
0
  6
CONTINUOUS
 62
     7
  0
ARC
  5
149
  8
0
  6
CONTINUOUS
 62
     7
 10
166.1177065613
 20
136.5127740899
 30
0.0
 40
7.541284467214347
 50
133.9479768035
 51
144.4243467631
  0
POLYLINE
  5
14A
  8
0
  6
CONTINUOUS
 62
     7
 66
     1
 10
0.0
 20
0.0
 30
0.0
  0
VERTEX
  5
4DC
  8
0
  6
CONTINUOUS
 62
     7
 10
245.5840181666
 20
251.6520499022
 30
0.0
  0
VERTEX
  5
4DD
  8
0
  6
CONTINUOUS
 62
     7
 10
245.93131357
 20
251.9953726561
 30
0.0
  0
VERTEX
  5
4DE
  8
0
  6
CONTINUOUS
 62
     7
 10
246.2680559712
 20
252.3229717047
 30
0.0
  0
VERTEX
  5
4DF
  8
0
  6
CONTINUOUS
 62
     7
 10
246.5840172129
 20
252.6248811514
 30
0.0
  0
VERTEX
  5
4E0
  8
0
  6
CONTINUOUS
 62
     7
 10
246.8695920067
 20
252.8919457228
 30
0.0
  0
VERTEX
  5
4E1
  8
0
  6
CONTINUOUS
 62
     7
 10
247.1161048966
 20
253.1160353453
 30
0.0
  0
VERTEX
  5
4E2
  8
0
  6
CONTINUOUS
 62
     7
 10
247.3160665588
 20
253.2903550894
 30
0.0
  0
VERTEX
  5
4E3
  8
0
  6
CONTINUOUS
 62
     7
 10
247.4634032803
 20
253.4095882208
 30
0.0
  0
VERTEX
  5
4E4
  8
0
  6
CONTINUOUS
 62
     7
 10
247.5536327915
 20
253.4701226981
 30
0.0
  0
VERTEX
  5
4E5
  8
0
  6
CONTINUOUS
 62
     7
 10
247.5840162592
 20
253.4701226981
 30
0.0
  0
SEQEND
  5
57C
  8
0
  6
CONTINUOUS
 62
     7
  0
LINE
  5
14B
  8
0
  6
CONTINUOUS
 62
     7
 10
247.5840162592
 20
253.4701226981
 30
0.0
 11
247.5840162592
 21
253.2104371817
 31
0.0
  0
LINE
  5
14C
  8
0
  6
CONTINUOUS
 62
     7
 10
247.5840162592
 20
204.3377040656
 30
0.0
 11
247.5840162592
 21
140.9001230032
 31
0.0
  0
ARC
  5
14D
  8
0
  6
CONTINUOUS
 62
     7
 10
241.4503272446
 20
136.5127740899
 30
0.0
 40
7.541284467206824
 50
35.5756532369
 51
46.0520231965
  0
LINE
  5
14E
  8
0
  6
CONTINUOUS
 62
     7
 10
159.9840175467
 20
140.4992042811
 30
0.0
 11
160.8840178804
 21
140.4992042811
 31
0.0
  0
LINE
  5
14F
  8
0
  6
CONTINUOUS
 62
     7
 10
246.6840159254
 20
140.4992042811
 30
0.0
 11
247.5840162592
 21
140.4992042811
 31
0.0
  0
LINE
  5
150
  8
0
  6
CONTINUOUS
 62
     7
 10
159.9840175467
 20
140.9001230032
 30
0.0
 11
159.9840175467
 21
140.4992042811
 31
0.0
  0
LINE
  5
151
  8
0
  6
CONTINUOUS
 62
     7
 10
247.5840162592
 20
140.9001230032
 30
0.0
 11
247.5840162592
 21
140.4992042811
 31
0.0
  0
LINE
  5
152
  8
0
  6
CONTINUOUS
 62
     7
 10
159.8840158539
 20
253.1688212187
 30
0.0
 11
159.8840158539
 21
204.2903660567
 31
0.0
  0
LINE
  5
153
  8
0
  6
CONTINUOUS
 62
     7
 10
159.9840175467
 20
253.1688212187
 30
0.0
 11
159.8840158539
 21
253.1688212187
 31
0.0
  0
LINE
  5
154
  8
0
  6
CONTINUOUS
 62
     7
 10
160.8840178804
 20
138.9052926333
 30
0.0
 11
159.8840158539
 21
138.9052926333
 31
0.0
  0
LINE
  5
155
  8
0
  6
CONTINUOUS
 62
     7
 10
247.684017952
 20
138.9052926333
 30
0.0
 11
246.6840159254
 21
138.9052926333
 31
0.0
  0
LINE
  5
156
  8
0
  6
CONTINUOUS
 62
     7
 10
158.6840164023
 20
200.5052922995
 30
0.0
 11
159.0840172129
 21
200.5052922995
 31
0.0
  0
LINE
  5
157
  8
0
  6
CONTINUOUS
 62
     7
 10
149.7840147572
 20
117.5052939684
 30
0.0
 11
149.7840147572
 21
117.9052947791
 31
0.0
  0
LINE
  5
158
  8
0
  6
CONTINUOUS
 62
     7
 10
257.7840190487
 20
117.9052947791
 30
0.0
 11
257.7840190487
 21
117.5052939684
 31
0.0
  0
LINE
  5
159
  8
0
  6
CONTINUOUS
 62
     7
 10
47.8840153771
 20
119.3750201495
 30
0.0
 11
47.8840153771
 21
118.5052930148
 31
0.0
  0
LINE
  5
15A
  8
0
  6
CONTINUOUS
 62
     7
 10
47.8840153771
 20
118.5052930148
 30
0.0
 11
47.0840137558
 21
118.5052930148
 31
0.0
  0
LINE
  5
15B
  8
0
  6
CONTINUOUS
 62
     7
 10
136.4840190964
 20
118.5052930148
 30
0.0
 11
135.6840174751
 21
118.5052930148
 31
0.0
  0
LINE
  5
15C
  8
0
  6
CONTINUOUS
 62
     7
 10
135.6840174751
 20
118.5052930148
 30
0.0
 11
135.6840174751
 21
119.3750201495
 31
0.0
  0
LINE
  5
15D
  8
0
  6
CONTINUOUS
 62
     7
 10
47.8840153771
 20
119.3750201495
 30
0.0
 11
47.8840153771
 21
200.3308533461
 31
0.0
  0
LINE
  5
15E
  8
0
  6
CONTINUOUS
 62
     7
 10
135.6840174751
 20
200.3308533461
 30
0.0
 11
135.6840174751
 21
119.3750201495
 31
0.0
  0
LINE
  5
15F
  8
0
  6
CONTINUOUS
 62
     7
 10
47.8840153771
 20
200.9861706526
 30
0.0
 11
47.8840153771
 21
200.3308533461
 31
0.0
  0
LINE
  5
160
  8
0
  6
CONTINUOUS
 62
     7
 10
135.6840174751
 20
200.3308533461
 30
0.0
 11
135.6840174751
 21
200.9861706526
 31
0.0
  0
LINE
  5
161
  8
0
  6
CONTINUOUS
 62
     7
 10
135.6840174751
 20
204.2154191763
 30
0.0
 11
135.6840174751
 21
200.9861706526
 31
0.0
  0
LINE
  5
162
  8
0
  6
CONTINUOUS
 62
     7
 10
47.8840153771
 20
200.9861706526
 30
0.0
 11
47.8840153771
 21
204.2154191763
 31
0.0
  0
LINE
  5
163
  8
0
  6
CONTINUOUS
 62
     7
 10
140.6840186672
 20
117.9052947791
 30
0.0
 11
140.6840186672
 21
117.5052939684
 31
0.0
  0
LINE
  5
164
  8
0
  6
CONTINUOUS
 62
     7
 10
135.6840174751
 20
118.5052930148
 30
0.0
 11
135.6840174751
 21
113.9052926333
 31
0.0
  0
LINE
  5
165
  8
0
  6
CONTINUOUS
 62
     7
 10
42.8840201454
 20
117.9052947791
 30
0.0
 11
42.8840201454
 21
117.5052939684
 31
0.0
  0
LINE
  5
166
  8
0
  6
CONTINUOUS
 62
     7
 10
47.8840153771
 20
118.5052930148
 30
0.0
 11
47.8840153771
 21
113.9052926333
 31
0.0
  0
LINE
  5
167
  8
0
  6
CONTINUOUS
 62
     7
 10
135.6840174751
 20
204.2154191763
 30
0.0
 11
135.6840174751
 21
204.2903660567
 31
0.0
  0
LINE
  5
168
  8
0
  6
CONTINUOUS
 62
     7
 10
47.8840153771
 20
204.2903660567
 30
0.0
 11
47.8840153771
 21
204.2154191763
 31
0.0
  0
ARC
  5
169
  8
0
  6
CONTINUOUS
 62
     7
 10
129.4494738637
 20
136.5120349496
 30
0.0
 40
7.542410614837401
 50
35.5764375294
 51
46.051238904
  0
ARC
  5
16A
  8
0
  6
CONTINUOUS
 62
     7
 10
54.1181201656
 20
136.5124489996
 30
0.0
 40
7.541807965576311
 50
133.9485439834
 51
144.4241549951
  0
LINE
  5
16B
  8
0
  6
CONTINUOUS
 62
     7
 10
47.9840200501
 20
140.9001230032
 30
0.0
 11
47.9840200501
 21
253.4701226981
 31
0.0
  0
POLYLINE
  5
16C
  8
0
  6
CONTINUOUS
 62
     7
 66
     1
 10
0.0
 20
0.0
 30
0.0
  0
VERTEX
  5
4E6
  8
0
  6
CONTINUOUS
 62
     7
 10
47.9840200501
 20
253.4701226981
 30
0.0
  0
VERTEX
  5
4E7
  8
0
  6
CONTINUOUS
 62
     7
 10
48.014406498
 20
253.4701226981
 30
0.0
  0
VERTEX
  5
4E8
  8
0
  6
CONTINUOUS
 62
     7
 10
48.1046360092
 20
253.4095882208
 30
0.0
  0
VERTEX
  5
4E9
  8
0
  6
CONTINUOUS
 62
     7
 10
48.2519667702
 20
253.2903550894
 30
0.0
  0
VERTEX
  5
4EA
  8
0
  6
CONTINUOUS
 62
     7
 10
48.4519284325
 20
253.1160353453
 30
0.0
  0
VERTEX
  5
4EB
  8
0
  6
CONTINUOUS
 62
     7
 10
48.6984413223
 20
252.8919457228
 30
0.0
  0
VERTEX
  5
4EC
  8
0
  6
CONTINUOUS
 62
     7
 10
48.9840190964
 20
252.6248811514
 30
0.0
  0
VERTEX
  5
4ED
  8
0
  6
CONTINUOUS
 62
     7
 10
49.2999713974
 20
252.3229717047
 30
0.0
  0
VERTEX
  5
4EE
  8
0
  6
CONTINUOUS
 62
     7
 10
49.6367257195
 20
251.9953726561
 30
0.0
  0
VERTEX
  5
4EF
  8
0
  6
CONTINUOUS
 62
     7
 10
49.9840181427
 20
251.6520499022
 30
0.0
  0
SEQEND
  5
57B
  8
0
  6
CONTINUOUS
 62
     7
  0
POLYLINE
  5
16D
  8
0
  6
CONTINUOUS
 62
     7
 66
     1
 10
0.0
 20
0.0
 30
0.0
  0
VERTEX
  5
4F0
  8
0
  6
CONTINUOUS
 62
     7
 10
133.5840147095
 20
251.6520499022
 30
0.0
  0
VERTEX
  5
4F1
  8
0
  6
CONTINUOUS
 62
     7
 10
133.9313130932
 20
251.9953726561
 30
0.0
  0
VERTEX
  5
4F2
  8
0
  6
CONTINUOUS
 62
     7
 10
134.2680554943
 20
252.3229717047
 30
0.0
  0
VERTEX
  5
4F3
  8
0
  6
CONTINUOUS
 62
     7
 10
134.5840197163
 20
252.6248811514
 30
0.0
  0
VERTEX
  5
4F4
  8
0
  6
CONTINUOUS
 62
     7
 10
134.8695915299
 20
252.8919457228
 30
0.0
  0
VERTEX
  5
4F5
  8
0
  6
CONTINUOUS
 62
     7
 10
135.1161044197
 20
253.1160353453
 30
0.0
  0
VERTEX
  5
4F6
  8
0
  6
CONTINUOUS
 62
     7
 10
135.316066082
 20
253.2903550894
 30
0.0
  0
VERTEX
  5
4F7
  8
0
  6
CONTINUOUS
 62
     7
 10
135.4634028034
 20
253.4095882208
 30
0.0
  0
VERTEX
  5
4F8
  8
0
  6
CONTINUOUS
 62
     7
 10
135.5536323147
 20
253.4701226981
 30
0.0
  0
VERTEX
  5
4F9
  8
0
  6
CONTINUOUS
 62
     7
 10
135.5840187626
 20
253.4701226981
 30
0.0
  0
SEQEND
  5
57A
  8
0
  6
CONTINUOUS
 62
     7
  0
LINE
  5
16E
  8
0
  6
CONTINUOUS
 62
     7
 10
135.5840187626
 20
253.4701226981
 30
0.0
 11
135.5840187626
 21
253.2104371817
 31
0.0
  0
LINE
  5
16F
  8
0
  6
CONTINUOUS
 62
     7
 10
135.5840187626
 20
204.3377040656
 30
0.0
 11
135.5840187626
 21
140.9001230032
 31
0.0
  0
LINE
  5
170
  8
0
  6
CONTINUOUS
 62
     7
 10
47.9840200501
 20
140.4992042811
 30
0.0
 11
48.8840144234
 21
140.4992042811
 31
0.0
  0
LINE
  5
171
  8
0
  6
CONTINUOUS
 62
     7
 10
134.6840184288
 20
140.4992042811
 30
0.0
 11
135.5840187626
 21
140.4992042811
 31
0.0
  0
LINE
  5
172
  8
0
  6
CONTINUOUS
 62
     7
 10
47.9840200501
 20
140.9001230032
 30
0.0
 11
47.9840200501
 21
140.4992042811
 31
0.0
  0
LINE
  5
173
  8
0
  6
CONTINUOUS
 62
     7
 10
135.5840187626
 20
140.9001230032
 30
0.0
 11
135.5840187626
 21
140.4992042811
 31
0.0
  0
LINE
  5
174
  8
0
  6
CONTINUOUS
 62
     7
 10
47.8840153771
 20
253.1688212187
 30
0.0
 11
47.8840153771
 21
204.2903660567
 31
0.0
  0
LINE
  5
175
  8
0
  6
CONTINUOUS
 62
     7
 10
47.9840200501
 20
253.1688212187
 30
0.0
 11
47.8840153771
 21
253.1688212187
 31
0.0
  0
LINE
  5
176
  8
0
  6
CONTINUOUS
 62
     7
 10
48.8840144234
 20
138.9052926333
 30
0.0
 11
47.8840153771
 21
138.9052926333
 31
0.0
  0
LINE
  5
177
  8
0
  6
CONTINUOUS
 62
     7
 10
135.6840174751
 20
138.9052926333
 30
0.0
 11
134.6840184288
 21
138.9052926333
 31
0.0
  0
LINE
  5
178
  8
0
  6
CONTINUOUS
 62
     7
 10
37.7840202408
 20
117.5052939684
 30
0.0
 11
37.7840202408
 21
117.9052947791
 31
0.0
  0
LINE
  5
179
  8
0
  6
CONTINUOUS
 62
     7
 10
145.7840185719
 20
117.9052947791
 30
0.0
 11
145.7840185719
 21
117.5052939684
 31
0.0
  0
LINE
  5
17A
  8
0
  6
CONTINUOUS
 62
     7
 10
360.4840200501
 20
118.5052930148
 30
0.0
 11
359.6840184288
 21
118.5052930148
 31
0.0
  0
LINE
  5
17B
  8
0
  6
CONTINUOUS
 62
     7
 10
359.6840184288
 20
118.5052930148
 30
0.0
 11
359.6840184288
 21
119.3750201495
 31
0.0
  0
LINE
  5
17C
  8
0
  6
CONTINUOUS
 62
     7
 10
271.8840163307
 20
119.3750201495
 30
0.0
 11
271.8840163307
 21
118.5052930148
 31
0.0
  0
LINE
  5
17D
  8
0
  6
CONTINUOUS
 62
     7
 10
271.8840163307
 20
118.5052930148
 30
0.0
 11
271.0840147095
 21
118.5052930148
 31
0.0
  0
LINE
  5
17E
  8
0
  6
CONTINUOUS
 62
     7
 10
271.0840147095
 20
118.5052930148
 30
0.0
 11
271.0840147095
 21
119.3750201495
 31
0.0
  0
LINE
  5
17F
  8
0
  6
CONTINUOUS
 62
     7
 10
359.6840184288
 20
200.3308533461
 30
0.0
 11
359.6840184288
 21
119.3750201495
 31
0.0
  0
LINE
  5
180
  8
0
  6
CONTINUOUS
 62
     7
 10
271.8840163307
 20
119.3750201495
 30
0.0
 11
271.8840163307
 21
200.3308533461
 31
0.0
  0
LINE
  5
181
  8
0
  6
CONTINUOUS
 62
     7
 10
271.0840147095
 20
119.3750201495
 30
0.0
 11
271.0840147095
 21
200.3308533461
 31
0.0
  0
LINE
  5
182
  8
0
  6
CONTINUOUS
 62
     7
 10
271.8840163307
 20
200.9861706526
 30
0.0
 11
271.8840163307
 21
200.3308533461
 31
0.0
  0
LINE
  5
183
  8
0
  6
CONTINUOUS
 62
     7
 10
271.0840147095
 20
200.3308533461
 30
0.0
 11
271.0840147095
 21
200.9861706526
 31
0.0
  0
LINE
  5
184
  8
0
  6
CONTINUOUS
 62
     7
 10
359.6840184288
 20
200.3308533461
 30
0.0
 11
359.6840184288
 21
200.9861706526
 31
0.0
  0
LINE
  5
185
  8
0
  6
CONTINUOUS
 62
     7
 10
271.8840163307
 20
200.9861706526
 30
0.0
 11
271.8840163307
 21
204.2154191763
 31
0.0
  0
LINE
  5
186
  8
0
  6
CONTINUOUS
 62
     7
 10
271.0840147095
 20
200.9861706526
 30
0.0
 11
271.0840147095
 21
204.2154191763
 31
0.0
  0
LINE
  5
187
  8
0
  6
CONTINUOUS
 62
     7
 10
359.6840184288
 20
204.2154191763
 30
0.0
 11
359.6840184288
 21
200.9861706526
 31
0.0
  0
LINE
  5
188
  8
0
  6
CONTINUOUS
 62
     7
 10
364.6840136604
 20
117.9052947791
 30
0.0
 11
364.6840136604
 21
117.5052939684
 31
0.0
  0
LINE
  5
189
  8
0
  6
CONTINUOUS
 62
     7
 10
359.6840184288
 20
118.5052930148
 30
0.0
 11
359.6840184288
 21
113.9052926333
 31
0.0
  0
LINE
  5
18A
  8
0
  6
CONTINUOUS
 62
     7
 10
271.0840147095
 20
121.5052961142
 30
0.0
 11
270.6840198593
 21
121.5052961142
 31
0.0
  0
LINE
  5
18B
  8
0
  6
CONTINUOUS
 62
     7
 10
266.8840151386
 20
117.9052947791
 30
0.0
 11
266.8840151386
 21
117.5052939684
 31
0.0
  0
LINE
  5
18C
  8
0
  6
CONTINUOUS
 62
     7
 10
271.8840163307
 20
118.5052930148
 30
0.0
 11
271.8840163307
 21
113.9052926333
 31
0.0
  0
LINE
  5
18D
  8
0
  6
CONTINUOUS
 62
     7
 10
359.6840184288
 20
204.2154191763
 30
0.0
 11
359.6840184288
 21
204.2903660567
 31
0.0
  0
LINE
  5
18E
  8
0
  6
CONTINUOUS
 62
     7
 10
271.8840163307
 20
204.2903660567
 30
0.0
 11
271.8840163307
 21
204.2154191763
 31
0.0
  0
LINE
  5
18F
  8
0
  6
CONTINUOUS
 62
     7
 10
271.0840147095
 20
204.2154191763
 30
0.0
 11
271.0840147095
 21
204.2903660567
 31
0.0
  0
POLYLINE
  5
190
  8
0
  6
CONTINUOUS
 62
     7
 66
     1
 10
0.0
 20
0.0
 30
0.0
  0
VERTEX
  5
4FA
  8
0
  6
CONTINUOUS
 62
     7
 10
357.5840156632
 20
251.6520499022
 30
0.0
  0
VERTEX
  5
4FB
  8
0
  6
CONTINUOUS
 62
     7
 10
357.9313080864
 20
251.9953726561
 30
0.0
  0
VERTEX
  5
4FC
  8
0
  6
CONTINUOUS
 62
     7
 10
358.2680624085
 20
252.3229717047
 30
0.0
  0
VERTEX
  5
4FD
  8
0
  6
CONTINUOUS
 62
     7
 10
358.5840147095
 20
252.6248811514
 30
0.0
  0
VERTEX
  5
4FE
  8
0
  6
CONTINUOUS
 62
     7
 10
358.8695924835
 20
252.8919457228
 30
0.0
  0
VERTEX
  5
4FF
  8
0
  6
CONTINUOUS
 62
     7
 10
359.1161053734
 20
253.1160353453
 30
0.0
  0
VERTEX
  5
500
  8
0
  6
CONTINUOUS
 62
     7
 10
359.3160670357
 20
253.2903550894
 30
0.0
  0
VERTEX
  5
501
  8
0
  6
CONTINUOUS
 62
     7
 10
359.4633977966
 20
253.4095882208
 30
0.0
  0
VERTEX
  5
502
  8
0
  6
CONTINUOUS
 62
     7
 10
359.5536273079
 20
253.4701226981
 30
0.0
  0
VERTEX
  5
503
  8
0
  6
CONTINUOUS
 62
     7
 10
359.5840137558
 20
253.4701226981
 30
0.0
  0
SEQEND
  5
579
  8
0
  6
CONTINUOUS
 62
     7
  0
LINE
  5
191
  8
0
  6
CONTINUOUS
 62
     7
 10
359.5840137558
 20
253.4701226981
 30
0.0
 11
359.5840137558
 21
140.9001230032
 31
0.0
  0
ARC
  5
192
  8
0
  6
CONTINUOUS
 62
     7
 10
353.4499136402
 20
136.5124489996
 30
0.0
 40
7.541807965582525
 50
35.5758450049
 51
46.0514560166
  0
LINE
  5
193
  8
0
  6
CONTINUOUS
 62
     7
 10
271.9840150433
 20
140.9001230032
 30
0.0
 11
271.9840150433
 21
253.4701226981
 31
0.0
  0
POLYLINE
  5
194
  8
0
  6
CONTINUOUS
 62
     7
 66
     1
 10
0.0
 20
0.0
 30
0.0
  0
VERTEX
  5
504
  8
0
  6
CONTINUOUS
 62
     7
 10
271.9840150433
 20
253.4701226981
 30
0.0
  0
VERTEX
  5
505
  8
0
  6
CONTINUOUS
 62
     7
 10
272.0144014912
 20
253.4701226981
 30
0.0
  0
VERTEX
  5
506
  8
0
  6
CONTINUOUS
 62
     7
 10
272.1046310024
 20
253.4095882208
 30
0.0
  0
VERTEX
  5
507
  8
0
  6
CONTINUOUS
 62
     7
 10
272.2519677239
 20
253.2903550894
 30
0.0
  0
VERTEX
  5
508
  8
0
  6
CONTINUOUS
 62
     7
 10
272.4519293861
 20
253.1160353453
 30
0.0
  0
VERTEX
  5
509
  8
0
  6
CONTINUOUS
 62
     7
 10
272.698442276
 20
252.8919457228
 30
0.0
  0
VERTEX
  5
50A
  8
0
  6
CONTINUOUS
 62
     7
 10
272.9840140896
 20
252.6248811514
 30
0.0
  0
VERTEX
  5
50B
  8
0
  6
CONTINUOUS
 62
     7
 10
273.2999783115
 20
252.3229717047
 30
0.0
  0
VERTEX
  5
50C
  8
0
  6
CONTINUOUS
 62
     7
 10
273.6367207127
 20
251.9953726561
 30
0.0
  0
VERTEX
  5
50D
  8
0
  6
CONTINUOUS
 62
     7
 10
273.9840190964
 20
251.6520499022
 30
0.0
  0
SEQEND
  5
578
  8
0
  6
CONTINUOUS
 62
     7
  0
ARC
  5
195
  8
0
  6
CONTINUOUS
 62
     7
 10
278.1185599422
 20
136.5120349496
 30
0.0
 40
7.542410614846286
 50
133.948761096
 51
144.4235624706
  0
LINE
  5
196
  8
0
  6
CONTINUOUS
 62
     7
 10
271.9840150433
 20
140.4992042811
 30
0.0
 11
272.8840153771
 21
140.4992042811
 31
0.0
  0
LINE
  5
197
  8
0
  6
CONTINUOUS
 62
     7
 10
358.6840193825
 20
140.4992042811
 30
0.0
 11
359.5840137558
 21
140.4992042811
 31
0.0
  0
LINE
  5
198
  8
0
  6
CONTINUOUS
 62
     7
 10
271.9840150433
 20
140.9001230032
 30
0.0
 11
271.9840150433
 21
140.4992042811
 31
0.0
  0
LINE
  5
199
  8
0
  6
CONTINUOUS
 62
     7
 10
359.5840137558
 20
140.9001230032
 30
0.0
 11
359.5840137558
 21
140.4992042811
 31
0.0
  0
LINE
  5
19A
  8
0
  6
CONTINUOUS
 62
     7
 10
271.8840163307
 20
253.1688212187
 30
0.0
 11
271.8840163307
 21
204.2903660567
 31
0.0
  0
LINE
  5
19B
  8
0
  6
CONTINUOUS
 62
     7
 10
359.6840184288
 20
253.1688212187
 30
0.0
 11
359.5840137558
 21
253.1688212187
 31
0.0
  0
LINE
  5
19C
  8
0
  6
CONTINUOUS
 62
     7
 10
271.9840150433
 20
253.1688212187
 30
0.0
 11
271.8840163307
 21
253.1688212187
 31
0.0
  0
LINE
  5
19D
  8
0
  6
CONTINUOUS
 62
     7
 10
359.6840184288
 20
253.1688212187
 30
0.0
 11
359.6840184288
 21
204.2903660567
 31
0.0
  0
LINE
  5
19E
  8
0
  6
CONTINUOUS
 62
     7
 10
272.9840140896
 20
138.9052926333
 30
0.0
 11
271.8840163307
 21
138.9052926333
 31
0.0
  0
LINE
  5
19F
  8
0
  6
CONTINUOUS
 62
     7
 10
359.6840184288
 20
138.9052926333
 30
0.0
 11
358.5840147095
 21
138.9052926333
 31
0.0
  0
LINE
  5
1A0
  8
0
  6
CONTINUOUS
 62
     7
 10
369.7840135651
 20
117.9052947791
 30
0.0
 11
369.7840135651
 21
117.5052939684
 31
0.0
  0
LINE
  5
1A1
  8
0
  6
CONTINUOUS
 62
     7
 10
270.6840198593
 20
200.5052922995
 30
0.0
 11
271.0840147095
 21
200.5052922995
 31
0.0
  0
LINE
  5
1A2
  8
0
  6
CONTINUOUS
 62
     7
 10
261.784015234
 20
117.5052939684
 30
0.0
 11
261.784015234
 21
117.9052947791
 31
0.0
  0
LINE
  5
1A3
  8
0
  6
CONTINUOUS
 62
     7
 10
477.8632808196
 20
55.9052943022
 30
0.0
 11
503.4632820356
 21
55.9052943022
 31
0.0
  0
LINE
  5
1A4
  8
0
  6
CONTINUOUS
 62
     7
 10
477.8632808196
 20
117.1052931578
 30
0.0
 11
477.8632808196
 21
55.9052943022
 31
0.0
  0
LINE
  5
1A5
  8
0
  6
CONTINUOUS
 62
     7
 10
477.8632808196
 20
117.5052939684
 30
0.0
 11
503.4632820356
 21
117.5052939684
 31
0.0
  0
LINE
  5
1A6
  8
0
  6
CONTINUOUS
 62
     7
 10
477.8632808196
 20
117.1052931578
 30
0.0
 11
477.8632808196
 21
117.5052939684
 31
0.0
  0
LINE
  5
1A7
  8
0
  6
CONTINUOUS
 62
     7
 10
503.863279866
 20
117.1052931578
 30
0.0
 11
503.863279866
 21
55.9052943022
 31
0.0
  0
LINE
  5
1A8
  8
0
  6
CONTINUOUS
 62
     7
 10
503.863279866
 20
55.9052943022
 30
0.0
 11
503.4632820356
 21
55.9052943022
 31
0.0
  0
ARC
  5
1A9
  8
0
  6
CONTINUOUS
 62
     7
 10
503.4632808196
 20
117.1052943022
 30
0.0
 40
0.4000000000000341
 50
0.0
 51
90.0
  0
LINE
  5
1AA
  8
0
  6
CONTINUOUS
 62
     7
 10
480.4865251946
 20
253.1687377722
 30
0.0
 11
485.5177562404
 21
253.608906153
 31
0.0
  0
ARC
  5
1AB
  8
0
  6
CONTINUOUS
 62
     7
 10
485.5526182231
 20
253.2104316191
 30
0.0
 40
0.4000000000000666
 50
22.2493115511
 51
95.0
  0
LINE
  5
1AC
  8
0
  6
CONTINUOUS
 62
     7
 10
477.8632808196
 20
202.9289244444
 30
0.0
 11
477.8632808196
 21
118.3052955897
 31
0.0
  0
LINE
  5
1AD
  8
0
  6
CONTINUOUS
 62
     7
 10
477.8632808196
 20
203.2766579421
 30
0.0
 11
477.8679514817
 21
203.2770632536
 31
0.0
  0
POLYLINE
  5
1AE
  8
0
  6
CONTINUOUS
 62
     7
 66
     1
 10
0.0
 20
0.0
 30
0.0
  0
VERTEX
  5
50E
  8
0
  6
CONTINUOUS
 62
     7
 10
477.8679514817
 20
203.2770632536
 30
0.0
  0
VERTEX
  5
50F
  8
0
  6
CONTINUOUS
 62
     7
 10
477.8668760729
 20
203.2893537314
 30
0.0
  0
VERTEX
  5
510
  8
0
  6
CONTINUOUS
 62
     7
 10
477.865934554
 20
203.3001183302
 30
0.0
  0
VERTEX
  5
511
  8
0
  6
CONTINUOUS
 62
     7
 10
477.8651309572
 20
203.3093093665
 30
0.0
  0
VERTEX
  5
512
  8
0
  6
CONTINUOUS
 62
     7
 10
477.8644687236
 20
203.3168791563
 30
0.0
  0
VERTEX
  5
513
  8
0
  6
CONTINUOUS
 62
     7
 10
477.8639506889
 20
203.3227919371
 30
0.0
  0
VERTEX
  5
514
  8
0
  6
CONTINUOUS
 62
     7
 10
477.8635790714
 20
203.3270477087
 30
0.0
  0
VERTEX
  5
515
  8
0
  6
CONTINUOUS
 62
     7
 10
477.8633554625
 20
203.3295987875
 30
0.0
  0
VERTEX
  5
516
  8
0
  6
CONTINUOUS
 62
     7
 10
477.8632808196
 20
203.3304570944
 30
0.0
  0
SEQEND
  5
577
  8
0
  6
CONTINUOUS
 62
     7
  0
LINE
  5
1AF
  8
0
  6
CONTINUOUS
 62
     7
 10
477.8632808196
 20
203.3304570944
 30
0.0
 11
498.0882484186
 21
205.0999044211
 31
0.0
  0
LINE
  5
1B0
  8
0
  6
CONTINUOUS
 62
     7
 10
477.8632808196
 20
202.9289244444
 30
0.0
 11
477.8632808196
 21
203.2766579421
 31
0.0
  0
LINE
  5
1B1
  8
0
  6
CONTINUOUS
 62
     7
 10
513.4187567699
 20
117.9052947791
 30
0.0
 11
477.8632808196
 21
117.9052947791
 31
0.0
  0
LINE
  5
1B2
  8
0
  6
CONTINUOUS
 62
     7
 10
477.8632808196
 20
117.9052947791
 30
0.0
 11
477.8632808196
 21
118.3052955897
 31
0.0
  0
LINE
  5
1B3
  8
0
  6
CONTINUOUS
 62
     7
 10
498.2921588886
 20
205.0639508994
 30
0.0
 11
506.3581902253
 21
201.3027070792
 31
0.0
  0
ARC
  5
1B4
  8
0
  6
CONTINUOUS
 62
     7
 10
498.1231110571
 20
204.7014308656
 30
0.0
 40
0.400000000000041
 50
65.0
 51
95.0
  0
LINE
  5
1B5
  8
0
  6
CONTINUOUS
 62
     7
 10
506.587620424
 20
200.975036505
 30
0.0
 11
513.8172346818
 21
118.3401583464
 31
0.0
  0
ARC
  5
1B6
  8
0
  6
CONTINUOUS
 62
     7
 10
506.1891417999
 20
200.9401789593
 30
0.0
 40
0.3999999999999659
 50
5.0
 51
65.0
  0
ARC
  5
1B7
  8
0
  6
CONTINUOUS
 62
     7
 10
513.4187574192
 20
118.3052943022
 30
0.0
 40
0.4000000000000951
 50
270.0
 51
5.0
  0
LINE
  5
1B8
  8
0
  6
CONTINUOUS
 62
     7
 10
577.463280009
 20
139.3052934439
 30
0.0
 11
511.9830239284
 21
139.3052934439
 31
0.0
  0
LINE
  5
1B9
  8
0
  6
CONTINUOUS
 62
     7
 10
577.463280009
 20
143.5052930148
 30
0.0
 11
577.463280009
 21
139.3052934439
 31
0.0
  0
LINE
  5
1BA
  8
0
  6
CONTINUOUS
 62
     7
 10
511.4055979717
 20
145.905291918
 30
0.0
 11
575.0632811057
 21
145.905291918
 31
0.0
  0
ARC
  5
1BB
  8
0
  6
CONTINUOUS
 62
     7
 10
575.0632886565
 20
143.5053005655
 30
0.0
 40
2.399991352544701
 50
359.9998197387
 51
90.0001802613
  0
LINE
  5
1BC
  8
0
  6
CONTINUOUS
 62
     7
 10
572.7063584792
 20
131.3052951128
 30
0.0
 11
512.6829314697
 21
131.3052951128
 31
0.0
  0
LINE
  5
1BD
  8
0
  6
CONTINUOUS
 62
     7
 10
577.3828971851
 20
139.0052913458
 30
0.0
 11
573.0527687538
 21
131.5052925379
 31
0.0
  0
ARC
  5
1BE
  8
0
  6
CONTINUOUS
 62
     7
 10
572.7063588815
 20
131.7052943022
 30
0.0
 40
0.4000000000000665
 50
270.0
 51
330.0
  0
ARC
  5
1BF
  8
0
  6
CONTINUOUS
 62
     7
 10
576.8632808196
 20
139.3052943022
 30
0.0
 40
0.6000000000000227
 50
330.0
 51
0.0
  0
LINE
  5
1C0
  8
0
  6
CONTINUOUS
 62
     7
 10
508.6404461133
 20
117.9052947791
 30
0.0
 11
506.226830529
 21
117.6941274435
 31
0.0
  0
ARC
  5
1C1
  8
0
  6
CONTINUOUS
 62
     7
 10
506.1919677096
 20
118.0926081786
 30
0.0
 40
0.4000000000000035
 50
207.9230096112
 51
275.0
  0
LINE
  5
1C2
  8
0
  6
CONTINUOUS
 62
     7
 10
477.8632808196
 20
117.5052939684
 30
0.0
 11
477.8632808196
 21
117.9052947791
 31
0.0
  0
LINE
  5
1C3
  8
0
  6
CONTINUOUS
 62
     7
 10
478.6632808576
 20
117.5052939684
 30
0.0
 11
478.6632808576
 21
117.9052947791
 31
0.0
  0
LINE
  5
1C4
  8
0
  6
CONTINUOUS
 62
     7
 10
501.663281368
 20
117.9052947791
 30
0.0
 11
501.663281368
 21
117.5052939684
 31
0.0
  0
LINE
  5
1C5
  8
0
  6
CONTINUOUS
 62
     7
 10
502.4632814991
 20
117.9052947791
 30
0.0
 11
502.4632814991
 21
117.5052939684
 31
0.0
  0
LINE
  5
1C6
  8
0
  6
CONTINUOUS
 62
     7
 10
477.8632808196
 20
252.9393194945
 30
0.0
 11
480.4865171853
 21
253.1688212187
 31
0.0
  0
LINE
  5
1C7
  8
0
  6
CONTINUOUS
 62
     7
 10
480.4865171853
 20
253.1688212187
 30
0.0
 11
484.7937617171
 21
203.9367913039
 31
0.0
  0
LINE
  5
1C8
  8
0
  6
CONTINUOUS
 62
     7
 10
477.8632808196
 20
203.2766579421
 30
0.0
 11
477.8632808196
 21
252.9393194945
 31
0.0
  0
LINE
  5
1C9
  8
0
  6
CONTINUOUS
 62
     7
 10
485.0777286756
 20
253.4701226981
 30
0.0
 11
480.4952326882
 21
253.0692099364
 31
0.0
  0
LINE
  5
1CA
  8
0
  6
CONTINUOUS
 62
     7
 10
487.2444290387
 20
251.6520499022
 30
0.0
 11
491.3686472642
 21
204.5120238097
 31
0.0
  0
ARC
  5
1CB
  8
0
  6
CONTINUOUS
 62
     7
 10
485.2520435303
 20
251.477737395
 30
0.0
 40
1.999996216115759
 50
5.0000388656
 51
95.0001063734
  0
ARC
  5
1CC
  8
0
  6
CONTINUOUS
 62
     7
 10
136.8840169029
 20
-104.5516857559
 30
0.0
 40
0.4000000000000057
 50
180.0
 51
270.0
  0
LINE
  5
1CD
  8
0
  6
CONTINUOUS
 62
     7
 10
136.8840139465
 20
-104.9516859172
 30
0.0
 11
158.2840155916
 21
-104.9516859172
 31
0.0
  0
ARC
  5
1CE
  8
0
  6
CONTINUOUS
 62
     7
 10
158.2840169029
 20
-104.5516857559
 30
0.0
 40
0.4000000000000057
 50
270.0
 51
0.0
  0
LINE
  5
1CF
  8
0
  6
CONTINUOUS
 62
     7
 10
248.8840174036
 20
-104.9516859172
 30
0.0
 11
270.2840190487
 21
-104.9516859172
 31
0.0
  0
ARC
  5
1D0
  8
0
  6
CONTINUOUS
 62
     7
 10
248.8840169029
 20
-104.5516857559
 30
0.0
 40
0.4000000000000057
 50
180.0
 51
270.0
  0
ARC
  5
1D1
  8
0
  6
CONTINUOUS
 62
     7
 10
270.2840169029
 20
-104.5516857559
 30
0.0
 40
0.4000000000000057
 50
270.0
 51
0.0
  0
ARC
  5
1D2
  8
0
  6
CONTINUOUS
 62
     7
 10
360.8840169029
 20
-104.5516857559
 30
0.0
 40
0.4000000000000341
 50
180.0
 51
270.0
  0
LINE
  5
1D3
  8
0
  6
CONTINUOUS
 62
     7
 10
360.8840149002
 20
-104.9516859172
 30
0.0
 11
371.7840116577
 21
-104.9516859172
 31
0.0
  0
ARC
  5
1D4
  8
0
  6
CONTINUOUS
 62
     7
 10
371.7840169029
 20
-104.5516857559
 30
0.0
 40
0.3999999999999915
 50
270.0
 51
0.0
  0
ARC
  5
1D5
  8
0
  6
CONTINUOUS
 62
     7
 10
46.6840169029
 20
-104.5516857559
 30
0.0
 40
0.3999999999999915
 50
270.0
 51
0.0
  0
ARC
  5
1D6
  8
0
  6
CONTINUOUS
 62
     7
 10
35.7840169029
 20
-104.5516857559
 30
0.0
 40
0.3999999999999915
 50
180.0
 51
270.0
  0
LINE
  5
1D7
  8
0
  6
CONTINUOUS
 62
     7
 10
35.7840221481
 20
-104.9516859172
 30
0.0
 11
46.6840189056
 21
-104.9516859172
 31
0.0
  0
LINE
  5
1D8
  8
0
  6
CONTINUOUS
 62
     7
 10
358.6840193825
 20
-101.3962092517
 30
0.0
 11
359.5840137558
 21
-101.3962092517
 31
0.0
  0
LINE
  5
1D9
  8
0
  6
CONTINUOUS
 62
     7
 10
359.5840137558
 20
-96.5962084649
 30
0.0
 11
358.6840193825
 21
-96.5962084649
 31
0.0
  0
LINE
  5
1DA
  8
0
  6
CONTINUOUS
 62
     7
 10
271.9840150433
 20
-101.3962092517
 30
0.0
 11
272.8840153771
 21
-101.3962092517
 31
0.0
  0
LINE
  5
1DB
  8
0
  6
CONTINUOUS
 62
     7
 10
272.8840153771
 20
-96.5962084649
 30
0.0
 11
271.9840150433
 21
-96.5962084649
 31
0.0
  0
LINE
  5
1DC
  8
0
  6
CONTINUOUS
 62
     7
 10
244.4931905823
 20
-82.9690250275
 30
0.0
 11
163.0748432236
 21
-82.9690250275
 31
0.0
  0
LINE
  5
1DD
  8
0
  6
CONTINUOUS
 62
     7
 10
246.5840172129
 20
-101.3962092517
 30
0.0
 11
247.5840162592
 21
-101.3962092517
 31
0.0
  0
LINE
  5
1DE
  8
0
  6
CONTINUOUS
 62
     7
 10
247.5840162592
 20
-96.5962084649
 30
0.0
 11
246.5840172129
 21
-96.5962084649
 31
0.0
  0
LINE
  5
1DF
  8
0
  6
CONTINUOUS
 62
     7
 10
159.9840175467
 20
-101.3962092517
 30
0.0
 11
160.984016593
 21
-101.3962092517
 31
0.0
  0
LINE
  5
1E0
  8
0
  6
CONTINUOUS
 62
     7
 10
160.984016593
 20
-96.5962084649
 30
0.0
 11
159.9840175467
 21
-96.5962084649
 31
0.0
  0
ARC
  5
1E1
  8
0
  6
CONTINUOUS
 62
     7
 10
246.1840169029
 20
-104.4974978725
 30
0.0
 40
0.4000000000000057
 50
270.0
 51
0.0
  0
LINE
  5
1E2
  8
0
  6
CONTINUOUS
 62
     7
 10
161.3840174036
 20
-104.8974993346
 30
0.0
 11
246.1840164023
 21
-104.8974993346
 31
0.0
  0
ARC
  5
1E3
  8
0
  6
CONTINUOUS
 62
     7
 10
161.3840169029
 20
-104.4974978725
 30
0.0
 40
0.4000000000000057
 50
180.0
 51
270.0
  0
LINE
  5
1E4
  8
0
  6
CONTINUOUS
 62
     7
 10
132.4931901054
 20
-82.9690250275
 30
0.0
 11
51.0748427467
 21
-82.9690250275
 31
0.0
  0
LINE
  5
1E5
  8
0
  6
CONTINUOUS
 62
     7
 10
47.9840200501
 20
-101.3962092517
 30
0.0
 11
48.9840190964
 21
-101.3962092517
 31
0.0
  0
LINE
  5
1E6
  8
0
  6
CONTINUOUS
 62
     7
 10
48.9840190964
 20
-96.5962084649
 30
0.0
 11
47.9840200501
 21
-96.5962084649
 31
0.0
  0
LINE
  5
1E7
  8
0
  6
CONTINUOUS
 62
     7
 10
134.5840197163
 20
-101.3962092517
 30
0.0
 11
135.5840187626
 21
-101.3962092517
 31
0.0
  0
LINE
  5
1E8
  8
0
  6
CONTINUOUS
 62
     7
 10
135.5840187626
 20
-96.5962084649
 30
0.0
 11
134.5840197163
 21
-96.5962084649
 31
0.0
  0
ARC
  5
1E9
  8
0
  6
CONTINUOUS
 62
     7
 10
49.3840169029
 20
-104.4974978725
 30
0.0
 40
0.4000000000000128
 50
180.0
 51
270.0
  0
ARC
  5
1EA
  8
0
  6
CONTINUOUS
 62
     7
 10
134.1840169029
 20
-104.4974978725
 30
0.0
 40
0.4000000000000057
 50
270.0
 51
0.0
  0
LINE
  5
1EB
  8
0
  6
CONTINUOUS
 62
     7
 10
49.3840139465
 20
-104.8974993346
 30
0.0
 11
134.1840189056
 21
-104.8974993346
 31
0.0
  0
LINE
  5
1EC
  8
0
  6
CONTINUOUS
 62
     7
 10
247.684017952
 20
-97.7962079165
 30
0.0
 11
247.5840162592
 21
-97.7962079165
 31
0.0
  0
LINE
  5
1ED
  8
0
  6
CONTINUOUS
 62
     7
 10
159.9840175467
 20
-97.7962079165
 30
0.0
 11
159.8840158539
 21
-97.7962079165
 31
0.0
  0
LINE
  5
1EE
  8
0
  6
CONTINUOUS
 62
     7
 10
159.8840158539
 20
-100.1962098
 30
0.0
 11
159.9840175467
 21
-100.1962098
 31
0.0
  0
LINE
  5
1EF
  8
0
  6
CONTINUOUS
 62
     7
 10
247.5840162592
 20
-100.1962098
 30
0.0
 11
247.684017952
 21
-100.1962098
 31
0.0
  0
LINE
  5
1F0
  8
0
  6
CONTINUOUS
 62
     7
 10
247.684017952
 20
-104.2424830315
 30
0.0
 11
248.484016593
 21
-104.2424830315
 31
0.0
  0
LINE
  5
1F1
  8
0
  6
CONTINUOUS
 62
     7
 10
159.0840172129
 20
-104.2424830315
 30
0.0
 11
159.8840158539
 21
-104.2424830315
 31
0.0
  0
LINE
  5
1F2
  8
0
  6
CONTINUOUS
 62
     7
 10
135.6840174751
 20
-97.7962079165
 30
0.0
 11
135.5840187626
 21
-97.7962079165
 31
0.0
  0
LINE
  5
1F3
  8
0
  6
CONTINUOUS
 62
     7
 10
47.9840200501
 20
-97.7962079165
 30
0.0
 11
47.8840153771
 21
-97.7962079165
 31
0.0
  0
LINE
  5
1F4
  8
0
  6
CONTINUOUS
 62
     7
 10
47.8840153771
 20
-100.1962098
 30
0.0
 11
47.9840200501
 21
-100.1962098
 31
0.0
  0
LINE
  5
1F5
  8
0
  6
CONTINUOUS
 62
     7
 10
135.5840187626
 20
-100.1962098
 30
0.0
 11
135.6840174751
 21
-100.1962098
 31
0.0
  0
LINE
  5
1F6
  8
0
  6
CONTINUOUS
 62
     7
 10
135.6840174751
 20
-104.2424830315
 30
0.0
 11
136.4840190964
 21
-104.2424830315
 31
0.0
  0
LINE
  5
1F7
  8
0
  6
CONTINUOUS
 62
     7
 10
47.0840137558
 20
-104.2424830315
 30
0.0
 11
47.8840153771
 21
-104.2424830315
 31
0.0
  0
LINE
  5
1F8
  8
0
  6
CONTINUOUS
 62
     7
 10
273.8097053127
 20
-87.8849434374
 30
0.0
 11
357.7583234863
 21
-87.8849434374
 31
0.0
  0
LINE
  5
1F9
  8
0
  6
CONTINUOUS
 62
     7
 10
359.6840184288
 20
-97.7962079165
 30
0.0
 11
359.5840137558
 21
-97.7962079165
 31
0.0
  0
LINE
  5
1FA
  8
0
  6
CONTINUOUS
 62
     7
 10
271.9840150433
 20
-97.7962079165
 30
0.0
 11
271.8840163307
 21
-97.7962079165
 31
0.0
  0
LINE
  5
1FB
  8
0
  6
CONTINUOUS
 62
     7
 10
271.8840163307
 20
-100.1962098
 30
0.0
 11
271.9840150433
 21
-100.1962098
 31
0.0
  0
LINE
  5
1FC
  8
0
  6
CONTINUOUS
 62
     7
 10
359.5840137558
 20
-100.1962098
 30
0.0
 11
359.6840184288
 21
-100.1962098
 31
0.0
  0
LINE
  5
1FD
  8
0
  6
CONTINUOUS
 62
     7
 10
271.0840147095
 20
-104.2424830315
 30
0.0
 11
271.8840163307
 21
-104.2424830315
 31
0.0
  0
LINE
  5
1FE
  8
0
  6
CONTINUOUS
 62
     7
 10
359.6840184288
 20
-104.2424830315
 30
0.0
 11
360.4840200501
 21
-104.2424830315
 31
0.0
  0
ARC
  5
1FF
  8
0
  6
CONTINUOUS
 62
     7
 10
158.6840169029
 20
-94.5962091563
 30
0.0
 40
0.4000000000000057
 50
270.0
 51
0.0
  0
LINE
  5
200
  8
0
  6
CONTINUOUS
 62
     7
 10
247.684017952
 20
-94.9962082026
 30
0.0
 11
246.6840159254
 21
-94.9962082026
 31
0.0
  0
LINE
  5
201
  8
0
  6
CONTINUOUS
 62
     7
 10
160.8840178804
 20
-94.9962082026
 30
0.0
 11
159.8840158539
 21
-94.9962082026
 31
0.0
  0
LINE
  5
202
  8
0
  6
CONTINUOUS
 62
     7
 10
159.0840172129
 20
-94.9962082026
 30
0.0
 11
158.6840164023
 21
-94.9962082026
 31
0.0
  0
LINE
  5
203
  8
0
  6
CONTINUOUS
 62
     7
 10
135.6840174751
 20
-94.9962082026
 30
0.0
 11
134.6840184288
 21
-94.9962082026
 31
0.0
  0
LINE
  5
204
  8
0
  6
CONTINUOUS
 62
     7
 10
48.8840144234
 20
-94.9962082026
 30
0.0
 11
47.8840153771
 21
-94.9962082026
 31
0.0
  0
ARC
  5
205
  8
0
  6
CONTINUOUS
 62
     7
 10
270.6840169029
 20
-94.5962091563
 30
0.0
 40
0.4000000000000341
 50
270.0
 51
0.0
  0
LINE
  5
206
  8
0
  6
CONTINUOUS
 62
     7
 10
359.6840184288
 20
-94.9962082026
 30
0.0
 11
358.5840147095
 21
-94.9962082026
 31
0.0
  0
LINE
  5
207
  8
0
  6
CONTINUOUS
 62
     7
 10
272.9840140896
 20
-94.9962082026
 30
0.0
 11
271.8840163307
 21
-94.9962082026
 31
0.0
  0
LINE
  5
208
  8
0
  6
CONTINUOUS
 62
     7
 10
271.0840147095
 20
-94.9962082026
 30
0.0
 11
270.6840198593
 21
-94.9962082026
 31
0.0
  0
LINE
  5
209
  8
0
  6
CONTINUOUS
 62
     7
 10
135.5840187626
 20
-76.6855465887
 30
0.0
 11
135.5840187626
 21
-76.2368115304
 31
0.0
  0
ARC
  5
20A
  8
0
  6
CONTINUOUS
 62
     7
 10
135.9599831046
 20
-72.9645972139
 30
0.0
 40
3.207670321325965
 50
89.5706537895
 51
94.9354313315
  0
LINE
  5
20B
  8
0
  6
CONTINUOUS
 62
     7
 10
159.584016736
 20
-69.7918792894
 30
0.0
 11
159.584016736
 21
-76.6855465887
 31
0.0
  0
ARC
  5
20C
  8
0
  6
CONTINUOUS
 62
     7
 10
159.2832566579
 20
-70.930536712
 30
0.0
 40
1.177708516864712
 50
75.2040540446
 51
94.8338157304
  0
LINE
  5
20D
  8
0
  6
CONTINUOUS
 62
     7
 10
159.1840159254
 20
-69.7570169517
 30
0.0
 11
135.9840195732
 21
-69.7570169517
 31
0.0
  0
LINE
  5
20E
  8
0
  6
CONTINUOUS
 62
     7
 10
135.5840187626
 20
-80.9579210994
 30
0.0
 11
135.5840187626
 21
-76.6855465887
 31
0.0
  0
ARC
  5
20F
  8
0
  6
CONTINUOUS
 62
     7
 10
135.9832534246
 20
-80.9571643674
 30
0.0
 40
0.3992353791401574
 50
180.1086015449
 51
270.1099529598
  0
LINE
  5
210
  8
0
  6
CONTINUOUS
 62
     7
 10
159.584016736
 20
-76.6855465887
 30
0.0
 11
159.584016736
 21
-80.9579210994
 31
0.0
  0
ARC
  5
211
  8
0
  6
CONTINUOUS
 62
     7
 10
159.1847761613
 20
-80.957158432
 30
0.0
 40
0.399241303203268
 50
269.8908972261
 51
359.8905482693
  0
LINE
  5
212
  8
0
  6
CONTINUOUS
 62
     7
 10
159.1840159254
 20
-81.3563990114
 30
0.0
 11
158.2840155916
 21
-81.3563990114
 31
0.0
  0
LINE
  5
213
  8
0
  6
CONTINUOUS
 62
     7
 10
158.2840155916
 20
-81.3563990114
 30
0.0
 11
136.8840139465
 21
-81.3563990114
 31
0.0
  0
LINE
  5
214
  8
0
  6
CONTINUOUS
 62
     7
 10
136.8840139465
 20
-81.3563990114
 30
0.0
 11
135.9840195732
 21
-81.3563990114
 31
0.0
  0
LINE
  5
215
  8
0
  6
CONTINUOUS
 62
     7
 10
158.6840164023
 20
-89.2560395119
 30
0.0
 11
158.6840164023
 21
-97.3220708487
 31
0.0
  0
LINE
  5
216
  8
0
  6
CONTINUOUS
 62
     7
 10
136.4840190964
 20
-97.3220708487
 30
0.0
 11
136.4840190964
 21
-89.2560395119
 31
0.0
  0
LINE
  5
217
  8
0
  6
CONTINUOUS
 62
     7
 10
158.6840164023
 20
-81.3563990114
 30
0.0
 11
158.6840164023
 21
-89.2560395119
 31
0.0
  0
LINE
  5
218
  8
0
  6
CONTINUOUS
 62
     7
 10
136.4840190964
 20
-89.2560395119
 30
0.0
 11
136.4840190964
 21
-81.3563990114
 31
0.0
  0
LINE
  5
219
  8
0
  6
CONTINUOUS
 62
     7
 10
158.6840164023
 20
-97.3220708487
 30
0.0
 11
158.6840164023
 21
-104.5516851065
 31
0.0
  0
LINE
  5
21A
  8
0
  6
CONTINUOUS
 62
     7
 10
136.4840190964
 20
-104.5516851065
 30
0.0
 11
136.4840190964
 21
-97.3220708487
 31
0.0
  0
LINE
  5
21B
  8
0
  6
CONTINUOUS
 62
     7
 10
271.1840193825
 20
-69.7570169517
 30
0.0
 11
247.9840170698
 21
-69.7570169517
 31
0.0
  0
LINE
  5
21C
  8
0
  6
CONTINUOUS
 62
     7
 10
271.5840142326
 20
-69.7918792894
 30
0.0
 11
271.5840142326
 21
-76.6855465887
 31
0.0
  0
ARC
  5
21D
  8
0
  6
CONTINUOUS
 62
     7
 10
271.2832603527
 20
-70.9304825638
 30
0.0
 40
1.17765458131133
 50
75.2036728248
 51
94.8340492478
  0
LINE
  5
21E
  8
0
  6
CONTINUOUS
 62
     7
 10
247.5840162592
 20
-76.6855465887
 30
0.0
 11
247.5840162592
 21
-76.2368115304
 31
0.0
  0
ARC
  5
21F
  8
0
  6
CONTINUOUS
 62
     7
 10
247.959993141
 20
-72.9648462589
 30
0.0
 40
3.207919265386898
 50
89.5709110851
 51
94.9352187538
  0
LINE
  5
220
  8
0
  6
CONTINUOUS
 62
     7
 10
247.5840162592
 20
-80.9579210994
 30
0.0
 11
247.5840162592
 21
-76.6855465887
 31
0.0
  0
ARC
  5
221
  8
0
  6
CONTINUOUS
 62
     7
 10
247.9832585253
 20
-80.9571567342
 30
0.0
 40
0.3992429977543501
 50
180.1096949155
 51
270.1088595891
  0
LINE
  5
222
  8
0
  6
CONTINUOUS
 62
     7
 10
271.5840142326
 20
-76.6855465887
 30
0.0
 11
271.5840142326
 21
-80.9579210994
 31
0.0
  0
ARC
  5
223
  8
0
  6
CONTINUOUS
 62
     7
 10
271.1847795897
 20
-80.9571643751
 30
0.0
 40
0.3992353601173821
 50
269.8908997175
 51
359.89139955
  0
LINE
  5
224
  8
0
  6
CONTINUOUS
 62
     7
 10
271.1840193825
 20
-81.3563990114
 30
0.0
 11
270.2840190487
 21
-81.3563990114
 31
0.0
  0
LINE
  5
225
  8
0
  6
CONTINUOUS
 62
     7
 10
270.2840190487
 20
-81.3563990114
 30
0.0
 11
248.8840174036
 21
-81.3563990114
 31
0.0
  0
LINE
  5
226
  8
0
  6
CONTINUOUS
 62
     7
 10
248.8840174036
 20
-81.3563990114
 30
0.0
 11
247.9840170698
 21
-81.3563990114
 31
0.0
  0
LINE
  5
227
  8
0
  6
CONTINUOUS
 62
     7
 10
248.484016593
 20
-97.3220708487
 30
0.0
 11
248.484016593
 21
-89.2560395119
 31
0.0
  0
LINE
  5
228
  8
0
  6
CONTINUOUS
 62
     7
 10
270.6840198593
 20
-89.2560395119
 30
0.0
 11
270.6840198593
 21
-97.3220708487
 31
0.0
  0
LINE
  5
229
  8
0
  6
CONTINUOUS
 62
     7
 10
248.484016593
 20
-89.2560395119
 30
0.0
 11
248.484016593
 21
-81.3563990114
 31
0.0
  0
LINE
  5
22A
  8
0
  6
CONTINUOUS
 62
     7
 10
270.6840198593
 20
-81.3563990114
 30
0.0
 11
270.6840198593
 21
-89.2560395119
 31
0.0
  0
LINE
  5
22B
  8
0
  6
CONTINUOUS
 62
     7
 10
248.484016593
 20
-104.5516851065
 30
0.0
 11
248.484016593
 21
-97.3220708487
 31
0.0
  0
LINE
  5
22C
  8
0
  6
CONTINUOUS
 62
     7
 10
270.6840198593
 20
-97.3220708487
 30
0.0
 11
270.6840198593
 21
-104.5516851065
 31
0.0
  0
LINE
  5
22D
  8
0
  6
CONTINUOUS
 62
     7
 10
372.1840184288
 20
-89.2560395119
 30
0.0
 11
372.1840184288
 21
-97.3220708487
 31
0.0
  0
LINE
  5
22E
  8
0
  6
CONTINUOUS
 62
     7
 10
360.4840200501
 20
-97.3220708487
 30
0.0
 11
360.4840200501
 21
-89.2560395119
 31
0.0
  0
LINE
  5
22F
  8
0
  6
CONTINUOUS
 62
     7
 10
371.9840210037
 20
-68.9962091563
 30
0.0
 11
372.1840184288
 21
-68.9962091563
 31
0.0
  0
ARC
  5
230
  8
0
  6
CONTINUOUS
 62
     7
 10
371.7893936876
 20
-73.05052104
 30
0.0
 40
4.054315456017777
 50
87.2484599788
 51
90.0760591254
  0
LINE
  5
231
  8
0
  6
CONTINUOUS
 62
     7
 10
372.1840184288
 20
-68.9962091563
 30
0.0
 11
372.1840184288
 21
-89.2560395119
 31
0.0
  0
LINE
  5
232
  8
0
  6
CONTINUOUS
 62
     7
 10
371.9840210037
 20
-69.0008798183
 30
0.0
 11
371.9840210037
 21
-68.9962091563
 31
0.0
  0
LINE
  5
233
  8
0
  6
CONTINUOUS
 62
     7
 10
371.7840116577
 20
-68.9962091563
 30
0.0
 11
360.8840149002
 21
-68.9962091563
 31
0.0
  0
ARC
  5
234
  8
0
  6
CONTINUOUS
 62
     7
 10
360.7847743995
 20
-70.1696814857
 30
0.0
 40
1.177661235220436
 50
85.1660010521
 51
104.796265289
  0
LINE
  5
235
  8
0
  6
CONTINUOUS
 62
     7
 10
360.4840200501
 20
-89.2560395119
 30
0.0
 11
360.4840200501
 21
-69.0310714532
 31
0.0
  0
LINE
  5
236
  8
0
  6
CONTINUOUS
 62
     7
 10
372.1840184288
 20
-97.3220708487
 30
0.0
 11
372.1840184288
 21
-104.5516851065
 31
0.0
  0
LINE
  5
237
  8
0
  6
CONTINUOUS
 62
     7
 10
360.4840200501
 20
-104.5516851065
 30
0.0
 11
360.4840200501
 21
-97.3220708487
 31
0.0
  0
LINE
  5
238
  8
0
  6
CONTINUOUS
 62
     7
 10
371.9840210037
 20
-68.9962091563
 30
0.0
 11
371.7840116577
 21
-68.9962091563
 31
0.0
  0
LINE
  5
239
  8
0
  6
CONTINUOUS
 62
     7
 10
47.0840137558
 20
-89.2560395119
 30
0.0
 11
47.0840137558
 21
-97.3220708487
 31
0.0
  0
LINE
  5
23A
  8
0
  6
CONTINUOUS
 62
     7
 10
35.3840153771
 20
-97.3220708487
 30
0.0
 11
35.3840153771
 21
-89.2560395119
 31
0.0
  0
ARC
  5
23B
  8
0
  6
CONTINUOUS
 62
     7
 10
46.7832594064
 20
-70.1696814857
 30
0.0
 40
1.177661235221
 50
75.2037347111
 51
94.8339989479
  0
LINE
  5
23C
  8
0
  6
CONTINUOUS
 62
     7
 10
47.0840137558
 20
-69.0310714532
 30
0.0
 11
47.0840137558
 21
-89.2560395119
 31
0.0
  0
LINE
  5
23D
  8
0
  6
CONTINUOUS
 62
     7
 10
46.6840189056
 20
-68.9962091563
 30
0.0
 11
35.7840221481
 21
-68.9962091563
 31
0.0
  0
LINE
  5
23E
  8
0
  6
CONTINUOUS
 62
     7
 10
35.3840153771
 20
-68.9962091563
 30
0.0
 11
35.5840128021
 21
-68.9962091563
 31
0.0
  0
ARC
  5
23F
  8
0
  6
CONTINUOUS
 62
     7
 10
35.7786401183
 20
-73.05052104
 30
0.0
 40
4.05431545601553
 50
89.9239408746
 51
92.7515400212
  0
LINE
  5
240
  8
0
  6
CONTINUOUS
 62
     7
 10
35.3840153771
 20
-89.2560395119
 30
0.0
 11
35.3840153771
 21
-68.9962091563
 31
0.0
  0
LINE
  5
241
  8
0
  6
CONTINUOUS
 62
     7
 10
35.5840128021
 20
-68.9962091563
 30
0.0
 11
35.5840128021
 21
-69.0008798183
 31
0.0
  0
LINE
  5
242
  8
0
  6
CONTINUOUS
 62
     7
 10
35.3840153771
 20
-104.5516851065
 30
0.0
 11
35.3840153771
 21
-97.3220708487
 31
0.0
  0
LINE
  5
243
  8
0
  6
CONTINUOUS
 62
     7
 10
47.0840137558
 20
-97.3220708487
 30
0.0
 11
47.0840137558
 21
-104.5516851065
 31
0.0
  0
LINE
  5
244
  8
0
  6
CONTINUOUS
 62
     7
 10
35.7840221481
 20
-68.9962091563
 30
0.0
 11
35.5840128021
 21
-68.9962091563
 31
0.0
  0
LINE
  5
245
  8
0
  6
CONTINUOUS
 62
     7
 10
272.8840153771
 20
-95.1962086079
 30
0.0
 11
358.6840193825
 21
-95.1962086079
 31
0.0
  0
POLYLINE
  5
246
  8
0
  6
CONTINUOUS
 62
     7
 66
     1
 10
0.0
 20
0.0
 30
0.0
  0
VERTEX
  5
517
  8
0
  6
CONTINUOUS
 62
     7
 10
358.6840193825
 20
-95.1962086079
 30
0.0
  0
VERTEX
  5
518
  8
0
  6
CONTINUOUS
 62
     7
 10
358.6544673996
 20
-95.2257576106
 30
0.0
  0
VERTEX
  5
519
  8
0
  6
CONTINUOUS
 62
     7
 10
358.5665505486
 20
-95.3136744616
 30
0.0
  0
VERTEX
  5
51A
  8
0
  6
CONTINUOUS
 62
     7
 10
358.4224384384
 20
-95.4577925322
 30
0.0
  0
VERTEX
  5
51B
  8
0
  6
CONTINUOUS
 62
     7
 10
358.2256596642
 20
-95.6545683263
 30
0.0
  0
VERTEX
  5
51C
  8
0
  6
CONTINUOUS
 62
     7
 10
357.9810779648
 20
-95.8991530059
 30
0.0
  0
VERTEX
  5
51D
  8
0
  6
CONTINUOUS
 62
     7
 10
357.6947014885
 20
-96.1855235217
 30
0.0
  0
VERTEX
  5
51E
  8
0
  6
CONTINUOUS
 62
     7
 10
357.3735993462
 20
-96.5066316245
 30
0.0
  0
VERTEX
  5
51F
  8
0
  6
CONTINUOUS
 62
     7
 10
357.0256631928
 20
-96.8545677779
 30
0.0
  0
VERTEX
  5
520
  8
0
  6
CONTINUOUS
 62
     7
 10
356.6594641762
 20
-97.2207667945
 30
0.0
  0
VERTEX
  5
521
  8
0
  6
CONTINUOUS
 62
     7
 10
356.2840145187
 20
-97.5962104914
 30
0.0
  0
SEQEND
  5
576
  8
0
  6
CONTINUOUS
 62
     7
  0
POLYLINE
  5
247
  8
0
  6
CONTINUOUS
 62
     7
 66
     1
 10
0.0
 20
0.0
 30
0.0
  0
VERTEX
  5
522
  8
0
  6
CONTINUOUS
 62
     7
 10
272.8840153771
 20
-95.1962086079
 30
0.0
  0
VERTEX
  5
523
  8
0
  6
CONTINUOUS
 62
     7
 10
272.9135673599
 20
-95.2257576106
 30
0.0
  0
VERTEX
  5
524
  8
0
  6
CONTINUOUS
 62
     7
 10
273.001484211
 20
-95.3136744616
 30
0.0
  0
VERTEX
  5
525
  8
0
  6
CONTINUOUS
 62
     7
 10
273.1456022816
 20
-95.4577925322
 30
0.0
  0
VERTEX
  5
526
  8
0
  6
CONTINUOUS
 62
     7
 10
273.3423750954
 20
-95.6545683263
 30
0.0
  0
VERTEX
  5
527
  8
0
  6
CONTINUOUS
 62
     7
 10
273.5869627552
 20
-95.8991530059
 30
0.0
  0
VERTEX
  5
528
  8
0
  6
CONTINUOUS
 62
     7
 10
273.873333271
 20
-96.1855235217
 30
0.0
  0
VERTEX
  5
529
  8
0
  6
CONTINUOUS
 62
     7
 10
274.1944413738
 20
-96.5066316245
 30
0.0
  0
VERTEX
  5
52A
  8
0
  6
CONTINUOUS
 62
     7
 10
274.5423775272
 20
-96.8545677779
 30
0.0
  0
VERTEX
  5
52B
  8
0
  6
CONTINUOUS
 62
     7
 10
274.9085765438
 20
-97.2207667945
 30
0.0
  0
VERTEX
  5
52C
  8
0
  6
CONTINUOUS
 62
     7
 10
275.2840142803
 20
-97.5962104914
 30
0.0
  0
SEQEND
  5
575
  8
0
  6
CONTINUOUS
 62
     7
  0
LINE
  5
248
  8
0
  6
CONTINUOUS
 62
     7
 10
272.8840153771
 20
-168.5962083457
 30
0.0
 11
272.8840153771
 21
-95.1962086079
 31
0.0
  0
POLYLINE
  5
249
  8
0
  6
CONTINUOUS
 62
     7
 66
     1
 10
0.0
 20
0.0
 30
0.0
  0
VERTEX
  5
52D
  8
0
  6
CONTINUOUS
 62
     7
 10
275.2840142803
 20
-166.1962094424
 30
0.0
  0
VERTEX
  5
52E
  8
0
  6
CONTINUOUS
 62
     7
 10
274.9085765438
 20
-166.5716531394
 30
0.0
  0
VERTEX
  5
52F
  8
0
  6
CONTINUOUS
 62
     7
 10
274.5423775272
 20
-166.9378521559
 30
0.0
  0
VERTEX
  5
530
  8
0
  6
CONTINUOUS
 62
     7
 10
274.1944413738
 20
-167.2857883094
 30
0.0
  0
VERTEX
  5
531
  8
0
  6
CONTINUOUS
 62
     7
 10
273.873333271
 20
-167.6068964122
 30
0.0
  0
VERTEX
  5
532
  8
0
  6
CONTINUOUS
 62
     7
 10
273.5869627552
 20
-167.893266928
 30
0.0
  0
VERTEX
  5
533
  8
0
  6
CONTINUOUS
 62
     7
 10
273.3423750954
 20
-168.1378486273
 30
0.0
  0
VERTEX
  5
534
  8
0
  6
CONTINUOUS
 62
     7
 10
273.1456022816
 20
-168.3346274016
 30
0.0
  0
VERTEX
  5
535
  8
0
  6
CONTINUOUS
 62
     7
 10
273.001484211
 20
-168.4787454722
 30
0.0
  0
VERTEX
  5
536
  8
0
  6
CONTINUOUS
 62
     7
 10
272.9135673599
 20
-168.5666623233
 30
0.0
  0
VERTEX
  5
537
  8
0
  6
CONTINUOUS
 62
     7
 10
272.8840153771
 20
-168.5962083457
 30
0.0
  0
SEQEND
  5
574
  8
0
  6
CONTINUOUS
 62
     7
  0
LINE
  5
24A
  8
0
  6
CONTINUOUS
 62
     7
 10
358.6840193825
 20
-95.1962086079
 30
0.0
 11
358.6840193825
 21
-168.5962083457
 31
0.0
  0
POLYLINE
  5
24B
  8
0
  6
CONTINUOUS
 62
     7
 66
     1
 10
0.0
 20
0.0
 30
0.0
  0
VERTEX
  5
538
  8
0
  6
CONTINUOUS
 62
     7
 10
356.2840145187
 20
-166.1962094424
 30
0.0
  0
VERTEX
  5
539
  8
0
  6
CONTINUOUS
 62
     7
 10
356.6594641762
 20
-166.5716531394
 30
0.0
  0
VERTEX
  5
53A
  8
0
  6
CONTINUOUS
 62
     7
 10
357.0256631928
 20
-166.9378521559
 30
0.0
  0
VERTEX
  5
53B
  8
0
  6
CONTINUOUS
 62
     7
 10
357.3735993462
 20
-167.2857883094
 30
0.0
  0
VERTEX
  5
53C
  8
0
  6
CONTINUOUS
 62
     7
 10
357.6947014885
 20
-167.6068964122
 30
0.0
  0
VERTEX
  5
53D
  8
0
  6
CONTINUOUS
 62
     7
 10
357.9810779648
 20
-167.893266928
 30
0.0
  0
VERTEX
  5
53E
  8
0
  6
CONTINUOUS
 62
     7
 10
358.2256596642
 20
-168.1378486273
 30
0.0
  0
VERTEX
  5
53F
  8
0
  6
CONTINUOUS
 62
     7
 10
358.4224384384
 20
-168.3346274016
 30
0.0
  0
VERTEX
  5
540
  8
0
  6
CONTINUOUS
 62
     7
 10
358.5665505486
 20
-168.4787454722
 30
0.0
  0
VERTEX
  5
541
  8
0
  6
CONTINUOUS
 62
     7
 10
358.6544673996
 20
-168.5666623233
 30
0.0
  0
VERTEX
  5
542
  8
0
  6
CONTINUOUS
 62
     7
 10
358.6840193825
 20
-168.5962083457
 30
0.0
  0
SEQEND
  5
573
  8
0
  6
CONTINUOUS
 62
     7
  0
LINE
  5
24C
  8
0
  6
CONTINUOUS
 62
     7
 10
358.6840193825
 20
-168.5962083457
 30
0.0
 11
272.8840153771
 21
-168.5962083457
 31
0.0
  0
LINE
  5
24D
  8
0
  6
CONTINUOUS
 62
     7
 10
272.9840140896
 20
-95.1962086079
 30
0.0
 11
272.9840140896
 21
-87.6975598452
 31
0.0
  0
LINE
  5
24E
  8
0
  6
CONTINUOUS
 62
     7
 10
358.5840147095
 20
-87.6975598452
 30
0.0
 11
358.5840147095
 21
-95.1962086079
 31
0.0
  0
LINE
  5
24F
  8
0
  6
CONTINUOUS
 62
     7
 10
359.5840137558
 20
-96.5962084649
 30
0.0
 11
359.5840137558
 21
-101.3962092517
 31
0.0
  0
LINE
  5
250
  8
0
  6
CONTINUOUS
 62
     7
 10
271.9840150433
 20
-96.5962084649
 30
0.0
 11
271.9840150433
 21
-101.3962092517
 31
0.0
  0
LINE
  5
251
  8
0
  6
CONTINUOUS
 62
     7
 10
160.984016593
 20
-97.3295422909
 30
0.0
 11
160.984016593
 21
-89.4806849477
 31
0.0
  0
LINE
  5
252
  8
0
  6
CONTINUOUS
 62
     7
 10
246.5840172129
 20
-89.4806849477
 30
0.0
 11
246.5840172129
 21
-97.3295422909
 31
0.0
  0
ARC
  5
253
  8
0
  6
CONTINUOUS
 62
     7
 10
246.2832531769
 20
-90.5174199283
 30
0.0
 40
1.177739792437442
 50
75.2042567876
 51
94.8334938308
  0
LINE
  5
254
  8
0
  6
CONTINUOUS
 62
     7
 10
246.5840172129
 20
-89.3787312029
 30
0.0
 11
246.5840172129
 21
-89.4806849477
 31
0.0
  0
ARC
  5
255
  8
0
  6
CONTINUOUS
 62
     7
 10
161.2847806289
 20
-90.5174199283
 30
0.0
 40
1.177739792437747
 50
85.1665061692
 51
104.7957432124
  0
LINE
  5
256
  8
0
  6
CONTINUOUS
 62
     7
 10
160.984016593
 20
-89.4806849477
 30
0.0
 11
160.984016593
 21
-89.3787312029
 31
0.0
  0
LINE
  5
257
  8
0
  6
CONTINUOUS
 62
     7
 10
246.6840159254
 20
-89.3438684461
 30
0.0
 11
246.1840164023
 21
-89.3438684461
 31
0.0
  0
LINE
  5
258
  8
0
  6
CONTINUOUS
 62
     7
 10
161.3840174036
 20
-89.3438684461
 30
0.0
 11
160.8840178804
 21
-89.3438684461
 31
0.0
  0
LINE
  5
259
  8
0
  6
CONTINUOUS
 62
     7
 10
160.8840178804
 20
-85.1598503707
 30
0.0
 11
160.8840178804
 21
-89.3438684461
 31
0.0
  0
LINE
  5
25A
  8
0
  6
CONTINUOUS
 62
     7
 10
246.6840159254
 20
-85.1598503707
 30
0.0
 11
246.6840159254
 21
-89.3438684461
 31
0.0
  0
LINE
  5
25B
  8
0
  6
CONTINUOUS
 62
     7
 10
246.6840159254
 20
-95.7410993693
 30
0.0
 11
246.5840172129
 21
-95.7410993693
 31
0.0
  0
LINE
  5
25C
  8
0
  6
CONTINUOUS
 62
     7
 10
246.6840159254
 20
-89.3438684461
 30
0.0
 11
246.6840159254
 21
-95.7410993693
 31
0.0
  0
LINE
  5
25D
  8
0
  6
CONTINUOUS
 62
     7
 10
160.984016593
 20
-95.7410993693
 30
0.0
 11
160.8840178804
 21
-95.7410993693
 31
0.0
  0
LINE
  5
25E
  8
0
  6
CONTINUOUS
 62
     7
 10
160.8840178804
 20
-89.3438684461
 30
0.0
 11
160.8840178804
 21
-95.7410993693
 31
0.0
  0
ARC
  5
25F
  8
0
  6
CONTINUOUS
 62
     7
 10
163.0480055442
 20
-85.1330126913
 30
0.0
 40
2.164154077183012
 50
89.2894567013
 51
180.7105432987
  0
ARC
  5
260
  8
0
  6
CONTINUOUS
 62
     7
 10
244.5200282617
 20
-85.1330126913
 30
0.0
 40
2.164154077183026
 50
359.2894567013
 51
90.7105432987
  0
LINE
  5
261
  8
0
  6
CONTINUOUS
 62
     7
 10
246.5840172129
 20
-97.3295422909
 30
0.0
 11
246.5840172129
 21
-104.497498524
 31
0.0
  0
LINE
  5
262
  8
0
  6
CONTINUOUS
 62
     7
 10
160.984016593
 20
-104.497498524
 30
0.0
 11
160.984016593
 21
-97.3295422909
 31
0.0
  0
LINE
  5
263
  8
0
  6
CONTINUOUS
 62
     7
 10
247.5840162592
 20
-96.5962084649
 30
0.0
 11
247.5840162592
 21
-101.3962092517
 31
0.0
  0
LINE
  5
264
  8
0
  6
CONTINUOUS
 62
     7
 10
159.9840175467
 20
-96.5962084649
 30
0.0
 11
159.9840175467
 21
-101.3962092517
 31
0.0
  0
LINE
  5
265
  8
0
  6
CONTINUOUS
 62
     7
 10
134.5840197163
 20
-89.4806849477
 30
0.0
 11
134.5840197163
 21
-97.3295422909
 31
0.0
  0
LINE
  5
266
  8
0
  6
CONTINUOUS
 62
     7
 10
48.9840190964
 20
-97.3295422909
 30
0.0
 11
48.9840190964
 21
-89.4806849477
 31
0.0
  0
ARC
  5
267
  8
0
  6
CONTINUOUS
 62
     7
 10
134.2832530542
 20
-90.5174500592
 30
0.0
 40
1.17776959499531
 50
75.2045075969
 51
94.8332430216
  0
LINE
  5
268
  8
0
  6
CONTINUOUS
 62
     7
 10
134.5840197163
 20
-89.3787312029
 30
0.0
 11
134.5840197163
 21
-89.4806849477
 31
0.0
  0
ARC
  5
269
  8
0
  6
CONTINUOUS
 62
     7
 10
49.2847797774
 20
-90.5173984025
 30
0.0
 40
1.177718123622306
 50
85.1665442406
 51
104.7958528451
  0
LINE
  5
26A
  8
0
  6
CONTINUOUS
 62
     7
 10
48.9840190964
 20
-89.4806849477
 30
0.0
 11
48.9840190964
 21
-89.3787312029
 31
0.0
  0
LINE
  5
26B
  8
0
  6
CONTINUOUS
 62
     7
 10
134.6840184288
 20
-89.3438684461
 30
0.0
 11
134.1840189056
 21
-89.3438684461
 31
0.0
  0
LINE
  5
26C
  8
0
  6
CONTINUOUS
 62
     7
 10
49.3840139465
 20
-89.3438684461
 30
0.0
 11
48.8840144234
 21
-89.3438684461
 31
0.0
  0
LINE
  5
26D
  8
0
  6
CONTINUOUS
 62
     7
 10
48.8840144234
 20
-85.1598503707
 30
0.0
 11
48.8840144234
 21
-89.3438684461
 31
0.0
  0
LINE
  5
26E
  8
0
  6
CONTINUOUS
 62
     7
 10
134.6840184288
 20
-85.1598503707
 30
0.0
 11
134.6840184288
 21
-89.3438684461
 31
0.0
  0
LINE
  5
26F
  8
0
  6
CONTINUOUS
 62
     7
 10
48.8840144234
 20
-89.3438684461
 30
0.0
 11
48.8840144234
 21
-95.7410993693
 31
0.0
  0
LINE
  5
270
  8
0
  6
CONTINUOUS
 62
     7
 10
48.9840190964
 20
-95.7410993693
 30
0.0
 11
48.8840144234
 21
-95.7410993693
 31
0.0
  0
LINE
  5
271
  8
0
  6
CONTINUOUS
 62
     7
 10
134.6840184288
 20
-89.3438684461
 30
0.0
 11
134.6840184288
 21
-95.7410993693
 31
0.0
  0
LINE
  5
272
  8
0
  6
CONTINUOUS
 62
     7
 10
134.6840184288
 20
-95.7410993693
 30
0.0
 11
134.5840197163
 21
-95.7410993693
 31
0.0
  0
ARC
  5
273
  8
0
  6
CONTINUOUS
 62
     7
 10
51.0480077465
 20
-85.1330183141
 30
0.0
 40
2.164159666414575
 50
89.2895294722
 51
180.710392587
  0
ARC
  5
274
  8
0
  6
CONTINUOUS
 62
     7
 10
132.5200198276
 20
-85.1330235922
 30
0.0
 40
2.164164878664997
 50
359.2897488711
 51
90.7103290696
  0
LINE
  5
275
  8
0
  6
CONTINUOUS
 62
     7
 10
48.9840190964
 20
-104.497498524
 30
0.0
 11
48.9840190964
 21
-97.3295422909
 31
0.0
  0
LINE
  5
276
  8
0
  6
CONTINUOUS
 62
     7
 10
134.5840197163
 20
-97.3295422909
 30
0.0
 11
134.5840197163
 21
-104.497498524
 31
0.0
  0
LINE
  5
277
  8
0
  6
CONTINUOUS
 62
     7
 10
47.9840200501
 20
-96.5962084649
 30
0.0
 11
47.9840200501
 21
-101.3962092517
 31
0.0
  0
LINE
  5
278
  8
0
  6
CONTINUOUS
 62
     7
 10
135.5840187626
 20
-96.5962084649
 30
0.0
 11
135.5840187626
 21
-101.3962092517
 31
0.0
  0
ARC
  5
279
  8
0
  6
CONTINUOUS
 62
     7
 10
162.1968633136
 20
-76.1744748537
 30
0.0
 40
2.213141553731884
 50
180.9367576762
 51
264.481079549
  0
ARC
  5
27A
  8
0
  6
CONTINUOUS
 62
     7
 10
245.3718486247
 20
-76.1751008118
 30
0.0
 40
2.212453363683101
 50
275.5029993263
 51
359.0791634485
  0
LINE
  5
27B
  8
0
  6
CONTINUOUS
 62
     7
 10
247.5840162592
 20
-76.2106570122
 30
0.0
 11
247.5840162592
 21
-76.2368115304
 31
0.0
  0
LINE
  5
27C
  8
0
  6
CONTINUOUS
 62
     7
 10
247.5840162592
 20
-80.9579210994
 30
0.0
 11
247.5840162592
 21
-86.0592561481
 31
0.0
  0
ARC
  5
27D
  8
0
  6
CONTINUOUS
 62
     7
 10
245.7824789919
 20
-86.0848457614
 30
0.0
 40
1.801718999648981
 50
300.0248786135
 51
0.8137929058
  0
LINE
  5
27E
  8
0
  6
CONTINUOUS
 62
     7
 10
159.9840175467
 20
-86.0592561481
 30
0.0
 11
159.9840175467
 21
-76.2106570122
 31
0.0
  0
ARC
  5
27F
  8
0
  6
CONTINUOUS
 62
     7
 10
161.7855548139
 20
-86.0848457614
 30
0.0
 40
1.801718999649088
 50
179.1862070942
 51
239.9751213865
  0
LINE
  5
280
  8
0
  6
CONTINUOUS
 62
     7
 10
247.5840162592
 20
-71.6281610248
 30
0.0
 11
159.9840175467
 21
-71.6281610248
 31
0.0
  0
LINE
  5
281
  8
0
  6
CONTINUOUS
 62
     7
 10
247.5840162592
 20
-76.2106570122
 30
0.0
 11
247.5840162592
 21
-71.6281610248
 31
0.0
  0
LINE
  5
282
  8
0
  6
CONTINUOUS
 62
     7
 10
159.9840175467
 20
-76.2106570122
 30
0.0
 11
159.9840175467
 21
-71.6281610248
 31
0.0
  0
LINE
  5
283
  8
0
  6
CONTINUOUS
 62
     7
 10
247.684017952
 20
-68.9962091563
 30
0.0
 11
159.8840158539
 21
-68.9962091563
 31
0.0
  0
LINE
  5
284
  8
0
  6
CONTINUOUS
 62
     7
 10
247.684017952
 20
-71.6194455219
 30
0.0
 11
159.8840158539
 21
-71.6194455219
 31
0.0
  0
LINE
  5
285
  8
0
  6
CONTINUOUS
 62
     7
 10
159.8840158539
 20
-68.9962091563
 30
0.0
 11
159.8840158539
 21
-71.6194455219
 31
0.0
  0
LINE
  5
286
  8
0
  6
CONTINUOUS
 62
     7
 10
247.684017952
 20
-68.9962091563
 30
0.0
 11
247.684017952
 21
-71.6194455219
 31
0.0
  0
LINE
  5
287
  8
0
  6
CONTINUOUS
 62
     7
 10
159.9840175467
 20
-81.6162096975
 30
0.0
 11
159.8840158539
 21
-81.6162096975
 31
0.0
  0
LINE
  5
288
  8
0
  6
CONTINUOUS
 62
     7
 10
247.684017952
 20
-81.6162096975
 30
0.0
 11
247.5840162592
 21
-81.6162096975
 31
0.0
  0
LINE
  5
289
  8
0
  6
CONTINUOUS
 62
     7
 10
159.8840158539
 20
-71.6194455219
 30
0.0
 11
159.8840158539
 21
-75.9983340917
 31
0.0
  0
LINE
  5
28A
  8
0
  6
CONTINUOUS
 62
     7
 10
247.684017952
 20
-71.6194455219
 30
0.0
 11
247.684017952
 21
-71.6312565548
 31
0.0
  0
LINE
  5
28B
  8
0
  6
CONTINUOUS
 62
     7
 10
159.0840172129
 20
-89.7727313159
 30
0.0
 11
159.0840172129
 21
-89.3649133561
 31
0.0
  0
LINE
  5
28C
  8
0
  6
CONTINUOUS
 62
     7
 10
159.8840158539
 20
-89.3649133561
 30
0.0
 11
159.8840158539
 21
-89.7727313159
 31
0.0
  0
LINE
  5
28D
  8
0
  6
CONTINUOUS
 62
     7
 10
247.684017952
 20
-89.7727313159
 30
0.0
 11
247.684017952
 21
-89.3649133561
 31
0.0
  0
LINE
  5
28E
  8
0
  6
CONTINUOUS
 62
     7
 10
248.484016593
 20
-68.9962091563
 30
0.0
 11
248.484016593
 21
-69.7570169517
 31
0.0
  0
LINE
  5
28F
  8
0
  6
CONTINUOUS
 62
     7
 10
247.684017952
 20
-81.2214891133
 30
0.0
 11
247.684017952
 21
-89.3649133561
 31
0.0
  0
LINE
  5
290
  8
0
  6
CONTINUOUS
 62
     7
 10
248.484016593
 20
-68.9962091563
 30
0.0
 11
247.684017952
 21
-68.9962091563
 31
0.0
  0
LINE
  5
291
  8
0
  6
CONTINUOUS
 62
     7
 10
159.0840172129
 20
-89.3649133561
 30
0.0
 11
159.0840172129
 21
-81.3563990114
 31
0.0
  0
LINE
  5
292
  8
0
  6
CONTINUOUS
 62
     7
 10
159.0840172129
 20
-69.7570169517
 30
0.0
 11
159.0840172129
 21
-68.9962091563
 31
0.0
  0
LINE
  5
293
  8
0
  6
CONTINUOUS
 62
     7
 10
159.8840158539
 20
-89.3649133561
 30
0.0
 11
159.8840158539
 21
-75.9983340917
 31
0.0
  0
LINE
  5
294
  8
0
  6
CONTINUOUS
 62
     7
 10
159.0840172129
 20
-68.9962091563
 30
0.0
 11
159.8840158539
 21
-68.9962091563
 31
0.0
  0
LINE
  5
295
  8
0
  6
CONTINUOUS
 62
     7
 10
159.0840172129
 20
-96.6978582261
 30
0.0
 11
159.0840172129
 21
-89.7727313159
 31
0.0
  0
LINE
  5
296
  8
0
  6
CONTINUOUS
 62
     7
 10
159.8840158539
 20
-96.6978582261
 30
0.0
 11
159.8840158539
 21
-89.7727313159
 31
0.0
  0
LINE
  5
297
  8
0
  6
CONTINUOUS
 62
     7
 10
247.684017952
 20
-89.7727313159
 30
0.0
 11
247.684017952
 21
-96.6978582261
 31
0.0
  0
LINE
  5
298
  8
0
  6
CONTINUOUS
 62
     7
 10
247.684017952
 20
-97.1567216037
 30
0.0
 11
247.684017952
 21
-96.6978582261
 31
0.0
  0
LINE
  5
299
  8
0
  6
CONTINUOUS
 62
     7
 10
159.0840172129
 20
-97.1567216037
 30
0.0
 11
159.0840172129
 21
-96.6978582261
 31
0.0
  0
LINE
  5
29A
  8
0
  6
CONTINUOUS
 62
     7
 10
159.8840158539
 20
-96.6978582261
 30
0.0
 11
159.8840158539
 21
-97.1567216037
 31
0.0
  0
LINE
  5
29B
  8
0
  6
CONTINUOUS
 62
     7
 10
257.7840190487
 20
-68.9962091563
 30
0.0
 11
257.7840190487
 21
-69.7570169517
 31
0.0
  0
LINE
  5
29C
  8
0
  6
CONTINUOUS
 62
     7
 10
255.7840149956
 20
-68.9962091563
 30
0.0
 11
257.7840190487
 21
-68.9962091563
 31
0.0
  0
LINE
  5
29D
  8
0
  6
CONTINUOUS
 62
     7
 10
149.7840147572
 20
-69.7570169517
 30
0.0
 11
149.7840147572
 21
-68.9962091563
 31
0.0
  0
LINE
  5
29E
  8
0
  6
CONTINUOUS
 62
     7
 10
149.7840147572
 20
-68.9962091563
 30
0.0
 11
151.7840188103
 21
-68.9962091563
 31
0.0
  0
LINE
  5
29F
  8
0
  6
CONTINUOUS
 62
     7
 10
248.484016593
 20
-68.9962091563
 30
0.0
 11
255.7840149956
 21
-68.9962091563
 31
0.0
  0
LINE
  5
2A0
  8
0
  6
CONTINUOUS
 62
     7
 10
151.7840188103
 20
-68.9962091563
 30
0.0
 11
159.0840172129
 21
-68.9962091563
 31
0.0
  0
LINE
  5
2A1
  8
0
  6
CONTINUOUS
 62
     7
 10
159.0840172129
 20
-104.2394372342
 30
0.0
 11
159.0840172129
 21
-97.1567216037
 31
0.0
  0
LINE
  5
2A2
  8
0
  6
CONTINUOUS
 62
     7
 10
159.8840158539
 20
-104.2394372342
 30
0.0
 11
159.8840158539
 21
-97.1567216037
 31
0.0
  0
LINE
  5
2A3
  8
0
  6
CONTINUOUS
 62
     7
 10
247.684017952
 20
-97.1567216037
 30
0.0
 11
247.684017952
 21
-104.2394372342
 31
0.0
  0
LINE
  5
2A4
  8
0
  6
CONTINUOUS
 62
     7
 10
147.7840166645
 20
-69.7570169517
 30
0.0
 11
147.7840166645
 21
-68.9962091563
 31
0.0
  0
LINE
  5
2A5
  8
0
  6
CONTINUOUS
 62
     7
 10
147.7840166645
 20
-68.9962091563
 30
0.0
 11
149.7840147572
 21
-68.9962091563
 31
0.0
  0
LINE
  5
2A6
  8
0
  6
CONTINUOUS
 62
     7
 10
259.7840171414
 20
-69.7570169517
 30
0.0
 11
259.7840171414
 21
-68.9962091563
 31
0.0
  0
LINE
  5
2A7
  8
0
  6
CONTINUOUS
 62
     7
 10
257.7840190487
 20
-68.9962091563
 30
0.0
 11
259.7840171414
 21
-68.9962091563
 31
0.0
  0
LINE
  5
2A8
  8
0
  6
CONTINUOUS
 62
     7
 10
159.0840172129
 20
-93.5962098358
 30
0.0
 11
158.6840164023
 21
-93.5962098358
 31
0.0
  0
LINE
  5
2A9
  8
0
  6
CONTINUOUS
 62
     7
 10
158.6840164023
 20
-92.7962097047
 30
0.0
 11
159.0840172129
 21
-92.7962097047
 31
0.0
  0
LINE
  5
2AA
  8
0
  6
CONTINUOUS
 62
     7
 10
247.684017952
 20
-104.2424830315
 30
0.0
 11
247.684017952
 21
-104.2394372342
 31
0.0
  0
LINE
  5
2AB
  8
0
  6
CONTINUOUS
 62
     7
 10
159.0840172129
 20
-104.2424830315
 30
0.0
 11
159.0840172129
 21
-104.2394372342
 31
0.0
  0
LINE
  5
2AC
  8
0
  6
CONTINUOUS
 62
     7
 10
159.8840158539
 20
-104.2394372342
 30
0.0
 11
159.8840158539
 21
-104.2424830315
 31
0.0
  0
ARC
  5
2AD
  8
0
  6
CONTINUOUS
 62
     7
 10
50.1968626571
 20
-76.1744777704
 30
0.0
 40
2.213138346614873
 50
180.9366835124
 51
264.4811537128
  0
ARC
  5
2AE
  8
0
  6
CONTINUOUS
 62
     7
 10
133.3718444528
 20
-76.1750940664
 30
0.0
 40
2.212460146565469
 50
275.5030010018
 51
359.0789915641
  0
LINE
  5
2AF
  8
0
  6
CONTINUOUS
 62
     7
 10
135.5840187626
 20
-76.2106570122
 30
0.0
 11
135.5840187626
 21
-76.2368115304
 31
0.0
  0
LINE
  5
2B0
  8
0
  6
CONTINUOUS
 62
     7
 10
135.5840187626
 20
-80.9579210994
 30
0.0
 11
135.5840187626
 21
-86.0592561481
 31
0.0
  0
ARC
  5
2B1
  8
0
  6
CONTINUOUS
 62
     7
 10
133.7824562122
 20
-86.0848314099
 30
0.0
 40
1.801744076433162
 50
300.0253463675
 51
0.8133251517
  0
LINE
  5
2B2
  8
0
  6
CONTINUOUS
 62
     7
 10
47.9840200501
 20
-86.0592561481
 30
0.0
 11
47.9840200501
 21
-76.2106570122
 31
0.0
  0
ARC
  5
2B3
  8
0
  6
CONTINUOUS
 62
     7
 10
49.7855738711
 20
-86.0848397542
 30
0.0
 40
1.801735466472395
 50
179.1864055849
 51
239.97459709
  0
LINE
  5
2B4
  8
0
  6
CONTINUOUS
 62
     7
 10
135.5840187626
 20
-71.6281610248
 30
0.0
 11
47.9840200501
 21
-71.6281610248
 31
0.0
  0
LINE
  5
2B5
  8
0
  6
CONTINUOUS
 62
     7
 10
135.5840187626
 20
-76.2106570122
 30
0.0
 11
135.5840187626
 21
-71.6281610248
 31
0.0
  0
LINE
  5
2B6
  8
0
  6
CONTINUOUS
 62
     7
 10
47.9840200501
 20
-76.2106570122
 30
0.0
 11
47.9840200501
 21
-71.6281610248
 31
0.0
  0
LINE
  5
2B7
  8
0
  6
CONTINUOUS
 62
     7
 10
47.9840200501
 20
-81.6162096975
 30
0.0
 11
47.8840153771
 21
-81.6162096975
 31
0.0
  0
LINE
  5
2B8
  8
0
  6
CONTINUOUS
 62
     7
 10
47.8840153771
 20
-71.6194455219
 30
0.0
 11
47.8840153771
 21
-75.9983340917
 31
0.0
  0
LINE
  5
2B9
  8
0
  6
CONTINUOUS
 62
     7
 10
135.6840174751
 20
-71.6194455219
 30
0.0
 11
47.8840153771
 21
-71.6194455219
 31
0.0
  0
LINE
  5
2BA
  8
0
  6
CONTINUOUS
 62
     7
 10
135.6840174751
 20
-71.6194455219
 30
0.0
 11
135.6840174751
 21
-71.6312565548
 31
0.0
  0
LINE
  5
2BB
  8
0
  6
CONTINUOUS
 62
     7
 10
135.6840174751
 20
-81.6162096975
 30
0.0
 11
135.5840187626
 21
-81.6162096975
 31
0.0
  0
LINE
  5
2BC
  8
0
  6
CONTINUOUS
 62
     7
 10
135.6840174751
 20
-68.9962091563
 30
0.0
 11
47.8840153771
 21
-68.9962091563
 31
0.0
  0
LINE
  5
2BD
  8
0
  6
CONTINUOUS
 62
     7
 10
47.8840153771
 20
-68.9962091563
 30
0.0
 11
47.8840153771
 21
-71.6194455219
 31
0.0
  0
LINE
  5
2BE
  8
0
  6
CONTINUOUS
 62
     7
 10
135.6840174751
 20
-68.9962091563
 30
0.0
 11
135.6840174751
 21
-71.6194455219
 31
0.0
  0
LINE
  5
2BF
  8
0
  6
CONTINUOUS
 62
     7
 10
135.6840174751
 20
-89.7727313159
 30
0.0
 11
135.6840174751
 21
-89.3649133561
 31
0.0
  0
LINE
  5
2C0
  8
0
  6
CONTINUOUS
 62
     7
 10
47.8840153771
 20
-89.3649133561
 30
0.0
 11
47.8840153771
 21
-89.7727313159
 31
0.0
  0
LINE
  5
2C1
  8
0
  6
CONTINUOUS
 62
     7
 10
47.8840153771
 20
-89.3649133561
 30
0.0
 11
47.8840153771
 21
-75.9983340917
 31
0.0
  0
LINE
  5
2C2
  8
0
  6
CONTINUOUS
 62
     7
 10
47.0840137558
 20
-69.0310714532
 30
0.0
 11
47.0840137558
 21
-68.9962091563
 31
0.0
  0
LINE
  5
2C3
  8
0
  6
CONTINUOUS
 62
     7
 10
47.0840137558
 20
-68.9962091563
 30
0.0
 11
47.8840153771
 21
-68.9962091563
 31
0.0
  0
LINE
  5
2C4
  8
0
  6
CONTINUOUS
 62
     7
 10
136.4840190964
 20
-68.9962091563
 30
0.0
 11
136.4840190964
 21
-69.7570169517
 31
0.0
  0
LINE
  5
2C5
  8
0
  6
CONTINUOUS
 62
     7
 10
135.6840174751
 20
-81.2214891133
 30
0.0
 11
135.6840174751
 21
-89.3649133561
 31
0.0
  0
LINE
  5
2C6
  8
0
  6
CONTINUOUS
 62
     7
 10
136.4840190964
 20
-68.9962091563
 30
0.0
 11
135.6840174751
 21
-68.9962091563
 31
0.0
  0
LINE
  5
2C7
  8
0
  6
CONTINUOUS
 62
     7
 10
47.8840153771
 20
-96.6978582261
 30
0.0
 11
47.8840153771
 21
-89.7727313159
 31
0.0
  0
LINE
  5
2C8
  8
0
  6
CONTINUOUS
 62
     7
 10
135.6840174751
 20
-89.7727313159
 30
0.0
 11
135.6840174751
 21
-96.6978582261
 31
0.0
  0
LINE
  5
2C9
  8
0
  6
CONTINUOUS
 62
     7
 10
135.6840174751
 20
-97.1567216037
 30
0.0
 11
135.6840174751
 21
-96.6978582261
 31
0.0
  0
LINE
  5
2CA
  8
0
  6
CONTINUOUS
 62
     7
 10
47.8840153771
 20
-96.6978582261
 30
0.0
 11
47.8840153771
 21
-97.1567216037
 31
0.0
  0
LINE
  5
2CB
  8
0
  6
CONTINUOUS
 62
     7
 10
145.7840185719
 20
-68.9962091563
 30
0.0
 11
145.7840185719
 21
-69.7570169517
 31
0.0
  0
LINE
  5
2CC
  8
0
  6
CONTINUOUS
 62
     7
 10
143.7840145187
 20
-68.9962091563
 30
0.0
 11
145.7840185719
 21
-68.9962091563
 31
0.0
  0
LINE
  5
2CD
  8
0
  6
CONTINUOUS
 62
     7
 10
136.4840190964
 20
-68.9962091563
 30
0.0
 11
143.7840145187
 21
-68.9962091563
 31
0.0
  0
LINE
  5
2CE
  8
0
  6
CONTINUOUS
 62
     7
 10
46.6840189056
 20
-68.9962091563
 30
0.0
 11
47.0840137558
 21
-68.9962091563
 31
0.0
  0
LINE
  5
2CF
  8
0
  6
CONTINUOUS
 62
     7
 10
135.6840174751
 20
-97.1567216037
 30
0.0
 11
135.6840174751
 21
-104.2394372342
 31
0.0
  0
LINE
  5
2D0
  8
0
  6
CONTINUOUS
 62
     7
 10
47.8840153771
 20
-104.2394372342
 30
0.0
 11
47.8840153771
 21
-97.1567216037
 31
0.0
  0
LINE
  5
2D1
  8
0
  6
CONTINUOUS
 62
     7
 10
145.7840185719
 20
-68.9962091563
 30
0.0
 11
147.7840166645
 21
-68.9962091563
 31
0.0
  0
LINE
  5
2D2
  8
0
  6
CONTINUOUS
 62
     7
 10
135.6840174751
 20
-104.2424830315
 30
0.0
 11
135.6840174751
 21
-104.2394372342
 31
0.0
  0
LINE
  5
2D3
  8
0
  6
CONTINUOUS
 62
     7
 10
47.8840153771
 20
-104.2394372342
 30
0.0
 11
47.8840153771
 21
-104.2424830315
 31
0.0
  0
ARC
  5
2D4
  8
0
  6
CONTINUOUS
 62
     7
 10
357.3718496042
 20
-76.1751040267
 30
0.0
 40
2.21244982959886
 50
275.5029175303
 51
359.0792452445
  0
LINE
  5
2D5
  8
0
  6
CONTINUOUS
 62
     7
 10
359.5840137558
 20
-76.2106570122
 30
0.0
 11
359.5840137558
 21
-86.0592561481
 31
0.0
  0
ARC
  5
2D6
  8
0
  6
CONTINUOUS
 62
     7
 10
357.7766952741
 20
-86.0801931802
 30
0.0
 40
1.807439751004297
 50
263.8804344564
 51
0.6637180602
  0
ARC
  5
2D7
  8
0
  6
CONTINUOUS
 62
     7
 10
274.1968670871
 20
-76.1744684742
 30
0.0
 40
2.213147934081818
 50
180.9369201549
 51
264.4810872792
  0
LINE
  5
2D8
  8
0
  6
CONTINUOUS
 62
     7
 10
271.9840150433
 20
-86.0592561481
 30
0.0
 11
271.9840150433
 21
-76.2106570122
 31
0.0
  0
ARC
  5
2D9
  8
0
  6
CONTINUOUS
 62
     7
 10
273.7919102531
 20
-86.0795593732
 30
0.0
 40
1.808009212036601
 50
179.3565776392
 51
276.0994398253
  0
LINE
  5
2DA
  8
0
  6
CONTINUOUS
 62
     7
 10
359.5840137558
 20
-71.6281610248
 30
0.0
 11
271.9840150433
 21
-71.6281610248
 31
0.0
  0
LINE
  5
2DB
  8
0
  6
CONTINUOUS
 62
     7
 10
359.5840137558
 20
-76.2106570122
 30
0.0
 11
359.5840137558
 21
-71.6281610248
 31
0.0
  0
LINE
  5
2DC
  8
0
  6
CONTINUOUS
 62
     7
 10
271.9840150433
 20
-76.2106570122
 30
0.0
 11
271.9840150433
 21
-71.6281610248
 31
0.0
  0
LINE
  5
2DD
  8
0
  6
CONTINUOUS
 62
     7
 10
271.9840150433
 20
-81.6162096975
 30
0.0
 11
271.8840163307
 21
-81.6162096975
 31
0.0
  0
LINE
  5
2DE
  8
0
  6
CONTINUOUS
 62
     7
 10
271.8840163307
 20
-71.6194455219
 30
0.0
 11
271.8840163307
 21
-75.9983340917
 31
0.0
  0
LINE
  5
2DF
  8
0
  6
CONTINUOUS
 62
     7
 10
359.6840184288
 20
-71.6194455219
 30
0.0
 11
271.8840163307
 21
-71.6194455219
 31
0.0
  0
LINE
  5
2E0
  8
0
  6
CONTINUOUS
 62
     7
 10
359.6840184288
 20
-71.6194455219
 30
0.0
 11
359.6840184288
 21
-75.9983340917
 31
0.0
  0
LINE
  5
2E1
  8
0
  6
CONTINUOUS
 62
     7
 10
359.6840184288
 20
-81.6162096975
 30
0.0
 11
359.5840137558
 21
-81.6162096975
 31
0.0
  0
LINE
  5
2E2
  8
0
  6
CONTINUOUS
 62
     7
 10
359.6840184288
 20
-68.9962091563
 30
0.0
 11
271.8840163307
 21
-68.9962091563
 31
0.0
  0
LINE
  5
2E3
  8
0
  6
CONTINUOUS
 62
     7
 10
271.8840163307
 20
-68.9962091563
 30
0.0
 11
271.8840163307
 21
-71.6194455219
 31
0.0
  0
LINE
  5
2E4
  8
0
  6
CONTINUOUS
 62
     7
 10
359.6840184288
 20
-68.9962091563
 30
0.0
 11
359.6840184288
 21
-71.6194455219
 31
0.0
  0
LINE
  5
2E5
  8
0
  6
CONTINUOUS
 62
     7
 10
359.6840184288
 20
-89.7727313159
 30
0.0
 11
359.6840184288
 21
-89.3649133561
 31
0.0
  0
LINE
  5
2E6
  8
0
  6
CONTINUOUS
 62
     7
 10
271.0840147095
 20
-89.7727313159
 30
0.0
 11
271.0840147095
 21
-89.3649133561
 31
0.0
  0
LINE
  5
2E7
  8
0
  6
CONTINUOUS
 62
     7
 10
271.8840163307
 20
-89.3649133561
 30
0.0
 11
271.8840163307
 21
-89.7727313159
 31
0.0
  0
LINE
  5
2E8
  8
0
  6
CONTINUOUS
 62
     7
 10
271.0840147095
 20
-89.3649133561
 30
0.0
 11
271.0840147095
 21
-81.3563990114
 31
0.0
  0
LINE
  5
2E9
  8
0
  6
CONTINUOUS
 62
     7
 10
271.0840147095
 20
-69.7570169517
 30
0.0
 11
271.0840147095
 21
-68.9962091563
 31
0.0
  0
LINE
  5
2EA
  8
0
  6
CONTINUOUS
 62
     7
 10
271.8840163307
 20
-89.3649133561
 30
0.0
 11
271.8840163307
 21
-75.9983340917
 31
0.0
  0
LINE
  5
2EB
  8
0
  6
CONTINUOUS
 62
     7
 10
271.0840147095
 20
-68.9962091563
 30
0.0
 11
271.8840163307
 21
-68.9962091563
 31
0.0
  0
LINE
  5
2EC
  8
0
  6
CONTINUOUS
 62
     7
 10
359.6840184288
 20
-75.9983340917
 30
0.0
 11
359.6840184288
 21
-89.3649133561
 31
0.0
  0
LINE
  5
2ED
  8
0
  6
CONTINUOUS
 62
     7
 10
360.4840200501
 20
-68.9962091563
 30
0.0
 11
360.4840200501
 21
-69.0310714532
 31
0.0
  0
LINE
  5
2EE
  8
0
  6
CONTINUOUS
 62
     7
 10
360.4840200501
 20
-68.9962091563
 30
0.0
 11
359.6840184288
 21
-68.9962091563
 31
0.0
  0
LINE
  5
2EF
  8
0
  6
CONTINUOUS
 62
     7
 10
359.6840184288
 20
-89.7727313159
 30
0.0
 11
359.6840184288
 21
-96.6978582261
 31
0.0
  0
LINE
  5
2F0
  8
0
  6
CONTINUOUS
 62
     7
 10
271.0840147095
 20
-96.6978582261
 30
0.0
 11
271.0840147095
 21
-89.7727313159
 31
0.0
  0
LINE
  5
2F1
  8
0
  6
CONTINUOUS
 62
     7
 10
271.8840163307
 20
-96.6978582261
 30
0.0
 11
271.8840163307
 21
-89.7727313159
 31
0.0
  0
LINE
  5
2F2
  8
0
  6
CONTINUOUS
 62
     7
 10
271.0840147095
 20
-97.1567216037
 30
0.0
 11
271.0840147095
 21
-96.6978582261
 31
0.0
  0
LINE
  5
2F3
  8
0
  6
CONTINUOUS
 62
     7
 10
271.8840163307
 20
-96.6978582261
 30
0.0
 11
271.8840163307
 21
-97.1567216037
 31
0.0
  0
LINE
  5
2F4
  8
0
  6
CONTINUOUS
 62
     7
 10
359.6840184288
 20
-97.1567216037
 30
0.0
 11
359.6840184288
 21
-96.6978582261
 31
0.0
  0
LINE
  5
2F5
  8
0
  6
CONTINUOUS
 62
     7
 10
360.4840200501
 20
-68.9962091563
 30
0.0
 11
360.8840149002
 21
-68.9962091563
 31
0.0
  0
LINE
  5
2F6
  8
0
  6
CONTINUOUS
 62
     7
 10
263.7840192871
 20
-68.9962091563
 30
0.0
 11
271.0840147095
 21
-68.9962091563
 31
0.0
  0
LINE
  5
2F7
  8
0
  6
CONTINUOUS
 62
     7
 10
261.784015234
 20
-69.7570169517
 30
0.0
 11
261.784015234
 21
-68.9962091563
 31
0.0
  0
LINE
  5
2F8
  8
0
  6
CONTINUOUS
 62
     7
 10
261.784015234
 20
-68.9962091563
 30
0.0
 11
263.7840192871
 21
-68.9962091563
 31
0.0
  0
LINE
  5
2F9
  8
0
  6
CONTINUOUS
 62
     7
 10
359.6840184288
 20
-97.1567216037
 30
0.0
 11
359.6840184288
 21
-104.2394372342
 31
0.0
  0
LINE
  5
2FA
  8
0
  6
CONTINUOUS
 62
     7
 10
271.0840147095
 20
-104.2394372342
 30
0.0
 11
271.0840147095
 21
-97.1567216037
 31
0.0
  0
LINE
  5
2FB
  8
0
  6
CONTINUOUS
 62
     7
 10
271.8840163307
 20
-104.2394372342
 30
0.0
 11
271.8840163307
 21
-97.1567216037
 31
0.0
  0
LINE
  5
2FC
  8
0
  6
CONTINUOUS
 62
     7
 10
259.7840171414
 20
-68.9962091563
 30
0.0
 11
261.784015234
 21
-68.9962091563
 31
0.0
  0
LINE
  5
2FD
  8
0
  6
CONTINUOUS
 62
     7
 10
271.0840147095
 20
-93.5962098358
 30
0.0
 11
270.6840198593
 21
-93.5962098358
 31
0.0
  0
LINE
  5
2FE
  8
0
  6
CONTINUOUS
 62
     7
 10
270.6840198593
 20
-92.7962097047
 30
0.0
 11
271.0840147095
 21
-92.7962097047
 31
0.0
  0
LINE
  5
2FF
  8
0
  6
CONTINUOUS
 62
     7
 10
271.0840147095
 20
-104.2424830315
 30
0.0
 11
271.0840147095
 21
-104.2394372342
 31
0.0
  0
LINE
  5
300
  8
0
  6
CONTINUOUS
 62
     7
 10
271.8840163307
 20
-104.2394372342
 30
0.0
 11
271.8840163307
 21
-104.2424830315
 31
0.0
  0
LINE
  5
301
  8
0
  6
CONTINUOUS
 62
     7
 10
359.6840184288
 20
-104.2424830315
 30
0.0
 11
359.6840184288
 21
-104.2394372342
 31
0.0
  0
ARC
  5
302
  8
0
  6
CONTINUOUS
 62
     7
 10
830.0953819502
 20
253.2104316191
 30
0.0
 40
0.4000000000000057
 50
90.0
 51
180.0
  0
LINE
  5
303
  8
0
  6
CONTINUOUS
 62
     7
 10
853.2953792799
 20
253.6104320319
 30
0.0
 11
830.0953829277
 21
253.6104320319
 31
0.0
  0
ARC
  5
304
  8
0
  6
CONTINUOUS
 62
     7
 10
853.2953819502
 20
253.2104316191
 30
0.0
 40
0.4000000000000909
 50
0.0
 51
90.0
  0
ARC
  5
305
  8
0
  6
CONTINUOUS
 62
     7
 10
718.0953819502
 20
253.2104316191
 30
0.0
 40
0.4000000000000909
 50
90.0
 51
180.0
  0
LINE
  5
306
  8
0
  6
CONTINUOUS
 62
     7
 10
741.2953817833
 20
253.6104320319
 30
0.0
 11
718.0953794706
 21
253.6104320319
 31
0.0
  0
ARC
  5
307
  8
0
  6
CONTINUOUS
 62
     7
 10
741.2953819502
 20
253.2104316191
 30
0.0
 40
0.4000000000000057
 50
0.0
 51
90.0
  0
ARC
  5
308
  8
0
  6
CONTINUOUS
 62
     7
 10
617.4953819502
 20
204.7014308656
 30
0.0
 40
0.4000000000000909
 50
90.0
 51
180.0
  0
LINE
  5
309
  8
0
  6
CONTINUOUS
 62
     7
 10
628.3953839529
 20
205.1014303
 30
0.0
 11
617.4953871954
 21
205.1014303
 31
0.0
  0
ARC
  5
30A
  8
0
  6
CONTINUOUS
 62
     7
 10
628.3953819502
 20
204.7014308656
 30
0.0
 40
0.4000000000000057
 50
0.0
 51
90.0
  0
ARC
  5
30B
  8
0
  6
CONTINUOUS
 62
     7
 10
942.5953819502
 20
204.7014308656
 30
0.0
 40
0.4000000000000057
 50
90.0
 51
180.0
  0
LINE
  5
30C
  8
0
  6
CONTINUOUS
 62
     7
 10
953.4953767049
 20
205.1014303
 30
0.0
 11
942.5953799474
 21
205.1014303
 31
0.0
  0
ARC
  5
30D
  8
0
  6
CONTINUOUS
 62
     7
 10
953.4953819502
 20
204.7014308656
 30
0.0
 40
0.4000000000000057
 50
0.0
 51
90.0
  0
LINE
  5
30E
  8
0
  6
CONTINUOUS
 62
     7
 10
630.6953841436
 20
138.1052969725
 30
0.0
 11
629.6953850973
 21
138.1052969725
 31
0.0
  0
LINE
  5
30F
  8
0
  6
CONTINUOUS
 62
     7
 10
629.6953850973
 20
133.3052932055
 30
0.0
 11
630.6953841436
 21
133.3052932055
 31
0.0
  0
LINE
  5
310
  8
0
  6
CONTINUOUS
 62
     7
 10
717.2953838098
 20
138.1052969725
 30
0.0
 11
716.2953847635
 21
138.1052969725
 31
0.0
  0
LINE
  5
311
  8
0
  6
CONTINUOUS
 62
     7
 10
716.2953847635
 20
133.3052932055
 30
0.0
 11
717.2953838098
 21
133.3052932055
 31
0.0
  0
LINE
  5
312
  8
0
  6
CONTINUOUS
 62
     7
 10
742.6045143592
 20
131.2308071883
 30
0.0
 11
828.3862495411
 21
131.2308071883
 31
0.0
  0
LINE
  5
313
  8
0
  6
CONTINUOUS
 62
     7
 10
742.5953829277
 20
138.1052969725
 30
0.0
 11
741.6953825939
 21
138.1052969725
 31
0.0
  0
LINE
  5
314
  8
0
  6
CONTINUOUS
 62
     7
 10
741.6953825939
 20
133.3052932055
 30
0.0
 11
742.5953829277
 21
133.3052932055
 31
0.0
  0
LINE
  5
315
  8
0
  6
CONTINUOUS
 62
     7
 10
829.2953813064
 20
138.1052969725
 30
0.0
 11
828.3953809726
 21
138.1052969725
 31
0.0
  0
LINE
  5
316
  8
0
  6
CONTINUOUS
 62
     7
 10
828.3953809726
 20
133.3052932055
 30
0.0
 11
829.2953813064
 21
133.3052932055
 31
0.0
  0
LINE
  5
317
  8
0
  6
CONTINUOUS
 62
     7
 10
854.6045118559
 20
131.2308071883
 30
0.0
 11
940.3862529981
 21
131.2308071883
 31
0.0
  0
LINE
  5
318
  8
0
  6
CONTINUOUS
 62
     7
 10
854.5953804243
 20
138.1052969725
 30
0.0
 11
853.6953800905
 21
138.1052969725
 31
0.0
  0
LINE
  5
319
  8
0
  6
CONTINUOUS
 62
     7
 10
853.6953800905
 20
133.3052932055
 30
0.0
 11
854.5953804243
 21
133.3052932055
 31
0.0
  0
LINE
  5
31A
  8
0
  6
CONTINUOUS
 62
     7
 10
941.295378803
 20
138.1052969725
 30
0.0
 11
940.3953844297
 21
138.1052969725
 31
0.0
  0
LINE
  5
31B
  8
0
  6
CONTINUOUS
 62
     7
 10
940.3953844297
 20
133.3052932055
 30
0.0
 11
941.295378803
 21
133.3052932055
 31
0.0
  0
LINE
  5
31C
  8
0
  6
CONTINUOUS
 62
     7
 10
829.2877727735
 20
253.4777282507
 30
0.0
 11
741.7029911268
 21
253.4777282507
 31
0.0
  0
LINE
  5
31D
  8
0
  6
CONTINUOUS
 62
     7
 10
741.4953821886
 20
204.2903660567
 30
0.0
 11
740.7953822601
 21
204.2903660567
 31
0.0
  0
LINE
  5
31E
  8
0
  6
CONTINUOUS
 62
     7
 10
830.1953816402
 20
204.2903660567
 30
0.0
 11
829.8953825224
 21
204.2903660567
 31
0.0
  0
LINE
  5
31F
  8
0
  6
CONTINUOUS
 62
     7
 10
829.695382117
 20
204.2903660567
 30
0.0
 11
829.3953829992
 21
204.2903660567
 31
0.0
  0
LINE
  5
320
  8
0
  6
CONTINUOUS
 62
     7
 10
741.5953809011
 20
134.5052956374
 30
0.0
 11
741.6953825939
 21
134.5052956374
 31
0.0
  0
LINE
  5
321
  8
0
  6
CONTINUOUS
 62
     7
 10
829.2953813064
 20
134.5052956374
 30
0.0
 11
829.3953829992
 21
134.5052956374
 31
0.0
  0
LINE
  5
322
  8
0
  6
CONTINUOUS
 62
     7
 10
829.3953829992
 20
136.9052945406
 30
0.0
 11
829.2953813064
 21
136.9052945406
 31
0.0
  0
LINE
  5
323
  8
0
  6
CONTINUOUS
 62
     7
 10
741.6953825939
 20
136.9052945406
 30
0.0
 11
741.5953809011
 21
136.9052945406
 31
0.0
  0
LINE
  5
324
  8
0
  6
CONTINUOUS
 62
     7
 10
941.2877732504
 20
253.4777282507
 30
0.0
 11
853.7029916036
 21
253.4777282507
 31
0.0
  0
LINE
  5
325
  8
0
  6
CONTINUOUS
 62
     7
 10
853.4953826654
 20
204.2903660567
 30
0.0
 11
852.7953797567
 21
204.2903660567
 31
0.0
  0
LINE
  5
326
  8
0
  6
CONTINUOUS
 62
     7
 10
942.1953850973
 20
204.2903660567
 30
0.0
 11
941.395383476
 21
204.2903660567
 31
0.0
  0
LINE
  5
327
  8
0
  6
CONTINUOUS
 62
     7
 10
853.5953813779
 20
134.5052956374
 30
0.0
 11
853.6953800905
 21
134.5052956374
 31
0.0
  0
LINE
  5
328
  8
0
  6
CONTINUOUS
 62
     7
 10
941.295378803
 20
134.5052956374
 30
0.0
 11
941.395383476
 21
134.5052956374
 31
0.0
  0
LINE
  5
329
  8
0
  6
CONTINUOUS
 62
     7
 10
941.395383476
 20
136.9052945406
 30
0.0
 11
941.295378803
 21
136.9052945406
 31
0.0
  0
LINE
  5
32A
  8
0
  6
CONTINUOUS
 62
     7
 10
853.6953800905
 20
136.9052945406
 30
0.0
 11
853.5953813779
 21
136.9052945406
 31
0.0
  0
LINE
  5
32B
  8
0
  6
CONTINUOUS
 62
     7
 10
717.2877722967
 20
253.4777282507
 30
0.0
 11
629.7029906499
 21
253.4777282507
 31
0.0
  0
LINE
  5
32C
  8
0
  6
CONTINUOUS
 62
     7
 10
629.5953804243
 20
204.2903660567
 30
0.0
 11
628.795378803
 21
204.2903660567
 31
0.0
  0
LINE
  5
32D
  8
0
  6
CONTINUOUS
 62
     7
 10
718.1953841436
 20
204.2903660567
 30
0.0
 11
717.8953820455
 21
204.2903660567
 31
0.0
  0
LINE
  5
32E
  8
0
  6
CONTINUOUS
 62
     7
 10
717.6953846204
 20
204.2903660567
 30
0.0
 11
717.3953825224
 21
204.2903660567
 31
0.0
  0
LINE
  5
32F
  8
0
  6
CONTINUOUS
 62
     7
 10
629.5953804243
 20
134.5052956374
 30
0.0
 11
629.6953850973
 21
134.5052956374
 31
0.0
  0
LINE
  5
330
  8
0
  6
CONTINUOUS
 62
     7
 10
717.2953838098
 20
134.5052956374
 30
0.0
 11
717.3953825224
 21
134.5052956374
 31
0.0
  0
LINE
  5
331
  8
0
  6
CONTINUOUS
 62
     7
 10
717.3953825224
 20
136.9052945406
 30
0.0
 11
717.2953838098
 21
136.9052945406
 31
0.0
  0
LINE
  5
332
  8
0
  6
CONTINUOUS
 62
     7
 10
629.6953850973
 20
136.9052945406
 30
0.0
 11
629.5953804243
 21
136.9052945406
 31
0.0
  0
LINE
  5
333
  8
0
  6
CONTINUOUS
 62
     7
 10
731.4953798044
 20
117.5052939684
 30
0.0
 11
731.4953798044
 21
113.7052952082
 31
0.0
  0
LINE
  5
334
  8
0
  6
CONTINUOUS
 62
     7
 10
729.6953791368
 20
113.7052952082
 30
0.0
 11
731.4953798044
 21
113.7052952082
 31
0.0
  0
LINE
  5
335
  8
0
  6
CONTINUOUS
 62
     7
 10
729.6953791368
 20
113.7052952082
 30
0.0
 11
729.6953791368
 21
55.9052943022
 31
0.0
  0
ARC
  5
336
  8
0
  6
CONTINUOUS
 62
     7
 10
729.8953819502
 20
117.1052943022
 30
0.0
 40
0.4000000000000057
 50
90.0
 51
180.0
  0
LINE
  5
337
  8
0
  6
CONTINUOUS
 62
     7
 10
729.8953825224
 20
117.5052939684
 30
0.0
 11
731.4953798044
 21
117.5052939684
 31
0.0
  0
LINE
  5
338
  8
0
  6
CONTINUOUS
 62
     7
 10
729.4953817117
 20
117.1052931578
 30
0.0
 11
729.4953817117
 21
55.9052943022
 31
0.0
  0
LINE
  5
339
  8
0
  6
CONTINUOUS
 62
     7
 10
729.4953817117
 20
55.9052943022
 30
0.0
 11
729.6953791368
 21
55.9052943022
 31
0.0
  0
LINE
  5
33A
  8
0
  6
CONTINUOUS
 62
     7
 10
741.5953809011
 20
113.7052952082
 30
0.0
 11
741.5953809011
 21
119.9052928717
 31
0.0
  0
LINE
  5
33B
  8
0
  6
CONTINUOUS
 62
     7
 10
741.5953809011
 20
119.9052928717
 30
0.0
 11
829.3953829992
 21
119.9052928717
 31
0.0
  0
LINE
  5
33C
  8
0
  6
CONTINUOUS
 62
     7
 10
829.3953829992
 20
113.7052952082
 30
0.0
 11
829.3953829992
 21
119.9052928717
 31
0.0
  0
LINE
  5
33D
  8
0
  6
CONTINUOUS
 62
     7
 10
741.5953809011
 20
113.7052952082
 30
0.0
 11
829.3953829992
 21
113.7052952082
 31
0.0
  0
LINE
  5
33E
  8
0
  6
CONTINUOUS
 62
     7
 10
841.2953847635
 20
113.7052952082
 30
0.0
 11
841.2953847635
 21
55.9052943022
 31
0.0
  0
LINE
  5
33F
  8
0
  6
CONTINUOUS
 62
     7
 10
839.4953840959
 20
117.5052939684
 30
0.0
 11
839.4953840959
 21
113.7052952082
 31
0.0
  0
ARC
  5
340
  8
0
  6
CONTINUOUS
 62
     7
 10
841.0953819502
 20
117.1052943022
 30
0.0
 40
0.4000000000000909
 50
0.0
 51
90.0
  0
LINE
  5
341
  8
0
  6
CONTINUOUS
 62
     7
 10
841.4953821886
 20
117.1052931578
 30
0.0
 11
841.4953821886
 21
55.9052943022
 31
0.0
  0
LINE
  5
342
  8
0
  6
CONTINUOUS
 62
     7
 10
839.4953840959
 20
117.5052939684
 30
0.0
 11
841.0953813779
 21
117.5052939684
 31
0.0
  0
LINE
  5
343
  8
0
  6
CONTINUOUS
 62
     7
 10
839.4953840959
 20
113.7052952082
 30
0.0
 11
841.2953847635
 21
113.7052952082
 31
0.0
  0
LINE
  5
344
  8
0
  6
CONTINUOUS
 62
     7
 10
841.2953847635
 20
55.9052943022
 30
0.0
 11
841.4953821886
 21
55.9052943022
 31
0.0
  0
LINE
  5
345
  8
0
  6
CONTINUOUS
 62
     7
 10
841.2953847635
 20
55.9052943022
 30
0.0
 11
839.4953840959
 21
55.9052943022
 31
0.0
  0
LINE
  5
346
  8
0
  6
CONTINUOUS
 62
     7
 10
822.495382427
 20
55.9052943022
 30
0.0
 11
748.4953814733
 21
55.9052943022
 31
0.0
  0
LINE
  5
347
  8
0
  6
CONTINUOUS
 62
     7
 10
731.4953798044
 20
55.9052943022
 30
0.0
 11
729.6953791368
 21
55.9052943022
 31
0.0
  0
LINE
  5
348
  8
0
  6
CONTINUOUS
 62
     7
 10
843.4953802812
 20
117.5052939684
 30
0.0
 11
843.4953802812
 21
113.7052952082
 31
0.0
  0
LINE
  5
349
  8
0
  6
CONTINUOUS
 62
     7
 10
841.6953796136
 20
113.7052952082
 30
0.0
 11
843.4953802812
 21
113.7052952082
 31
0.0
  0
LINE
  5
34A
  8
0
  6
CONTINUOUS
 62
     7
 10
841.6953796136
 20
113.7052952082
 30
0.0
 11
841.6953796136
 21
55.9052943022
 31
0.0
  0
ARC
  5
34B
  8
0
  6
CONTINUOUS
 62
     7
 10
841.8953819502
 20
117.1052943022
 30
0.0
 40
0.4000000000000057
 50
90.0
 51
180.0
  0
LINE
  5
34C
  8
0
  6
CONTINUOUS
 62
     7
 10
841.8953829992
 20
117.5052939684
 30
0.0
 11
843.4953802812
 21
117.5052939684
 31
0.0
  0
LINE
  5
34D
  8
0
  6
CONTINUOUS
 62
     7
 10
841.4953821886
 20
55.9052943022
 30
0.0
 11
841.6953796136
 21
55.9052943022
 31
0.0
  0
LINE
  5
34E
  8
0
  6
CONTINUOUS
 62
     7
 10
853.5953813779
 20
119.9052928717
 30
0.0
 11
941.395383476
 21
119.9052928717
 31
0.0
  0
LINE
  5
34F
  8
0
  6
CONTINUOUS
 62
     7
 10
941.395383476
 20
113.7052952082
 30
0.0
 11
941.395383476
 21
119.9052928717
 31
0.0
  0
LINE
  5
350
  8
0
  6
CONTINUOUS
 62
     7
 10
853.5953813779
 20
113.7052952082
 30
0.0
 11
853.5953813779
 21
119.9052928717
 31
0.0
  0
LINE
  5
351
  8
0
  6
CONTINUOUS
 62
     7
 10
853.5953813779
 20
113.7052952082
 30
0.0
 11
941.395383476
 21
113.7052952082
 31
0.0
  0
LINE
  5
352
  8
0
  6
CONTINUOUS
 62
     7
 10
953.2953792799
 20
113.7052952082
 30
0.0
 11
953.2953792799
 21
55.9052943022
 31
0.0
  0
LINE
  5
353
  8
0
  6
CONTINUOUS
 62
     7
 10
951.4953786123
 20
117.5052939684
 30
0.0
 11
951.4953786123
 21
113.7052952082
 31
0.0
  0
ARC
  5
354
  8
0
  6
CONTINUOUS
 62
     7
 10
953.0953819502
 20
117.1052943022
 30
0.0
 40
0.4000000000000057
 50
0.0
 51
90.0
  0
LINE
  5
355
  8
0
  6
CONTINUOUS
 62
     7
 10
953.4953767049
 20
117.1052931578
 30
0.0
 11
953.4953767049
 21
55.9052943022
 31
0.0
  0
LINE
  5
356
  8
0
  6
CONTINUOUS
 62
     7
 10
951.4953786123
 20
117.5052939684
 30
0.0
 11
953.0953818548
 21
117.5052939684
 31
0.0
  0
LINE
  5
357
  8
0
  6
CONTINUOUS
 62
     7
 10
951.4953786123
 20
113.7052952082
 30
0.0
 11
953.2953792799
 21
113.7052952082
 31
0.0
  0
LINE
  5
358
  8
0
  6
CONTINUOUS
 62
     7
 10
953.2953792799
 20
55.9052943022
 30
0.0
 11
953.4953767049
 21
55.9052943022
 31
0.0
  0
LINE
  5
359
  8
0
  6
CONTINUOUS
 62
     7
 10
953.2953792799
 20
55.9052943022
 30
0.0
 11
951.4953786123
 21
55.9052943022
 31
0.0
  0
LINE
  5
35A
  8
0
  6
CONTINUOUS
 62
     7
 10
934.4953829038
 20
55.9052943022
 30
0.0
 11
860.4953819502
 21
55.9052943022
 31
0.0
  0
LINE
  5
35B
  8
0
  6
CONTINUOUS
 62
     7
 10
843.4953802812
 20
55.9052943022
 30
0.0
 11
841.6953796136
 21
55.9052943022
 31
0.0
  0
LINE
  5
35C
  8
0
  6
CONTINUOUS
 62
     7
 10
619.495385288
 20
117.5052939684
 30
0.0
 11
619.495385288
 21
113.7052952082
 31
0.0
  0
LINE
  5
35D
  8
0
  6
CONTINUOUS
 62
     7
 10
617.6953846204
 20
113.7052952082
 30
0.0
 11
619.495385288
 21
113.7052952082
 31
0.0
  0
LINE
  5
35E
  8
0
  6
CONTINUOUS
 62
     7
 10
617.6953846204
 20
113.7052952082
 30
0.0
 11
617.6953846204
 21
55.9052943022
 31
0.0
  0
LINE
  5
35F
  8
0
  6
CONTINUOUS
 62
     7
 10
617.4953871954
 20
55.9052943022
 30
0.0
 11
617.6953846204
 21
55.9052943022
 31
0.0
  0
ARC
  5
360
  8
0
  6
CONTINUOUS
 62
     7
 10
617.8953819502
 20
117.1052943022
 30
0.0
 40
0.4000000000000057
 50
90.0
 51
180.0
  0
LINE
  5
361
  8
0
  6
CONTINUOUS
 62
     7
 10
617.8953820455
 20
117.5052939684
 30
0.0
 11
619.495385288
 21
117.5052939684
 31
0.0
  0
LINE
  5
362
  8
0
  6
CONTINUOUS
 62
     7
 10
617.4953871954
 20
117.1052931578
 30
0.0
 11
617.4953871954
 21
55.9052943022
 31
0.0
  0
LINE
  5
363
  8
0
  6
CONTINUOUS
 62
     7
 10
629.5953804243
 20
113.7052952082
 30
0.0
 11
629.5953804243
 21
119.9052928717
 31
0.0
  0
LINE
  5
364
  8
0
  6
CONTINUOUS
 62
     7
 10
629.5953804243
 20
119.9052928717
 30
0.0
 11
717.3953825224
 21
119.9052928717
 31
0.0
  0
LINE
  5
365
  8
0
  6
CONTINUOUS
 62
     7
 10
717.3953825224
 20
113.7052952082
 30
0.0
 11
717.3953825224
 21
119.9052928717
 31
0.0
  0
LINE
  5
366
  8
0
  6
CONTINUOUS
 62
     7
 10
629.5953804243
 20
113.7052952082
 30
0.0
 11
717.3953825224
 21
113.7052952082
 31
0.0
  0
LINE
  5
367
  8
0
  6
CONTINUOUS
 62
     7
 10
729.2953842867
 20
113.7052952082
 30
0.0
 11
729.2953842867
 21
55.9052943022
 31
0.0
  0
LINE
  5
368
  8
0
  6
CONTINUOUS
 62
     7
 10
727.4953836191
 20
117.5052939684
 30
0.0
 11
727.4953836191
 21
113.7052952082
 31
0.0
  0
ARC
  5
369
  8
0
  6
CONTINUOUS
 62
     7
 10
729.0953819502
 20
117.1052943022
 30
0.0
 40
0.4000000000000057
 50
0.0
 51
90.0
  0
LINE
  5
36A
  8
0
  6
CONTINUOUS
 62
     7
 10
727.4953836191
 20
117.5052939684
 30
0.0
 11
729.0953809011
 21
117.5052939684
 31
0.0
  0
LINE
  5
36B
  8
0
  6
CONTINUOUS
 62
     7
 10
727.4953836191
 20
113.7052952082
 30
0.0
 11
729.2953842867
 21
113.7052952082
 31
0.0
  0
LINE
  5
36C
  8
0
  6
CONTINUOUS
 62
     7
 10
729.2953842867
 20
55.9052943022
 30
0.0
 11
729.4953817117
 21
55.9052943022
 31
0.0
  0
LINE
  5
36D
  8
0
  6
CONTINUOUS
 62
     7
 10
729.2953842867
 20
55.9052943022
 30
0.0
 11
727.4953836191
 21
55.9052943022
 31
0.0
  0
LINE
  5
36E
  8
0
  6
CONTINUOUS
 62
     7
 10
710.4953819502
 20
55.9052943022
 30
0.0
 11
636.4953809965
 21
55.9052943022
 31
0.0
  0
LINE
  5
36F
  8
0
  6
CONTINUOUS
 62
     7
 10
619.495385288
 20
55.9052943022
 30
0.0
 11
617.6953846204
 21
55.9052943022
 31
0.0
  0
LINE
  5
370
  8
0
  6
CONTINUOUS
 62
     7
 10
843.4953802812
 20
118.1052922041
 30
0.0
 11
839.4953840959
 21
118.1052922041
 31
0.0
  0
LINE
  5
371
  8
0
  6
CONTINUOUS
 62
     7
 10
839.4953840959
 20
117.9052947791
 30
0.0
 11
843.4953802812
 21
117.9052947791
 31
0.0
  0
LINE
  5
372
  8
0
  6
CONTINUOUS
 62
     7
 10
853.4953826654
 20
249.0210174353
 30
0.0
 11
853.5953813779
 21
249.0210174353
 31
0.0
  0
LINE
  5
373
  8
0
  6
CONTINUOUS
 62
     7
 10
853.4953826654
 20
249.0210174353
 30
0.0
 11
853.4953826654
 21
252.8065561087
 31
0.0
  0
LINE
  5
374
  8
0
  6
CONTINUOUS
 62
     7
 10
829.8953825224
 20
252.8065561087
 30
0.0
 11
853.4953826654
 21
252.8065561087
 31
0.0
  0
LINE
  5
375
  8
0
  6
CONTINUOUS
 62
     7
 10
829.8953825224
 20
252.8065561087
 30
0.0
 11
829.8953825224
 21
249.0210174353
 31
0.0
  0
LINE
  5
376
  8
0
  6
CONTINUOUS
 62
     7
 10
829.8953825224
 20
249.0210174353
 30
0.0
 11
829.695382117
 21
249.0210174353
 31
0.0
  0
LINE
  5
377
  8
0
  6
CONTINUOUS
 62
     7
 10
829.695382117
 20
252.6073097022
 30
0.0
 11
829.695382117
 21
249.0210174353
 31
0.0
  0
ARC
  5
378
  8
0
  6
CONTINUOUS
 62
     7
 10
830.0946146836
 20
252.6065580594
 30
0.0
 40
0.3992332741316749
 50
89.8897457398
 51
179.8921282682
  0
LINE
  5
379
  8
0
  6
CONTINUOUS
 62
     7
 10
830.0953829277
 20
253.0057905943
 30
0.0
 11
853.2953792799
 21
253.0057905943
 31
0.0
  0
ARC
  5
37A
  8
0
  6
CONTINUOUS
 62
     7
 10
853.2956156734
 20
252.6052992307
 30
0.0
 40
0.4004914334004343
 50
41.5398504515
 51
90.033819334
  0
LINE
  5
37B
  8
0
  6
CONTINUOUS
 62
     7
 10
829.695382117
 20
252.6073097022
 30
0.0
 11
829.695382117
 21
253.2104371817
 31
0.0
  0
LINE
  5
37C
  8
0
  6
CONTINUOUS
 62
     7
 10
829.8953825224
 20
204.0632127554
 30
0.0
 11
829.695382117
 21
204.0632127554
 31
0.0
  0
LINE
  5
37D
  8
0
  6
CONTINUOUS
 62
     7
 10
829.695382117
 20
204.0632127554
 30
0.0
 11
829.695382117
 21
249.0210174353
 31
0.0
  0
LINE
  5
37E
  8
0
  6
CONTINUOUS
 62
     7
 10
829.8953825224
 20
204.0632127554
 30
0.0
 11
829.8953825224
 21
249.0210174353
 31
0.0
  0
LINE
  5
37F
  8
0
  6
CONTINUOUS
 62
     7
 10
853.4953826654
 20
204.0632127554
 30
0.0
 11
853.5953813779
 21
204.0632127554
 31
0.0
  0
LINE
  5
380
  8
0
  6
CONTINUOUS
 62
     7
 10
853.4953826654
 20
204.0632127554
 30
0.0
 11
853.4953826654
 21
249.0210174353
 31
0.0
  0
LINE
  5
381
  8
0
  6
CONTINUOUS
 62
     7
 10
830.9953832615
 20
204.3944000037
 30
0.0
 11
852.3953849065
 21
204.3944000037
 31
0.0
  0
LINE
  5
382
  8
0
  6
CONTINUOUS
 62
     7
 10
829.8953825224
 20
204.3944000037
 30
0.0
 11
830.9953832615
 21
204.3944000037
 31
0.0
  0
LINE
  5
383
  8
0
  6
CONTINUOUS
 62
     7
 10
852.3953849065
 20
204.3944000037
 30
0.0
 11
853.4953826654
 21
204.3944000037
 31
0.0
  0
ARC
  5
384
  8
0
  6
CONTINUOUS
 62
     7
 10
830.994633761
 20
203.6639614054
 30
0.0
 40
0.3992520535343465
 50
89.8924407791
 51
179.889433229
  0
LINE
  5
385
  8
0
  6
CONTINUOUS
 62
     7
 10
830.5953824508
 20
203.6647318633
 30
0.0
 11
830.5953824508
 21
204.3944000037
 31
0.0
  0
ARC
  5
386
  8
0
  6
CONTINUOUS
 62
     7
 10
852.3961343783
 20
203.6639673485
 30
0.0
 40
0.3992461103838059
 50
0.1097155205
 51
90.1075566993
  0
LINE
  5
387
  8
0
  6
CONTINUOUS
 62
     7
 10
830.7953828561
 20
203.8639663489
 30
0.0
 11
852.5953823316
 21
203.8639663489
 31
0.0
  0
LINE
  5
388
  8
0
  6
CONTINUOUS
 62
     7
 10
830.9953832615
 20
204.0632127554
 30
0.0
 11
852.3953849065
 21
204.0632127554
 31
0.0
  0
LINE
  5
389
  8
0
  6
CONTINUOUS
 62
     7
 10
852.7953797567
 20
203.6647318633
 30
0.0
 11
852.7953797567
 21
203.2443164618
 31
0.0
  0
LINE
  5
38A
  8
0
  6
CONTINUOUS
 62
     7
 10
830.5953824508
 20
203.6647318633
 30
0.0
 11
830.5953824508
 21
200.5052922995
 31
0.0
  0
LINE
  5
38B
  8
0
  6
CONTINUOUS
 62
     7
 10
852.5953823316
 20
203.8639663489
 30
0.0
 11
852.5953823316
 21
200.5052922995
 31
0.0
  0
LINE
  5
38C
  8
0
  6
CONTINUOUS
 62
     7
 10
830.7953828561
 20
203.8639663489
 30
0.0
 11
830.7953828561
 21
200.5052922995
 31
0.0
  0
LINE
  5
38D
  8
0
  6
CONTINUOUS
 62
     7
 10
852.7953797567
 20
204.3944000037
 30
0.0
 11
852.7953797567
 21
203.6647318633
 31
0.0
  0
LINE
  5
38E
  8
0
  6
CONTINUOUS
 62
     7
 10
830.7953828561
 20
201.0726450713
 30
0.0
 11
852.5953823316
 21
201.0726450713
 31
0.0
  0
LINE
  5
38F
  8
0
  6
CONTINUOUS
 62
     7
 10
731.4953798044
 20
118.1052922041
 30
0.0
 11
727.4953836191
 21
118.1052922041
 31
0.0
  0
LINE
  5
390
  8
0
  6
CONTINUOUS
 62
     7
 10
727.4953836191
 20
117.9052947791
 30
0.0
 11
731.4953798044
 21
117.9052947791
 31
0.0
  0
LINE
  5
391
  8
0
  6
CONTINUOUS
 62
     7
 10
741.4953821886
 20
249.0210174353
 30
0.0
 11
741.5953809011
 21
249.0210174353
 31
0.0
  0
LINE
  5
392
  8
0
  6
CONTINUOUS
 62
     7
 10
741.4953821886
 20
249.0210174353
 30
0.0
 11
741.4953821886
 21
252.8065561087
 31
0.0
  0
LINE
  5
393
  8
0
  6
CONTINUOUS
 62
     7
 10
717.8953820455
 20
252.8065561087
 30
0.0
 11
741.4953821886
 21
252.8065561087
 31
0.0
  0
LINE
  5
394
  8
0
  6
CONTINUOUS
 62
     7
 10
717.8953820455
 20
252.8065561087
 30
0.0
 11
717.8953820455
 21
249.0210174353
 31
0.0
  0
LINE
  5
395
  8
0
  6
CONTINUOUS
 62
     7
 10
717.8953820455
 20
249.0210174353
 30
0.0
 11
717.6953846204
 21
249.0210174353
 31
0.0
  0
LINE
  5
396
  8
0
  6
CONTINUOUS
 62
     7
 10
717.6953846204
 20
252.6073097022
 30
0.0
 11
717.6953846204
 21
249.0210174353
 31
0.0
  0
ARC
  5
397
  8
0
  6
CONTINUOUS
 62
     7
 10
718.0946112552
 20
252.6065640022
 30
0.0
 40
0.3992273312068759
 50
89.8897482138
 51
179.8929795664
  0
LINE
  5
398
  8
0
  6
CONTINUOUS
 62
     7
 10
718.0953794706
 20
253.0057905943
 30
0.0
 11
741.2953817833
 21
253.0057905943
 31
0.0
  0
ARC
  5
399
  8
0
  6
CONTINUOUS
 62
     7
 10
741.2956031731
 20
252.6052724887
 30
0.0
 40
0.4005181667900377
 50
41.5415732459
 51
90.0316707319
  0
LINE
  5
39A
  8
0
  6
CONTINUOUS
 62
     7
 10
717.6953846204
 20
252.6073097022
 30
0.0
 11
717.6953846204
 21
253.2104371817
 31
0.0
  0
LINE
  5
39B
  8
0
  6
CONTINUOUS
 62
     7
 10
717.8953820455
 20
204.0632127554
 30
0.0
 11
717.6953846204
 21
204.0632127554
 31
0.0
  0
LINE
  5
39C
  8
0
  6
CONTINUOUS
 62
     7
 10
717.6953846204
 20
204.0632127554
 30
0.0
 11
717.6953846204
 21
249.0210174353
 31
0.0
  0
LINE
  5
39D
  8
0
  6
CONTINUOUS
 62
     7
 10
717.8953820455
 20
204.0632127554
 30
0.0
 11
717.8953820455
 21
249.0210174353
 31
0.0
  0
LINE
  5
39E
  8
0
  6
CONTINUOUS
 62
     7
 10
741.4953821886
 20
204.0632127554
 30
0.0
 11
741.5953809011
 21
204.0632127554
 31
0.0
  0
LINE
  5
39F
  8
0
  6
CONTINUOUS
 62
     7
 10
741.4953821886
 20
204.0632127554
 30
0.0
 11
741.4953821886
 21
249.0210174353
 31
0.0
  0
LINE
  5
3A0
  8
0
  6
CONTINUOUS
 62
     7
 10
718.9953798044
 20
204.3944000037
 30
0.0
 11
740.3953814495
 21
204.3944000037
 31
0.0
  0
LINE
  5
3A1
  8
0
  6
CONTINUOUS
 62
     7
 10
717.8953820455
 20
204.3944000037
 30
0.0
 11
718.9953798044
 21
204.3944000037
 31
0.0
  0
LINE
  5
3A2
  8
0
  6
CONTINUOUS
 62
     7
 10
740.3953814495
 20
204.3944000037
 30
0.0
 11
741.4953821886
 21
204.3944000037
 31
0.0
  0
ARC
  5
3A3
  8
0
  6
CONTINUOUS
 62
     7
 10
718.9946362172
 20
203.6639554695
 30
0.0
 40
0.3992579783502597
 50
89.8932909728
 51
179.8885830353
  0
LINE
  5
3A4
  8
0
  6
CONTINUOUS
 62
     7
 10
718.5953789938
 20
203.6647318633
 30
0.0
 11
718.5953789938
 21
204.3944000037
 31
0.0
  0
ARC
  5
3A5
  8
0
  6
CONTINUOUS
 62
     7
 10
740.3961292585
 20
203.6639597075
 30
0.0
 40
0.3992537482317248
 50
0.110809959
 51
90.1073160329
  0
LINE
  5
3A6
  8
0
  6
CONTINUOUS
 62
     7
 10
718.7953823793
 20
203.8639663489
 30
0.0
 11
740.5953818548
 21
203.8639663489
 31
0.0
  0
LINE
  5
3A7
  8
0
  6
CONTINUOUS
 62
     7
 10
718.9953798044
 20
204.0632127554
 30
0.0
 11
740.3953814495
 21
204.0632127554
 31
0.0
  0
LINE
  5
3A8
  8
0
  6
CONTINUOUS
 62
     7
 10
740.7953822601
 20
203.6647318633
 30
0.0
 11
740.7953822601
 21
203.2443164618
 31
0.0
  0
LINE
  5
3A9
  8
0
  6
CONTINUOUS
 62
     7
 10
718.5953789938
 20
203.6647318633
 30
0.0
 11
718.5953789938
 21
200.5052922995
 31
0.0
  0
LINE
  5
3AA
  8
0
  6
CONTINUOUS
 62
     7
 10
740.5953818548
 20
203.8639663489
 30
0.0
 11
740.5953818548
 21
200.5052922995
 31
0.0
  0
LINE
  5
3AB
  8
0
  6
CONTINUOUS
 62
     7
 10
718.7953823793
 20
203.8639663489
 30
0.0
 11
718.7953823793
 21
200.5052922995
 31
0.0
  0
LINE
  5
3AC
  8
0
  6
CONTINUOUS
 62
     7
 10
740.7953822601
 20
204.3944000037
 30
0.0
 11
740.7953822601
 21
203.6647318633
 31
0.0
  0
LINE
  5
3AD
  8
0
  6
CONTINUOUS
 62
     7
 10
718.7953823793
 20
201.0726450713
 30
0.0
 11
740.5953818548
 21
201.0726450713
 31
0.0
  0
LINE
  5
3AE
  8
0
  6
CONTINUOUS
 62
     7
 10
617.4953871954
 20
117.9052947791
 30
0.0
 11
619.0953785169
 21
117.9052947791
 31
0.0
  0
ARC
  5
3AF
  8
0
  6
CONTINUOUS
 62
     7
 10
617.4953819502
 20
118.3052943022
 30
0.0
 40
0.4000000000000909
 50
180.0
 51
270.0
  0
LINE
  5
3B0
  8
0
  6
CONTINUOUS
 62
     7
 10
617.0953804243
 20
202.9289244444
 30
0.0
 11
617.0953804243
 21
118.3052955897
 31
0.0
  0
ARC
  5
3B1
  8
0
  6
CONTINUOUS
 62
     7
 10
617.4972046076
 20
202.9291975723
 30
0.0
 40
0.4018242761286402
 50
120.1507047656
 51
180.0389450712
  0
LINE
  5
3B2
  8
0
  6
CONTINUOUS
 62
     7
 10
617.2953778494
 20
118.1052922041
 30
0.0
 11
617.2953778494
 21
203.2766579421
 31
0.0
  0
LINE
  5
3B3
  8
0
  6
CONTINUOUS
 62
     7
 10
617.2953778494
 20
118.1052922041
 30
0.0
 11
619.0953785169
 21
118.1052922041
 31
0.0
  0
LINE
  5
3B4
  8
0
  6
CONTINUOUS
 62
     7
 10
619.0953785169
 20
118.1052922041
 30
0.0
 11
619.0953785169
 21
117.9052947791
 31
0.0
  0
ARC
  5
3B5
  8
0
  6
CONTINUOUS
 62
     7
 10
617.4953521539
 20
202.9292813889
 30
0.0
 40
0.4011757070427087
 50
89.9949953947
 51
119.898868702
  0
LINE
  5
3B6
  8
0
  6
CONTINUOUS
 62
     7
 10
617.0953804243
 20
202.9289244444
 30
0.0
 11
617.0953804243
 21
204.7014354498
 31
0.0
  0
LINE
  5
3B7
  8
0
  6
CONTINUOUS
 62
     7
 10
617.2953778494
 20
203.2770632536
 30
0.0
 11
617.2953778494
 21
203.2766579421
 31
0.0
  0
LINE
  5
3B8
  8
0
  6
CONTINUOUS
 62
     7
 10
617.2953778494
 20
203.1312106879
 30
0.0
 11
628.5953813779
 21
203.1312106879
 31
0.0
  0
LINE
  5
3B9
  8
0
  6
CONTINUOUS
 62
     7
 10
617.4953871954
 20
203.3304570944
 30
0.0
 11
628.3953839529
 21
203.3304570944
 31
0.0
  0
ARC
  5
3BA
  8
0
  6
CONTINUOUS
 62
     7
 10
628.3961325167
 20
202.9312107761
 30
0.0
 40
0.3992470200995334
 50
0.1098460684
 51
90.1074261515
  0
LINE
  5
3BB
  8
0
  6
CONTINUOUS
 62
     7
 10
628.795378803
 20
202.9319762022
 30
0.0
 11
628.795378803
 21
202.5115608008
 31
0.0
  0
LINE
  5
3BC
  8
0
  6
CONTINUOUS
 62
     7
 10
628.5953813779
 20
200.5052922995
 30
0.0
 11
628.5953813779
 21
203.1312106879
 31
0.0
  0
LINE
  5
3BD
  8
0
  6
CONTINUOUS
 62
     7
 10
628.795378803
 20
204.7014354498
 30
0.0
 11
628.795378803
 21
202.9319762022
 31
0.0
  0
LINE
  5
3BE
  8
0
  6
CONTINUOUS
 62
     7
 10
619.495385288
 20
118.1052922041
 30
0.0
 11
619.0953785169
 21
118.1052922041
 31
0.0
  0
LINE
  5
3BF
  8
0
  6
CONTINUOUS
 62
     7
 10
619.0953785169
 20
117.9052947791
 30
0.0
 11
619.495385288
 21
117.9052947791
 31
0.0
  0
LINE
  5
3C0
  8
0
  6
CONTINUOUS
 62
     7
 10
617.2953778494
 20
201.0726450713
 30
0.0
 11
628.5953813779
 21
201.0726450713
 31
0.0
  0
LINE
  5
3C1
  8
0
  6
CONTINUOUS
 62
     7
 10
951.8953853834
 20
118.1052922041
 30
0.0
 11
953.695386051
 21
118.1052922041
 31
0.0
  0
LINE
  5
3C2
  8
0
  6
CONTINUOUS
 62
     7
 10
953.695386051
 20
203.2766579421
 30
0.0
 11
953.695386051
 21
118.1052922041
 31
0.0
  0
ARC
  5
3C3
  8
0
  6
CONTINUOUS
 62
     7
 10
953.4935533834
 20
202.9291941735
 30
0.0
 40
0.4018301832061421
 50
359.9615401193
 51
59.8488100439
  0
LINE
  5
3C4
  8
0
  6
CONTINUOUS
 62
     7
 10
953.895383476
 20
202.9289244444
 30
0.0
 11
953.895383476
 21
118.3052955897
 31
0.0
  0
ARC
  5
3C5
  8
0
  6
CONTINUOUS
 62
     7
 10
953.4953819502
 20
118.3052943022
 30
0.0
 40
0.4000000000000057
 50
270.0
 51
0.0
  0
LINE
  5
3C6
  8
0
  6
CONTINUOUS
 62
     7
 10
951.8953853834
 20
117.9052947791
 30
0.0
 11
953.4953767049
 21
117.9052947791
 31
0.0
  0
LINE
  5
3C7
  8
0
  6
CONTINUOUS
 62
     7
 10
951.8953853834
 20
118.1052922041
 30
0.0
 11
951.8953853834
 21
117.9052947791
 31
0.0
  0
ARC
  5
3C8
  8
0
  6
CONTINUOUS
 62
     7
 10
953.4954117464
 20
202.9292813889
 30
0.0
 40
0.4011757070434905
 50
60.101131298
 51
90.0050046053
  0
LINE
  5
3C9
  8
0
  6
CONTINUOUS
 62
     7
 10
953.895383476
 20
204.7014354498
 30
0.0
 11
953.895383476
 21
202.9289244444
 31
0.0
  0
LINE
  5
3CA
  8
0
  6
CONTINUOUS
 62
     7
 10
953.695386051
 20
203.2766579421
 30
0.0
 11
953.695386051
 21
203.2770632536
 31
0.0
  0
LINE
  5
3CB
  8
0
  6
CONTINUOUS
 62
     7
 10
942.3953825224
 20
203.1312106879
 30
0.0
 11
953.695386051
 21
203.1312106879
 31
0.0
  0
ARC
  5
3CC
  8
0
  6
CONTINUOUS
 62
     7
 10
942.5946313836
 20
202.9312107761
 30
0.0
 40
0.399247020099221
 50
89.8925738485
 51
179.8901539317
  0
LINE
  5
3CD
  8
0
  6
CONTINUOUS
 62
     7
 10
942.5953799474
 20
203.3304570944
 30
0.0
 11
953.4953767049
 21
203.3304570944
 31
0.0
  0
LINE
  5
3CE
  8
0
  6
CONTINUOUS
 62
     7
 10
942.1953850973
 20
202.9319762022
 30
0.0
 11
942.1953850973
 21
202.5115608008
 31
0.0
  0
LINE
  5
3CF
  8
0
  6
CONTINUOUS
 62
     7
 10
942.3953825224
 20
203.1312106879
 30
0.0
 11
942.3953825224
 21
200.5052922995
 31
0.0
  0
LINE
  5
3D0
  8
0
  6
CONTINUOUS
 62
     7
 10
942.1953850973
 20
202.9319762022
 30
0.0
 11
942.1953850973
 21
204.7014354498
 31
0.0
  0
LINE
  5
3D1
  8
0
  6
CONTINUOUS
 62
     7
 10
951.8953853834
 20
118.1052922041
 30
0.0
 11
951.4953786123
 21
118.1052922041
 31
0.0
  0
LINE
  5
3D2
  8
0
  6
CONTINUOUS
 62
     7
 10
951.4953786123
 20
117.9052947791
 30
0.0
 11
951.8953853834
 21
117.9052947791
 31
0.0
  0
LINE
  5
3D3
  8
0
  6
CONTINUOUS
 62
     7
 10
942.3953825224
 20
201.0726450713
 30
0.0
 11
953.695386051
 21
201.0726450713
 31
0.0
  0
LINE
  5
3D4
  8
0
  6
CONTINUOUS
 62
     7
 10
630.6953841436
 20
131.7052959235
 30
0.0
 11
630.6953841436
 21
138.9052926333
 31
0.0
  0
ARC
  5
3D5
  8
0
  6
CONTINUOUS
 62
     7
 10
631.0953819502
 20
131.7052943022
 30
0.0
 40
0.3999999999999773
 50
180.0
 51
270.0
  0
LINE
  5
3D6
  8
0
  6
CONTINUOUS
 62
     7
 10
715.8953839529
 20
131.3052951128
 30
0.0
 11
631.0953789938
 21
131.3052951128
 31
0.0
  0
ARC
  5
3D7
  8
0
  6
CONTINUOUS
 62
     7
 10
715.8953819502
 20
131.7052943022
 30
0.0
 40
0.3999999999999773
 50
270.0
 51
0.0
  0
LINE
  5
3D8
  8
0
  6
CONTINUOUS
 62
     7
 10
716.2953847635
 20
138.9052926333
 30
0.0
 11
716.2953847635
 21
131.7052959235
 31
0.0
  0
LINE
  5
3D9
  8
0
  6
CONTINUOUS
 62
     7
 10
629.6953850973
 20
135.7052921088
 30
0.0
 11
629.6953850973
 21
138.1052969725
 31
0.0
  0
LINE
  5
3DA
  8
0
  6
CONTINUOUS
 62
     7
 10
629.6953850973
 20
133.3052932055
 30
0.0
 11
629.6953850973
 21
135.7052921088
 31
0.0
  0
LINE
  5
3DB
  8
0
  6
CONTINUOUS
 62
     7
 10
717.2953838098
 20
135.7052921088
 30
0.0
 11
717.2953838098
 21
138.1052969725
 31
0.0
  0
LINE
  5
3DC
  8
0
  6
CONTINUOUS
 62
     7
 10
717.2953838098
 20
133.3052932055
 30
0.0
 11
717.2953838098
 21
135.7052921088
 31
0.0
  0
LINE
  5
3DD
  8
0
  6
CONTINUOUS
 62
     7
 10
742.5953829277
 20
131.2399386198
 30
0.0
 11
742.5953829277
 21
138.9052926333
 31
0.0
  0
POLYLINE
  5
3DE
  8
0
  6
CONTINUOUS
 62
     7
 66
     1
 10
0.0
 20
0.0
 30
0.0
  0
VERTEX
  5
543
  8
0
  6
CONTINUOUS
 62
     7
 10
742.5953829277
 20
131.2399386198
 30
0.0
  0
VERTEX
  5
544
  8
0
  6
CONTINUOUS
 62
     7
 10
742.6249289501
 20
131.2366544039
 30
0.0
  0
VERTEX
  5
545
  8
0
  6
CONTINUOUS
 62
     7
 10
742.7128458011
 20
131.2923191817
 30
0.0
  0
VERTEX
  5
546
  8
0
  6
CONTINUOUS
 62
     7
 10
742.856966852
 20
131.4055680067
 30
0.0
  0
VERTEX
  5
547
  8
0
  6
CONTINUOUS
 62
     7
 10
743.053742646
 20
131.5736054213
 30
0.0
  0
VERTEX
  5
548
  8
0
  6
CONTINUOUS
 62
     7
 10
743.2983243454
 20
131.7923008234
 30
0.0
  0
VERTEX
  5
549
  8
0
  6
CONTINUOUS
 62
     7
 10
743.5846978414
 20
132.0562659533
 30
0.0
  0
VERTEX
  5
54A
  8
0
  6
CONTINUOUS
 62
     7
 10
743.9058059442
 20
132.3589979441
 30
0.0
  0
VERTEX
  5
54B
  8
0
  6
CONTINUOUS
 62
     7
 10
744.2537420976
 20
132.6930521758
 30
0.0
  0
VERTEX
  5
54C
  8
0
  6
CONTINUOUS
 62
     7
 10
744.619938134
 20
133.0501972468
 30
0.0
  0
VERTEX
  5
54D
  8
0
  6
CONTINUOUS
 62
     7
 10
744.9953818309
 20
133.4216355116
 30
0.0
  0
SEQEND
  5
572
  8
0
  6
CONTINUOUS
 62
     7
  0
LINE
  5
3DF
  8
0
  6
CONTINUOUS
 62
     7
 10
828.3953809726
 20
138.9052926333
 30
0.0
 11
828.3953809726
 21
131.2399386198
 31
0.0
  0
POLYLINE
  5
3E0
  8
0
  6
CONTINUOUS
 62
     7
 66
     1
 10
0.0
 20
0.0
 30
0.0
  0
VERTEX
  5
54E
  8
0
  6
CONTINUOUS
 62
     7
 10
828.3953809726
 20
131.2399386198
 30
0.0
  0
VERTEX
  5
54F
  8
0
  6
CONTINUOUS
 62
     7
 10
828.3658349502
 20
131.2366544039
 30
0.0
  0
VERTEX
  5
550
  8
0
  6
CONTINUOUS
 62
     7
 10
828.2779180992
 20
131.2923191817
 30
0.0
  0
VERTEX
  5
551
  8
0
  6
CONTINUOUS
 62
     7
 10
828.1337970483
 20
131.4055680067
 30
0.0
  0
VERTEX
  5
552
  8
0
  6
CONTINUOUS
 62
     7
 10
827.9370212543
 20
131.5736054213
 30
0.0
  0
VERTEX
  5
553
  8
0
  6
CONTINUOUS
 62
     7
 10
827.6924395549
 20
131.7923008234
 30
0.0
  0
VERTEX
  5
554
  8
0
  6
CONTINUOUS
 62
     7
 10
827.4060660589
 20
132.0562659533
 30
0.0
  0
VERTEX
  5
555
  8
0
  6
CONTINUOUS
 62
     7
 10
827.0849579561
 20
132.3589979441
 30
0.0
  0
VERTEX
  5
556
  8
0
  6
CONTINUOUS
 62
     7
 10
826.7370218027
 20
132.6930521758
 30
0.0
  0
VERTEX
  5
557
  8
0
  6
CONTINUOUS
 62
     7
 10
826.3708257663
 20
133.0501972468
 30
0.0
  0
VERTEX
  5
558
  8
0
  6
CONTINUOUS
 62
     7
 10
825.9953820694
 20
133.4216355116
 30
0.0
  0
SEQEND
  5
571
  8
0
  6
CONTINUOUS
 62
     7
  0
LINE
  5
3E1
  8
0
  6
CONTINUOUS
 62
     7
 10
742.6953816402
 20
119.9052928717
 30
0.0
 11
742.6953816402
 21
131.2308071883
 31
0.0
  0
LINE
  5
3E2
  8
0
  6
CONTINUOUS
 62
     7
 10
828.2953822601
 20
131.2308071883
 30
0.0
 11
828.2953822601
 21
119.9052928717
 31
0.0
  0
LINE
  5
3E3
  8
0
  6
CONTINUOUS
 62
     7
 10
741.6953825939
 20
133.3052932055
 30
0.0
 11
741.6953825939
 21
138.1052969725
 31
0.0
  0
LINE
  5
3E4
  8
0
  6
CONTINUOUS
 62
     7
 10
829.2953813064
 20
133.3052932055
 30
0.0
 11
829.2953813064
 21
138.1052969725
 31
0.0
  0
LINE
  5
3E5
  8
0
  6
CONTINUOUS
 62
     7
 10
854.5953804243
 20
131.2399386198
 30
0.0
 11
854.5953804243
 21
138.9052926333
 31
0.0
  0
POLYLINE
  5
3E6
  8
0
  6
CONTINUOUS
 62
     7
 66
     1
 10
0.0
 20
0.0
 30
0.0
  0
VERTEX
  5
559
  8
0
  6
CONTINUOUS
 62
     7
 10
854.5953804243
 20
131.2399386198
 30
0.0
  0
VERTEX
  5
55A
  8
0
  6
CONTINUOUS
 62
     7
 10
854.6249324072
 20
131.2366544039
 30
0.0
  0
VERTEX
  5
55B
  8
0
  6
CONTINUOUS
 62
     7
 10
854.7128492582
 20
131.2923191817
 30
0.0
  0
VERTEX
  5
55C
  8
0
  6
CONTINUOUS
 62
     7
 10
854.8569673288
 20
131.4055680067
 30
0.0
  0
VERTEX
  5
55D
  8
0
  6
CONTINUOUS
 62
     7
 10
855.0537401426
 20
131.5736054213
 30
0.0
  0
VERTEX
  5
55E
  8
0
  6
CONTINUOUS
 62
     7
 10
855.2983278024
 20
131.7923008234
 30
0.0
  0
VERTEX
  5
55F
  8
0
  6
CONTINUOUS
 62
     7
 10
855.5846983183
 20
132.0562659533
 30
0.0
  0
VERTEX
  5
560
  8
0
  6
CONTINUOUS
 62
     7
 10
855.9058064211
 20
132.3589979441
 30
0.0
  0
VERTEX
  5
561
  8
0
  6
CONTINUOUS
 62
     7
 10
856.2537425745
 20
132.6930521758
 30
0.0
  0
VERTEX
  5
562
  8
0
  6
CONTINUOUS
 62
     7
 10
856.619941591
 20
133.0501972468
 30
0.0
  0
VERTEX
  5
563
  8
0
  6
CONTINUOUS
 62
     7
 10
856.9953793275
 20
133.4216355116
 30
0.0
  0
SEQEND
  5
570
  8
0
  6
CONTINUOUS
 62
     7
  0
LINE
  5
3E7
  8
0
  6
CONTINUOUS
 62
     7
 10
940.3953844297
 20
138.9052926333
 30
0.0
 11
940.3953844297
 21
131.2399386198
 31
0.0
  0
POLYLINE
  5
3E8
  8
0
  6
CONTINUOUS
 62
     7
 66
     1
 10
0.0
 20
0.0
 30
0.0
  0
VERTEX
  5
564
  8
0
  6
CONTINUOUS
 62
     7
 10
940.3953844297
 20
131.2399386198
 30
0.0
  0
VERTEX
  5
565
  8
0
  6
CONTINUOUS
 62
     7
 10
940.3658324468
 20
131.2366544039
 30
0.0
  0
VERTEX
  5
566
  8
0
  6
CONTINUOUS
 62
     7
 10
940.2779155958
 20
131.2923191817
 30
0.0
  0
VERTEX
  5
567
  8
0
  6
CONTINUOUS
 62
     7
 10
940.1338034856
 20
131.4055680067
 30
0.0
  0
VERTEX
  5
568
  8
0
  6
CONTINUOUS
 62
     7
 10
939.9370247114
 20
131.5736054213
 30
0.0
  0
VERTEX
  5
569
  8
0
  6
CONTINUOUS
 62
     7
 10
939.692443012
 20
131.7923008234
 30
0.0
  0
VERTEX
  5
56A
  8
0
  6
CONTINUOUS
 62
     7
 10
939.4060665357
 20
132.0562659533
 30
0.0
  0
VERTEX
  5
56B
  8
0
  6
CONTINUOUS
 62
     7
 10
939.0849643934
 20
132.3589979441
 30
0.0
  0
VERTEX
  5
56C
  8
0
  6
CONTINUOUS
 62
     7
 10
938.73702824
 20
132.6930521758
 30
0.0
  0
VERTEX
  5
56D
  8
0
  6
CONTINUOUS
 62
     7
 10
938.3708292234
 20
133.0501972468
 30
0.0
  0
VERTEX
  5
56E
  8
0
  6
CONTINUOUS
 62
     7
 10
937.995379566
 20
133.4216355116
 30
0.0
  0
SEQEND
  5
56F
  8
0
  6
CONTINUOUS
 62
     7
  0
LINE
  5
3E9
  8
0
  6
CONTINUOUS
 62
     7
 10
854.6953791368
 20
119.9052928717
 30
0.0
 11
854.6953791368
 21
131.2308071883
 31
0.0
  0
LINE
  5
3EA
  8
0
  6
CONTINUOUS
 62
     7
 10
940.2953797567
 20
131.2308071883
 30
0.0
 11
940.2953797567
 21
119.9052928717
 31
0.0
  0
LINE
  5
3EB
  8
0
  6
CONTINUOUS
 62
     7
 10
853.6953800905
 20
133.3052932055
 30
0.0
 11
853.6953800905
 21
138.1052969725
 31
0.0
  0
LINE
  5
3EC
  8
0
  6
CONTINUOUS
 62
     7
 10
941.295378803
 20
133.3052932055
 30
0.0
 11
941.295378803
 21
138.1052969725
 31
0.0
  0
CIRCLE
  5
3ED
  8
0
  6
CONTINUOUS
 62
     7
 10
835.4953819502
 20
195.9052943022
 30
0.0
 40
1.100000000000023
  0
CIRCLE
  5
3EE
  8
0
  6
CONTINUOUS
 62
     7
 10
835.4953819502
 20
123.9052943022
 30
0.0
 40
1.100000000000023
  0
CIRCLE
  5
3EF
  8
0
  6
CONTINUOUS
 62
     7
 10
735.4953819502
 20
195.9052943022
 30
0.0
 40
1.099999999999909
  0
CIRCLE
  5
3F0
  8
0
  6
CONTINUOUS
 62
     7
 10
735.4953819502
 20
123.9052943022
 30
0.0
 40
1.099999999999909
  0
LINE
  5
3F1
  8
0
  6
CONTINUOUS
 62
     7
 10
741.5953809011
 20
191.3628457816
 30
0.0
 11
829.3953829992
 21
191.3628457816
 31
0.0
  0
LINE
  5
3F2
  8
0
  6
CONTINUOUS
 62
     7
 10
741.5953809011
 20
71.9052939446
 30
0.0
 11
741.5953809011
 21
191.3628457816
 31
0.0
  0
LINE
  5
3F3
  8
0
  6
CONTINUOUS
 62
     7
 10
741.5953809011
 20
71.9052939446
 30
0.0
 11
731.4953798044
 21
71.9052939446
 31
0.0
  0
LINE
  5
3F4
  8
0
  6
CONTINUOUS
 62
     7
 10
731.4953798044
 20
127.3052929671
 30
0.0
 11
731.4953798044
 21
71.9052939446
 31
0.0
  0
LINE
  5
3F5
  8
0
  6
CONTINUOUS
 62
     7
 10
729.4953817117
 20
127.3052929671
 30
0.0
 11
731.4953798044
 21
127.3052929671
 31
0.0
  0
LINE
  5
3F6
  8
0
  6
CONTINUOUS
 62
     7
 10
729.4953817117
 20
129.3052970202
 30
0.0
 11
729.4953817117
 21
127.3052929671
 31
0.0
  0
LINE
  5
3F7
  8
0
  6
CONTINUOUS
 62
     7
 10
731.4953798044
 20
129.3052970202
 30
0.0
 11
729.4953817117
 21
129.3052970202
 31
0.0
  0
LINE
  5
3F8
  8
0
  6
CONTINUOUS
 62
     7
 10
731.4953798044
 20
192.5052999289
 30
0.0
 11
731.4953798044
 21
129.3052970202
 31
0.0
  0
LINE
  5
3F9
  8
0
  6
CONTINUOUS
 62
     7
 10
729.4953817117
 20
192.5052999289
 30
0.0
 11
731.4953798044
 21
192.5052999289
 31
0.0
  0
LINE
  5
3FA
  8
0
  6
CONTINUOUS
 62
     7
 10
729.4953817117
 20
194.5052980216
 30
0.0
 11
729.4953817117
 21
192.5052999289
 31
0.0
  0
LINE
  5
3FB
  8
0
  6
CONTINUOUS
 62
     7
 10
731.4953798044
 20
194.5052980216
 30
0.0
 11
729.4953817117
 21
194.5052980216
 31
0.0
  0
LINE
  5
3FC
  8
0
  6
CONTINUOUS
 62
     7
 10
731.4953798044
 20
198.5052942069
 30
0.0
 11
731.4953798044
 21
194.5052980216
 31
0.0
  0
ARC
  5
3FD
  8
0
  6
CONTINUOUS
 62
     7
 10
733.4953819502
 20
198.5052943022
 30
0.0
 40
2.0
 50
90.0
 51
180.0
  0
LINE
  5
3FE
  8
0
  6
CONTINUOUS
 62
     7
 10
740.7953822601
 20
200.5052922995
 30
0.0
 11
733.4953838575
 21
200.5052922995
 31
0.0
  0
LINE
  5
3FF
  8
0
  6
CONTINUOUS
 62
     7
 10
740.7953822601
 20
200.5052922995
 30
0.0
 11
740.7953822601
 21
202.5052903922
 31
0.0
  0
LINE
  5
400
  8
0
  6
CONTINUOUS
 62
     7
 10
740.7953822601
 20
202.5052903922
 30
0.0
 11
741.5953809011
 21
202.5052903922
 31
0.0
  0
LINE
  5
401
  8
0
  6
CONTINUOUS
 62
     7
 10
741.5953809011
 20
202.5052903922
 30
0.0
 11
741.5953809011
 21
252.9393194945
 31
0.0
  0
LINE
  5
402
  8
0
  6
CONTINUOUS
 62
     7
 10
741.5953809011
 20
252.9393194945
 30
0.0
 11
829.3953829992
 21
252.9393194945
 31
0.0
  0
LINE
  5
403
  8
0
  6
CONTINUOUS
 62
     7
 10
829.3953829992
 20
202.5052903922
 30
0.0
 11
829.3953829992
 21
252.9393194945
 31
0.0
  0
LINE
  5
404
  8
0
  6
CONTINUOUS
 62
     7
 10
830.1953816402
 20
202.5052903922
 30
0.0
 11
829.3953829992
 21
202.5052903922
 31
0.0
  0
LINE
  5
405
  8
0
  6
CONTINUOUS
 62
     7
 10
830.1953816402
 20
202.5052903922
 30
0.0
 11
830.1953816402
 21
200.5052922995
 31
0.0
  0
LINE
  5
406
  8
0
  6
CONTINUOUS
 62
     7
 10
837.4953800428
 20
200.5052922995
 30
0.0
 11
830.1953816402
 21
200.5052922995
 31
0.0
  0
ARC
  5
407
  8
0
  6
CONTINUOUS
 62
     7
 10
837.4953819502
 20
198.5052943022
 30
0.0
 40
2.0
 50
0.0
 51
90.0
  0
LINE
  5
408
  8
0
  6
CONTINUOUS
 62
     7
 10
839.4953840959
 20
194.5052980216
 30
0.0
 11
839.4953840959
 21
198.5052942069
 31
0.0
  0
LINE
  5
409
  8
0
  6
CONTINUOUS
 62
     7
 10
841.4953821886
 20
194.5052980216
 30
0.0
 11
839.4953840959
 21
194.5052980216
 31
0.0
  0
LINE
  5
40A
  8
0
  6
CONTINUOUS
 62
     7
 10
841.4953821886
 20
192.5052999289
 30
0.0
 11
841.4953821886
 21
194.5052980216
 31
0.0
  0
LINE
  5
40B
  8
0
  6
CONTINUOUS
 62
     7
 10
839.4953840959
 20
192.5052999289
 30
0.0
 11
841.4953821886
 21
192.5052999289
 31
0.0
  0
LINE
  5
40C
  8
0
  6
CONTINUOUS
 62
     7
 10
839.4953840959
 20
129.3052970202
 30
0.0
 11
839.4953840959
 21
192.5052999289
 31
0.0
  0
LINE
  5
40D
  8
0
  6
CONTINUOUS
 62
     7
 10
841.4953821886
 20
129.3052970202
 30
0.0
 11
839.4953840959
 21
129.3052970202
 31
0.0
  0
LINE
  5
40E
  8
0
  6
CONTINUOUS
 62
     7
 10
841.4953821886
 20
127.3052929671
 30
0.0
 11
841.4953821886
 21
129.3052970202
 31
0.0
  0
LINE
  5
40F
  8
0
  6
CONTINUOUS
 62
     7
 10
839.4953840959
 20
127.3052929671
 30
0.0
 11
841.4953821886
 21
127.3052929671
 31
0.0
  0
LINE
  5
410
  8
0
  6
CONTINUOUS
 62
     7
 10
839.4953840959
 20
71.9052939446
 30
0.0
 11
839.4953840959
 21
127.3052929671
 31
0.0
  0
LINE
  5
411
  8
0
  6
CONTINUOUS
 62
     7
 10
839.4953840959
 20
71.9052939446
 30
0.0
 11
829.3953829992
 21
71.9052939446
 31
0.0
  0
LINE
  5
412
  8
0
  6
CONTINUOUS
 62
     7
 10
829.3953829992
 20
191.3628457816
 30
0.0
 11
829.3953829992
 21
71.9052939446
 31
0.0
  0
CIRCLE
  5
413
  8
0
  6
CONTINUOUS
 62
     7
 10
735.4953819502
 20
79.9052943022
 30
0.0
 40
1.100000000000023
  0
CIRCLE
  5
414
  8
0
  6
CONTINUOUS
 62
     7
 10
835.4953819502
 20
79.9052943022
 30
0.0
 40
1.100000000000023
  0
LINE
  5
415
  8
0
  6
CONTINUOUS
 62
     7
 10
741.5953809011
 20
138.9052926333
 30
0.0
 11
829.3953829992
 21
138.9052926333
 31
0.0
  0
LINE
  5
416
  8
0
  6
CONTINUOUS
 62
     7
 10
740.7953822601
 20
202.5052903922
 30
0.0
 11
740.7953822601
 21
203.2443164618
 31
0.0
  0
LINE
  5
417
  8
0
  6
CONTINUOUS
 62
     7
 10
741.5953809011
 20
253.1688212187
 30
0.0
 11
829.3953829992
 21
253.1688212187
 31
0.0
  0
LINE
  5
418
  8
0
  6
CONTINUOUS
 62
     7
 10
829.3953829992
 20
252.9393194945
 30
0.0
 11
829.3953829992
 21
253.1688212187
 31
0.0
  0
LINE
  5
419
  8
0
  6
CONTINUOUS
 62
     7
 10
741.5953809011
 20
252.9393194945
 30
0.0
 11
741.5953809011
 21
253.1688212187
 31
0.0
  0
LINE
  5
41A
  8
0
  6
CONTINUOUS
 62
     7
 10
830.1953816402
 20
204.2873262198
 30
0.0
 11
830.1953816402
 21
202.5052903922
 31
0.0
  0
LINE
  5
41B
  8
0
  6
CONTINUOUS
 62
     7
 10
741.6953825939
 20
253.4701226981
 30
0.0
 11
741.6953825939
 21
253.1688212187
 31
0.0
  0
LINE
  5
41C
  8
0
  6
CONTINUOUS
 62
     7
 10
829.2953813064
 20
253.4701226981
 30
0.0
 11
829.2953813064
 21
253.1688212187
 31
0.0
  0
LINE
  5
41D
  8
0
  6
CONTINUOUS
 62
     7
 10
748.4953814733
 20
55.9052943022
 30
0.0
 11
731.4953798044
 21
55.9052943022
 31
0.0
  0
LINE
  5
41E
  8
0
  6
CONTINUOUS
 62
     7
 10
748.4953814733
 20
65.0052941174
 30
0.0
 11
741.5953809011
 21
71.9052939446
 31
0.0
  0
LINE
  5
41F
  8
0
  6
CONTINUOUS
 62
     7
 10
748.4953814733
 20
55.9052943022
 30
0.0
 11
748.4953814733
 21
65.0052941174
 31
0.0
  0
LINE
  5
420
  8
0
  6
CONTINUOUS
 62
     7
 10
731.4953798044
 20
55.9052943022
 30
0.0
 11
731.4953798044
 21
71.9052939446
 31
0.0
  0
LINE
  5
421
  8
0
  6
CONTINUOUS
 62
     7
 10
839.4953840959
 20
55.9052943022
 30
0.0
 11
822.495382427
 21
55.9052943022
 31
0.0
  0
LINE
  5
422
  8
0
  6
CONTINUOUS
 62
     7
 10
822.495382427
 20
65.0052941174
 30
0.0
 11
822.495382427
 21
55.9052943022
 31
0.0
  0
LINE
  5
423
  8
0
  6
CONTINUOUS
 62
     7
 10
829.3953829992
 20
71.9052939446
 30
0.0
 11
822.495382427
 21
65.0052941174
 31
0.0
  0
LINE
  5
424
  8
0
  6
CONTINUOUS
 62
     7
 10
839.4953840959
 20
55.9052943022
 30
0.0
 11
839.4953840959
 21
71.9052939446
 31
0.0
  0
LINE
  5
425
  8
0
  6
CONTINUOUS
 62
     7
 10
829.2953813064
 20
253.4701226981
 30
0.0
 11
829.2877727735
 21
253.4777282507
 31
0.0
  0
LINE
  5
426
  8
0
  6
CONTINUOUS
 62
     7
 10
741.7029911268
 20
253.4777282507
 30
0.0
 11
741.6953825939
 21
253.4701226981
 31
0.0
  0
LINE
  5
427
  8
0
  6
CONTINUOUS
 62
     7
 10
830.1953816402
 20
204.2903660567
 30
0.0
 11
830.1953816402
 21
204.2873262198
 31
0.0
  0
CIRCLE
  5
428
  8
0
  6
CONTINUOUS
 62
     7
 10
947.4953819502
 20
195.9052943022
 30
0.0
 40
1.099999999999909
  0
CIRCLE
  5
429
  8
0
  6
CONTINUOUS
 62
     7
 10
947.4953819502
 20
123.9052943022
 30
0.0
 40
1.099999999999909
  0
CIRCLE
  5
42A
  8
0
  6
CONTINUOUS
 62
     7
 10
847.4953819502
 20
195.9052943022
 30
0.0
 40
1.099999999999909
  0
CIRCLE
  5
42B
  8
0
  6
CONTINUOUS
 62
     7
 10
847.4953819502
 20
123.9052943022
 30
0.0
 40
1.099999999999909
  0
LINE
  5
42C
  8
0
  6
CONTINUOUS
 62
     7
 10
853.5953813779
 20
191.3628457816
 30
0.0
 11
941.395383476
 21
191.3628457816
 31
0.0
  0
LINE
  5
42D
  8
0
  6
CONTINUOUS
 62
     7
 10
853.5953813779
 20
71.9052939446
 30
0.0
 11
853.5953813779
 21
191.3628457816
 31
0.0
  0
LINE
  5
42E
  8
0
  6
CONTINUOUS
 62
     7
 10
853.5953813779
 20
71.9052939446
 30
0.0
 11
843.4953802812
 21
71.9052939446
 31
0.0
  0
LINE
  5
42F
  8
0
  6
CONTINUOUS
 62
     7
 10
843.4953802812
 20
127.3052929671
 30
0.0
 11
843.4953802812
 21
71.9052939446
 31
0.0
  0
LINE
  5
430
  8
0
  6
CONTINUOUS
 62
     7
 10
841.4953821886
 20
127.3052929671
 30
0.0
 11
843.4953802812
 21
127.3052929671
 31
0.0
  0
LINE
  5
431
  8
0
  6
CONTINUOUS
 62
     7
 10
843.4953802812
 20
129.3052970202
 30
0.0
 11
841.4953821886
 21
129.3052970202
 31
0.0
  0
LINE
  5
432
  8
0
  6
CONTINUOUS
 62
     7
 10
843.4953802812
 20
192.5052999289
 30
0.0
 11
843.4953802812
 21
129.3052970202
 31
0.0
  0
LINE
  5
433
  8
0
  6
CONTINUOUS
 62
     7
 10
841.4953821886
 20
192.5052999289
 30
0.0
 11
843.4953802812
 21
192.5052999289
 31
0.0
  0
LINE
  5
434
  8
0
  6
CONTINUOUS
 62
     7
 10
843.4953802812
 20
194.5052980216
 30
0.0
 11
841.4953821886
 21
194.5052980216
 31
0.0
  0
LINE
  5
435
  8
0
  6
CONTINUOUS
 62
     7
 10
843.4953802812
 20
198.5052942069
 30
0.0
 11
843.4953802812
 21
194.5052980216
 31
0.0
  0
ARC
  5
436
  8
0
  6
CONTINUOUS
 62
     7
 10
845.4953819502
 20
198.5052943022
 30
0.0
 40
2.0
 50
90.0
 51
180.0
  0
LINE
  5
437
  8
0
  6
CONTINUOUS
 62
     7
 10
852.7953797567
 20
200.5052922995
 30
0.0
 11
845.4953843343
 21
200.5052922995
 31
0.0
  0
LINE
  5
438
  8
0
  6
CONTINUOUS
 62
     7
 10
852.7953797567
 20
200.5052922995
 30
0.0
 11
852.7953797567
 21
202.5052903922
 31
0.0
  0
LINE
  5
439
  8
0
  6
CONTINUOUS
 62
     7
 10
852.7953797567
 20
202.5052903922
 30
0.0
 11
853.5953813779
 21
202.5052903922
 31
0.0
  0
LINE
  5
43A
  8
0
  6
CONTINUOUS
 62
     7
 10
853.5953813779
 20
202.5052903922
 30
0.0
 11
853.5953813779
 21
252.9393194945
 31
0.0
  0
LINE
  5
43B
  8
0
  6
CONTINUOUS
 62
     7
 10
853.5953813779
 20
252.9393194945
 30
0.0
 11
941.395383476
 21
252.9393194945
 31
0.0
  0
LINE
  5
43C
  8
0
  6
CONTINUOUS
 62
     7
 10
941.395383476
 20
202.5052903922
 30
0.0
 11
941.395383476
 21
252.9393194945
 31
0.0
  0
LINE
  5
43D
  8
0
  6
CONTINUOUS
 62
     7
 10
942.1953850973
 20
202.5052903922
 30
0.0
 11
941.395383476
 21
202.5052903922
 31
0.0
  0
LINE
  5
43E
  8
0
  6
CONTINUOUS
 62
     7
 10
942.1953850973
 20
202.5052903922
 30
0.0
 11
942.1953850973
 21
200.5052922995
 31
0.0
  0
LINE
  5
43F
  8
0
  6
CONTINUOUS
 62
     7
 10
949.4953805196
 20
200.5052922995
 30
0.0
 11
942.1953850973
 21
200.5052922995
 31
0.0
  0
ARC
  5
440
  8
0
  6
CONTINUOUS
 62
     7
 10
949.4953819502
 20
198.5052943022
 30
0.0
 40
2.0
 50
0.0
 51
90.0
  0
LINE
  5
441
  8
0
  6
CONTINUOUS
 62
     7
 10
951.4953786123
 20
194.5052980216
 30
0.0
 11
951.4953786123
 21
198.5052942069
 31
0.0
  0
LINE
  5
442
  8
0
  6
CONTINUOUS
 62
     7
 10
953.4953767049
 20
194.5052980216
 30
0.0
 11
951.4953786123
 21
194.5052980216
 31
0.0
  0
LINE
  5
443
  8
0
  6
CONTINUOUS
 62
     7
 10
953.4953767049
 20
192.5052999289
 30
0.0
 11
953.4953767049
 21
194.5052980216
 31
0.0
  0
LINE
  5
444
  8
0
  6
CONTINUOUS
 62
     7
 10
951.4953786123
 20
192.5052999289
 30
0.0
 11
953.4953767049
 21
192.5052999289
 31
0.0
  0
LINE
  5
445
  8
0
  6
CONTINUOUS
 62
     7
 10
951.4953786123
 20
129.3052970202
 30
0.0
 11
951.4953786123
 21
192.5052999289
 31
0.0
  0
LINE
  5
446
  8
0
  6
CONTINUOUS
 62
     7
 10
953.4953767049
 20
129.3052970202
 30
0.0
 11
951.4953786123
 21
129.3052970202
 31
0.0
  0
LINE
  5
447
  8
0
  6
CONTINUOUS
 62
     7
 10
953.4953767049
 20
127.3052929671
 30
0.0
 11
953.4953767049
 21
129.3052970202
 31
0.0
  0
LINE
  5
448
  8
0
  6
CONTINUOUS
 62
     7
 10
951.4953786123
 20
127.3052929671
 30
0.0
 11
953.4953767049
 21
127.3052929671
 31
0.0
  0
LINE
  5
449
  8
0
  6
CONTINUOUS
 62
     7
 10
951.4953786123
 20
71.9052939446
 30
0.0
 11
951.4953786123
 21
127.3052929671
 31
0.0
  0
LINE
  5
44A
  8
0
  6
CONTINUOUS
 62
     7
 10
951.4953786123
 20
71.9052939446
 30
0.0
 11
941.395383476
 21
71.9052939446
 31
0.0
  0
LINE
  5
44B
  8
0
  6
CONTINUOUS
 62
     7
 10
941.395383476
 20
191.3628457816
 30
0.0
 11
941.395383476
 21
71.9052939446
 31
0.0
  0
CIRCLE
  5
44C
  8
0
  6
CONTINUOUS
 62
     7
 10
847.4953819502
 20
79.9052943022
 30
0.0
 40
1.100000000000023
  0
CIRCLE
  5
44D
  8
0
  6
CONTINUOUS
 62
     7
 10
947.4953819502
 20
79.9052943022
 30
0.0
 40
1.099999999999909
  0
LINE
  5
44E
  8
0
  6
CONTINUOUS
 62
     7
 10
853.5953813779
 20
138.9052926333
 30
0.0
 11
941.395383476
 21
138.9052926333
 31
0.0
  0
LINE
  5
44F
  8
0
  6
CONTINUOUS
 62
     7
 10
852.7953797567
 20
202.5052903922
 30
0.0
 11
852.7953797567
 21
203.2443164618
 31
0.0
  0
LINE
  5
450
  8
0
  6
CONTINUOUS
 62
     7
 10
853.5953813779
 20
253.1688212187
 30
0.0
 11
941.395383476
 21
253.1688212187
 31
0.0
  0
LINE
  5
451
  8
0
  6
CONTINUOUS
 62
     7
 10
941.395383476
 20
252.9393194945
 30
0.0
 11
941.395383476
 21
253.1688212187
 31
0.0
  0
LINE
  5
452
  8
0
  6
CONTINUOUS
 62
     7
 10
853.5953813779
 20
252.9393194945
 30
0.0
 11
853.5953813779
 21
253.1688212187
 31
0.0
  0
LINE
  5
453
  8
0
  6
CONTINUOUS
 62
     7
 10
942.1953850973
 20
202.5115608008
 30
0.0
 11
942.1953850973
 21
202.5052903922
 31
0.0
  0
LINE
  5
454
  8
0
  6
CONTINUOUS
 62
     7
 10
853.6953800905
 20
253.4701226981
 30
0.0
 11
853.6953800905
 21
253.1688212187
 31
0.0
  0
LINE
  5
455
  8
0
  6
CONTINUOUS
 62
     7
 10
941.295378803
 20
253.4701226981
 30
0.0
 11
941.295378803
 21
253.1688212187
 31
0.0
  0
LINE
  5
456
  8
0
  6
CONTINUOUS
 62
     7
 10
860.4953819502
 20
55.9052943022
 30
0.0
 11
843.4953802812
 21
55.9052943022
 31
0.0
  0
LINE
  5
457
  8
0
  6
CONTINUOUS
 62
     7
 10
860.4953819502
 20
65.0052941174
 30
0.0
 11
853.5953813779
 21
71.9052939446
 31
0.0
  0
LINE
  5
458
  8
0
  6
CONTINUOUS
 62
     7
 10
860.4953819502
 20
55.9052943022
 30
0.0
 11
860.4953819502
 21
65.0052941174
 31
0.0
  0
LINE
  5
459
  8
0
  6
CONTINUOUS
 62
     7
 10
843.4953802812
 20
55.9052943022
 30
0.0
 11
843.4953802812
 21
71.9052939446
 31
0.0
  0
LINE
  5
45A
  8
0
  6
CONTINUOUS
 62
     7
 10
951.4953786123
 20
55.9052943022
 30
0.0
 11
934.4953829038
 21
55.9052943022
 31
0.0
  0
LINE
  5
45B
  8
0
  6
CONTINUOUS
 62
     7
 10
934.4953829038
 20
65.0052941174
 30
0.0
 11
934.4953829038
 21
55.9052943022
 31
0.0
  0
LINE
  5
45C
  8
0
  6
CONTINUOUS
 62
     7
 10
941.395383476
 20
71.9052939446
 30
0.0
 11
934.4953829038
 21
65.0052941174
 31
0.0
  0
LINE
  5
45D
  8
0
  6
CONTINUOUS
 62
     7
 10
951.4953786123
 20
55.9052943022
 30
0.0
 11
951.4953786123
 21
71.9052939446
 31
0.0
  0
LINE
  5
45E
  8
0
  6
CONTINUOUS
 62
     7
 10
941.295378803
 20
253.4701226981
 30
0.0
 11
941.2877732504
 21
253.4777282507
 31
0.0
  0
LINE
  5
45F
  8
0
  6
CONTINUOUS
 62
     7
 10
853.7029916036
 20
253.4777282507
 30
0.0
 11
853.6953800905
 21
253.4701226981
 31
0.0
  0
CIRCLE
  5
460
  8
0
  6
CONTINUOUS
 62
     7
 10
723.4953819502
 20
195.9052943022
 30
0.0
 40
1.100000000000023
  0
CIRCLE
  5
461
  8
0
  6
CONTINUOUS
 62
     7
 10
723.4953819502
 20
123.9052943022
 30
0.0
 40
1.100000000000023
  0
CIRCLE
  5
462
  8
0
  6
CONTINUOUS
 62
     7
 10
623.4953819502
 20
195.9052943022
 30
0.0
 40
1.100000000000023
  0
CIRCLE
  5
463
  8
0
  6
CONTINUOUS
 62
     7
 10
623.4953819502
 20
123.9052943022
 30
0.0
 40
1.100000000000023
  0
LINE
  5
464
  8
0
  6
CONTINUOUS
 62
     7
 10
629.5953804243
 20
191.3628457816
 30
0.0
 11
717.3953825224
 21
191.3628457816
 31
0.0
  0
LINE
  5
465
  8
0
  6
CONTINUOUS
 62
     7
 10
629.5953804243
 20
71.9052939446
 30
0.0
 11
629.5953804243
 21
191.3628457816
 31
0.0
  0
LINE
  5
466
  8
0
  6
CONTINUOUS
 62
     7
 10
629.5953804243
 20
71.9052939446
 30
0.0
 11
619.495385288
 21
71.9052939446
 31
0.0
  0
LINE
  5
467
  8
0
  6
CONTINUOUS
 62
     7
 10
619.495385288
 20
127.3052929671
 30
0.0
 11
619.495385288
 21
71.9052939446
 31
0.0
  0
LINE
  5
468
  8
0
  6
CONTINUOUS
 62
     7
 10
617.4953871954
 20
127.3052929671
 30
0.0
 11
619.495385288
 21
127.3052929671
 31
0.0
  0
LINE
  5
469
  8
0
  6
CONTINUOUS
 62
     7
 10
617.4953871954
 20
129.3052970202
 30
0.0
 11
617.4953871954
 21
127.3052929671
 31
0.0
  0
LINE
  5
46A
  8
0
  6
CONTINUOUS
 62
     7
 10
619.495385288
 20
129.3052970202
 30
0.0
 11
617.4953871954
 21
129.3052970202
 31
0.0
  0
LINE
  5
46B
  8
0
  6
CONTINUOUS
 62
     7
 10
619.495385288
 20
192.5052999289
 30
0.0
 11
619.495385288
 21
129.3052970202
 31
0.0
  0
LINE
  5
46C
  8
0
  6
CONTINUOUS
 62
     7
 10
617.4953871954
 20
192.5052999289
 30
0.0
 11
619.495385288
 21
192.5052999289
 31
0.0
  0
LINE
  5
46D
  8
0
  6
CONTINUOUS
 62
     7
 10
617.4953871954
 20
194.5052980216
 30
0.0
 11
617.4953871954
 21
192.5052999289
 31
0.0
  0
LINE
  5
46E
  8
0
  6
CONTINUOUS
 62
     7
 10
619.495385288
 20
198.5052942069
 30
0.0
 11
619.495385288
 21
194.5052980216
 31
0.0
  0
ARC
  5
46F
  8
0
  6
CONTINUOUS
 62
     7
 10
621.4953819502
 20
198.5052943022
 30
0.0
 40
2.0
 50
90.0
 51
180.0
  0
LINE
  5
470
  8
0
  6
CONTINUOUS
 62
     7
 10
628.795378803
 20
200.5052922995
 30
0.0
 11
621.4953833807
 21
200.5052922995
 31
0.0
  0
LINE
  5
471
  8
0
  6
CONTINUOUS
 62
     7
 10
628.795378803
 20
200.5052922995
 30
0.0
 11
628.795378803
 21
202.5052903922
 31
0.0
  0
LINE
  5
472
  8
0
  6
CONTINUOUS
 62
     7
 10
628.795378803
 20
202.5052903922
 30
0.0
 11
629.5953804243
 21
202.5052903922
 31
0.0
  0
LINE
  5
473
  8
0
  6
CONTINUOUS
 62
     7
 10
629.5953804243
 20
202.5052903922
 30
0.0
 11
629.5953804243
 21
252.9393194945
 31
0.0
  0
LINE
  5
474
  8
0
  6
CONTINUOUS
 62
     7
 10
629.5953804243
 20
252.9393194945
 30
0.0
 11
717.3953825224
 21
252.9393194945
 31
0.0
  0
LINE
  5
475
  8
0
  6
CONTINUOUS
 62
     7
 10
717.3953825224
 20
202.5052903922
 30
0.0
 11
717.3953825224
 21
252.9393194945
 31
0.0
  0
LINE
  5
476
  8
0
  6
CONTINUOUS
 62
     7
 10
718.1953841436
 20
202.5052903922
 30
0.0
 11
717.3953825224
 21
202.5052903922
 31
0.0
  0
LINE
  5
477
  8
0
  6
CONTINUOUS
 62
     7
 10
718.1953841436
 20
202.5052903922
 30
0.0
 11
718.1953841436
 21
200.5052922995
 31
0.0
  0
LINE
  5
478
  8
0
  6
CONTINUOUS
 62
     7
 10
725.495379566
 20
200.5052922995
 30
0.0
 11
718.1953841436
 21
200.5052922995
 31
0.0
  0
ARC
  5
479
  8
0
  6
CONTINUOUS
 62
     7
 10
725.4953819502
 20
198.5052943022
 30
0.0
 40
2.0
 50
0.0
 51
90.0
  0
LINE
  5
47A
  8
0
  6
CONTINUOUS
 62
     7
 10
727.4953836191
 20
194.5052980216
 30
0.0
 11
727.4953836191
 21
198.5052942069
 31
0.0
  0
LINE
  5
47B
  8
0
  6
CONTINUOUS
 62
     7
 10
729.4953817117
 20
194.5052980216
 30
0.0
 11
727.4953836191
 21
194.5052980216
 31
0.0
  0
LINE
  5
47C
  8
0
  6
CONTINUOUS
 62
     7
 10
727.4953836191
 20
192.5052999289
 30
0.0
 11
729.4953817117
 21
192.5052999289
 31
0.0
  0
LINE
  5
47D
  8
0
  6
CONTINUOUS
 62
     7
 10
727.4953836191
 20
129.3052970202
 30
0.0
 11
727.4953836191
 21
192.5052999289
 31
0.0
  0
LINE
  5
47E
  8
0
  6
CONTINUOUS
 62
     7
 10
729.4953817117
 20
129.3052970202
 30
0.0
 11
727.4953836191
 21
129.3052970202
 31
0.0
  0
LINE
  5
47F
  8
0
  6
CONTINUOUS
 62
     7
 10
727.4953836191
 20
127.3052929671
 30
0.0
 11
729.4953817117
 21
127.3052929671
 31
0.0
  0
LINE
  5
480
  8
0
  6
CONTINUOUS
 62
     7
 10
727.4953836191
 20
71.9052939446
 30
0.0
 11
727.4953836191
 21
127.3052929671
 31
0.0
  0
LINE
  5
481
  8
0
  6
CONTINUOUS
 62
     7
 10
727.4953836191
 20
71.9052939446
 30
0.0
 11
717.3953825224
 21
71.9052939446
 31
0.0
  0
LINE
  5
482
  8
0
  6
CONTINUOUS
 62
     7
 10
717.3953825224
 20
191.3628457816
 30
0.0
 11
717.3953825224
 21
71.9052939446
 31
0.0
  0
CIRCLE
  5
483
  8
0
  6
CONTINUOUS
 62
     7
 10
623.4953819502
 20
79.9052943022
 30
0.0
 40
1.100000000000023
  0
CIRCLE
  5
484
  8
0
  6
CONTINUOUS
 62
     7
 10
723.4953819502
 20
79.9052943022
 30
0.0
 40
1.100000000000023
  0
LINE
  5
485
  8
0
  6
CONTINUOUS
 62
     7
 10
619.495385288
 20
194.5052980216
 30
0.0
 11
617.4953871954
 21
194.5052980216
 31
0.0
  0
LINE
  5
486
  8
0
  6
CONTINUOUS
 62
     7
 10
629.5953804243
 20
138.9052926333
 30
0.0
 11
717.3953825224
 21
138.9052926333
 31
0.0
  0
LINE
  5
487
  8
0
  6
CONTINUOUS
 62
     7
 10
628.795378803
 20
202.5052903922
 30
0.0
 11
628.795378803
 21
202.5115608008
 31
0.0
  0
LINE
  5
488
  8
0
  6
CONTINUOUS
 62
     7
 10
629.5953804243
 20
252.9393194945
 30
0.0
 11
629.5953804243
 21
253.1688212187
 31
0.0
  0
LINE
  5
489
  8
0
  6
CONTINUOUS
 62
     7
 10
629.5953804243
 20
253.1688212187
 30
0.0
 11
717.3953825224
 21
253.1688212187
 31
0.0
  0
LINE
  5
48A
  8
0
  6
CONTINUOUS
 62
     7
 10
717.3953825224
 20
252.9393194945
 30
0.0
 11
717.3953825224
 21
253.1688212187
 31
0.0
  0
LINE
  5
48B
  8
0
  6
CONTINUOUS
 62
     7
 10
718.1953841436
 20
204.2873262198
 30
0.0
 11
718.1953841436
 21
202.5052903922
 31
0.0
  0
LINE
  5
48C
  8
0
  6
CONTINUOUS
 62
     7
 10
629.6953850973
 20
253.4701226981
 30
0.0
 11
629.6953850973
 21
253.1688212187
 31
0.0
  0
LINE
  5
48D
  8
0
  6
CONTINUOUS
 62
     7
 10
717.2953838098
 20
253.4701226981
 30
0.0
 11
717.2953838098
 21
253.1688212187
 31
0.0
  0
LINE
  5
48E
  8
0
  6
CONTINUOUS
 62
     7
 10
636.4953809965
 20
55.9052943022
 30
0.0
 11
619.495385288
 21
55.9052943022
 31
0.0
  0
LINE
  5
48F
  8
0
  6
CONTINUOUS
 62
     7
 10
636.4953809965
 20
65.0052941174
 30
0.0
 11
629.5953804243
 21
71.9052939446
 31
0.0
  0
LINE
  5
490
  8
0
  6
CONTINUOUS
 62
     7
 10
636.4953809965
 20
55.9052943022
 30
0.0
 11
636.4953809965
 21
65.0052941174
 31
0.0
  0
LINE
  5
491
  8
0
  6
CONTINUOUS
 62
     7
 10
619.495385288
 20
55.9052943022
 30
0.0
 11
619.495385288
 21
71.9052939446
 31
0.0
  0
LINE
  5
492
  8
0
  6
CONTINUOUS
 62
     7
 10
727.4953836191
 20
55.9052943022
 30
0.0
 11
710.4953819502
 21
55.9052943022
 31
0.0
  0
LINE
  5
493
  8
0
  6
CONTINUOUS
 62
     7
 10
710.4953819502
 20
65.0052941174
 30
0.0
 11
710.4953819502
 21
55.9052943022
 31
0.0
  0
LINE
  5
494
  8
0
  6
CONTINUOUS
 62
     7
 10
717.3953825224
 20
71.9052939446
 30
0.0
 11
710.4953819502
 21
65.0052941174
 31
0.0
  0
LINE
  5
495
  8
0
  6
CONTINUOUS
 62
     7
 10
727.4953836191
 20
55.9052943022
 30
0.0
 11
727.4953836191
 21
71.9052939446
 31
0.0
  0
LINE
  5
496
  8
0
  6
CONTINUOUS
 62
     7
 10
717.2953838098
 20
253.4701226981
 30
0.0
 11
717.2877722967
 21
253.4777282507
 31
0.0
  0
LINE
  5
497
  8
0
  6
CONTINUOUS
 62
     7
 10
629.7029906499
 20
253.4777282507
 30
0.0
 11
629.6953850973
 21
253.4701226981
 31
0.0
  0
LINE
  5
498
  8
0
  6
CONTINUOUS
 62
     7
 10
718.1953841436
 20
204.2903660567
 30
0.0
 11
718.1953841436
 21
204.2873262198
 31
0.0
  0
ENDSEC
  0
EOF
