  0
SECTION
  2
HEADER
  9
$ACADVER
  1
AC1009
  9
$DWGCODEPAGE
  3
ansi_1252
  9
$INSBASE
 10
0.0
 20
0.0
 30
0.0
  9
$EXTMIN
 10
0.0
 20
0.0
 30
0.0
  9
$EXTMAX
 10
420.0
 20
297.0
 30
0.0
  9
$LIMMIN
 10
0.0
 20
0.0
  9
$LIMMAX
 10
420.0
 20
297.0
  9
$ORTHOMODE
 70
     0
  9
$REGENMODE
 70
     1
  9
$FILLMODE
 70
     1
  9
$QTEXTMODE
 70
     0
  9
$MIRRTEXT
 70
     1
  9
$DRAGMODE
 70
     2
  9
$LTSCALE
 40
1.0
  9
$OSMODE
 70
    37
  9
$ATTMODE
 70
     1
  9
$TEXTSIZE
 40
3.5
  9
$TRACEWID
 40
1.0
  9
$TEXTSTYLE
  7
STANDARD
  9
$CLAYER
  8
0
  9
$CELTYPE
  6
BYLAYER
  9
$CECOLOR
 62
   256
  9
$DIMSCALE
 40
1.0
  9
$DIMASZ
 40
4.0
  9
$DIMEXO
 40
0.0
  9
$DIMDLI
 40
3.75
  9
$DIMRND
 40
0.0
  9
$DIMDLE
 40
0.0
  9
$DIMEXE
 40
2.0
  9
$DIMTP
 40
0.0
  9
$DIMTM
 40
0.0
  9
$DIMTXT
 40
3.5
  9
$DIMCEN
 40
2.5
  9
$DIMTSZ
 40
0.0
  9
$DIMTOL
 70
     0
  9
$DIMLIM
 70
     0
  9
$DIMTIH
 70
     1
  9
$DIMTOH
 70
     1
  9
$DIMSE1
 70
     0
  9
$DIMSE2
 70
     0
  9
$DIMTAD
 70
     1
  9
$DIMZIN
 70
     0
  9
$DIMBLK
  1

  9
$DIMASO
 70
     1
  9
$DIMSHO
 70
     1
  9
$DIMPOST
  1

  9
$DIMAPOST
  1

  9
$DIMALT
 70
     0
  9
$DIMALTD
 70
     3
  9
$DIMALTF
 40
0.0393700787
  9
$DIMLFAC
 40
5.0
  9
$DIMTOFL
 70
     1
  9
$DIMTVP
 40
0.0
  9
$DIMTIX
 70
     0
  9
$DIMSOXD
 70
     0
  9
$DIMSAH
 70
     0
  9
$DIMBLK1
  1

  9
$DIMBLK2
  1

  9
$DIMSTYLE
  2
ISO-25
  9
$DIMCLRD
 70
     0
  9
$DIMCLRE
 70
     0
  9
$DIMCLRT
 70
     0
  9
$DIMTFAC
 40
1.0
  9
$DIMGAP
 40
1.524
  9
$LUNITS
 70
     2
  9
$LUPREC
 70
     2
  9
$SKETCHINC
 40
1.0
  9
$FILLETRAD
 40
10.0
  9
$AUNITS
 70
     0
  9
$AUPREC
 70
     2
  9
$MENU
  1
.
  9
$ELEVATION
 40
0.0
  9
$PELEVATION
 40
0.0
  9
$THICKNESS
 40
0.0
  9
$LIMCHECK
 70
     0
  9
$CHAMFERA
 40
10.0
  9
$CHAMFERB
 40
10.0
  9
$SKPOLY
 70
     0
  9
$TDCREATE
 40
2457801.418189583
  9
$TDUPDATE
 40
2457801.418189745
  9
$TDINDWG
 40
0.0000000116
  9
$TDUSRTIMER
 40
0.0000000116
  9
$USRTIMER
 70
     1
  9
$ANGBASE
 50
0.0
  9
$ANGDIR
 70
     0
  9
$PDMODE
 70
     0
  9
$PDSIZE
 40
-1.0
  9
$PLINEWID
 40
0.0
  9
$COORDS
 70
     1
  9
$SPLFRAME
 70
     0
  9
$SPLINETYPE
 70
     6
  9
$SPLINESEGS
 70
     8
  9
$ATTDIA
 70
     0
  9
$ATTREQ
 70
     1
  9
$HANDLING
 70
     1
  9
$HANDSEED
  5
224
  9
$SURFTAB1
 70
     6
  9
$SURFTAB2
 70
     6
  9
$SURFTYPE
 70
     6
  9
$SURFU
 70
     6
  9
$SURFV
 70
     6
  9
$UCSNAME
  2

  9
$UCSORG
 10
0.0
 20
0.0
 30
0.0
  9
$UCSXDIR
 10
1.0
 20
0.0
 30
0.0
  9
$UCSYDIR
 10
0.0
 20
1.0
 30
0.0
  9
$PUCSNAME
  2

  9
$PUCSORG
 10
0.0
 20
0.0
 30
0.0
  9
$PUCSXDIR
 10
1.0
 20
0.0
 30
0.0
  9
$PUCSYDIR
 10
0.0
 20
1.0
 30
0.0
  9
$USERI1
 70
     0
  9
$USERI2
 70
     0
  9
$USERI3
 70
     0
  9
$USERI4
 70
     0
  9
$USERI5
 70
     0
  9
$USERR1
 40
0.0
  9
$USERR2
 40
0.0
  9
$USERR3
 40
0.0
  9
$USERR4
 40
0.0
  9
$USERR5
 40
0.0
  9
$WORLDVIEW
 70
     1
  9
$SHADEDGE
 70
     3
  9
$SHADEDIF
 70
    70
  9
$TILEMODE
 70
     1
  9
$MAXACTVP
 70
    64
  9
$PLIMCHECK
 70
     0
  9
$PEXTMIN
 10
1.0000000000E+20
 20
1.0000000000E+20
 30
1.0000000000E+20
  9
$PEXTMAX
 10
-1.0000000000E+20
 20
-1.0000000000E+20
 30
-1.0000000000E+20
  9
$PLIMMIN
 10
0.0
 20
0.0
  9
$PLIMMAX
 10
420.0
 20
297.0
  9
$UNITMODE
 70
     0
  9
$VISRETAIN
 70
     1
  9
$PLINEGEN
 70
     0
  9
$PSLTSCALE
 70
     1
  0
ENDSEC
  0
SECTION
  2
TABLES
  0
TABLE
  2
VPORT
 70
     1
  0
VPORT
  2
*ACTIVE
 70
     0
 10
0.0
 20
0.0
 11
1.0
 21
1.0
 12
210.0
 22
148.5
 13
0.0
 23
0.0
 14
10.0
 24
10.0
 15
10.0
 25
10.0
 16
0.0
 26
0.0
 36
1.0
 17
0.0
 27
0.0
 37
0.0
 40
297.0
 41
1.4141414141
 42
50.0
 43
0.0
 44
0.0
 50
0.0
 51
0.0
 71
     0
 72
  2000
 73
     1
 74
     3
 75
     0
 76
     0
 77
     0
 78
     0
  0
ENDTAB
  0
TABLE
  2
LTYPE
 70
     6
  0
LTYPE
  2
CONTINUOUS
 70
     0
  3
Solid line
 72
    65
 73
     0
 40
0.0
  0
LTYPE
  2
HIDDEN
 70
     0
  3
Hidden __ __ __ __ __ __ __ __ __ __ __ __ __ __
 72
    65
 73
     2
 40
1.905
 49
1.27
 49
-0.635
  0
LTYPE
  2
PHANTOM
 70
     0
  3
Phantom ______  __  __  ______  __  __  ______
 72
    65
 73
     6
 40
12.7
 49
6.35
 49
-1.27
 49
1.27
 49
-1.27
 49
1.27
 49
-1.27
  0
LTYPE
  2
CENTER
 70
     0
  3
Center ____ _ ____ _ ____ _ ____ _ ____ _ ____
 72
    65
 73
     4
 40
10.16
 49
6.35
 49
-1.27
 49
1.27
 49
-1.27
  0
LTYPE
  2
CENTERX2
 70
     0
  3
Center (2x) ________  __  ________  __  _____
 72
    65
 73
     4
 40
20.32
 49
12.7
 49
-2.54
 49
2.54
 49
-2.54
  0
LTYPE
  2
DOT2
 70
     0
  3
Dot (.5x) ........................................
 72
    65
 73
     2
 40
0.635
 49
0.0
 49
-0.635
  0
ENDTAB
  0
TABLE
  2
LAYER
 70
     2
  0
LAYER
  2
0
 70
     0
 62
     7
  6
CONTINUOUS
  0
LAYER
  2
FORMAT
 70
     0
 62
     7
  6
CONTINUOUS
  0
ENDTAB
  0
TABLE
  2
STYLE
 70
     1
  0
STYLE
  2
STANDARD
 70
     0
 40
0.0
 41
1.0
 50
0.0
 71
     0
 42
3.5
  3
txt
  4

  0
ENDTAB
  0
TABLE
  2
VIEW
 70
     0
  0
ENDTAB
  0
TABLE
  2
UCS
 70
     0
  0
ENDTAB
  0
TABLE
  2
APPID
 70
     1
  0
APPID
  2
ACAD
 70
     0
  0
ENDTAB
  0
TABLE
  2
DIMSTYLE
 70
     1
  0
DIMSTYLE
  2
ISO-25
 70
     0
  3

  4

  5

  6

  7

 40
1.0
 41
2.5
 42
0.625
 43
3.75
 44
1.25
 45
0.0
 46
0.0
 47
0.0
 48
0.0
140
2.5
141
2.5
142
0.0
143
0.0393700787
144
1.0
145
0.0
146
1.0
147
0.625
 71
     0
 72
     0
 73
     0
 74
     0
 75
     0
 76
     0
 77
     1
 78
     8
170
     0
171
     3
172
     1
173
     0
174
     0
175
     0
176
     0
177
     0
178
     0
  0
ENDTAB
  0
ENDSEC
  0
SECTION
  2
BLOCKS
  0
BLOCK
  8
0
  2
$MODEL_SPACE
 70
     0
 10
0.0
 20
0.0
 30
0.0
  3
$MODEL_SPACE
  1

  0
ENDBLK
  5
21
  8
0
  0
BLOCK
 67
     1
  8
0
  2
$PAPER_SPACE
 70
     0
 10
0.0
 20
0.0
 30
0.0
  3
$PAPER_SPACE
  1

  0
ENDBLK
  5
1D
 67
     1
  8
0
  0
ENDSEC
  0
SECTION
  2
ENTITIES
  0
LINE
  5
45
  8
0
  6
CONTINUOUS
 62
     7
 10
142.573195266
 20
147.9356107781
 30
0.0
 11
142.473195266
 21
147.9356107781
 31
0.0
  0
LINE
  5
46
  8
0
  6
CONTINUOUS
 62
     7
 10
54.873195266
 20
147.9356107781
 30
0.0
 11
54.773195266
 21
147.9356107781
 31
0.0
  0
LINE
  5
47
  8
0
  6
CONTINUOUS
 62
     7
 10
54.773195266
 20
145.5356107781
 30
0.0
 11
54.873195266
 21
145.5356107781
 31
0.0
  0
LINE
  5
48
  8
0
  6
CONTINUOUS
 62
     7
 10
142.473195266
 20
145.5356107781
 30
0.0
 11
142.573195266
 21
145.5356107781
 31
0.0
  0
LINE
  5
49
  8
0
  6
CONTINUOUS
 62
     7
 10
143.373195266
 20
215.320685673
 30
0.0
 11
142.573195266
 21
215.320685673
 31
0.0
  0
LINE
  5
4A
  8
0
  6
CONTINUOUS
 62
     7
 10
54.773195266
 20
215.320685673
 30
0.0
 11
53.973195266
 21
215.320685673
 31
0.0
  0
LINE
  5
4B
  8
0
  6
CONTINUOUS
 62
     7
 10
142.4655846622
 20
264.5080501999
 30
0.0
 11
54.8808058699
 21
264.5080501999
 31
0.0
  0
ARC
  5
4C
  8
0
  6
CONTINUOUS
 62
     7
 10
154.673195266
 20
215.7317473415
 30
0.0
 40
0.4000000000000057
 50
0.0
 51
90.0
  0
ARC
  5
4D
  8
0
  6
CONTINUOUS
 62
     7
 10
143.773195266
 20
215.7317473415
 30
0.0
 40
0.4000000000000057
 50
90.0
 51
180.0
  0
LINE
  5
4E
  8
0
  6
CONTINUOUS
 62
     7
 10
154.673195266
 20
216.1317473415
 30
0.0
 11
143.773195266
 21
216.1317473415
 31
0.0
  0
ARC
  5
4F
  8
0
  6
CONTINUOUS
 62
     7
 10
42.673195266
 20
215.7317473415
 30
0.0
 40
0.4000000000000057
 50
90.0
 51
180.0
  0
ARC
  5
50
  8
0
  6
CONTINUOUS
 62
     7
 10
53.573195266
 20
215.7317473415
 30
0.0
 40
0.4000000000000057
 50
0.0
 51
90.0
  0
LINE
  5
51
  8
0
  6
CONTINUOUS
 62
     7
 10
53.573195266
 20
216.1317473415
 30
0.0
 11
42.673195266
 21
216.1317473415
 31
0.0
  0
LINE
  5
52
  8
0
  6
CONTINUOUS
 62
     7
 10
54.873195266
 20
144.3356107781
 30
0.0
 11
55.873195266
 21
144.3356107781
 31
0.0
  0
LINE
  5
53
  8
0
  6
CONTINUOUS
 62
     7
 10
55.873195266
 20
149.1356107781
 30
0.0
 11
54.873195266
 21
149.1356107781
 31
0.0
  0
LINE
  5
54
  8
0
  6
CONTINUOUS
 62
     7
 10
141.473195266
 20
144.3356107781
 30
0.0
 11
142.473195266
 21
144.3356107781
 31
0.0
  0
LINE
  5
55
  8
0
  6
CONTINUOUS
 62
     7
 10
142.473195266
 20
149.1356107781
 30
0.0
 11
141.473195266
 21
149.1356107781
 31
0.0
  0
LINE
  5
56
  8
0
  6
CONTINUOUS
 62
     7
 10
42.673195266
 20
66.9356107781
 30
0.0
 11
42.673195266
 21
128.1356107781
 31
0.0
  0
LINE
  5
57
  8
0
  6
CONTINUOUS
 62
     7
 10
43.073195266
 20
66.9356107781
 30
0.0
 11
42.673195266
 21
66.9356107781
 31
0.0
  0
LINE
  5
58
  8
0
  6
CONTINUOUS
 62
     7
 10
43.073195266
 20
66.9356107781
 30
0.0
 11
154.273195266
 21
66.9356107781
 31
0.0
  0
LINE
  5
59
  8
0
  6
CONTINUOUS
 62
     7
 10
143.373195266
 20
124.9356107781
 30
0.0
 11
143.373195266
 21
128.1356107781
 31
0.0
  0
LINE
  5
5A
  8
0
  6
CONTINUOUS
 62
     7
 10
143.373195266
 20
124.9356107781
 30
0.0
 11
143.773195266
 21
124.5356107781
 31
0.0
  0
ARC
  5
5B
  8
0
  6
CONTINUOUS
 62
     7
 10
143.773195266
 20
128.1356107781
 30
0.0
 40
0.4000000000000057
 50
90.0
 51
180.0
  0
LINE
  5
5C
  8
0
  6
CONTINUOUS
 62
     7
 10
53.973195266
 20
124.9356107781
 30
0.0
 11
143.373195266
 21
124.9356107781
 31
0.0
  0
LINE
  5
5D
  8
0
  6
CONTINUOUS
 62
     7
 10
53.973195266
 20
124.9356107781
 30
0.0
 11
53.573195266
 21
124.5356107781
 31
0.0
  0
LINE
  5
5E
  8
0
  6
CONTINUOUS
 62
     7
 10
43.073195266
 20
128.5356107781
 30
0.0
 11
53.573195266
 21
128.5356107781
 31
0.0
  0
LINE
  5
5F
  8
0
  6
CONTINUOUS
 62
     7
 10
143.773195266
 20
128.5356107781
 30
0.0
 11
154.273195266
 21
128.5356107781
 31
0.0
  0
ARC
  5
60
  8
0
  6
CONTINUOUS
 62
     7
 10
53.573195266
 20
128.1356107781
 30
0.0
 40
0.4000000000000057
 50
0.0
 51
90.0
  0
LINE
  5
61
  8
0
  6
CONTINUOUS
 62
     7
 10
53.973195266
 20
128.1356107781
 30
0.0
 11
53.973195266
 21
124.9356107781
 31
0.0
  0
LINE
  5
62
  8
0
  6
CONTINUOUS
 62
     7
 10
154.673195266
 20
128.1356107781
 30
0.0
 11
154.673195266
 21
66.9356107781
 31
0.0
  0
LINE
  5
63
  8
0
  6
CONTINUOUS
 62
     7
 10
154.673195266
 20
66.9356107781
 30
0.0
 11
154.273195266
 21
66.9356107781
 31
0.0
  0
ARC
  5
64
  8
0
  6
CONTINUOUS
 62
     7
 10
43.073195266
 20
128.1356107781
 30
0.0
 40
0.4000000000000057
 50
90.0
 51
180.0
  0
ARC
  5
65
  8
0
  6
CONTINUOUS
 62
     7
 10
154.273195266
 20
128.1356107781
 30
0.0
 40
0.4000000000000057
 50
0.0
 51
90.0
  0
LINE
  5
66
  8
0
  6
CONTINUOUS
 62
     7
 10
142.573195266
 20
130.9356107781
 30
0.0
 11
54.773195266
 21
130.9356107781
 31
0.0
  0
LINE
  5
67
  8
0
  6
CONTINUOUS
 62
     7
 10
143.373195266
 20
129.5356107781
 30
0.0
 11
142.573195266
 21
129.5356107781
 31
0.0
  0
LINE
  5
68
  8
0
  6
CONTINUOUS
 62
     7
 10
142.573195266
 20
129.5356107781
 30
0.0
 11
142.573195266
 21
130.4053353723
 31
0.0
  0
LINE
  5
69
  8
0
  6
CONTINUOUS
 62
     7
 10
54.773195266
 20
130.4053353723
 30
0.0
 11
54.773195266
 21
129.5356107781
 31
0.0
  0
LINE
  5
6A
  8
0
  6
CONTINUOUS
 62
     7
 10
54.773195266
 20
129.5356107781
 30
0.0
 11
53.973195266
 21
129.5356107781
 31
0.0
  0
LINE
  5
6B
  8
0
  6
CONTINUOUS
 62
     7
 10
142.573195266
 20
211.3611702188
 30
0.0
 11
142.573195266
 21
130.4053353723
 31
0.0
  0
LINE
  5
6C
  8
0
  6
CONTINUOUS
 62
     7
 10
54.773195266
 20
130.4053353723
 30
0.0
 11
54.773195266
 21
211.3611702188
 31
0.0
  0
LINE
  5
6D
  8
0
  6
CONTINUOUS
 62
     7
 10
54.773195266
 20
212.0164918543
 30
0.0
 11
54.773195266
 21
211.3611702188
 31
0.0
  0
LINE
  5
6E
  8
0
  6
CONTINUOUS
 62
     7
 10
142.573195266
 20
211.3611702188
 30
0.0
 11
142.573195266
 21
212.0164918543
 31
0.0
  0
LINE
  5
6F
  8
0
  6
CONTINUOUS
 62
     7
 10
142.573195266
 20
215.2457319027
 30
0.0
 11
142.573195266
 21
212.0164918543
 31
0.0
  0
LINE
  5
70
  8
0
  6
CONTINUOUS
 62
     7
 10
54.773195266
 20
212.0164918543
 30
0.0
 11
54.773195266
 21
215.2457319027
 31
0.0
  0
LINE
  5
71
  8
0
  6
CONTINUOUS
 62
     7
 10
49.773195266
 20
128.9356107781
 30
0.0
 11
49.773195266
 21
128.5356107781
 31
0.0
  0
LINE
  5
72
  8
0
  6
CONTINUOUS
 62
     7
 10
54.773195266
 20
129.5356107781
 30
0.0
 11
54.773195266
 21
124.9356107781
 31
0.0
  0
LINE
  5
73
  8
0
  6
CONTINUOUS
 62
     7
 10
147.573195266
 20
128.9356107781
 30
0.0
 11
147.573195266
 21
128.5356107781
 31
0.0
  0
LINE
  5
74
  8
0
  6
CONTINUOUS
 62
     7
 10
142.573195266
 20
129.5356107781
 30
0.0
 11
142.573195266
 21
124.9356107781
 31
0.0
  0
LINE
  5
75
  8
0
  6
CONTINUOUS
 62
     7
 10
142.573195266
 20
215.2457319027
 30
0.0
 11
142.573195266
 21
215.320685673
 31
0.0
  0
LINE
  5
76
  8
0
  6
CONTINUOUS
 62
     7
 10
54.773195266
 20
215.320685673
 30
0.0
 11
54.773195266
 21
215.2457319027
 31
0.0
  0
POLYLINE
  5
77
  8
0
  6
CONTINUOUS
 62
     7
 66
     1
 10
0.0
 20
0.0
 30
0.0
  0
VERTEX
  5
1D4
  8
0
  6
CONTINUOUS
 62
     7
 10
140.473195266
 20
262.6823616854
 30
0.0
  0
VERTEX
  5
1D5
  8
0
  6
CONTINUOUS
 62
     7
 10
140.8204916214
 20
263.0256882901
 30
0.0
  0
VERTEX
  5
1D6
  8
0
  6
CONTINUOUS
 62
     7
 10
141.1572355527
 20
263.3532867234
 30
0.0
  0
VERTEX
  5
1D7
  8
0
  6
CONTINUOUS
 62
     7
 10
141.473195266
 20
263.6552030726
 30
0.0
  0
VERTEX
  5
1D8
  8
0
  6
CONTINUOUS
 62
     7
 10
141.7587704854
 20
263.9222637623
 30
0.0
  0
VERTEX
  5
1D9
  8
0
  6
CONTINUOUS
 62
     7
 10
142.0052841523
 20
264.1463542885
 30
0.0
  0
VERTEX
  5
1DA
  8
0
  6
CONTINUOUS
 62
     7
 10
142.2052460736
 20
264.320665774
 30
0.0
  0
VERTEX
  5
1DB
  8
0
  6
CONTINUOUS
 62
     7
 10
142.3525805076
 20
264.4399018525
 30
0.0
  0
VERTEX
  5
1DC
  8
0
  6
CONTINUOUS
 62
     7
 10
142.4428107721
 20
264.5004395961
 30
0.0
  0
VERTEX
  5
1DD
  8
0
  6
CONTINUOUS
 62
     7
 10
142.473195266
 20
264.5004395961
 30
0.0
  0
SEQEND
  5
223
  8
0
  6
CONTINUOUS
 62
     7
  0
LINE
  5
78
  8
0
  6
CONTINUOUS
 62
     7
 10
142.473195266
 20
264.5004395961
 30
0.0
 11
142.473195266
 21
151.9304387117
 31
0.0
  0
ARC
  5
79
  8
0
  6
CONTINUOUS
 62
     7
 10
136.3390416841
 20
147.5427036589
 30
0.0
 40
7.541886969532341
 50
35.5759859176
 51
46.0515297741
  0
ARC
  5
7A
  8
0
  6
CONTINUOUS
 62
     7
 10
61.007348848
 20
147.5427036589
 30
0.0
 40
7.541886969528135
 50
133.9484702258
 51
144.4240140824
  0
LINE
  5
7B
  8
0
  6
CONTINUOUS
 62
     7
 10
54.873195266
 20
151.9304387117
 30
0.0
 11
54.873195266
 21
264.5004395961
 31
0.0
  0
POLYLINE
  5
7C
  8
0
  6
CONTINUOUS
 62
     7
 66
     1
 10
0.0
 20
0.0
 30
0.0
  0
VERTEX
  5
1DE
  8
0
  6
CONTINUOUS
 62
     7
 10
54.873195266
 20
264.5004395961
 30
0.0
  0
VERTEX
  5
1DF
  8
0
  6
CONTINUOUS
 62
     7
 10
54.90357976
 20
264.5004395961
 30
0.0
  0
VERTEX
  5
1E0
  8
0
  6
CONTINUOUS
 62
     7
 10
54.9938100245
 20
264.4399018525
 30
0.0
  0
VERTEX
  5
1E1
  8
0
  6
CONTINUOUS
 62
     7
 10
55.1411444585
 20
264.320665774
 30
0.0
  0
VERTEX
  5
1E2
  8
0
  6
CONTINUOUS
 62
     7
 10
55.3411063798
 20
264.1463542885
 30
0.0
  0
VERTEX
  5
1E3
  8
0
  6
CONTINUOUS
 62
     7
 10
55.5876200467
 20
263.9222637623
 30
0.0
  0
VERTEX
  5
1E4
  8
0
  6
CONTINUOUS
 62
     7
 10
55.873195266
 20
263.6552030726
 30
0.0
  0
VERTEX
  5
1E5
  8
0
  6
CONTINUOUS
 62
     7
 10
56.1891549794
 20
263.3532867234
 30
0.0
  0
VERTEX
  5
1E6
  8
0
  6
CONTINUOUS
 62
     7
 10
56.5258989107
 20
263.0256882901
 30
0.0
  0
VERTEX
  5
1E7
  8
0
  6
CONTINUOUS
 62
     7
 10
56.873195266
 20
262.6823616854
 30
0.0
  0
SEQEND
  5
222
  8
0
  6
CONTINUOUS
 62
     7
  0
LINE
  5
7D
  8
0
  6
CONTINUOUS
 62
     7
 10
54.873195266
 20
151.5295222951
 30
0.0
 11
55.773195266
 21
151.5295222951
 31
0.0
  0
LINE
  5
7E
  8
0
  6
CONTINUOUS
 62
     7
 10
141.573195266
 20
151.5295222951
 30
0.0
 11
142.473195266
 21
151.5295222951
 31
0.0
  0
LINE
  5
7F
  8
0
  6
CONTINUOUS
 62
     7
 10
142.473195266
 20
151.9304387117
 30
0.0
 11
142.473195266
 21
151.5295222951
 31
0.0
  0
LINE
  5
80
  8
0
  6
CONTINUOUS
 62
     7
 10
54.873195266
 20
151.9304387117
 30
0.0
 11
54.873195266
 21
151.5295222951
 31
0.0
  0
LINE
  5
81
  8
0
  6
CONTINUOUS
 62
     7
 10
54.773195266
 20
264.1991426493
 30
0.0
 11
54.773195266
 21
215.320685673
 31
0.0
  0
LINE
  5
82
  8
0
  6
CONTINUOUS
 62
     7
 10
142.573195266
 20
264.1991426493
 30
0.0
 11
142.473195266
 21
264.1991426493
 31
0.0
  0
LINE
  5
83
  8
0
  6
CONTINUOUS
 62
     7
 10
54.873195266
 20
264.1991426493
 30
0.0
 11
54.773195266
 21
264.1991426493
 31
0.0
  0
LINE
  5
84
  8
0
  6
CONTINUOUS
 62
     7
 10
142.573195266
 20
264.1991426493
 30
0.0
 11
142.573195266
 21
215.320685673
 31
0.0
  0
LINE
  5
85
  8
0
  6
CONTINUOUS
 62
     7
 10
55.873195266
 20
149.9356107781
 30
0.0
 11
54.773195266
 21
149.9356107781
 31
0.0
  0
LINE
  5
86
  8
0
  6
CONTINUOUS
 62
     7
 10
142.573195266
 20
149.9356107781
 30
0.0
 11
141.473195266
 21
149.9356107781
 31
0.0
  0
LINE
  5
87
  8
0
  6
CONTINUOUS
 62
     7
 10
44.673195266
 20
128.5356107781
 30
0.0
 11
44.673195266
 21
128.9356107781
 31
0.0
  0
LINE
  5
88
  8
0
  6
CONTINUOUS
 62
     7
 10
152.673195266
 20
128.9356107781
 30
0.0
 11
152.673195266
 21
128.5356107781
 31
0.0
  0
LINE
  5
89
  8
0
  6
CONTINUOUS
 62
     7
 10
154.673195266
 20
128.9356107781
 30
0.0
 11
143.773195266
 21
128.9356107781
 31
0.0
  0
ARC
  5
8A
  8
0
  6
CONTINUOUS
 62
     7
 10
143.773195266
 20
129.3356107781
 30
0.0
 40
0.3999999999999773
 50
180.0
 51
270.0
  0
ARC
  5
8B
  8
0
  6
CONTINUOUS
 62
     7
 10
154.673195266
 20
129.3356107781
 30
0.0
 40
0.4000000000000057
 50
270.0
 51
0.0
  0
LINE
  5
8C
  8
0
  6
CONTINUOUS
 62
     7
 10
155.073195266
 20
211.9704954352
 30
0.0
 11
155.073195266
 21
129.3356107781
 31
0.0
  0
LINE
  5
8D
  8
0
  6
CONTINUOUS
 62
     7
 10
143.373195266
 20
129.3356107781
 30
0.0
 11
143.373195266
 21
211.9704954352
 31
0.0
  0
LINE
  5
8E
  8
0
  6
CONTINUOUS
 62
     7
 10
143.373195266
 20
211.9704954352
 30
0.0
 11
143.373195266
 21
215.7317473415
 31
0.0
  0
LINE
  5
8F
  8
0
  6
CONTINUOUS
 62
     7
 10
155.073195266
 20
215.7317473415
 30
0.0
 11
155.073195266
 21
211.9704954352
 31
0.0
  0
LINE
  5
90
  8
0
  6
CONTINUOUS
 62
     7
 10
53.573195266
 20
128.9356107781
 30
0.0
 11
42.673195266
 21
128.9356107781
 31
0.0
  0
ARC
  5
91
  8
0
  6
CONTINUOUS
 62
     7
 10
53.573195266
 20
129.3356107781
 30
0.0
 40
0.3999999999999986
 50
270.0
 51
0.0
  0
ARC
  5
92
  8
0
  6
CONTINUOUS
 62
     7
 10
42.673195266
 20
129.3356107781
 30
0.0
 40
0.3999999999999986
 50
180.0
 51
270.0
  0
LINE
  5
93
  8
0
  6
CONTINUOUS
 62
     7
 10
53.973195266
 20
211.9704954352
 30
0.0
 11
53.973195266
 21
129.3356107781
 31
0.0
  0
LINE
  5
94
  8
0
  6
CONTINUOUS
 62
     7
 10
42.273195266
 20
129.3356107781
 30
0.0
 11
42.273195266
 21
211.9704954352
 31
0.0
  0
LINE
  5
95
  8
0
  6
CONTINUOUS
 62
     7
 10
53.973195266
 20
215.7317473415
 30
0.0
 11
53.973195266
 21
211.9704954352
 31
0.0
  0
LINE
  5
96
  8
0
  6
CONTINUOUS
 62
     7
 10
42.273195266
 20
211.9704954352
 30
0.0
 11
42.273195266
 21
215.7317473415
 31
0.0
  0
LINE
  5
97
  8
0
  6
CONTINUOUS
 62
     7
 10
141.473195266
 20
150.3356107781
 30
0.0
 11
141.473195266
 21
150.2356107781
 31
0.0
  0
LINE
  5
98
  8
0
  6
CONTINUOUS
 62
     7
 10
141.573195266
 20
150.3356107781
 30
0.0
 11
141.073195266
 21
150.3356107781
 31
0.0
  0
LINE
  5
99
  8
0
  6
CONTINUOUS
 62
     7
 10
56.273195266
 20
150.3356107781
 30
0.0
 11
55.773195266
 21
150.3356107781
 31
0.0
  0
LINE
  5
9A
  8
0
  6
CONTINUOUS
 62
     7
 10
55.773195266
 20
154.5356107781
 30
0.0
 11
55.773195266
 21
150.3356107781
 31
0.0
  0
LINE
  5
9B
  8
0
  6
CONTINUOUS
 62
     7
 10
141.573195266
 20
154.5356107781
 30
0.0
 11
141.573195266
 21
150.3356107781
 31
0.0
  0
LINE
  5
9C
  8
0
  6
CONTINUOUS
 62
     7
 10
55.873195266
 20
150.2356107781
 30
0.0
 11
55.873195266
 21
150.3356107781
 31
0.0
  0
LINE
  5
9D
  8
0
  6
CONTINUOUS
 62
     7
 10
58.173195266
 20
156.9356107781
 30
0.0
 11
139.173195266
 21
156.9356107781
 31
0.0
  0
ARC
  5
9E
  8
0
  6
CONTINUOUS
 62
     7
 10
139.173195266
 20
154.5356107781
 30
0.0
 40
2.400000000000006
 50
0.0
 51
90.0
  0
ARC
  5
9F
  8
0
  6
CONTINUOUS
 62
     7
 10
58.173195266
 20
154.5356107781
 30
0.0
 40
2.400000000000013
 50
90.0
 51
180.0
  0
LINE
  5
A0
  8
0
  6
CONTINUOUS
 62
     7
 10
55.873195266
 20
142.7356107781
 30
0.0
 11
55.873195266
 21
150.2356107781
 31
0.0
  0
LINE
  5
A1
  8
0
  6
CONTINUOUS
 62
     7
 10
141.473195266
 20
150.2356107781
 30
0.0
 11
141.473195266
 21
142.7356107781
 31
0.0
  0
ARC
  5
A2
  8
0
  6
CONTINUOUS
 62
     7
 10
56.273195266
 20
142.7356107781
 30
0.0
 40
0.4000000000000057
 50
180.0
 51
270.0
  0
LINE
  5
A3
  8
0
  6
CONTINUOUS
 62
     7
 10
141.073195266
 20
142.3356107781
 30
0.0
 11
56.273195266
 21
142.3356107781
 31
0.0
  0
ARC
  5
A4
  8
0
  6
CONTINUOUS
 62
     7
 10
141.073195266
 20
142.7356107781
 30
0.0
 40
0.4000000000000057
 50
270.0
 51
0.0
  0
LINE
  5
A5
  8
0
  6
CONTINUOUS
 62
     7
 10
54.873195266
 20
149.1356107781
 30
0.0
 11
54.873195266
 21
144.3356107781
 31
0.0
  0
LINE
  5
A6
  8
0
  6
CONTINUOUS
 62
     7
 10
142.473195266
 20
149.1356107781
 30
0.0
 11
142.473195266
 21
144.3356107781
 31
0.0
  0
LINE
  5
A7
  8
0
  6
CONTINUOUS
 62
     7
 10
277.7148693785
 20
128.5356104443
 30
0.0
 11
303.3148705944
 21
128.5356104443
 31
0.0
  0
LINE
  5
A8
  8
0
  6
CONTINUOUS
 62
     7
 10
277.7148693785
 20
128.1356096337
 30
0.0
 11
277.7148693785
 21
128.5356104443
 31
0.0
  0
LINE
  5
A9
  8
0
  6
CONTINUOUS
 62
     7
 10
277.7148693785
 20
66.9356107781
 30
0.0
 11
303.3148705944
 21
66.9356107781
 31
0.0
  0
LINE
  5
AA
  8
0
  6
CONTINUOUS
 62
     7
 10
277.7148693785
 20
128.1356096337
 30
0.0
 11
277.7148693785
 21
66.9356107781
 31
0.0
  0
ARC
  5
AB
  8
0
  6
CONTINUOUS
 62
     7
 10
303.3148693785
 20
128.1356107781
 30
0.0
 40
0.4000000000000057
 50
0.0
 51
90.0
  0
LINE
  5
AC
  8
0
  6
CONTINUOUS
 62
     7
 10
303.7148684248
 20
128.1356096337
 30
0.0
 11
303.7148684248
 21
66.9356107781
 31
0.0
  0
LINE
  5
AD
  8
0
  6
CONTINUOUS
 62
     7
 10
303.7148684248
 20
66.9356107781
 30
0.0
 11
303.3148705944
 21
66.9356107781
 31
0.0
  0
LINE
  5
AE
  8
0
  6
CONTINUOUS
 62
     7
 10
278.5148694165
 20
128.5356104443
 30
0.0
 11
278.5148694165
 21
128.935611255
 31
0.0
  0
LINE
  5
AF
  8
0
  6
CONTINUOUS
 62
     7
 10
277.7148693785
 20
128.5356104443
 30
0.0
 11
277.7148693785
 21
128.935611255
 31
0.0
  0
LINE
  5
B0
  8
0
  6
CONTINUOUS
 62
     7
 10
301.5148699269
 20
128.935611255
 30
0.0
 11
301.5148699269
 21
128.5356104443
 31
0.0
  0
LINE
  5
B1
  8
0
  6
CONTINUOUS
 62
     7
 10
302.314870058
 20
128.935611255
 30
0.0
 11
302.314870058
 21
128.5356104443
 31
0.0
  0
LINE
  5
B2
  8
0
  6
CONTINUOUS
 62
     7
 10
280.3381057441
 20
264.1991376946
 30
0.0
 11
284.6453502759
 21
214.9671077798
 31
0.0
  0
LINE
  5
B3
  8
0
  6
CONTINUOUS
 62
     7
 10
277.7148693785
 20
263.9696359704
 30
0.0
 11
280.3381057441
 21
264.1991376946
 31
0.0
  0
LINE
  5
B4
  8
0
  6
CONTINUOUS
 62
     7
 10
277.7148693785
 20
214.306974418
 30
0.0
 11
277.7148693785
 21
263.9696359704
 31
0.0
  0
LINE
  5
B5
  8
0
  6
CONTINUOUS
 62
     7
 10
284.9293172344
 20
264.500439174
 30
0.0
 11
280.346821247
 21
264.0995264123
 31
0.0
  0
ARC
  5
B6
  8
0
  6
CONTINUOUS
 62
     7
 10
285.1036320891
 20
262.5080538709
 30
0.0
 40
1.999996216115787
 50
5.0000388656
 51
95.0001063734
  0
LINE
  5
B7
  8
0
  6
CONTINUOUS
 62
     7
 10
287.0960175976
 20
262.6823663781
 30
0.0
 11
291.2202358231
 21
215.5423402856
 31
0.0
  0
LINE
  5
B8
  8
0
  6
CONTINUOUS
 62
     7
 10
277.7148693785
 20
213.9592409203
 30
0.0
 11
277.7148693785
 21
129.3356120656
 31
0.0
  0
LINE
  5
B9
  8
0
  6
CONTINUOUS
 62
     7
 10
277.7148693785
 20
214.306974418
 30
0.0
 11
277.7195400405
 21
214.3073797295
 31
0.0
  0
POLYLINE
  5
BA
  8
0
  6
CONTINUOUS
 62
     7
 66
     1
 10
0.0
 20
0.0
 30
0.0
  0
VERTEX
  5
1E8
  8
0
  6
CONTINUOUS
 62
     7
 10
277.7195400405
 20
214.3073797295
 30
0.0
  0
VERTEX
  5
1E9
  8
0
  6
CONTINUOUS
 62
     7
 10
277.7184646318
 20
214.3196702073
 30
0.0
  0
VERTEX
  5
1EA
  8
0
  6
CONTINUOUS
 62
     7
 10
277.7175231129
 20
214.3304348061
 30
0.0
  0
VERTEX
  5
1EB
  8
0
  6
CONTINUOUS
 62
     7
 10
277.7167195161
 20
214.3396258424
 30
0.0
  0
VERTEX
  5
1EC
  8
0
  6
CONTINUOUS
 62
     7
 10
277.7160572824
 20
214.3471956323
 30
0.0
  0
VERTEX
  5
1ED
  8
0
  6
CONTINUOUS
 62
     7
 10
277.7155392478
 20
214.353108413
 30
0.0
  0
VERTEX
  5
1EE
  8
0
  6
CONTINUOUS
 62
     7
 10
277.7151676303
 20
214.3573641847
 30
0.0
  0
VERTEX
  5
1EF
  8
0
  6
CONTINUOUS
 62
     7
 10
277.7149440213
 20
214.3599152635
 30
0.0
  0
VERTEX
  5
1F0
  8
0
  6
CONTINUOUS
 62
     7
 10
277.7148693785
 20
214.3607735703
 30
0.0
  0
SEQEND
  5
221
  8
0
  6
CONTINUOUS
 62
     7
  0
LINE
  5
BB
  8
0
  6
CONTINUOUS
 62
     7
 10
277.7148693785
 20
214.3607735703
 30
0.0
 11
297.9398369774
 21
216.130220897
 31
0.0
  0
LINE
  5
BC
  8
0
  6
CONTINUOUS
 62
     7
 10
277.7148693785
 20
213.9592409203
 30
0.0
 11
277.7148693785
 21
214.306974418
 31
0.0
  0
LINE
  5
BD
  8
0
  6
CONTINUOUS
 62
     7
 10
313.2703453287
 20
128.935611255
 30
0.0
 11
277.7148693785
 21
128.935611255
 31
0.0
  0
LINE
  5
BE
  8
0
  6
CONTINUOUS
 62
     7
 10
277.7148693785
 20
128.935611255
 30
0.0
 11
277.7148693785
 21
129.3356120656
 31
0.0
  0
LINE
  5
BF
  8
0
  6
CONTINUOUS
 62
     7
 10
298.1437474474
 20
216.0942673753
 30
0.0
 11
306.2097787842
 21
212.3330235551
 31
0.0
  0
ARC
  5
C0
  8
0
  6
CONTINUOUS
 62
     7
 10
297.9746996159
 20
215.7317473415
 30
0.0
 40
0.4000000000000127
 50
65.0
 51
95.0
  0
LINE
  5
C1
  8
0
  6
CONTINUOUS
 62
     7
 10
306.4392089829
 20
212.0053529809
 30
0.0
 11
313.6688232407
 21
129.3704748223
 31
0.0
  0
ARC
  5
C2
  8
0
  6
CONTINUOUS
 62
     7
 10
306.0407303588
 20
211.9704954352
 30
0.0
 40
0.3999999999999917
 50
5.0
 51
65.0
  0
ARC
  5
C3
  8
0
  6
CONTINUOUS
 62
     7
 10
313.2703459781
 20
129.3356107781
 30
0.0
 40
0.3999999999999819
 50
270.0
 51
5.0
  0
LINE
  5
C4
  8
0
  6
CONTINUOUS
 62
     7
 10
311.2571865305
 20
156.9356083939
 30
0.0
 11
374.9148696646
 21
156.9356083939
 31
0.0
  0
ARC
  5
C5
  8
0
  6
CONTINUOUS
 62
     7
 10
374.9148772153
 20
154.5356170414
 30
0.0
 40
2.399991352544843
 50
359.9998197387
 51
90.0001802613
  0
LINE
  5
C6
  8
0
  6
CONTINUOUS
 62
     7
 10
377.3148685679
 20
154.5356094907
 30
0.0
 11
377.3148685679
 21
150.3356099198
 31
0.0
  0
LINE
  5
C7
  8
0
  6
CONTINUOUS
 62
     7
 10
377.3148685679
 20
150.3356099198
 30
0.0
 11
311.8346124872
 21
150.3356099198
 31
0.0
  0
LINE
  5
C8
  8
0
  6
CONTINUOUS
 62
     7
 10
372.5579470381
 20
142.3356115888
 30
0.0
 11
312.5345200285
 21
142.3356115888
 31
0.0
  0
LINE
  5
C9
  8
0
  6
CONTINUOUS
 62
     7
 10
377.2344857439
 20
150.0356078217
 30
0.0
 11
372.9043573126
 21
142.5356090138
 31
0.0
  0
ARC
  5
CA
  8
0
  6
CONTINUOUS
 62
     7
 10
372.5579474403
 20
142.7356107781
 30
0.0
 40
0.4000000000000057
 50
270.0
 51
330.0
  0
ARC
  5
CB
  8
0
  6
CONTINUOUS
 62
     7
 10
376.7148693785
 20
150.3356107781
 30
0.0
 40
0.5999999999999521
 50
330.0
 51
0.0
  0
LINE
  5
CC
  8
0
  6
CONTINUOUS
 62
     7
 10
458.3204394927
 20
128.5356107781
 30
0.0
 11
483.9204394927
 21
128.5356107781
 31
0.0
  0
LINE
  5
CD
  8
0
  6
CONTINUOUS
 62
     7
 10
458.3204394927
 20
128.1356107781
 30
0.0
 11
458.3204394927
 21
128.5356107781
 31
0.0
  0
LINE
  5
CE
  8
0
  6
CONTINUOUS
 62
     7
 10
458.3204394927
 20
66.9356107781
 30
0.0
 11
483.9204394927
 21
66.9356107781
 31
0.0
  0
LINE
  5
CF
  8
0
  6
CONTINUOUS
 62
     7
 10
458.3204394927
 20
128.1356107781
 30
0.0
 11
458.3204394927
 21
66.9356107781
 31
0.0
  0
ARC
  5
D0
  8
0
  6
CONTINUOUS
 62
     7
 10
483.9204394927
 20
128.1356107781
 30
0.0
 40
0.4000000000000057
 50
0.0
 51
90.0
  0
LINE
  5
D1
  8
0
  6
CONTINUOUS
 62
     7
 10
484.3204394927
 20
128.1356107781
 30
0.0
 11
484.3204394927
 21
66.9356107781
 31
0.0
  0
LINE
  5
D2
  8
0
  6
CONTINUOUS
 62
     7
 10
484.3204394927
 20
66.9356107781
 30
0.0
 11
483.9204394927
 21
66.9356107781
 31
0.0
  0
LINE
  5
D3
  8
0
  6
CONTINUOUS
 62
     7
 10
459.1204394927
 20
128.5356107781
 30
0.0
 11
459.1204394927
 21
128.9356107781
 31
0.0
  0
LINE
  5
D4
  8
0
  6
CONTINUOUS
 62
     7
 10
458.3204394927
 20
128.5356107781
 30
0.0
 11
458.3204394927
 21
128.9356107781
 31
0.0
  0
LINE
  5
D5
  8
0
  6
CONTINUOUS
 62
     7
 10
482.1204394927
 20
128.9356107781
 30
0.0
 11
482.1204394927
 21
128.5356107781
 31
0.0
  0
LINE
  5
D6
  8
0
  6
CONTINUOUS
 62
     7
 10
482.9204394927
 20
128.9356107781
 30
0.0
 11
482.9204394927
 21
128.5356107781
 31
0.0
  0
LINE
  5
D7
  8
0
  6
CONTINUOUS
 62
     7
 10
460.9436757996
 20
264.1991426493
 30
0.0
 11
465.2509206837
 21
214.9671083428
 31
0.0
  0
LINE
  5
D8
  8
0
  6
CONTINUOUS
 62
     7
 10
458.3204394927
 20
263.9696392107
 30
0.0
 11
460.9436757996
 21
264.1991426493
 31
0.0
  0
LINE
  5
D9
  8
0
  6
CONTINUOUS
 62
     7
 10
458.3204394927
 20
214.3069752629
 30
0.0
 11
458.3204394927
 21
263.9696392107
 31
0.0
  0
LINE
  5
DA
  8
0
  6
CONTINUOUS
 62
     7
 10
465.534886985
 20
264.5004395961
 30
0.0
 11
460.9523913738
 21
264.0995231794
 31
0.0
  0
ARC
  5
DB
  8
0
  6
CONTINUOUS
 62
     7
 10
465.7091984705
 20
262.5080501999
 30
0.0
 40
2.00000000000002
 50
5.0
 51
95.0
  0
LINE
  5
DC
  8
0
  6
CONTINUOUS
 62
     7
 10
467.7015878667
 20
262.6823616854
 30
0.0
 11
471.8258056911
 21
215.5423362449
 31
0.0
  0
LINE
  5
DD
  8
0
  6
CONTINUOUS
 62
     7
 10
458.3204394927
 20
213.9592418708
 30
0.0
 11
458.3204394927
 21
129.3356107781
 31
0.0
  0
LINE
  5
DE
  8
0
  6
CONTINUOUS
 62
     7
 10
458.3204394927
 20
214.3069752629
 30
0.0
 11
458.3251101549
 21
214.3073838928
 31
0.0
  0
LINE
  5
DF
  8
0
  6
CONTINUOUS
 62
     7
 10
458.3251101549
 20
214.3073838928
 30
0.0
 11
458.3204394927
 21
214.3607698058
 31
0.0
  0
LINE
  5
E0
  8
0
  6
CONTINUOUS
 62
     7
 10
458.3204394927
 20
214.3607698058
 30
0.0
 11
478.5454074331
 21
216.1302252208
 31
0.0
  0
LINE
  5
E1
  8
0
  6
CONTINUOUS
 62
     7
 10
458.3204394927
 20
213.9592418708
 30
0.0
 11
458.3204394927
 21
214.3069752629
 31
0.0
  0
LINE
  5
E2
  8
0
  6
CONTINUOUS
 62
     7
 10
493.8759160923
 20
128.9356107781
 30
0.0
 11
458.3204394927
 21
128.9356107781
 31
0.0
  0
LINE
  5
E3
  8
0
  6
CONTINUOUS
 62
     7
 10
458.3204394927
 20
128.9356107781
 30
0.0
 11
458.3204394927
 21
129.3356107781
 31
0.0
  0
LINE
  5
E4
  8
0
  6
CONTINUOUS
 62
     7
 10
478.7493170348
 20
216.0942704564
 30
0.0
 11
486.8153477777
 21
212.33301855
 31
0.0
  0
ARC
  5
E5
  8
0
  6
CONTINUOUS
 62
     7
 10
478.5802697301
 20
215.7317473415
 30
0.0
 40
0.4000000000000127
 50
65.0
 51
95.0
  0
LINE
  5
E6
  8
0
  6
CONTINUOUS
 62
     7
 10
487.0447783523
 20
212.0053577323
 30
0.0
 11
494.2743939715
 21
129.3704730752
 31
0.0
  0
ARC
  5
E7
  8
0
  6
CONTINUOUS
 62
     7
 10
486.646300473
 20
211.9704954352
 30
0.0
 40
0.4000000000000414
 50
5.0
 51
65.0
  0
ARC
  5
E8
  8
0
  6
CONTINUOUS
 62
     7
 10
493.8759160923
 20
129.3356107781
 30
0.0
 40
0.3999999999999819
 50
270.0
 51
5.0
  0
LINE
  5
E9
  8
0
  6
CONTINUOUS
 62
     7
 10
489.0976042765
 20
128.9356107781
 30
0.0
 11
486.6839886797
 21
128.7244467753
 31
0.0
  0
ARC
  5
EA
  8
0
  6
CONTINUOUS
 62
     7
 10
486.6491263826
 20
129.1229246545
 30
0.0
 40
0.4000000000000127
 50
207.9230096112
 51
275.0
  0
LINE
  5
EB
  8
0
  6
CONTINUOUS
 62
     7
 10
56.698883199
 20
-32.0145985947
 30
0.0
 11
140.6475073331
 21
-32.0145985947
 31
0.0
  0
LINE
  5
EC
  8
0
  6
CONTINUOUS
 62
     7
 10
142.5731963151
 20
-41.9258630738
 30
0.0
 11
142.4731946223
 21
-41.9258630738
 31
0.0
  0
LINE
  5
ED
  8
0
  6
CONTINUOUS
 62
     7
 10
54.8731959098
 20
-41.9258630738
 30
0.0
 11
54.773194217
 21
-41.9258630738
 31
0.0
  0
LINE
  5
EE
  8
0
  6
CONTINUOUS
 62
     7
 10
54.773194217
 20
-44.3258649573
 30
0.0
 11
54.8731959098
 21
-44.3258649573
 31
0.0
  0
LINE
  5
EF
  8
0
  6
CONTINUOUS
 62
     7
 10
142.4731946223
 20
-44.3258649573
 30
0.0
 11
142.5731963151
 21
-44.3258649573
 31
0.0
  0
LINE
  5
F0
  8
0
  6
CONTINUOUS
 62
     7
 10
53.973195576
 20
-48.3721381888
 30
0.0
 11
54.773194217
 21
-48.3721381888
 31
0.0
  0
LINE
  5
F1
  8
0
  6
CONTINUOUS
 62
     7
 10
142.5731963151
 20
-48.3721381888
 30
0.0
 11
143.3731949561
 21
-48.3721381888
 31
0.0
  0
ARC
  5
F2
  8
0
  6
CONTINUOUS
 62
     7
 10
143.773195266
 20
-48.6813409132
 30
0.0
 40
0.3999999999999986
 50
180.0
 51
270.0
  0
LINE
  5
F3
  8
0
  6
CONTINUOUS
 62
     7
 10
143.7731957667
 20
-49.0813410745
 30
0.0
 11
154.6731955045
 21
-49.0813410745
 31
0.0
  0
ARC
  5
F4
  8
0
  6
CONTINUOUS
 62
     7
 10
154.673195266
 20
-48.6813409132
 30
0.0
 40
0.4000000000000057
 50
270.0
 51
0.0
  0
ARC
  5
F5
  8
0
  6
CONTINUOUS
 62
     7
 10
53.573195266
 20
-48.6813409132
 30
0.0
 40
0.3999999999999986
 50
270.0
 51
0.0
  0
LINE
  5
F6
  8
0
  6
CONTINUOUS
 62
     7
 10
42.6731950276
 20
-49.0813410745
 30
0.0
 11
53.5731947654
 21
-49.0813410745
 31
0.0
  0
ARC
  5
F7
  8
0
  6
CONTINUOUS
 62
     7
 10
42.673195266
 20
-48.6813409132
 30
0.0
 40
0.3999999999999986
 50
180.0
 51
270.0
  0
LINE
  5
F8
  8
0
  6
CONTINUOUS
 62
     7
 10
141.5731942885
 20
-45.525864409
 30
0.0
 11
142.4731946223
 21
-45.525864409
 31
0.0
  0
LINE
  5
F9
  8
0
  6
CONTINUOUS
 62
     7
 10
142.4731946223
 20
-40.7258636222
 30
0.0
 11
141.5731942885
 21
-40.7258636222
 31
0.0
  0
LINE
  5
FA
  8
0
  6
CONTINUOUS
 62
     7
 10
54.8731959098
 20
-45.525864409
 30
0.0
 11
55.7731962436
 21
-45.525864409
 31
0.0
  0
LINE
  5
FB
  8
0
  6
CONTINUOUS
 62
     7
 10
55.7731962436
 20
-40.7258636222
 30
0.0
 11
54.8731959098
 21
-40.7258636222
 31
0.0
  0
LINE
  5
FC
  8
0
  6
CONTINUOUS
 62
     7
 10
142.5731963151
 20
-39.1258633599
 30
0.0
 11
141.473195576
 21
-39.1258633599
 31
0.0
  0
LINE
  5
FD
  8
0
  6
CONTINUOUS
 62
     7
 10
55.8731949561
 20
-39.1258633599
 30
0.0
 11
54.773194217
 21
-39.1258633599
 31
0.0
  0
ARC
  5
FE
  8
0
  6
CONTINUOUS
 62
     7
 10
140.2610269878
 20
-20.3047559691
 30
0.0
 40
2.212453363683053
 50
275.5029993263
 51
359.0791634485
  0
LINE
  5
FF
  8
0
  6
CONTINUOUS
 62
     7
 10
142.4731946223
 20
-20.3403121695
 30
0.0
 11
142.4731946223
 21
-30.1889113054
 31
0.0
  0
ARC
  5
100
  8
0
  6
CONTINUOUS
 62
     7
 10
140.6658749675
 20
-30.209847047
 30
0.0
 40
1.807440909112003
 50
263.8804757939
 51
0.6636767227
  0
ARC
  5
101
  8
0
  6
CONTINUOUS
 62
     7
 10
57.0860416767
 20
-20.304130011
 30
0.0
 40
2.213141553731777
 50
180.9367576762
 51
264.481079549
  0
LINE
  5
102
  8
0
  6
CONTINUOUS
 62
     7
 10
54.8731959098
 20
-30.1889113054
 30
0.0
 11
54.8731959098
 21
-20.3403121695
 31
0.0
  0
ARC
  5
103
  8
0
  6
CONTINUOUS
 62
     7
 10
56.6810852397
 20
-30.209220369
 30
0.0
 40
1.808003397994921
 50
179.3563905345
 51
276.0994569489
  0
LINE
  5
104
  8
0
  6
CONTINUOUS
 62
     7
 10
142.4731946223
 20
-15.7578161821
 30
0.0
 11
54.8731959098
 21
-15.7578161821
 31
0.0
  0
LINE
  5
105
  8
0
  6
CONTINUOUS
 62
     7
 10
142.4731946223
 20
-20.3403121695
 30
0.0
 11
142.4731946223
 21
-15.7578161821
 31
0.0
  0
LINE
  5
106
  8
0
  6
CONTINUOUS
 62
     7
 10
54.8731959098
 20
-20.3403121695
 30
0.0
 11
54.8731959098
 21
-15.7578161821
 31
0.0
  0
LINE
  5
107
  8
0
  6
CONTINUOUS
 62
     7
 10
54.8731959098
 20
-25.7458648548
 30
0.0
 11
54.773194217
 21
-25.7458648548
 31
0.0
  0
LINE
  5
108
  8
0
  6
CONTINUOUS
 62
     7
 10
54.773194217
 20
-15.7491006792
 30
0.0
 11
54.773194217
 21
-20.127989249
 31
0.0
  0
LINE
  5
109
  8
0
  6
CONTINUOUS
 62
     7
 10
142.5731963151
 20
-15.7491006792
 30
0.0
 11
54.773194217
 21
-15.7491006792
 31
0.0
  0
LINE
  5
10A
  8
0
  6
CONTINUOUS
 62
     7
 10
142.5731963151
 20
-15.7491006792
 30
0.0
 11
142.5731963151
 21
-20.127989249
 31
0.0
  0
LINE
  5
10B
  8
0
  6
CONTINUOUS
 62
     7
 10
142.5731963151
 20
-25.7458648548
 30
0.0
 11
142.4731946223
 21
-25.7458648548
 31
0.0
  0
LINE
  5
10C
  8
0
  6
CONTINUOUS
 62
     7
 10
142.5731963151
 20
-13.1258643136
 30
0.0
 11
54.773194217
 21
-13.1258643136
 31
0.0
  0
LINE
  5
10D
  8
0
  6
CONTINUOUS
 62
     7
 10
54.773194217
 20
-13.1258643136
 30
0.0
 11
54.773194217
 21
-15.7491006792
 31
0.0
  0
LINE
  5
10E
  8
0
  6
CONTINUOUS
 62
     7
 10
142.5731963151
 20
-13.1258643136
 30
0.0
 11
142.5731963151
 21
-15.7491006792
 31
0.0
  0
LINE
  5
10F
  8
0
  6
CONTINUOUS
 62
     7
 10
54.773194217
 20
-33.4945685134
 30
0.0
 11
54.773194217
 21
-33.9023864732
 31
0.0
  0
LINE
  5
110
  8
0
  6
CONTINUOUS
 62
     7
 10
142.5731963151
 20
-33.9023864732
 30
0.0
 11
142.5731963151
 21
-33.4945685134
 31
0.0
  0
LINE
  5
111
  8
0
  6
CONTINUOUS
 62
     7
 10
143.3731949561
 20
-13.1258643136
 30
0.0
 11
143.3731949561
 21
-13.1607266105
 31
0.0
  0
LINE
  5
112
  8
0
  6
CONTINUOUS
 62
     7
 10
142.5731963151
 20
-20.127989249
 30
0.0
 11
142.5731963151
 21
-33.4945685134
 31
0.0
  0
LINE
  5
113
  8
0
  6
CONTINUOUS
 62
     7
 10
143.3731949561
 20
-13.1258643136
 30
0.0
 11
142.5731963151
 21
-13.1258643136
 31
0.0
  0
LINE
  5
114
  8
0
  6
CONTINUOUS
 62
     7
 10
54.773194217
 20
-33.4945685134
 30
0.0
 11
54.773194217
 21
-20.127989249
 31
0.0
  0
LINE
  5
115
  8
0
  6
CONTINUOUS
 62
     7
 10
53.973195576
 20
-13.1607266105
 30
0.0
 11
53.973195576
 21
-13.1258643136
 31
0.0
  0
LINE
  5
116
  8
0
  6
CONTINUOUS
 62
     7
 10
53.973195576
 20
-13.1258643136
 30
0.0
 11
54.773194217
 21
-13.1258643136
 31
0.0
  0
LINE
  5
117
  8
0
  6
CONTINUOUS
 62
     7
 10
54.773194217
 20
-40.8275133834
 30
0.0
 11
54.773194217
 21
-33.9023864732
 31
0.0
  0
LINE
  5
118
  8
0
  6
CONTINUOUS
 62
     7
 10
142.5731963151
 20
-33.9023864732
 30
0.0
 11
142.5731963151
 21
-40.8275133834
 31
0.0
  0
LINE
  5
119
  8
0
  6
CONTINUOUS
 62
     7
 10
142.5731963151
 20
-41.286376761
 30
0.0
 11
142.5731963151
 21
-40.8275133834
 31
0.0
  0
LINE
  5
11A
  8
0
  6
CONTINUOUS
 62
     7
 10
54.773194217
 20
-40.8275133834
 30
0.0
 11
54.773194217
 21
-41.286376761
 31
0.0
  0
LINE
  5
11B
  8
0
  6
CONTINUOUS
 62
     7
 10
143.3731949561
 20
-13.1258643136
 30
0.0
 11
143.7731957667
 21
-13.1258643136
 31
0.0
  0
LINE
  5
11C
  8
0
  6
CONTINUOUS
 62
     7
 10
53.5731947654
 20
-13.1258643136
 30
0.0
 11
53.973195576
 21
-13.1258643136
 31
0.0
  0
LINE
  5
11D
  8
0
  6
CONTINUOUS
 62
     7
 10
142.5731963151
 20
-41.286376761
 30
0.0
 11
142.5731963151
 21
-48.3690923915
 31
0.0
  0
LINE
  5
11E
  8
0
  6
CONTINUOUS
 62
     7
 10
54.773194217
 20
-48.3690923915
 30
0.0
 11
54.773194217
 21
-41.286376761
 31
0.0
  0
LINE
  5
11F
  8
0
  6
CONTINUOUS
 62
     7
 10
54.773194217
 20
-48.3690923915
 30
0.0
 11
54.773194217
 21
-48.3721381888
 31
0.0
  0
LINE
  5
120
  8
0
  6
CONTINUOUS
 62
     7
 10
142.5731963151
 20
-48.3721381888
 30
0.0
 11
142.5731963151
 21
-48.3690923915
 31
0.0
  0
LINE
  5
121
  8
0
  6
CONTINUOUS
 62
     7
 10
143.3731949561
 20
-41.451726006
 30
0.0
 11
143.3731949561
 21
-33.3856946692
 31
0.0
  0
LINE
  5
122
  8
0
  6
CONTINUOUS
 62
     7
 10
155.0731963151
 20
-33.3856946692
 30
0.0
 11
155.0731963151
 21
-41.451726006
 31
0.0
  0
LINE
  5
123
  8
0
  6
CONTINUOUS
 62
     7
 10
154.6731955045
 20
-13.1258643136
 30
0.0
 11
143.7731957667
 21
-13.1258643136
 31
0.0
  0
LINE
  5
124
  8
0
  6
CONTINUOUS
 62
     7
 10
154.8731929295
 20
-13.1258643136
 30
0.0
 11
155.0731963151
 21
-13.1258643136
 31
0.0
  0
ARC
  5
125
  8
0
  6
CONTINUOUS
 62
     7
 10
154.6785799902
 20
-17.1795743016
 30
0.0
 40
4.053713564050699
 50
87.2482545567
 51
90.0761051307
  0
LINE
  5
126
  8
0
  6
CONTINUOUS
 62
     7
 10
155.0731963151
 20
-13.1258643136
 30
0.0
 11
155.0731963151
 21
-33.3856946692
 31
0.0
  0
LINE
  5
127
  8
0
  6
CONTINUOUS
 62
     7
 10
154.8731929295
 20
-13.1305349756
 30
0.0
 11
154.8731929295
 21
-13.1258643136
 31
0.0
  0
ARC
  5
128
  8
0
  6
CONTINUOUS
 62
     7
 10
143.6739561453
 20
-14.2993981527
 30
0.0
 40
1.177722452040989
 50
85.1662958464
 51
104.7958227932
  0
LINE
  5
129
  8
0
  6
CONTINUOUS
 62
     7
 10
143.3731949561
 20
-33.3856946692
 30
0.0
 11
143.3731949561
 21
-13.1607266105
 31
0.0
  0
LINE
  5
12A
  8
0
  6
CONTINUOUS
 62
     7
 10
155.0731963151
 20
-41.451726006
 30
0.0
 11
155.0731963151
 21
-48.6813402638
 31
0.0
  0
LINE
  5
12B
  8
0
  6
CONTINUOUS
 62
     7
 10
143.3731949561
 20
-48.6813402638
 30
0.0
 11
143.3731949561
 21
-41.451726006
 31
0.0
  0
LINE
  5
12C
  8
0
  6
CONTINUOUS
 62
     7
 10
154.8731929295
 20
-13.1258643136
 30
0.0
 11
154.6731955045
 21
-13.1258643136
 31
0.0
  0
LINE
  5
12D
  8
0
  6
CONTINUOUS
 62
     7
 10
53.973195576
 20
-33.3856946692
 30
0.0
 11
53.973195576
 21
-41.451726006
 31
0.0
  0
LINE
  5
12E
  8
0
  6
CONTINUOUS
 62
     7
 10
42.273194217
 20
-41.451726006
 30
0.0
 11
42.273194217
 21
-33.3856946692
 31
0.0
  0
LINE
  5
12F
  8
0
  6
CONTINUOUS
 62
     7
 10
42.273194217
 20
-13.1258643136
 30
0.0
 11
42.4731976026
 21
-13.1258643136
 31
0.0
  0
ARC
  5
130
  8
0
  6
CONTINUOUS
 62
     7
 10
42.6678105419
 20
-17.1795743016
 30
0.0
 40
4.053713564051747
 50
89.9238948693
 51
92.7517454433
  0
LINE
  5
131
  8
0
  6
CONTINUOUS
 62
     7
 10
42.273194217
 20
-33.3856946692
 30
0.0
 11
42.273194217
 21
-13.1258643136
 31
0.0
  0
LINE
  5
132
  8
0
  6
CONTINUOUS
 62
     7
 10
42.4731976026
 20
-13.1258643136
 30
0.0
 11
42.4731976026
 21
-13.1305349756
 31
0.0
  0
ARC
  5
133
  8
0
  6
CONTINUOUS
 62
     7
 10
53.6724343868
 20
-14.2993981527
 30
0.0
 40
1.177722452040773
 50
75.2041772068
 51
94.8337041536
  0
LINE
  5
134
  8
0
  6
CONTINUOUS
 62
     7
 10
53.973195576
 20
-13.1607266105
 30
0.0
 11
53.973195576
 21
-33.3856946692
 31
0.0
  0
LINE
  5
135
  8
0
  6
CONTINUOUS
 62
     7
 10
53.5731947654
 20
-13.1258643136
 30
0.0
 11
42.6731950276
 21
-13.1258643136
 31
0.0
  0
LINE
  5
136
  8
0
  6
CONTINUOUS
 62
     7
 10
53.973195576
 20
-41.451726006
 30
0.0
 11
53.973195576
 21
-48.6813402638
 31
0.0
  0
LINE
  5
137
  8
0
  6
CONTINUOUS
 62
     7
 10
42.273194217
 20
-48.6813402638
 30
0.0
 11
42.273194217
 21
-41.451726006
 31
0.0
  0
LINE
  5
138
  8
0
  6
CONTINUOUS
 62
     7
 10
42.6731950276
 20
-13.1258643136
 30
0.0
 11
42.4731976026
 21
-13.1258643136
 31
0.0
  0
LINE
  5
139
  8
0
  6
CONTINUOUS
 62
     7
 10
55.7731962436
 20
-39.3258637652
 30
0.0
 11
141.5731942885
 21
-39.3258637652
 31
0.0
  0
POLYLINE
  5
13A
  8
0
  6
CONTINUOUS
 62
     7
 66
     1
 10
0.0
 20
0.0
 30
0.0
  0
VERTEX
  5
1F1
  8
0
  6
CONTINUOUS
 62
     7
 10
141.5731942885
 20
-39.3258637652
 30
0.0
  0
VERTEX
  5
1F2
  8
0
  6
CONTINUOUS
 62
     7
 10
141.5436482661
 20
-39.3554127679
 30
0.0
  0
VERTEX
  5
1F3
  8
0
  6
CONTINUOUS
 62
     7
 10
141.4557314151
 20
-39.4433296189
 30
0.0
  0
VERTEX
  5
1F4
  8
0
  6
CONTINUOUS
 62
     7
 10
141.3116103642
 20
-39.5874476895
 30
0.0
  0
VERTEX
  5
1F5
  8
0
  6
CONTINUOUS
 62
     7
 10
141.1148345702
 20
-39.7842234836
 30
0.0
  0
VERTEX
  5
1F6
  8
0
  6
CONTINUOUS
 62
     7
 10
140.8702528708
 20
-40.0288081632
 30
0.0
  0
VERTEX
  5
1F7
  8
0
  6
CONTINUOUS
 62
     7
 10
140.5838793748
 20
-40.315178679
 30
0.0
  0
VERTEX
  5
1F8
  8
0
  6
CONTINUOUS
 62
     7
 10
140.262771272
 20
-40.6362867818
 30
0.0
  0
VERTEX
  5
1F9
  8
0
  6
CONTINUOUS
 62
     7
 10
139.9148351186
 20
-40.9842229352
 30
0.0
  0
VERTEX
  5
1FA
  8
0
  6
CONTINUOUS
 62
     7
 10
139.5486390822
 20
-41.3504219518
 30
0.0
  0
VERTEX
  5
1FB
  8
0
  6
CONTINUOUS
 62
     7
 10
139.1731953853
 20
-41.7258656487
 30
0.0
  0
SEQEND
  5
220
  8
0
  6
CONTINUOUS
 62
     7
  0
POLYLINE
  5
13B
  8
0
  6
CONTINUOUS
 62
     7
 66
     1
 10
0.0
 20
0.0
 30
0.0
  0
VERTEX
  5
1FC
  8
0
  6
CONTINUOUS
 62
     7
 10
55.7731962436
 20
-39.3258637652
 30
0.0
  0
VERTEX
  5
1FD
  8
0
  6
CONTINUOUS
 62
     7
 10
55.802742266
 20
-39.3554127679
 30
0.0
  0
VERTEX
  5
1FE
  8
0
  6
CONTINUOUS
 62
     7
 10
55.890659117
 20
-39.4433296189
 30
0.0
  0
VERTEX
  5
1FF
  8
0
  6
CONTINUOUS
 62
     7
 10
56.0347801679
 20
-39.5874476895
 30
0.0
  0
VERTEX
  5
200
  8
0
  6
CONTINUOUS
 62
     7
 10
56.2315559619
 20
-39.7842234836
 30
0.0
  0
VERTEX
  5
201
  8
0
  6
CONTINUOUS
 62
     7
 10
56.4761376613
 20
-40.0288081632
 30
0.0
  0
VERTEX
  5
202
  8
0
  6
CONTINUOUS
 62
     7
 10
56.7625111573
 20
-40.315178679
 30
0.0
  0
VERTEX
  5
203
  8
0
  6
CONTINUOUS
 62
     7
 10
57.0836192601
 20
-40.6362867818
 30
0.0
  0
VERTEX
  5
204
  8
0
  6
CONTINUOUS
 62
     7
 10
57.4315554135
 20
-40.9842229352
 30
0.0
  0
VERTEX
  5
205
  8
0
  6
CONTINUOUS
 62
     7
 10
57.7977514499
 20
-41.3504219518
 30
0.0
  0
VERTEX
  5
206
  8
0
  6
CONTINUOUS
 62
     7
 10
58.1731951468
 20
-41.7258656487
 30
0.0
  0
SEQEND
  5
21F
  8
0
  6
CONTINUOUS
 62
     7
  0
LINE
  5
13C
  8
0
  6
CONTINUOUS
 62
     7
 10
141.5731942885
 20
-39.3258637652
 30
0.0
 11
141.5731942885
 21
-112.725863503
 31
0.0
  0
POLYLINE
  5
13D
  8
0
  6
CONTINUOUS
 62
     7
 66
     1
 10
0.0
 20
0.0
 30
0.0
  0
VERTEX
  5
207
  8
0
  6
CONTINUOUS
 62
     7
 10
139.1731953853
 20
-110.3258645997
 30
0.0
  0
VERTEX
  5
208
  8
0
  6
CONTINUOUS
 62
     7
 10
139.5486390822
 20
-110.7013082967
 30
0.0
  0
VERTEX
  5
209
  8
0
  6
CONTINUOUS
 62
     7
 10
139.9148351186
 20
-111.0675073132
 30
0.0
  0
VERTEX
  5
20A
  8
0
  6
CONTINUOUS
 62
     7
 10
140.262771272
 20
-111.4154434667
 30
0.0
  0
VERTEX
  5
20B
  8
0
  6
CONTINUOUS
 62
     7
 10
140.5838793748
 20
-111.7365515695
 30
0.0
  0
VERTEX
  5
20C
  8
0
  6
CONTINUOUS
 62
     7
 10
140.8702528708
 20
-112.0229220853
 30
0.0
  0
VERTEX
  5
20D
  8
0
  6
CONTINUOUS
 62
     7
 10
141.1148345702
 20
-112.2675037847
 30
0.0
  0
VERTEX
  5
20E
  8
0
  6
CONTINUOUS
 62
     7
 10
141.3116103642
 20
-112.4642825589
 30
0.0
  0
VERTEX
  5
20F
  8
0
  6
CONTINUOUS
 62
     7
 10
141.4557314151
 20
-112.6084006295
 30
0.0
  0
VERTEX
  5
210
  8
0
  6
CONTINUOUS
 62
     7
 10
141.5436482661
 20
-112.6963174806
 30
0.0
  0
VERTEX
  5
211
  8
0
  6
CONTINUOUS
 62
     7
 10
141.5731942885
 20
-112.725863503
 30
0.0
  0
SEQEND
  5
21E
  8
0
  6
CONTINUOUS
 62
     7
  0
LINE
  5
13E
  8
0
  6
CONTINUOUS
 62
     7
 10
55.7731962436
 20
-112.725863503
 30
0.0
 11
55.7731962436
 21
-39.3258637652
 31
0.0
  0
POLYLINE
  5
13F
  8
0
  6
CONTINUOUS
 62
     7
 66
     1
 10
0.0
 20
0.0
 30
0.0
  0
VERTEX
  5
212
  8
0
  6
CONTINUOUS
 62
     7
 10
58.1731951468
 20
-110.3258645997
 30
0.0
  0
VERTEX
  5
213
  8
0
  6
CONTINUOUS
 62
     7
 10
57.7977514499
 20
-110.7013082967
 30
0.0
  0
VERTEX
  5
214
  8
0
  6
CONTINUOUS
 62
     7
 10
57.4315554135
 20
-111.0675073132
 30
0.0
  0
VERTEX
  5
215
  8
0
  6
CONTINUOUS
 62
     7
 10
57.0836192601
 20
-111.4154434667
 30
0.0
  0
VERTEX
  5
216
  8
0
  6
CONTINUOUS
 62
     7
 10
56.7625111573
 20
-111.7365515695
 30
0.0
  0
VERTEX
  5
217
  8
0
  6
CONTINUOUS
 62
     7
 10
56.4761376613
 20
-112.0229220853
 30
0.0
  0
VERTEX
  5
218
  8
0
  6
CONTINUOUS
 62
     7
 10
56.2315559619
 20
-112.2675037847
 30
0.0
  0
VERTEX
  5
219
  8
0
  6
CONTINUOUS
 62
     7
 10
56.0347801679
 20
-112.4642825589
 30
0.0
  0
VERTEX
  5
21A
  8
0
  6
CONTINUOUS
 62
     7
 10
55.890659117
 20
-112.6084006295
 30
0.0
  0
VERTEX
  5
21B
  8
0
  6
CONTINUOUS
 62
     7
 10
55.802742266
 20
-112.6963174806
 30
0.0
  0
VERTEX
  5
21C
  8
0
  6
CONTINUOUS
 62
     7
 10
55.7731962436
 20
-112.725863503
 30
0.0
  0
SEQEND
  5
21D
  8
0
  6
CONTINUOUS
 62
     7
  0
LINE
  5
140
  8
0
  6
CONTINUOUS
 62
     7
 10
141.5731942885
 20
-112.725863503
 30
0.0
 11
55.7731962436
 21
-112.725863503
 31
0.0
  0
LINE
  5
141
  8
0
  6
CONTINUOUS
 62
     7
 10
141.473195576
 20
-31.8272150025
 30
0.0
 11
141.473195576
 21
-39.3258637652
 31
0.0
  0
LINE
  5
142
  8
0
  6
CONTINUOUS
 62
     7
 10
55.8731949561
 20
-39.3258637652
 30
0.0
 11
55.8731949561
 21
-31.8272150025
 31
0.0
  0
LINE
  5
143
  8
0
  6
CONTINUOUS
 62
     7
 10
142.4731946223
 20
-40.7258636222
 30
0.0
 11
142.4731946223
 21
-45.525864409
 31
0.0
  0
LINE
  5
144
  8
0
  6
CONTINUOUS
 62
     7
 10
54.8731959098
 20
-40.7258636222
 30
0.0
 11
54.8731959098
 21
-45.525864409
 31
0.0
  0
LINE
  5
145
  8
0
  6
CONTINUOUS
 62
     7
 10
690.7244592829
 20
264.5080447266
 30
0.0
 11
603.1396776361
 21
264.5080447266
 31
0.0
  0
LINE
  5
146
  8
0
  6
CONTINUOUS
 62
     7
 10
603.0320674104
 20
215.3206825326
 30
0.0
 11
602.2320687694
 21
215.3206825326
 31
0.0
  0
LINE
  5
147
  8
0
  6
CONTINUOUS
 62
     7
 10
691.6320681495
 20
215.3206825326
 30
0.0
 11
690.8320695085
 21
215.3206825326
 31
0.0
  0
LINE
  5
148
  8
0
  6
CONTINUOUS
 62
     7
 10
603.0320674104
 20
145.5356121133
 30
0.0
 11
603.1320691032
 21
145.5356121133
 31
0.0
  0
LINE
  5
149
  8
0
  6
CONTINUOUS
 62
     7
 10
690.7320678158
 20
145.5356121133
 30
0.0
 11
690.8320695085
 21
145.5356121133
 31
0.0
  0
LINE
  5
14A
  8
0
  6
CONTINUOUS
 62
     7
 10
690.8320695085
 20
147.9356110165
 30
0.0
 11
690.7320678158
 21
147.9356110165
 31
0.0
  0
LINE
  5
14B
  8
0
  6
CONTINUOUS
 62
     7
 10
603.1320691032
 20
147.9356110165
 30
0.0
 11
603.0320674104
 21
147.9356110165
 31
0.0
  0
ARC
  5
14C
  8
0
  6
CONTINUOUS
 62
     7
 10
590.9320684595
 20
215.7317473415
 30
0.0
 40
0.4000000000000057
 50
90.0
 51
180.0
  0
LINE
  5
14D
  8
0
  6
CONTINUOUS
 62
     7
 10
601.8320679588
 20
216.1317467759
 30
0.0
 11
590.9320682211
 21
216.1317467759
 31
0.0
  0
ARC
  5
14E
  8
0
  6
CONTINUOUS
 62
     7
 10
601.8320684595
 20
215.7317473415
 30
0.0
 40
0.4000000000000057
 50
0.0
 51
90.0
  0
ARC
  5
14F
  8
0
  6
CONTINUOUS
 62
     7
 10
692.0320684595
 20
215.7317473415
 30
0.0
 40
0.4000000000000057
 50
90.0
 51
180.0
  0
LINE
  5
150
  8
0
  6
CONTINUOUS
 62
     7
 10
702.9320686979
 20
216.1317467759
 30
0.0
 11
692.0320689602
 21
216.1317467759
 31
0.0
  0
ARC
  5
151
  8
0
  6
CONTINUOUS
 62
     7
 10
702.9320684595
 20
215.7317473415
 30
0.0
 40
0.4000000000000909
 50
0.0
 51
90.0
  0
LINE
  5
152
  8
0
  6
CONTINUOUS
 62
     7
 10
604.1320681495
 20
149.1356134484
 30
0.0
 11
603.1320691032
 21
149.1356134484
 31
0.0
  0
LINE
  5
153
  8
0
  6
CONTINUOUS
 62
     7
 10
603.1320691032
 20
144.3356096814
 30
0.0
 11
604.1320681495
 21
144.3356096814
 31
0.0
  0
LINE
  5
154
  8
0
  6
CONTINUOUS
 62
     7
 10
690.7320678158
 20
149.1356134484
 30
0.0
 11
689.7320687694
 21
149.1356134484
 31
0.0
  0
LINE
  5
155
  8
0
  6
CONTINUOUS
 62
     7
 10
689.7320687694
 20
144.3356096814
 30
0.0
 11
690.7320678158
 21
144.3356096814
 31
0.0
  0
LINE
  5
156
  8
0
  6
CONTINUOUS
 62
     7
 10
592.9320663137
 20
128.5356104443
 30
0.0
 11
592.9320663137
 21
124.7356116841
 31
0.0
  0
LINE
  5
157
  8
0
  6
CONTINUOUS
 62
     7
 10
591.1320656462
 20
124.7356116841
 30
0.0
 11
592.9320663137
 21
124.7356116841
 31
0.0
  0
LINE
  5
158
  8
0
  6
CONTINUOUS
 62
     7
 10
591.1320656462
 20
124.7356116841
 30
0.0
 11
591.1320656462
 21
66.9356107781
 31
0.0
  0
LINE
  5
159
  8
0
  6
CONTINUOUS
 62
     7
 10
590.9320682211
 20
66.9356107781
 30
0.0
 11
591.1320656462
 21
66.9356107781
 31
0.0
  0
LINE
  5
15A
  8
0
  6
CONTINUOUS
 62
     7
 10
590.9320682211
 20
128.1356096337
 30
0.0
 11
590.9320682211
 21
66.9356107781
 31
0.0
  0
ARC
  5
15B
  8
0
  6
CONTINUOUS
 62
     7
 10
591.3320684595
 20
128.1356107781
 30
0.0
 40
0.4000000000000909
 50
90.0
 51
180.0
  0
LINE
  5
15C
  8
0
  6
CONTINUOUS
 62
     7
 10
591.3320690317
 20
128.5356104443
 30
0.0
 11
592.9320663137
 21
128.5356104443
 31
0.0
  0
LINE
  5
15D
  8
0
  6
CONTINUOUS
 62
     7
 10
690.8320695085
 20
124.7356116841
 30
0.0
 11
690.8320695085
 21
130.9356093476
 31
0.0
  0
LINE
  5
15E
  8
0
  6
CONTINUOUS
 62
     7
 10
603.0320674104
 20
130.9356093476
 30
0.0
 11
690.8320695085
 21
130.9356093476
 31
0.0
  0
LINE
  5
15F
  8
0
  6
CONTINUOUS
 62
     7
 10
603.0320674104
 20
124.7356116841
 30
0.0
 11
603.0320674104
 21
130.9356093476
 31
0.0
  0
LINE
  5
160
  8
0
  6
CONTINUOUS
 62
     7
 10
603.0320674104
 20
124.7356116841
 30
0.0
 11
690.8320695085
 21
124.7356116841
 31
0.0
  0
LINE
  5
161
  8
0
  6
CONTINUOUS
 62
     7
 10
702.7320712728
 20
124.7356116841
 30
0.0
 11
702.7320712728
 21
66.9356107781
 31
0.0
  0
ARC
  5
162
  8
0
  6
CONTINUOUS
 62
     7
 10
702.5320684595
 20
128.1356107781
 30
0.0
 40
0.4000000000000909
 50
0.0
 51
90.0
  0
LINE
  5
163
  8
0
  6
CONTINUOUS
 62
     7
 10
702.9320686979
 20
128.1356096337
 30
0.0
 11
702.9320686979
 21
66.9356107781
 31
0.0
  0
LINE
  5
164
  8
0
  6
CONTINUOUS
 62
     7
 10
700.9320706053
 20
128.5356104443
 30
0.0
 11
700.9320706053
 21
124.7356116841
 31
0.0
  0
LINE
  5
165
  8
0
  6
CONTINUOUS
 62
     7
 10
700.9320706053
 20
128.5356104443
 30
0.0
 11
702.5320678873
 21
128.5356104443
 31
0.0
  0
LINE
  5
166
  8
0
  6
CONTINUOUS
 62
     7
 10
700.9320706053
 20
124.7356116841
 30
0.0
 11
702.7320712728
 21
124.7356116841
 31
0.0
  0
LINE
  5
167
  8
0
  6
CONTINUOUS
 62
     7
 10
702.7320712728
 20
66.9356107781
 30
0.0
 11
702.9320686979
 21
66.9356107781
 31
0.0
  0
LINE
  5
168
  8
0
  6
CONTINUOUS
 62
     7
 10
702.7320712728
 20
66.9356107781
 30
0.0
 11
700.9320706053
 21
66.9356107781
 31
0.0
  0
LINE
  5
169
  8
0
  6
CONTINUOUS
 62
     7
 10
683.9320689363
 20
66.9356107781
 30
0.0
 11
609.9320679827
 21
66.9356107781
 31
0.0
  0
LINE
  5
16A
  8
0
  6
CONTINUOUS
 62
     7
 10
592.9320663137
 20
66.9356107781
 30
0.0
 11
591.1320656462
 21
66.9356107781
 31
0.0
  0
CIRCLE
  5
16B
  8
0
  6
CONTINUOUS
 62
     7
 10
696.9320684595
 20
206.9356107781
 30
0.0
 40
1.099999999999909
  0
CIRCLE
  5
16C
  8
0
  6
CONTINUOUS
 62
     7
 10
696.9320684595
 20
134.9356107781
 30
0.0
 40
1.099999999999909
  0
CIRCLE
  5
16D
  8
0
  6
CONTINUOUS
 62
     7
 10
596.9320684595
 20
206.9356107781
 30
0.0
 40
1.100000000000023
  0
CIRCLE
  5
16E
  8
0
  6
CONTINUOUS
 62
     7
 10
596.9320684595
 20
134.9356107781
 30
0.0
 40
1.100000000000023
  0
LINE
  5
16F
  8
0
  6
CONTINUOUS
 62
     7
 10
603.0320674104
 20
202.3931622575
 30
0.0
 11
690.8320695085
 21
202.3931622575
 31
0.0
  0
LINE
  5
170
  8
0
  6
CONTINUOUS
 62
     7
 10
603.0320674104
 20
82.9356104205
 30
0.0
 11
603.0320674104
 21
202.3931622575
 31
0.0
  0
LINE
  5
171
  8
0
  6
CONTINUOUS
 62
     7
 10
603.0320674104
 20
82.9356104205
 30
0.0
 11
592.9320663137
 21
82.9356104205
 31
0.0
  0
LINE
  5
172
  8
0
  6
CONTINUOUS
 62
     7
 10
592.9320663137
 20
138.335609443
 30
0.0
 11
592.9320663137
 21
82.9356104205
 31
0.0
  0
LINE
  5
173
  8
0
  6
CONTINUOUS
 62
     7
 10
590.9320682211
 20
138.335609443
 30
0.0
 11
592.9320663137
 21
138.335609443
 31
0.0
  0
LINE
  5
174
  8
0
  6
CONTINUOUS
 62
     7
 10
590.9320682211
 20
140.3356134961
 30
0.0
 11
590.9320682211
 21
138.335609443
 31
0.0
  0
LINE
  5
175
  8
0
  6
CONTINUOUS
 62
     7
 10
592.9320663137
 20
140.3356134961
 30
0.0
 11
590.9320682211
 21
140.3356134961
 31
0.0
  0
LINE
  5
176
  8
0
  6
CONTINUOUS
 62
     7
 10
592.9320663137
 20
203.5356164048
 30
0.0
 11
592.9320663137
 21
140.3356134961
 31
0.0
  0
LINE
  5
177
  8
0
  6
CONTINUOUS
 62
     7
 10
590.9320682211
 20
203.5356164048
 30
0.0
 11
592.9320663137
 21
203.5356164048
 31
0.0
  0
LINE
  5
178
  8
0
  6
CONTINUOUS
 62
     7
 10
590.9320682211
 20
205.5356144975
 30
0.0
 11
590.9320682211
 21
203.5356164048
 31
0.0
  0
LINE
  5
179
  8
0
  6
CONTINUOUS
 62
     7
 10
592.9320663137
 20
205.5356144975
 30
0.0
 11
590.9320682211
 21
205.5356144975
 31
0.0
  0
LINE
  5
17A
  8
0
  6
CONTINUOUS
 62
     7
 10
592.9320663137
 20
209.5356106828
 30
0.0
 11
592.9320663137
 21
205.5356144975
 31
0.0
  0
ARC
  5
17B
  8
0
  6
CONTINUOUS
 62
     7
 10
594.9320684595
 20
209.5356107781
 30
0.0
 40
2.0
 50
90.0
 51
180.0
  0
LINE
  5
17C
  8
0
  6
CONTINUOUS
 62
     7
 10
602.2320687694
 20
211.5356087754
 30
0.0
 11
594.9320703668
 21
211.5356087754
 31
0.0
  0
LINE
  5
17D
  8
0
  6
CONTINUOUS
 62
     7
 10
602.2320687694
 20
211.5356087754
 30
0.0
 11
602.2320687694
 21
213.5356068681
 31
0.0
  0
LINE
  5
17E
  8
0
  6
CONTINUOUS
 62
     7
 10
602.2320687694
 20
213.5356068681
 30
0.0
 11
603.0320674104
 21
213.5356068681
 31
0.0
  0
LINE
  5
17F
  8
0
  6
CONTINUOUS
 62
     7
 10
603.0320674104
 20
213.5356068681
 30
0.0
 11
603.0320674104
 21
263.9696359704
 31
0.0
  0
LINE
  5
180
  8
0
  6
CONTINUOUS
 62
     7
 10
603.0320674104
 20
263.9696359704
 30
0.0
 11
690.8320695085
 21
263.9696359704
 31
0.0
  0
LINE
  5
181
  8
0
  6
CONTINUOUS
 62
     7
 10
690.8320695085
 20
213.5356068681
 30
0.0
 11
690.8320695085
 21
263.9696359704
 31
0.0
  0
LINE
  5
182
  8
0
  6
CONTINUOUS
 62
     7
 10
691.6320681495
 20
213.5356068681
 30
0.0
 11
690.8320695085
 21
213.5356068681
 31
0.0
  0
LINE
  5
183
  8
0
  6
CONTINUOUS
 62
     7
 10
691.6320681495
 20
213.5356068681
 30
0.0
 11
691.6320681495
 21
211.5356087754
 31
0.0
  0
LINE
  5
184
  8
0
  6
CONTINUOUS
 62
     7
 10
698.9320665521
 20
211.5356087754
 30
0.0
 11
691.6320681495
 21
211.5356087754
 31
0.0
  0
ARC
  5
185
  8
0
  6
CONTINUOUS
 62
     7
 10
698.9320684595
 20
209.5356107781
 30
0.0
 40
2.0
 50
0.0
 51
90.0
  0
LINE
  5
186
  8
0
  6
CONTINUOUS
 62
     7
 10
700.9320706053
 20
205.5356144975
 30
0.0
 11
700.9320706053
 21
209.5356106828
 31
0.0
  0
LINE
  5
187
  8
0
  6
CONTINUOUS
 62
     7
 10
702.9320686979
 20
205.5356144975
 30
0.0
 11
700.9320706053
 21
205.5356144975
 31
0.0
  0
LINE
  5
188
  8
0
  6
CONTINUOUS
 62
     7
 10
702.9320686979
 20
203.5356164048
 30
0.0
 11
702.9320686979
 21
205.5356144975
 31
0.0
  0
LINE
  5
189
  8
0
  6
CONTINUOUS
 62
     7
 10
700.9320706053
 20
203.5356164048
 30
0.0
 11
702.9320686979
 21
203.5356164048
 31
0.0
  0
LINE
  5
18A
  8
0
  6
CONTINUOUS
 62
     7
 10
700.9320706053
 20
140.3356134961
 30
0.0
 11
700.9320706053
 21
203.5356164048
 31
0.0
  0
LINE
  5
18B
  8
0
  6
CONTINUOUS
 62
     7
 10
702.9320686979
 20
140.3356134961
 30
0.0
 11
700.9320706053
 21
140.3356134961
 31
0.0
  0
LINE
  5
18C
  8
0
  6
CONTINUOUS
 62
     7
 10
702.9320686979
 20
138.335609443
 30
0.0
 11
702.9320686979
 21
140.3356134961
 31
0.0
  0
LINE
  5
18D
  8
0
  6
CONTINUOUS
 62
     7
 10
700.9320706053
 20
138.335609443
 30
0.0
 11
702.9320686979
 21
138.335609443
 31
0.0
  0
LINE
  5
18E
  8
0
  6
CONTINUOUS
 62
     7
 10
700.9320706053
 20
82.9356104205
 30
0.0
 11
700.9320706053
 21
138.335609443
 31
0.0
  0
LINE
  5
18F
  8
0
  6
CONTINUOUS
 62
     7
 10
700.9320706053
 20
82.9356104205
 30
0.0
 11
690.8320695085
 21
82.9356104205
 31
0.0
  0
LINE
  5
190
  8
0
  6
CONTINUOUS
 62
     7
 10
690.8320695085
 20
202.3931622575
 30
0.0
 11
690.8320695085
 21
82.9356104205
 31
0.0
  0
CIRCLE
  5
191
  8
0
  6
CONTINUOUS
 62
     7
 10
596.9320684595
 20
90.9356107781
 30
0.0
 40
1.100000000000023
  0
CIRCLE
  5
192
  8
0
  6
CONTINUOUS
 62
     7
 10
696.9320684595
 20
90.9356107781
 30
0.0
 40
1.099999999999909
  0
LINE
  5
193
  8
0
  6
CONTINUOUS
 62
     7
 10
603.0320674104
 20
149.9356091092
 30
0.0
 11
690.8320695085
 21
149.9356091092
 31
0.0
  0
LINE
  5
194
  8
0
  6
CONTINUOUS
 62
     7
 10
602.2320687694
 20
213.5356068681
 30
0.0
 11
602.2320687694
 21
213.5418772767
 31
0.0
  0
LINE
  5
195
  8
0
  6
CONTINUOUS
 62
     7
 10
603.0320674104
 20
263.9696359704
 30
0.0
 11
603.0320674104
 21
264.1991376946
 31
0.0
  0
LINE
  5
196
  8
0
  6
CONTINUOUS
 62
     7
 10
603.0320674104
 20
264.1991376946
 30
0.0
 11
690.8320695085
 21
264.1991376946
 31
0.0
  0
LINE
  5
197
  8
0
  6
CONTINUOUS
 62
     7
 10
690.8320695085
 20
263.9696359704
 30
0.0
 11
690.8320695085
 21
264.1991376946
 31
0.0
  0
LINE
  5
198
  8
0
  6
CONTINUOUS
 62
     7
 10
691.6320681495
 20
213.5418772767
 30
0.0
 11
691.6320681495
 21
213.5356068681
 31
0.0
  0
LINE
  5
199
  8
0
  6
CONTINUOUS
 62
     7
 10
603.1320691032
 20
264.500439174
 30
0.0
 11
603.1320691032
 21
264.1991376946
 31
0.0
  0
LINE
  5
19A
  8
0
  6
CONTINUOUS
 62
     7
 10
690.7320678158
 20
264.500439174
 30
0.0
 11
690.7320678158
 21
264.1991376946
 31
0.0
  0
LINE
  5
19B
  8
0
  6
CONTINUOUS
 62
     7
 10
609.9320679827
 20
66.9356107781
 30
0.0
 11
592.9320663137
 21
66.9356107781
 31
0.0
  0
LINE
  5
19C
  8
0
  6
CONTINUOUS
 62
     7
 10
609.9320679827
 20
76.0356105934
 30
0.0
 11
603.0320674104
 21
82.9356104205
 31
0.0
  0
LINE
  5
19D
  8
0
  6
CONTINUOUS
 62
     7
 10
609.9320679827
 20
66.9356107781
 30
0.0
 11
609.9320679827
 21
76.0356105934
 31
0.0
  0
LINE
  5
19E
  8
0
  6
CONTINUOUS
 62
     7
 10
592.9320663137
 20
66.9356107781
 30
0.0
 11
592.9320663137
 21
82.9356104205
 31
0.0
  0
LINE
  5
19F
  8
0
  6
CONTINUOUS
 62
     7
 10
700.9320706053
 20
66.9356107781
 30
0.0
 11
683.9320689363
 21
66.9356107781
 31
0.0
  0
LINE
  5
1A0
  8
0
  6
CONTINUOUS
 62
     7
 10
683.9320689363
 20
76.0356105934
 30
0.0
 11
683.9320689363
 21
66.9356107781
 31
0.0
  0
LINE
  5
1A1
  8
0
  6
CONTINUOUS
 62
     7
 10
690.8320695085
 20
82.9356104205
 30
0.0
 11
683.9320689363
 21
76.0356105934
 31
0.0
  0
LINE
  5
1A2
  8
0
  6
CONTINUOUS
 62
     7
 10
700.9320706053
 20
66.9356107781
 30
0.0
 11
700.9320706053
 21
82.9356104205
 31
0.0
  0
LINE
  5
1A3
  8
0
  6
CONTINUOUS
 62
     7
 10
690.7320678158
 20
264.500439174
 30
0.0
 11
690.7244592829
 21
264.5080447266
 31
0.0
  0
LINE
  5
1A4
  8
0
  6
CONTINUOUS
 62
     7
 10
603.1396776361
 20
264.5080447266
 30
0.0
 11
603.1320691032
 21
264.500439174
 31
0.0
  0
LINE
  5
1A5
  8
0
  6
CONTINUOUS
 62
     7
 10
590.9320682211
 20
128.935611255
 30
0.0
 11
592.5320655031
 21
128.935611255
 31
0.0
  0
ARC
  5
1A6
  8
0
  6
CONTINUOUS
 62
     7
 10
590.9320684595
 20
129.3356107781
 30
0.0
 40
0.3999999999999773
 50
180.0
 51
270.0
  0
LINE
  5
1A7
  8
0
  6
CONTINUOUS
 62
     7
 10
590.5320674104
 20
213.9592409203
 30
0.0
 11
590.5320674104
 21
129.3356120656
 31
0.0
  0
ARC
  5
1A8
  8
0
  6
CONTINUOUS
 62
     7
 10
590.9338971219
 20
213.9595074092
 30
0.0
 40
0.4018297998354517
 50
120.1501759893
 51
180.0379978942
  0
LINE
  5
1A9
  8
0
  6
CONTINUOUS
 62
     7
 10
590.732070796
 20
129.13560868
 30
0.0
 11
590.732070796
 21
214.306974418
 31
0.0
  0
LINE
  5
1AA
  8
0
  6
CONTINUOUS
 62
     7
 10
590.732070796
 20
129.13560868
 30
0.0
 11
592.5320655031
 21
129.13560868
 31
0.0
  0
LINE
  5
1AB
  8
0
  6
CONTINUOUS
 62
     7
 10
592.5320655031
 20
129.13560868
 30
0.0
 11
592.5320655031
 21
128.935611255
 31
0.0
  0
ARC
  5
1AC
  8
0
  6
CONTINUOUS
 62
     7
 10
590.9320308504
 20
213.959651235
 30
0.0
 40
0.4011223370330679
 50
89.99466203
 51
119.9009041476
  0
LINE
  5
1AD
  8
0
  6
CONTINUOUS
 62
     7
 10
590.5320674104
 20
213.9592409203
 30
0.0
 11
590.5320674104
 21
215.7317519257
 31
0.0
  0
LINE
  5
1AE
  8
0
  6
CONTINUOUS
 62
     7
 10
590.732070796
 20
214.3073797295
 30
0.0
 11
590.732070796
 21
214.306974418
 31
0.0
  0
LINE
  5
1AF
  8
0
  6
CONTINUOUS
 62
     7
 10
590.732070796
 20
214.1615271638
 30
0.0
 11
602.0320683641
 21
214.1615271638
 31
0.0
  0
LINE
  5
1B0
  8
0
  6
CONTINUOUS
 62
     7
 10
590.9320682211
 20
214.3607735703
 30
0.0
 11
601.8320679588
 21
214.3607735703
 31
0.0
  0
ARC
  5
1B1
  8
0
  6
CONTINUOUS
 62
     7
 10
601.8328157679
 20
213.9615205224
 30
0.0
 40
0.3992537482317247
 50
0.110809959
 51
90.1073160329
  0
LINE
  5
1B2
  8
0
  6
CONTINUOUS
 62
     7
 10
602.2320687694
 20
213.9622926782
 30
0.0
 11
602.2320687694
 21
213.5418772767
 31
0.0
  0
LINE
  5
1B3
  8
0
  6
CONTINUOUS
 62
     7
 10
602.0320683641
 20
211.5356087754
 30
0.0
 11
602.0320683641
 21
214.1615271638
 31
0.0
  0
LINE
  5
1B4
  8
0
  6
CONTINUOUS
 62
     7
 10
602.2320687694
 20
215.7317519257
 30
0.0
 11
602.2320687694
 21
213.9622926782
 31
0.0
  0
LINE
  5
1B5
  8
0
  6
CONTINUOUS
 62
     7
 10
592.9320663137
 20
129.13560868
 30
0.0
 11
592.5320655031
 21
129.13560868
 31
0.0
  0
LINE
  5
1B6
  8
0
  6
CONTINUOUS
 62
     7
 10
592.5320655031
 20
128.935611255
 30
0.0
 11
592.9320663137
 21
128.935611255
 31
0.0
  0
LINE
  5
1B7
  8
0
  6
CONTINUOUS
 62
     7
 10
590.732070796
 20
212.1029615472
 30
0.0
 11
602.0320683641
 21
212.1029615472
 31
0.0
  0
LINE
  5
1B8
  8
0
  6
CONTINUOUS
 62
     7
 10
701.3320714159
 20
129.13560868
 30
0.0
 11
703.132066123
 21
129.13560868
 31
0.0
  0
LINE
  5
1B9
  8
0
  6
CONTINUOUS
 62
     7
 10
703.132066123
 20
214.306974418
 30
0.0
 11
703.132066123
 21
129.13560868
 31
0.0
  0
ARC
  5
1BA
  8
0
  6
CONTINUOUS
 62
     7
 10
702.9302671111
 20
213.9595231192
 30
0.0
 40
0.4018024965089766
 50
359.9597593219
 51
59.8520667946
  0
LINE
  5
1BB
  8
0
  6
CONTINUOUS
 62
     7
 10
703.3320695085
 20
213.9592409203
 30
0.0
 11
703.3320695085
 21
129.3356120656
 31
0.0
  0
ARC
  5
1BC
  8
0
  6
CONTINUOUS
 62
     7
 10
702.9320684595
 20
129.3356107781
 30
0.0
 40
0.4000000000000909
 50
270.0
 51
0.0
  0
LINE
  5
1BD
  8
0
  6
CONTINUOUS
 62
     7
 10
701.3320714159
 20
128.935611255
 30
0.0
 11
702.9320686979
 21
128.935611255
 31
0.0
  0
LINE
  5
1BE
  8
0
  6
CONTINUOUS
 62
     7
 10
701.3320714159
 20
129.13560868
 30
0.0
 11
701.3320714159
 21
128.935611255
 31
0.0
  0
ARC
  5
1BF
  8
0
  6
CONTINUOUS
 62
     7
 10
702.9321060685
 20
213.959651235
 30
0.0
 40
0.401122337032994
 50
60.0990958524
 51
90.00533797
  0
LINE
  5
1C0
  8
0
  6
CONTINUOUS
 62
     7
 10
703.3320695085
 20
215.7317519257
 30
0.0
 11
703.3320695085
 21
213.9592409203
 31
0.0
  0
LINE
  5
1C1
  8
0
  6
CONTINUOUS
 62
     7
 10
703.132066123
 20
214.306974418
 30
0.0
 11
703.132066123
 21
214.3073797295
 31
0.0
  0
ARC
  5
1C2
  8
0
  6
CONTINUOUS
 62
     7
 10
692.0313211511
 20
213.9615205224
 30
0.0
 40
0.3992537482316217
 50
89.892683967
 51
179.889190041
  0
LINE
  5
1C3
  8
0
  6
CONTINUOUS
 62
     7
 10
691.6320681495
 20
213.9622926782
 30
0.0
 11
691.6320681495
 21
215.7317519257
 31
0.0
  0
LINE
  5
1C4
  8
0
  6
CONTINUOUS
 62
     7
 10
691.8320685549
 20
214.1615271638
 30
0.0
 11
703.132066123
 21
214.1615271638
 31
0.0
  0
LINE
  5
1C5
  8
0
  6
CONTINUOUS
 62
     7
 10
692.0320689602
 20
214.3607735703
 30
0.0
 11
702.9320686979
 21
214.3607735703
 31
0.0
  0
LINE
  5
1C6
  8
0
  6
CONTINUOUS
 62
     7
 10
691.6320681495
 20
213.9622926782
 30
0.0
 11
691.6320681495
 21
213.5418772767
 31
0.0
  0
LINE
  5
1C7
  8
0
  6
CONTINUOUS
 62
     7
 10
691.8320685549
 20
214.1615271638
 30
0.0
 11
691.8320685549
 21
211.5356087754
 31
0.0
  0
LINE
  5
1C8
  8
0
  6
CONTINUOUS
 62
     7
 10
701.3320714159
 20
129.13560868
 30
0.0
 11
700.9320706053
 21
129.13560868
 31
0.0
  0
LINE
  5
1C9
  8
0
  6
CONTINUOUS
 62
     7
 10
700.9320706053
 20
128.935611255
 30
0.0
 11
701.3320714159
 21
128.935611255
 31
0.0
  0
LINE
  5
1CA
  8
0
  6
CONTINUOUS
 62
     7
 10
691.8320685549
 20
212.1029615472
 30
0.0
 11
703.132066123
 21
212.1029615472
 31
0.0
  0
ARC
  5
1CB
  8
0
  6
CONTINUOUS
 62
     7
 10
604.5320684595
 20
142.7356107781
 30
0.0
 40
0.4000000000000909
 50
180.0
 51
270.0
  0
LINE
  5
1CC
  8
0
  6
CONTINUOUS
 62
     7
 10
604.1320681495
 20
142.7356123994
 30
0.0
 11
604.1320681495
 21
149.9356091092
 31
0.0
  0
LINE
  5
1CD
  8
0
  6
CONTINUOUS
 62
     7
 10
689.3320679588
 20
142.3356115888
 30
0.0
 11
604.5320689602
 21
142.3356115888
 31
0.0
  0
ARC
  5
1CE
  8
0
  6
CONTINUOUS
 62
     7
 10
689.3320684595
 20
142.7356107781
 30
0.0
 40
0.4000000000000057
 50
270.0
 51
0.0
  0
LINE
  5
1CF
  8
0
  6
CONTINUOUS
 62
     7
 10
689.7320687694
 20
149.9356091092
 30
0.0
 11
689.7320687694
 21
142.7356123994
 31
0.0
  0
LINE
  5
1D0
  8
0
  6
CONTINUOUS
 62
     7
 10
603.1320691032
 20
146.7356085847
 30
0.0
 11
603.1320691032
 21
149.1356134484
 31
0.0
  0
LINE
  5
1D1
  8
0
  6
CONTINUOUS
 62
     7
 10
603.1320691032
 20
144.3356096814
 30
0.0
 11
603.1320691032
 21
146.7356085847
 31
0.0
  0
LINE
  5
1D2
  8
0
  6
CONTINUOUS
 62
     7
 10
690.7320678158
 20
146.7356085847
 30
0.0
 11
690.7320678158
 21
149.1356134484
 31
0.0
  0
LINE
  5
1D3
  8
0
  6
CONTINUOUS
 62
     7
 10
690.7320678158
 20
144.3356096814
 30
0.0
 11
690.7320678158
 21
146.7356085847
 31
0.0
  0
ENDSEC
  0
EOF
