  0
SECTION
  2
HEADER
  9
$ACADVER
  1
AC1009
  9
$DWGCODEPAGE
  3
ansi_1252
  9
$INSBASE
 10
0.0
 20
0.0
 30
0.0
  9
$EXTMIN
 10
0.0
 20
0.0
 30
0.0
  9
$EXTMAX
 10
420.0
 20
297.0
 30
0.0
  9
$LIMMIN
 10
0.0
 20
0.0
  9
$LIMMAX
 10
420.0
 20
297.0
  9
$ORTHOMODE
 70
     0
  9
$REGENMODE
 70
     1
  9
$FILLMODE
 70
     1
  9
$QTEXTMODE
 70
     0
  9
$MIRRTEXT
 70
     1
  9
$DRAGMODE
 70
     2
  9
$LTSCALE
 40
1.0
  9
$OSMODE
 70
    37
  9
$ATTMODE
 70
     1
  9
$TEXTSIZE
 40
3.5
  9
$TRACEWID
 40
1.0
  9
$TEXTSTYLE
  7
STANDARD
  9
$CLAYER
  8
0
  9
$CELTYPE
  6
BYLAYER
  9
$CECOLOR
 62
   256
  9
$DIMSCALE
 40
1.0
  9
$DIMASZ
 40
4.0
  9
$DIMEXO
 40
0.0
  9
$DIMDLI
 40
3.75
  9
$DIMRND
 40
0.0
  9
$DIMDLE
 40
0.0
  9
$DIMEXE
 40
2.0
  9
$DIMTP
 40
0.0
  9
$DIMTM
 40
0.0
  9
$DIMTXT
 40
3.5
  9
$DIMCEN
 40
2.5
  9
$DIMTSZ
 40
0.0
  9
$DIMTOL
 70
     0
  9
$DIMLIM
 70
     0
  9
$DIMTIH
 70
     1
  9
$DIMTOH
 70
     1
  9
$DIMSE1
 70
     0
  9
$DIMSE2
 70
     0
  9
$DIMTAD
 70
     1
  9
$DIMZIN
 70
     0
  9
$DIMBLK
  1

  9
$DIMASO
 70
     1
  9
$DIMSHO
 70
     1
  9
$DIMPOST
  1

  9
$DIMAPOST
  1

  9
$DIMALT
 70
     0
  9
$DIMALTD
 70
     3
  9
$DIMALTF
 40
0.0393700787
  9
$DIMLFAC
 40
5.0
  9
$DIMTOFL
 70
     1
  9
$DIMTVP
 40
0.0
  9
$DIMTIX
 70
     0
  9
$DIMSOXD
 70
     0
  9
$DIMSAH
 70
     0
  9
$DIMBLK1
  1

  9
$DIMBLK2
  1

  9
$DIMSTYLE
  2
ISO-25
  9
$DIMCLRD
 70
     0
  9
$DIMCLRE
 70
     0
  9
$DIMCLRT
 70
     0
  9
$DIMTFAC
 40
1.0
  9
$DIMGAP
 40
1.524
  9
$LUNITS
 70
     2
  9
$LUPREC
 70
     2
  9
$SKETCHINC
 40
1.0
  9
$FILLETRAD
 40
10.0
  9
$AUNITS
 70
     0
  9
$AUPREC
 70
     2
  9
$MENU
  1
.
  9
$ELEVATION
 40
0.0
  9
$PELEVATION
 40
0.0
  9
$THICKNESS
 40
0.0
  9
$LIMCHECK
 70
     0
  9
$CHAMFERA
 40
10.0
  9
$CHAMFERB
 40
10.0
  9
$SKPOLY
 70
     0
  9
$TDCREATE
 40
2457802.648331632
  9
$TDUPDATE
 40
2457802.648331944
  9
$TDINDWG
 40
0.0000000116
  9
$TDUSRTIMER
 40
0.0000000116
  9
$USRTIMER
 70
     1
  9
$ANGBASE
 50
0.0
  9
$ANGDIR
 70
     0
  9
$PDMODE
 70
     0
  9
$PDSIZE
 40
-1.0
  9
$PLINEWID
 40
0.0
  9
$COORDS
 70
     1
  9
$SPLFRAME
 70
     0
  9
$SPLINETYPE
 70
     6
  9
$SPLINESEGS
 70
     8
  9
$ATTDIA
 70
     0
  9
$ATTREQ
 70
     1
  9
$HANDLING
 70
     1
  9
$HANDSEED
  5
C4D
  9
$SURFTAB1
 70
     6
  9
$SURFTAB2
 70
     6
  9
$SURFTYPE
 70
     6
  9
$SURFU
 70
     6
  9
$SURFV
 70
     6
  9
$UCSNAME
  2

  9
$UCSORG
 10
0.0
 20
0.0
 30
0.0
  9
$UCSXDIR
 10
1.0
 20
0.0
 30
0.0
  9
$UCSYDIR
 10
0.0
 20
1.0
 30
0.0
  9
$PUCSNAME
  2

  9
$PUCSORG
 10
0.0
 20
0.0
 30
0.0
  9
$PUCSXDIR
 10
1.0
 20
0.0
 30
0.0
  9
$PUCSYDIR
 10
0.0
 20
1.0
 30
0.0
  9
$USERI1
 70
     0
  9
$USERI2
 70
     0
  9
$USERI3
 70
     0
  9
$USERI4
 70
     0
  9
$USERI5
 70
     0
  9
$USERR1
 40
0.0
  9
$USERR2
 40
0.0
  9
$USERR3
 40
0.0
  9
$USERR4
 40
0.0
  9
$USERR5
 40
0.0
  9
$WORLDVIEW
 70
     1
  9
$SHADEDGE
 70
     3
  9
$SHADEDIF
 70
    70
  9
$TILEMODE
 70
     1
  9
$MAXACTVP
 70
    64
  9
$PLIMCHECK
 70
     0
  9
$PEXTMIN
 10
1.0000000000E+20
 20
1.0000000000E+20
 30
1.0000000000E+20
  9
$PEXTMAX
 10
-1.0000000000E+20
 20
-1.0000000000E+20
 30
-1.0000000000E+20
  9
$PLIMMIN
 10
0.0
 20
0.0
  9
$PLIMMAX
 10
420.0
 20
297.0
  9
$UNITMODE
 70
     0
  9
$VISRETAIN
 70
     1
  9
$PLINEGEN
 70
     0
  9
$PSLTSCALE
 70
     1
  0
ENDSEC
  0
SECTION
  2
TABLES
  0
TABLE
  2
VPORT
 70
     1
  0
VPORT
  2
*ACTIVE
 70
     0
 10
0.0
 20
0.0
 11
1.0
 21
1.0
 12
210.0
 22
148.5
 13
0.0
 23
0.0
 14
10.0
 24
10.0
 15
10.0
 25
10.0
 16
0.0
 26
0.0
 36
1.0
 17
0.0
 27
0.0
 37
0.0
 40
297.0
 41
1.4141414141
 42
50.0
 43
0.0
 44
0.0
 50
0.0
 51
0.0
 71
     0
 72
  2000
 73
     1
 74
     3
 75
     0
 76
     0
 77
     0
 78
     0
  0
ENDTAB
  0
TABLE
  2
LTYPE
 70
     6
  0
LTYPE
  2
CONTINUOUS
 70
     0
  3
Solid line
 72
    65
 73
     0
 40
0.0
  0
LTYPE
  2
HIDDEN
 70
     0
  3
Hidden __ __ __ __ __ __ __ __ __ __ __ __ __ __
 72
    65
 73
     2
 40
1.905
 49
1.27
 49
-0.635
  0
LTYPE
  2
PHANTOM
 70
     0
  3
Phantom ______  __  __  ______  __  __  ______
 72
    65
 73
     6
 40
12.7
 49
6.35
 49
-1.27
 49
1.27
 49
-1.27
 49
1.27
 49
-1.27
  0
LTYPE
  2
CENTER
 70
     0
  3
Center ____ _ ____ _ ____ _ ____ _ ____ _ ____
 72
    65
 73
     4
 40
10.16
 49
6.35
 49
-1.27
 49
1.27
 49
-1.27
  0
LTYPE
  2
CENTERX2
 70
     0
  3
Center (2x) ________  __  ________  __  _____
 72
    65
 73
     4
 40
20.32
 49
12.7
 49
-2.54
 49
2.54
 49
-2.54
  0
LTYPE
  2
DOT2
 70
     0
  3
Dot (.5x) ........................................
 72
    65
 73
     2
 40
0.635
 49
0.0
 49
-0.635
  0
ENDTAB
  0
TABLE
  2
LAYER
 70
     2
  0
LAYER
  2
0
 70
     0
 62
     7
  6
CONTINUOUS
  0
LAYER
  2
FORMAT
 70
     0
 62
     7
  6
CONTINUOUS
  0
ENDTAB
  0
TABLE
  2
STYLE
 70
     1
  0
STYLE
  2
STANDARD
 70
     0
 40
0.0
 41
1.0
 50
0.0
 71
     0
 42
3.5
  3
txt
  4

  0
ENDTAB
  0
TABLE
  2
VIEW
 70
     0
  0
ENDTAB
  0
TABLE
  2
UCS
 70
     0
  0
ENDTAB
  0
TABLE
  2
APPID
 70
     1
  0
APPID
  2
ACAD
 70
     0
  0
ENDTAB
  0
TABLE
  2
DIMSTYLE
 70
     1
  0
DIMSTYLE
  2
ISO-25
 70
     0
  3

  4

  5

  6

  7

 40
1.0
 41
2.5
 42
0.625
 43
3.75
 44
1.25
 45
0.0
 46
0.0
 47
0.0
 48
0.0
140
2.5
141
2.5
142
0.0
143
0.0393700787
144
1.0
145
0.0
146
1.0
147
0.625
 71
     0
 72
     0
 73
     0
 74
     0
 75
     0
 76
     0
 77
     1
 78
     8
170
     0
171
     3
172
     1
173
     0
174
     0
175
     0
176
     0
177
     0
178
     0
  0
ENDTAB
  0
ENDSEC
  0
SECTION
  2
BLOCKS
  0
BLOCK
  8
0
  2
$MODEL_SPACE
 70
     0
 10
0.0
 20
0.0
 30
0.0
  3
$MODEL_SPACE
  1

  0
ENDBLK
  5
21
  8
0
  0
BLOCK
 67
     1
  8
0
  2
$PAPER_SPACE
 70
     0
 10
0.0
 20
0.0
 30
0.0
  3
$PAPER_SPACE
  1

  0
ENDBLK
  5
1D
 67
     1
  8
0
  0
ENDSEC
  0
SECTION
  2
ENTITIES
  0
POLYLINE
  5
45
  8
0
  6
CONTINUOUS
 62
     7
 66
     1
 10
0.0
 20
0.0
 30
0.0
  0
VERTEX
  5
4CD
  8
0
  6
CONTINUOUS
 62
     7
 10
122.1854207718
 20
236.0497205032
 30
0.0
  0
VERTEX
  5
4CE
  8
0
  6
CONTINUOUS
 62
     7
 10
122.1209106647
 20
236.0791532768
 30
0.0
  0
VERTEX
  5
4CF
  8
0
  6
CONTINUOUS
 62
     7
 10
121.5905962192
 20
236.3204805626
 30
0.0
  0
SEQEND
  5
C4C
  8
0
  6
CONTINUOUS
 62
     7
  0
LINE
  5
46
  8
0
  6
CONTINUOUS
 62
     7
 10
58.9203891956
 20
236.3211123718
 30
0.0
 11
58.323484441
 21
236.0491363777
 31
0.0
  0
POLYLINE
  5
47
  8
0
  6
CONTINUOUS
 62
     7
 66
     1
 10
0.0
 20
0.0
 30
0.0
  0
VERTEX
  5
4D0
  8
0
  6
CONTINUOUS
 62
     7
 10
242.1854225599
 20
236.0497205032
 30
0.0
  0
VERTEX
  5
4D1
  8
0
  6
CONTINUOUS
 62
     7
 10
242.1209094726
 20
236.0791532768
 30
0.0
  0
VERTEX
  5
4D2
  8
0
  6
CONTINUOUS
 62
     7
 10
241.5905950271
 20
236.3204805626
 30
0.0
  0
SEQEND
  5
C4B
  8
0
  6
CONTINUOUS
 62
     7
  0
LINE
  5
48
  8
0
  6
CONTINUOUS
 62
     7
 10
178.920393964
 20
236.3211123718
 30
0.0
 11
178.3234802686
 21
236.0491363777
 31
0.0
  0
POLYLINE
  5
49
  8
0
  6
CONTINUOUS
 62
     7
 66
     1
 10
0.0
 20
0.0
 30
0.0
  0
VERTEX
  5
4D3
  8
0
  6
CONTINUOUS
 62
     7
 10
362.185424348
 20
236.0497205032
 30
0.0
  0
VERTEX
  5
4D4
  8
0
  6
CONTINUOUS
 62
     7
 10
362.1209082805
 20
236.0791532768
 30
0.0
  0
VERTEX
  5
4D5
  8
0
  6
CONTINUOUS
 62
     7
 10
361.590593835
 20
236.3204805626
 30
0.0
  0
SEQEND
  5
C4A
  8
0
  6
CONTINUOUS
 62
     7
  0
LINE
  5
4A
  8
0
  6
CONTINUOUS
 62
     7
 10
298.9203927719
 20
236.3211123718
 30
0.0
 11
298.3234820568
 21
236.0491363777
 31
0.0
  0
POLYLINE
  5
4B
  8
0
  6
CONTINUOUS
 62
     7
 66
     1
 10
0.0
 20
0.0
 30
0.0
  0
VERTEX
  5
4D6
  8
0
  6
CONTINUOUS
 62
     7
 10
127.691888591
 20
162.3525647892
 30
0.0
  0
VERTEX
  5
4D7
  8
0
  6
CONTINUOUS
 62
     7
 10
126.4170286857
 20
162.1823518051
 30
0.0
  0
VERTEX
  5
4D8
  8
0
  6
CONTINUOUS
 62
     7
 10
125.3241894447
 20
162.0412854923
 30
0.0
  0
VERTEX
  5
4D9
  8
0
  6
CONTINUOUS
 62
     7
 10
124.4136629306
 20
161.9271545185
 30
0.0
  0
VERTEX
  5
4DA
  8
0
  6
CONTINUOUS
 62
     7
 10
123.6856816017
 20
161.8381230606
 30
0.0
  0
VERTEX
  5
4DB
  8
0
  6
CONTINUOUS
 62
     7
 10
123.0872926914
 20
161.766406752
 30
0.0
  0
VERTEX
  5
4DC
  8
0
  6
CONTINUOUS
 62
     7
 10
122.6662454807
 20
161.7168156876
 30
0.0
  0
VERTEX
  5
4DD
  8
0
  6
CONTINUOUS
 62
     7
 10
122.2300646507
 20
161.6665868534
 30
0.0
  0
VERTEX
  5
4DE
  8
0
  6
CONTINUOUS
 62
     7
 10
121.7607138359
 20
161.6137830986
 30
0.0
  0
VERTEX
  5
4DF
  8
0
  6
CONTINUOUS
 62
     7
 10
121.2581811153
 20
161.5586011185
 30
0.0
  0
VERTEX
  5
4E0
  8
0
  6
CONTINUOUS
 62
     7
 10
120.7224486076
 20
161.5012316479
 30
0.0
  0
VERTEX
  5
4E1
  8
0
  6
CONTINUOUS
 62
     7
 10
119.3281409942
 20
161.3586156143
 30
0.0
  0
VERTEX
  5
4E2
  8
0
  6
CONTINUOUS
 62
     7
 10
117.7489755355
 20
161.2081198467
 30
0.0
  0
VERTEX
  5
4E3
  8
0
  6
CONTINUOUS
 62
     7
 10
116.4294121467
 20
161.0909967198
 30
0.0
  0
VERTEX
  5
4E4
  8
0
  6
CONTINUOUS
 62
     7
 10
115.102702161
 20
160.9818188919
 30
0.0
  0
VERTEX
  5
4E5
  8
0
  6
CONTINUOUS
 62
     7
 10
113.8691423141
 20
160.8891515507
 30
0.0
  0
VERTEX
  5
4E6
  8
0
  6
CONTINUOUS
 62
     7
 10
112.7288935386
 20
160.8118741287
 30
0.0
  0
VERTEX
  5
4E7
  8
0
  6
CONTINUOUS
 62
     7
 10
111.6821167671
 20
160.7490448727
 30
0.0
  0
VERTEX
  5
4E8
  8
0
  6
CONTINUOUS
 62
     7
 10
110.7289610111
 20
160.6999246849
 30
0.0
  0
VERTEX
  5
4E9
  8
0
  6
CONTINUOUS
 62
     7
 10
109.8695693218
 20
160.6639771237
 30
0.0
  0
VERTEX
  5
4EA
  8
0
  6
CONTINUOUS
 62
     7
 10
109.1033516132
 20
160.6407134308
 30
0.0
  0
VERTEX
  5
4EB
  8
0
  6
CONTINUOUS
 62
     7
 10
108.7427435123
 20
160.6312660946
 30
0.0
  0
VERTEX
  5
4EC
  8
0
  6
CONTINUOUS
 62
     7
 10
108.3890733921
 20
160.6205134167
 30
0.0
  0
VERTEX
  5
4ED
  8
0
  6
CONTINUOUS
 62
     7
 10
108.0423293316
 20
160.6080560459
 30
0.0
  0
VERTEX
  5
4EE
  8
0
  6
CONTINUOUS
 62
     7
 10
107.7025232517
 20
160.5945079102
 30
0.0
  0
VERTEX
  5
4EF
  8
0
  6
CONTINUOUS
 62
     7
 10
107.1468649112
 20
160.571470715
 30
0.0
  0
VERTEX
  5
4F0
  8
0
  6
CONTINUOUS
 62
     7
 10
106.5316972934
 20
160.5465857758
 30
0.0
  0
VERTEX
  5
4F1
  8
0
  6
CONTINUOUS
 62
     7
 10
105.7988224231
 20
160.5183212532
 30
0.0
  0
VERTEX
  5
4F2
  8
0
  6
CONTINUOUS
 62
     7
 10
104.9482164585
 20
160.4873685612
 30
0.0
  0
VERTEX
  5
4F3
  8
0
  6
CONTINUOUS
 62
     7
 10
103.930789014
 20
160.4528813137
 30
0.0
  0
VERTEX
  5
4F4
  8
0
  6
CONTINUOUS
 62
     7
 10
102.7841029369
 20
160.417261578
 30
0.0
  0
VERTEX
  5
4F5
  8
0
  6
CONTINUOUS
 62
     7
 10
101.5082893573
 20
160.3816060795
 30
0.0
  0
VERTEX
  5
4F6
  8
0
  6
CONTINUOUS
 62
     7
 10
95.4607424938
 20
160.2669505848
 30
0.0
  0
VERTEX
  5
4F7
  8
0
  6
CONTINUOUS
 62
     7
 10
89.4436893665
 20
160.2374462856
 30
0.0
  0
VERTEX
  5
4F8
  8
0
  6
CONTINUOUS
 62
     7
 10
87.069147607
 20
160.2483896984
 30
0.0
  0
VERTEX
  5
4F9
  8
0
  6
CONTINUOUS
 62
     7
 10
84.8340926372
 20
160.2704195751
 30
0.0
  0
VERTEX
  5
4FA
  8
0
  6
CONTINUOUS
 62
     7
 10
82.7528653347
 20
160.3012470974
 30
0.0
  0
VERTEX
  5
4FB
  8
0
  6
CONTINUOUS
 62
     7
 10
80.8254776203
 20
160.3388039841
 30
0.0
  0
VERTEX
  5
4FC
  8
0
  6
CONTINUOUS
 62
     7
 10
79.042213937
 20
160.3814391865
 30
0.0
  0
VERTEX
  5
4FD
  8
0
  6
CONTINUOUS
 62
     7
 10
78.1327901088
 20
160.4061631931
 30
0.0
  0
VERTEX
  5
4FE
  8
0
  6
CONTINUOUS
 62
     7
 10
77.1806416713
 20
160.4342787041
 30
0.0
  0
VERTEX
  5
4FF
  8
0
  6
CONTINUOUS
 62
     7
 10
76.1858043872
 20
160.4661731495
 30
0.0
  0
VERTEX
  5
500
  8
0
  6
CONTINUOUS
 62
     7
 10
75.1483020984
 20
160.5022756828
 30
0.0
  0
VERTEX
  5
501
  8
0
  6
CONTINUOUS
 62
     7
 10
74.1239366733
 20
160.5408637299
 30
0.0
  0
VERTEX
  5
502
  8
0
  6
CONTINUOUS
 62
     7
 10
73.4556255542
 20
160.5676619782
 30
0.0
  0
VERTEX
  5
503
  8
0
  6
CONTINUOUS
 62
     7
 10
72.9749498569
 20
160.587742783
 30
0.0
  0
VERTEX
  5
504
  8
0
  6
CONTINUOUS
 62
     7
 10
72.6609049045
 20
160.6012193932
 30
0.0
  0
VERTEX
  5
505
  8
0
  6
CONTINUOUS
 62
     7
 10
72.1800265514
 20
160.6220273747
 30
0.0
  0
VERTEX
  5
506
  8
0
  6
CONTINUOUS
 62
     7
 10
71.6241178714
 20
160.6450943722
 30
0.0
  0
VERTEX
  5
507
  8
0
  6
CONTINUOUS
 62
     7
 10
70.9932384693
 20
160.6692223324
 30
0.0
  0
VERTEX
  5
508
  8
0
  6
CONTINUOUS
 62
     7
 10
70.2873883449
 20
160.6966285481
 30
0.0
  0
VERTEX
  5
509
  8
0
  6
CONTINUOUS
 62
     7
 10
69.5056615078
 20
160.7308475746
 30
0.0
  0
VERTEX
  5
50A
  8
0
  6
CONTINUOUS
 62
     7
 10
68.6435041629
 20
160.7756821884
 30
0.0
  0
VERTEX
  5
50B
  8
0
  6
CONTINUOUS
 62
     7
 10
67.7003679477
 20
160.8320324196
 30
0.0
  0
VERTEX
  5
50C
  8
0
  6
CONTINUOUS
 62
     7
 10
66.6763363086
 20
160.9004585518
 30
0.0
  0
VERTEX
  5
50D
  8
0
  6
CONTINUOUS
 62
     7
 10
65.5715522968
 20
160.9816579594
 30
0.0
  0
VERTEX
  5
50E
  8
0
  6
CONTINUOUS
 62
     7
 10
64.3861470424
 20
161.076447226
 30
0.0
  0
VERTEX
  5
50F
  8
0
  6
CONTINUOUS
 62
     7
 10
62.3221693241
 20
161.2588135971
 30
0.0
  0
VERTEX
  5
510
  8
0
  6
CONTINUOUS
 62
     7
 10
60.0669083797
 20
161.4815084709
 30
0.0
  0
VERTEX
  5
511
  8
0
  6
CONTINUOUS
 62
     7
 10
57.7210602962
 20
161.7379038109
 30
0.0
  0
VERTEX
  5
512
  8
0
  6
CONTINUOUS
 62
     7
 10
55.3046403133
 20
162.027755238
 30
0.0
  0
VERTEX
  5
513
  8
0
  6
CONTINUOUS
 62
     7
 10
52.817982217
 20
162.3525647892
 30
0.0
  0
SEQEND
  5
C49
  8
0
  6
CONTINUOUS
 62
     7
  0
POLYLINE
  5
4C
  8
0
  6
CONTINUOUS
 62
     7
 66
     1
 10
0.0
 20
0.0
 30
0.0
  0
VERTEX
  5
514
  8
0
  6
CONTINUOUS
 62
     7
 10
127.8550026619
 20
161.7688088192
 30
0.0
  0
VERTEX
  5
515
  8
0
  6
CONTINUOUS
 62
     7
 10
127.7727840149
 20
162.1298043503
 30
0.0
  0
VERTEX
  5
516
  8
0
  6
CONTINUOUS
 62
     7
 10
127.6387689315
 20
162.7187876476
 30
0.0
  0
SEQEND
  5
C48
  8
0
  6
CONTINUOUS
 62
     7
  0
POLYLINE
  5
4D
  8
0
  6
CONTINUOUS
 62
     7
 66
     1
 10
0.0
 20
0.0
 30
0.0
  0
VERTEX
  5
517
  8
0
  6
CONTINUOUS
 62
     7
 10
52.8711018764
 20
162.7187876476
 30
0.0
  0
VERTEX
  5
518
  8
0
  6
CONTINUOUS
 62
     7
 10
52.7384219371
 20
162.135639645
 30
0.0
  0
VERTEX
  5
519
  8
0
  6
CONTINUOUS
 62
     7
 10
52.6526627742
 20
161.759117104
 30
0.0
  0
SEQEND
  5
C47
  8
0
  6
CONTINUOUS
 62
     7
  0
POLYLINE
  5
4E
  8
0
  6
CONTINUOUS
 62
     7
 66
     1
 10
0.0
 20
0.0
 30
0.0
  0
VERTEX
  5
51A
  8
0
  6
CONTINUOUS
 62
     7
 10
247.6918873989
 20
162.3525647892
 30
0.0
  0
VERTEX
  5
51B
  8
0
  6
CONTINUOUS
 62
     7
 10
246.4170274936
 20
162.1823518051
 30
0.0
  0
VERTEX
  5
51C
  8
0
  6
CONTINUOUS
 62
     7
 10
245.3241852724
 20
162.0412854923
 30
0.0
  0
VERTEX
  5
51D
  8
0
  6
CONTINUOUS
 62
     7
 10
244.4136587583
 20
161.9271545185
 30
0.0
  0
VERTEX
  5
51E
  8
0
  6
CONTINUOUS
 62
     7
 10
243.6856833898
 20
161.8381230606
 30
0.0
  0
VERTEX
  5
51F
  8
0
  6
CONTINUOUS
 62
     7
 10
243.0872914993
 20
161.766406752
 30
0.0
  0
VERTEX
  5
520
  8
0
  6
CONTINUOUS
 62
     7
 10
242.6662442886
 20
161.7168156876
 30
0.0
  0
VERTEX
  5
521
  8
0
  6
CONTINUOUS
 62
     7
 10
242.2300634586
 20
161.6665868534
 30
0.0
  0
VERTEX
  5
522
  8
0
  6
CONTINUOUS
 62
     7
 10
241.760715624
 20
161.6137830986
 30
0.0
  0
VERTEX
  5
523
  8
0
  6
CONTINUOUS
 62
     7
 10
241.2581829034
 20
161.5586011185
 30
0.0
  0
VERTEX
  5
524
  8
0
  6
CONTINUOUS
 62
     7
 10
240.7224474155
 20
161.5012316479
 30
0.0
  0
VERTEX
  5
525
  8
0
  6
CONTINUOUS
 62
     7
 10
239.3281427824
 20
161.3586156143
 30
0.0
  0
VERTEX
  5
526
  8
0
  6
CONTINUOUS
 62
     7
 10
237.7489743435
 20
161.2081198467
 30
0.0
  0
VERTEX
  5
527
  8
0
  6
CONTINUOUS
 62
     7
 10
236.4294139349
 20
161.0909967198
 30
0.0
  0
VERTEX
  5
528
  8
0
  6
CONTINUOUS
 62
     7
 10
235.1027054392
 20
160.9818188919
 30
0.0
  0
VERTEX
  5
529
  8
0
  6
CONTINUOUS
 62
     7
 10
233.869141122
 20
160.8891515507
 30
0.0
  0
VERTEX
  5
52A
  8
0
  6
CONTINUOUS
 62
     7
 10
232.7288938367
 20
160.8118741287
 30
0.0
  0
VERTEX
  5
52B
  8
0
  6
CONTINUOUS
 62
     7
 10
231.6821185552
 20
160.7490448727
 30
0.0
  0
VERTEX
  5
52C
  8
0
  6
CONTINUOUS
 62
     7
 10
230.7289627992
 20
160.6999246849
 30
0.0
  0
VERTEX
  5
52D
  8
0
  6
CONTINUOUS
 62
     7
 10
229.8695651495
 20
160.6639771237
 30
0.0
  0
VERTEX
  5
52E
  8
0
  6
CONTINUOUS
 62
     7
 10
229.1033563816
 20
160.6407134308
 30
0.0
  0
VERTEX
  5
52F
  8
0
  6
CONTINUOUS
 62
     7
 10
228.7427438103
 20
160.6312660946
 30
0.0
  0
VERTEX
  5
530
  8
0
  6
CONTINUOUS
 62
     7
 10
228.3890751802
 20
160.6205134167
 30
0.0
  0
VERTEX
  5
531
  8
0
  6
CONTINUOUS
 62
     7
 10
228.0423340999
 20
160.6080560459
 30
0.0
  0
VERTEX
  5
532
  8
0
  6
CONTINUOUS
 62
     7
 10
227.7025265299
 20
160.5945079102
 30
0.0
  0
VERTEX
  5
533
  8
0
  6
CONTINUOUS
 62
     7
 10
227.146862229
 20
160.571470715
 30
0.0
  0
VERTEX
  5
534
  8
0
  6
CONTINUOUS
 62
     7
 10
226.5316975915
 20
160.5465857758
 30
0.0
  0
VERTEX
  5
535
  8
0
  6
CONTINUOUS
 62
     7
 10
225.7988227212
 20
160.5183212532
 30
0.0
  0
VERTEX
  5
536
  8
0
  6
CONTINUOUS
 62
     7
 10
224.9482122862
 20
160.4873685612
 30
0.0
  0
VERTEX
  5
537
  8
0
  6
CONTINUOUS
 62
     7
 10
223.9307908022
 20
160.4528813137
 30
0.0
  0
VERTEX
  5
538
  8
0
  6
CONTINUOUS
 62
     7
 10
222.7840987646
 20
160.417261578
 30
0.0
  0
VERTEX
  5
539
  8
0
  6
CONTINUOUS
 62
     7
 10
221.5082948708
 20
160.3816060795
 30
0.0
  0
VERTEX
  5
53A
  8
0
  6
CONTINUOUS
 62
     7
 10
215.4607405566
 20
160.2669505848
 30
0.0
  0
VERTEX
  5
53B
  8
0
  6
CONTINUOUS
 62
     7
 10
209.4436888263
 20
160.2374462856
 30
0.0
  0
VERTEX
  5
53C
  8
0
  6
CONTINUOUS
 62
     7
 10
207.069147905
 20
160.2483896984
 30
0.0
  0
VERTEX
  5
53D
  8
0
  6
CONTINUOUS
 62
     7
 10
204.8340947979
 20
160.2704195751
 30
0.0
  0
VERTEX
  5
53E
  8
0
  6
CONTINUOUS
 62
     7
 10
202.7528626525
 20
160.3012470974
 30
0.0
  0
VERTEX
  5
53F
  8
0
  6
CONTINUOUS
 62
     7
 10
200.8254756831
 20
160.3388039841
 30
0.0
  0
VERTEX
  5
540
  8
0
  6
CONTINUOUS
 62
     7
 10
199.0422097646
 20
160.3814391865
 30
0.0
  0
VERTEX
  5
541
  8
0
  6
CONTINUOUS
 62
     7
 10
198.1327866816
 20
160.4061631931
 30
0.0
  0
VERTEX
  5
542
  8
0
  6
CONTINUOUS
 62
     7
 10
197.1806449496
 20
160.4342787041
 30
0.0
  0
VERTEX
  5
543
  8
0
  6
CONTINUOUS
 62
     7
 10
196.1858076655
 20
160.4661731495
 30
0.0
  0
VERTEX
  5
544
  8
0
  6
CONTINUOUS
 62
     7
 10
195.148296436
 20
160.5022756828
 30
0.0
  0
VERTEX
  5
545
  8
0
  6
CONTINUOUS
 62
     7
 10
194.1239414417
 20
160.5408637299
 30
0.0
  0
VERTEX
  5
546
  8
0
  6
CONTINUOUS
 62
     7
 10
193.4556198918
 20
160.5676619782
 30
0.0
  0
VERTEX
  5
547
  8
0
  6
CONTINUOUS
 62
     7
 10
192.9749501549
 20
160.587742783
 30
0.0
  0
VERTEX
  5
548
  8
0
  6
CONTINUOUS
 62
     7
 10
192.660911163
 20
160.6012193932
 30
0.0
  0
VERTEX
  5
549
  8
0
  6
CONTINUOUS
 62
     7
 10
192.1800298297
 20
160.6220273747
 30
0.0
  0
VERTEX
  5
54A
  8
0
  6
CONTINUOUS
 62
     7
 10
191.6241181695
 20
160.6450943722
 30
0.0
  0
VERTEX
  5
54B
  8
0
  6
CONTINUOUS
 62
     7
 10
190.9932372772
 20
160.6692223324
 30
0.0
  0
VERTEX
  5
54C
  8
0
  6
CONTINUOUS
 62
     7
 10
190.2873901331
 20
160.6966285481
 30
0.0
  0
VERTEX
  5
54D
  8
0
  6
CONTINUOUS
 62
     7
 10
189.5056603157
 20
160.7308475746
 30
0.0
  0
VERTEX
  5
54E
  8
0
  6
CONTINUOUS
 62
     7
 10
188.6435089313
 20
160.7756821884
 30
0.0
  0
VERTEX
  5
54F
  8
0
  6
CONTINUOUS
 62
     7
 10
187.7003637754
 20
160.8320324196
 30
0.0
  0
VERTEX
  5
550
  8
0
  6
CONTINUOUS
 62
     7
 10
186.6763395869
 20
160.9004585518
 30
0.0
  0
VERTEX
  5
551
  8
0
  6
CONTINUOUS
 62
     7
 10
185.5715585553
 20
160.9816579594
 30
0.0
  0
VERTEX
  5
552
  8
0
  6
CONTINUOUS
 62
     7
 10
184.3861518108
 20
161.076447226
 30
0.0
  0
VERTEX
  5
553
  8
0
  6
CONTINUOUS
 62
     7
 10
182.322168132
 20
161.2588135971
 30
0.0
  0
VERTEX
  5
554
  8
0
  6
CONTINUOUS
 62
     7
 10
180.0669071876
 20
161.4815084709
 30
0.0
  0
VERTEX
  5
555
  8
0
  6
CONTINUOUS
 62
     7
 10
177.7210650646
 20
161.7379038109
 30
0.0
  0
VERTEX
  5
556
  8
0
  6
CONTINUOUS
 62
     7
 10
175.3046331607
 20
162.027755238
 30
0.0
  0
VERTEX
  5
557
  8
0
  6
CONTINUOUS
 62
     7
 10
172.8179869854
 20
162.3525647892
 30
0.0
  0
SEQEND
  5
C46
  8
0
  6
CONTINUOUS
 62
     7
  0
POLYLINE
  5
4F
  8
0
  6
CONTINUOUS
 62
     7
 66
     1
 10
0.0
 20
0.0
 30
0.0
  0
VERTEX
  5
558
  8
0
  6
CONTINUOUS
 62
     7
 10
247.8550014698
 20
161.7688088192
 30
0.0
  0
VERTEX
  5
559
  8
0
  6
CONTINUOUS
 62
     7
 10
247.772785803
 20
162.1298043503
 30
0.0
  0
VERTEX
  5
55A
  8
0
  6
CONTINUOUS
 62
     7
 10
247.6387707197
 20
162.7187876476
 30
0.0
  0
SEQEND
  5
C45
  8
0
  6
CONTINUOUS
 62
     7
  0
POLYLINE
  5
50
  8
0
  6
CONTINUOUS
 62
     7
 66
     1
 10
0.0
 20
0.0
 30
0.0
  0
VERTEX
  5
55B
  8
0
  6
CONTINUOUS
 62
     7
 10
172.8711036646
 20
162.7187876476
 30
0.0
  0
VERTEX
  5
55C
  8
0
  6
CONTINUOUS
 62
     7
 10
172.7384147846
 20
162.135639645
 30
0.0
  0
VERTEX
  5
55D
  8
0
  6
CONTINUOUS
 62
     7
 10
172.6526645624
 20
161.759117104
 30
0.0
  0
SEQEND
  5
C44
  8
0
  6
CONTINUOUS
 62
     7
  0
POLYLINE
  5
51
  8
0
  6
CONTINUOUS
 62
     7
 66
     1
 10
0.0
 20
0.0
 30
0.0
  0
VERTEX
  5
55E
  8
0
  6
CONTINUOUS
 62
     7
 10
367.6918921672
 20
162.3525647892
 30
0.0
  0
VERTEX
  5
55F
  8
0
  6
CONTINUOUS
 62
     7
 10
366.417032262
 20
162.1823518051
 30
0.0
  0
VERTEX
  5
560
  8
0
  6
CONTINUOUS
 62
     7
 10
365.3241811
 20
162.0412854923
 30
0.0
  0
VERTEX
  5
561
  8
0
  6
CONTINUOUS
 62
     7
 10
364.4136605465
 20
161.9271545185
 30
0.0
  0
VERTEX
  5
562
  8
0
  6
CONTINUOUS
 62
     7
 10
363.685685178
 20
161.8381230606
 30
0.0
  0
VERTEX
  5
563
  8
0
  6
CONTINUOUS
 62
     7
 10
363.0872903072
 20
161.766406752
 30
0.0
  0
VERTEX
  5
564
  8
0
  6
CONTINUOUS
 62
     7
 10
362.6662430965
 20
161.7168156876
 30
0.0
  0
VERTEX
  5
565
  8
0
  6
CONTINUOUS
 62
     7
 10
362.230068227
 20
161.6665868534
 30
0.0
  0
VERTEX
  5
566
  8
0
  6
CONTINUOUS
 62
     7
 10
361.7607174121
 20
161.6137830986
 30
0.0
  0
VERTEX
  5
567
  8
0
  6
CONTINUOUS
 62
     7
 10
361.2581787311
 20
161.5586011185
 30
0.0
  0
VERTEX
  5
568
  8
0
  6
CONTINUOUS
 62
     7
 10
360.7224521839
 20
161.5012316479
 30
0.0
  0
VERTEX
  5
569
  8
0
  6
CONTINUOUS
 62
     7
 10
359.3281445705
 20
161.3586156143
 30
0.0
  0
VERTEX
  5
56A
  8
0
  6
CONTINUOUS
 62
     7
 10
357.7489791118
 20
161.2081198467
 30
0.0
  0
VERTEX
  5
56B
  8
0
  6
CONTINUOUS
 62
     7
 10
356.429415723
 20
161.0909967198
 30
0.0
  0
VERTEX
  5
56C
  8
0
  6
CONTINUOUS
 62
     7
 10
355.1026997768
 20
160.9818188919
 30
0.0
  0
VERTEX
  5
56D
  8
0
  6
CONTINUOUS
 62
     7
 10
353.8691458904
 20
160.8891515507
 30
0.0
  0
VERTEX
  5
56E
  8
0
  6
CONTINUOUS
 62
     7
 10
352.7288971149
 20
160.8118741287
 30
0.0
  0
VERTEX
  5
56F
  8
0
  6
CONTINUOUS
 62
     7
 10
351.6821203434
 20
160.7490448727
 30
0.0
  0
VERTEX
  5
570
  8
0
  6
CONTINUOUS
 62
     7
 10
350.7289586269
 20
160.6999246849
 30
0.0
  0
VERTEX
  5
571
  8
0
  6
CONTINUOUS
 62
     7
 10
349.8695669376
 20
160.6639771237
 30
0.0
  0
VERTEX
  5
572
  8
0
  6
CONTINUOUS
 62
     7
 10
349.1033611499
 20
160.6407134308
 30
0.0
  0
VERTEX
  5
573
  8
0
  6
CONTINUOUS
 62
     7
 10
348.7427411281
 20
160.6312660946
 30
0.0
  0
VERTEX
  5
574
  8
0
  6
CONTINUOUS
 62
     7
 10
348.3890710079
 20
160.6205134167
 30
0.0
  0
VERTEX
  5
575
  8
0
  6
CONTINUOUS
 62
     7
 10
348.0423388683
 20
160.6080560459
 30
0.0
  0
VERTEX
  5
576
  8
0
  6
CONTINUOUS
 62
     7
 10
347.7025208675
 20
160.5945079102
 30
0.0
  0
VERTEX
  5
577
  8
0
  6
CONTINUOUS
 62
     7
 10
347.146862527
 20
160.571470715
 30
0.0
  0
VERTEX
  5
578
  8
0
  6
CONTINUOUS
 62
     7
 10
346.5316949093
 20
160.5465857758
 30
0.0
  0
VERTEX
  5
579
  8
0
  6
CONTINUOUS
 62
     7
 10
345.798820039
 20
160.5183212532
 30
0.0
  0
VERTEX
  5
57A
  8
0
  6
CONTINUOUS
 62
     7
 10
344.9482140743
 20
160.4873685612
 30
0.0
  0
VERTEX
  5
57B
  8
0
  6
CONTINUOUS
 62
     7
 10
343.9307866298
 20
160.4528813137
 30
0.0
  0
VERTEX
  5
57C
  8
0
  6
CONTINUOUS
 62
     7
 10
342.7841005527
 20
160.417261578
 30
0.0
  0
VERTEX
  5
57D
  8
0
  6
CONTINUOUS
 62
     7
 10
341.5082988941
 20
160.3816060795
 30
0.0
  0
VERTEX
  5
57E
  8
0
  6
CONTINUOUS
 62
     7
 10
335.4607401096
 20
160.2669505848
 30
0.0
  0
VERTEX
  5
57F
  8
0
  6
CONTINUOUS
 62
     7
 10
329.4436869823
 20
160.2374462856
 30
0.0
  0
VERTEX
  5
580
  8
0
  6
CONTINUOUS
 62
     7
 10
327.0691452228
 20
160.2483896984
 30
0.0
  0
VERTEX
  5
581
  8
0
  6
CONTINUOUS
 62
     7
 10
324.834090253
 20
160.2704195751
 30
0.0
  0
VERTEX
  5
582
  8
0
  6
CONTINUOUS
 62
     7
 10
322.7528629505
 20
160.3012470974
 30
0.0
  0
VERTEX
  5
583
  8
0
  6
CONTINUOUS
 62
     7
 10
320.8254752361
 20
160.3388039841
 30
0.0
  0
VERTEX
  5
584
  8
0
  6
CONTINUOUS
 62
     7
 10
319.0422115528
 20
160.3814391865
 30
0.0
  0
VERTEX
  5
585
  8
0
  6
CONTINUOUS
 62
     7
 10
318.1327877246
 20
160.4061631931
 30
0.0
  0
VERTEX
  5
586
  8
0
  6
CONTINUOUS
 62
     7
 10
317.1806512081
 20
160.4342787041
 30
0.0
  0
VERTEX
  5
587
  8
0
  6
CONTINUOUS
 62
     7
 10
316.1858020031
 20
160.4661731495
 30
0.0
  0
VERTEX
  5
588
  8
0
  6
CONTINUOUS
 62
     7
 10
315.1482997142
 20
160.5022756828
 30
0.0
  0
VERTEX
  5
589
  8
0
  6
CONTINUOUS
 62
     7
 10
314.1239462101
 20
160.5408637299
 30
0.0
  0
VERTEX
  5
58A
  8
0
  6
CONTINUOUS
 62
     7
 10
313.4556231701
 20
160.5676619782
 30
0.0
  0
VERTEX
  5
58B
  8
0
  6
CONTINUOUS
 62
     7
 10
312.9749474727
 20
160.587742783
 30
0.0
  0
VERTEX
  5
58C
  8
0
  6
CONTINUOUS
 62
     7
 10
312.6609144413
 20
160.6012193932
 30
0.0
  0
VERTEX
  5
58D
  8
0
  6
CONTINUOUS
 62
     7
 10
312.1800241672
 20
160.6220273747
 30
0.0
  0
VERTEX
  5
58E
  8
0
  6
CONTINUOUS
 62
     7
 10
311.6241154873
 20
160.6450943722
 30
0.0
  0
VERTEX
  5
58F
  8
0
  6
CONTINUOUS
 62
     7
 10
310.9932360851
 20
160.6692223324
 30
0.0
  0
VERTEX
  5
590
  8
0
  6
CONTINUOUS
 62
     7
 10
310.2873859607
 20
160.6966285481
 30
0.0
  0
VERTEX
  5
591
  8
0
  6
CONTINUOUS
 62
     7
 10
309.5056591236
 20
160.7308475746
 30
0.0
  0
VERTEX
  5
592
  8
0
  6
CONTINUOUS
 62
     7
 10
308.6435077392
 20
160.7756821884
 30
0.0
  0
VERTEX
  5
593
  8
0
  6
CONTINUOUS
 62
     7
 10
307.7003655635
 20
160.8320324196
 30
0.0
  0
VERTEX
  5
594
  8
0
  6
CONTINUOUS
 62
     7
 10
306.6763398849
 20
160.9004585518
 30
0.0
  0
VERTEX
  5
595
  8
0
  6
CONTINUOUS
 62
     7
 10
305.5715558731
 20
160.9816579594
 30
0.0
  0
VERTEX
  5
596
  8
0
  6
CONTINUOUS
 62
     7
 10
304.3861506187
 20
161.076447226
 30
0.0
  0
VERTEX
  5
597
  8
0
  6
CONTINUOUS
 62
     7
 10
302.3221669399
 20
161.2588135971
 30
0.0
  0
VERTEX
  5
598
  8
0
  6
CONTINUOUS
 62
     7
 10
300.0669059955
 20
161.4815084709
 30
0.0
  0
VERTEX
  5
599
  8
0
  6
CONTINUOUS
 62
     7
 10
297.7210638725
 20
161.7379038109
 30
0.0
  0
VERTEX
  5
59A
  8
0
  6
CONTINUOUS
 62
     7
 10
295.3046319687
 20
162.027755238
 30
0.0
  0
VERTEX
  5
59B
  8
0
  6
CONTINUOUS
 62
     7
 10
292.8179857933
 20
162.3525647892
 30
0.0
  0
SEQEND
  5
C43
  8
0
  6
CONTINUOUS
 62
     7
  0
POLYLINE
  5
52
  8
0
  6
CONTINUOUS
 62
     7
 66
     1
 10
0.0
 20
0.0
 30
0.0
  0
VERTEX
  5
59C
  8
0
  6
CONTINUOUS
 62
     7
 10
367.8550062381
 20
161.7688088192
 30
0.0
  0
VERTEX
  5
59D
  8
0
  6
CONTINUOUS
 62
     7
 10
367.7727875911
 20
162.1298043503
 30
0.0
  0
VERTEX
  5
59E
  8
0
  6
CONTINUOUS
 62
     7
 10
367.6387725078
 20
162.7187876476
 30
0.0
  0
SEQEND
  5
C42
  8
0
  6
CONTINUOUS
 62
     7
  0
POLYLINE
  5
53
  8
0
  6
CONTINUOUS
 62
     7
 66
     1
 10
0.0
 20
0.0
 30
0.0
  0
VERTEX
  5
59F
  8
0
  6
CONTINUOUS
 62
     7
 10
292.8711054527
 20
162.7187876476
 30
0.0
  0
VERTEX
  5
5A0
  8
0
  6
CONTINUOUS
 62
     7
 10
292.7384135925
 20
162.135639645
 30
0.0
  0
VERTEX
  5
5A1
  8
0
  6
CONTINUOUS
 62
     7
 10
292.6526663505
 20
161.759117104
 30
0.0
  0
SEQEND
  5
C41
  8
0
  6
CONTINUOUS
 62
     7
  0
LINE
  5
54
  8
0
  6
CONTINUOUS
 62
     7
 10
152.9549358093
 20
153.5645096077
 30
0.0
 11
152.9549358093
 21
170.164510466
 31
0.0
  0
LINE
  5
55
  8
0
  6
CONTINUOUS
 62
     7
 10
147.554939767
 20
170.164510466
 30
0.0
 11
147.554939767
 21
153.5645096077
 31
0.0
  0
LINE
  5
56
  8
0
  6
CONTINUOUS
 62
     7
 10
147.554939767
 20
185.1645080818
 30
0.0
 11
147.554939767
 21
170.164510466
 31
0.0
  0
LINE
  5
57
  8
0
  6
CONTINUOUS
 62
     7
 10
152.9549358093
 20
170.164510466
 30
0.0
 11
152.9549358093
 21
185.1645080818
 31
0.0
  0
LINE
  5
58
  8
0
  6
CONTINUOUS
 62
     7
 10
147.554939767
 20
153.5645096077
 30
0.0
 11
147.554939767
 21
138.5645119919
 31
0.0
  0
LINE
  5
59
  8
0
  6
CONTINUOUS
 62
     7
 10
152.9549358093
 20
138.5645119919
 30
0.0
 11
152.9549358093
 21
153.5645096077
 31
0.0
  0
LINE
  5
5A
  8
0
  6
CONTINUOUS
 62
     7
 10
272.9549346172
 20
153.5645096077
 30
0.0
 11
272.9549346172
 21
170.164510466
 31
0.0
  0
LINE
  5
5B
  8
0
  6
CONTINUOUS
 62
     7
 10
267.5549385749
 20
170.164510466
 30
0.0
 11
267.5549385749
 21
153.5645096077
 31
0.0
  0
LINE
  5
5C
  8
0
  6
CONTINUOUS
 62
     7
 10
267.5549385749
 20
185.1645080818
 30
0.0
 11
267.5549385749
 21
170.164510466
 31
0.0
  0
LINE
  5
5D
  8
0
  6
CONTINUOUS
 62
     7
 10
272.9549346172
 20
170.164510466
 30
0.0
 11
272.9549346172
 21
185.1645080818
 31
0.0
  0
LINE
  5
5E
  8
0
  6
CONTINUOUS
 62
     7
 10
267.5549385749
 20
153.5645096077
 30
0.0
 11
267.5549385749
 21
138.5645119919
 31
0.0
  0
LINE
  5
5F
  8
0
  6
CONTINUOUS
 62
     7
 10
272.9549346172
 20
138.5645119919
 30
0.0
 11
272.9549346172
 21
153.5645096077
 31
0.0
  0
LINE
  5
60
  8
0
  6
CONTINUOUS
 62
     7
 10
392.9549393856
 20
153.5645096077
 30
0.0
 11
392.9549393856
 21
170.164510466
 31
0.0
  0
LINE
  5
61
  8
0
  6
CONTINUOUS
 62
     7
 10
387.5549373829
 20
170.164510466
 30
0.0
 11
387.5549373829
 21
153.5645096077
 31
0.0
  0
LINE
  5
62
  8
0
  6
CONTINUOUS
 62
     7
 10
387.5549373829
 20
185.1645080818
 30
0.0
 11
387.5549373829
 21
170.164510466
 31
0.0
  0
LINE
  5
63
  8
0
  6
CONTINUOUS
 62
     7
 10
392.9549393856
 20
170.164510466
 30
0.0
 11
392.9549393856
 21
185.1645080818
 31
0.0
  0
LINE
  5
64
  8
0
  6
CONTINUOUS
 62
     7
 10
387.5549373829
 20
153.5645096077
 30
0.0
 11
387.5549373829
 21
138.5645119919
 31
0.0
  0
LINE
  5
65
  8
0
  6
CONTINUOUS
 62
     7
 10
392.9549393856
 20
138.5645119919
 30
0.0
 11
392.9549393856
 21
153.5645096077
 31
0.0
  0
LINE
  5
66
  8
0
  6
CONTINUOUS
 62
     7
 10
27.5549349987
 20
185.1645080818
 30
0.0
 11
27.5549349987
 21
170.164510466
 31
0.0
  0
LINE
  5
67
  8
0
  6
CONTINUOUS
 62
     7
 10
32.9549370014
 20
170.164510466
 30
0.0
 11
32.9549370014
 21
185.1645080818
 31
0.0
  0
LINE
  5
68
  8
0
  6
CONTINUOUS
 62
     7
 10
32.9549370014
 20
153.5645096077
 30
0.0
 11
32.9549370014
 21
170.164510466
 31
0.0
  0
LINE
  5
69
  8
0
  6
CONTINUOUS
 62
     7
 10
27.5549349987
 20
170.164510466
 30
0.0
 11
27.5549349987
 21
153.5645096077
 31
0.0
  0
LINE
  5
6A
  8
0
  6
CONTINUOUS
 62
     7
 10
27.5549349987
 20
153.5645096077
 30
0.0
 11
27.5549349987
 21
138.5645119919
 31
0.0
  0
LINE
  5
6B
  8
0
  6
CONTINUOUS
 62
     7
 10
32.9549370014
 20
138.5645119919
 30
0.0
 11
32.9549370014
 21
153.5645096077
 31
0.0
  0
POLYLINE
  5
6C
  8
0
  6
CONTINUOUS
 62
     7
 66
     1
 10
0.0
 20
0.0
 30
0.0
  0
VERTEX
  5
5A2
  8
0
  6
CONTINUOUS
 62
     7
 10
125.2802608215
 20
229.0925709976
 30
0.0
  0
VERTEX
  5
5A3
  8
0
  6
CONTINUOUS
 62
     7
 10
125.3076729976
 20
230.4040400757
 30
0.0
  0
VERTEX
  5
5A4
  8
0
  6
CONTINUOUS
 62
     7
 10
125.1458344661
 20
231.6733686699
 30
0.0
  0
VERTEX
  5
5A5
  8
0
  6
CONTINUOUS
 62
     7
 10
124.7936961853
 20
232.8649012817
 30
0.0
  0
VERTEX
  5
5A6
  8
0
  6
CONTINUOUS
 62
     7
 10
124.258982917
 20
233.9484183563
 30
0.0
  0
VERTEX
  5
5A7
  8
0
  6
CONTINUOUS
 62
     7
 10
123.5486445629
 20
234.8945348038
 30
0.0
  0
VERTEX
  5
5A8
  8
0
  6
CONTINUOUS
 62
     7
 10
122.6814446651
 20
235.6793372406
 30
0.0
  0
VERTEX
  5
5A9
  8
0
  6
CONTINUOUS
 62
     7
 10
121.6805396282
 20
236.2779705299
 30
0.0
  0
VERTEX
  5
5AA
  8
0
  6
CONTINUOUS
 62
     7
 10
120.5714998447
 20
236.6807787193
 30
0.0
  0
VERTEX
  5
5AB
  8
0
  6
CONTINUOUS
 62
     7
 10
119.5431111061
 20
236.8617980255
 30
0.0
  0
VERTEX
  5
5AC
  8
0
  6
CONTINUOUS
 62
     7
 10
118.4776005947
 20
236.8844954743
 30
0.0
  0
SEQEND
  5
C40
  8
0
  6
CONTINUOUS
 62
     7
  0
POLYLINE
  5
6D
  8
0
  6
CONTINUOUS
 62
     7
 66
     1
 10
0.0
 20
0.0
 30
0.0
  0
VERTEX
  5
5AD
  8
0
  6
CONTINUOUS
 62
     7
 10
123.938667556
 20
214.5189850105
 30
0.0
  0
VERTEX
  5
5AE
  8
0
  6
CONTINUOUS
 62
     7
 10
124.2725668155
 20
218.1669800057
 30
0.0
  0
VERTEX
  5
5AF
  8
0
  6
CONTINUOUS
 62
     7
 10
124.6085343563
 20
221.8121855034
 30
0.0
  0
VERTEX
  5
5B0
  8
0
  6
CONTINUOUS
 62
     7
 10
124.9452707969
 20
225.4645554794
 30
0.0
  0
VERTEX
  5
5B1
  8
0
  6
CONTINUOUS
 62
     7
 10
125.2802608215
 20
229.0925709976
 30
0.0
  0
SEQEND
  5
C3F
  8
0
  6
CONTINUOUS
 62
     7
  0
POLYLINE
  5
6E
  8
0
  6
CONTINUOUS
 62
     7
 66
     1
 10
0.0
 20
0.0
 30
0.0
  0
VERTEX
  5
5B2
  8
0
  6
CONTINUOUS
 62
     7
 10
115.8148524963
 20
206.0149519219
 30
0.0
  0
VERTEX
  5
5B3
  8
0
  6
CONTINUOUS
 62
     7
 10
117.2161636554
 20
206.2101332916
 30
0.0
  0
VERTEX
  5
5B4
  8
0
  6
CONTINUOUS
 62
     7
 10
118.5655293666
 20
206.652721621
 30
0.0
  0
VERTEX
  5
5B5
  8
0
  6
CONTINUOUS
 62
     7
 10
119.825261613
 20
207.3348967804
 30
0.0
  0
VERTEX
  5
5B6
  8
0
  6
CONTINUOUS
 62
     7
 10
120.9630427562
 20
208.2339851631
 30
0.0
  0
VERTEX
  5
5B7
  8
0
  6
CONTINUOUS
 62
     7
 10
121.9443140232
 20
209.3224375023
 30
0.0
  0
VERTEX
  5
5B8
  8
0
  6
CONTINUOUS
 62
     7
 10
122.7521536552
 20
210.5691163315
 30
0.0
  0
VERTEX
  5
5B9
  8
0
  6
CONTINUOUS
 62
     7
 10
123.3665285312
 20
211.9429557099
 30
0.0
  0
VERTEX
  5
5BA
  8
0
  6
CONTINUOUS
 62
     7
 10
123.7747905456
 20
213.4002415909
 30
0.0
  0
VERTEX
  5
5BB
  8
0
  6
CONTINUOUS
 62
     7
 10
123.938667556
 20
214.5189850105
 30
0.0
  0
SEQEND
  5
C3E
  8
0
  6
CONTINUOUS
 62
     7
  0
POLYLINE
  5
6F
  8
0
  6
CONTINUOUS
 62
     7
 66
     1
 10
0.0
 20
0.0
 30
0.0
  0
VERTEX
  5
5BC
  8
0
  6
CONTINUOUS
 62
     7
 10
64.6950183117
 20
206.0149519219
 30
0.0
  0
VERTEX
  5
5BD
  8
0
  6
CONTINUOUS
 62
     7
 10
67.5194559299
 20
205.8881251587
 30
0.0
  0
VERTEX
  5
5BE
  8
0
  6
CONTINUOUS
 62
     7
 10
70.3852234089
 20
205.7762353195
 30
0.0
  0
VERTEX
  5
5BF
  8
0
  6
CONTINUOUS
 62
     7
 10
73.2870159351
 20
205.6794969811
 30
0.0
  0
VERTEX
  5
5C0
  8
0
  6
CONTINUOUS
 62
     7
 10
77.4739799701
 20
205.5681555046
 30
0.0
  0
VERTEX
  5
5C1
  8
0
  6
CONTINUOUS
 62
     7
 10
81.7080197536
 20
205.4883210434
 30
0.0
  0
VERTEX
  5
5C2
  8
0
  6
CONTINUOUS
 62
     7
 10
85.9735903942
 20
205.4403154625
 30
0.0
  0
VERTEX
  5
5C3
  8
0
  6
CONTINUOUS
 62
     7
 10
90.2549324237
 20
205.424293734
 30
0.0
  0
VERTEX
  5
5C4
  8
0
  6
CONTINUOUS
 62
     7
 10
94.5362863742
 20
205.4403154625
 30
0.0
  0
VERTEX
  5
5C5
  8
0
  6
CONTINUOUS
 62
     7
 10
98.8018450939
 20
205.4883210434
 30
0.0
  0
VERTEX
  5
5C6
  8
0
  6
CONTINUOUS
 62
     7
 10
103.0358967983
 20
205.5681555046
 30
0.0
  0
VERTEX
  5
5C7
  8
0
  6
CONTINUOUS
 62
     7
 10
107.2228608333
 20
205.6794969811
 30
0.0
  0
VERTEX
  5
5C8
  8
0
  6
CONTINUOUS
 62
     7
 10
110.1246533596
 20
205.7762353195
 30
0.0
  0
VERTEX
  5
5C9
  8
0
  6
CONTINUOUS
 62
     7
 10
112.990414878
 20
205.8881251587
 30
0.0
  0
VERTEX
  5
5CA
  8
0
  6
CONTINUOUS
 62
     7
 10
115.8148524963
 20
206.0149519219
 30
0.0
  0
SEQEND
  5
C3D
  8
0
  6
CONTINUOUS
 62
     7
  0
POLYLINE
  5
70
  8
0
  6
CONTINUOUS
 62
     7
 66
     1
 10
0.0
 20
0.0
 30
0.0
  0
VERTEX
  5
5CB
  8
0
  6
CONTINUOUS
 62
     7
 10
56.571203252
 20
214.5189850105
 30
0.0
  0
VERTEX
  5
5CC
  8
0
  6
CONTINUOUS
 62
     7
 10
56.8193135463
 20
213.0235759987
 30
0.0
  0
VERTEX
  5
5CD
  8
0
  6
CONTINUOUS
 62
     7
 10
57.2809872829
 20
211.5808813347
 30
0.0
  0
VERTEX
  5
5CE
  8
0
  6
CONTINUOUS
 62
     7
 10
57.9493222438
 20
210.233613707
 30
0.0
  0
VERTEX
  5
5CF
  8
0
  6
CONTINUOUS
 62
     7
 10
58.8067350589
 20
209.0193955673
 30
0.0
  0
VERTEX
  5
5D0
  8
0
  6
CONTINUOUS
 62
     7
 10
59.8349509441
 20
207.9764215721
 30
0.0
  0
VERTEX
  5
5D1
  8
0
  6
CONTINUOUS
 62
     7
 10
61.0067305767
 20
207.1317403092
 30
0.0
  0
VERTEX
  5
5D2
  8
0
  6
CONTINUOUS
 62
     7
 10
62.2899232113
 20
206.5142242684
 30
0.0
  0
VERTEX
  5
5D3
  8
0
  6
CONTINUOUS
 62
     7
 10
63.6519012653
 20
206.1349122299
 30
0.0
  0
VERTEX
  5
5D4
  8
0
  6
CONTINUOUS
 62
     7
 10
64.6950183117
 20
206.0149519219
 30
0.0
  0
SEQEND
  5
C3C
  8
0
  6
CONTINUOUS
 62
     7
  0
POLYLINE
  5
71
  8
0
  6
CONTINUOUS
 62
     7
 66
     1
 10
0.0
 20
0.0
 30
0.0
  0
VERTEX
  5
5D5
  8
0
  6
CONTINUOUS
 62
     7
 10
55.2296099865
 20
229.0926067604
 30
0.0
  0
VERTEX
  5
5D6
  8
0
  6
CONTINUOUS
 62
     7
 10
55.564600011
 20
225.4646031632
 30
0.0
  0
VERTEX
  5
5D7
  8
0
  6
CONTINUOUS
 62
     7
 10
55.9013424121
 20
221.8122093453
 30
0.0
  0
VERTEX
  5
5D8
  8
0
  6
CONTINUOUS
 62
     7
 10
56.2373099529
 20
218.1669919266
 30
0.0
  0
VERTEX
  5
5D9
  8
0
  6
CONTINUOUS
 62
     7
 10
56.571203252
 20
214.5189850105
 30
0.0
  0
SEQEND
  5
C3B
  8
0
  6
CONTINUOUS
 62
     7
  0
POLYLINE
  5
72
  8
0
  6
CONTINUOUS
 62
     7
 66
     1
 10
0.0
 20
0.0
 30
0.0
  0
VERTEX
  5
5DA
  8
0
  6
CONTINUOUS
 62
     7
 10
62.0323238575
 20
236.8844954743
 30
0.0
  0
VERTEX
  5
5DB
  8
0
  6
CONTINUOUS
 62
     7
 10
60.8049450122
 20
236.8437855019
 30
0.0
  0
VERTEX
  5
5DC
  8
0
  6
CONTINUOUS
 62
     7
 10
59.6314845287
 20
236.5928380264
 30
0.0
  0
VERTEX
  5
5DD
  8
0
  6
CONTINUOUS
 62
     7
 10
58.5457263195
 20
236.134156443
 30
0.0
  0
VERTEX
  5
5DE
  8
0
  6
CONTINUOUS
 62
     7
 10
57.5763998233
 20
235.4821293129
 30
0.0
  0
VERTEX
  5
5DF
  8
0
  6
CONTINUOUS
 62
     7
 10
56.7547259533
 20
234.6557585968
 30
0.0
  0
VERTEX
  5
5E0
  8
0
  6
CONTINUOUS
 62
     7
 10
56.0929236614
 20
233.6760370506
 30
0.0
  0
VERTEX
  5
5E1
  8
0
  6
CONTINUOUS
 62
     7
 10
55.6066451275
 20
232.5637547745
 30
0.0
  0
VERTEX
  5
5E2
  8
0
  6
CONTINUOUS
 62
     7
 10
55.3039012157
 20
231.3518373741
 30
0.0
  0
VERTEX
  5
5E3
  8
0
  6
CONTINUOUS
 62
     7
 10
55.1948723995
 20
230.2364914192
 30
0.0
  0
VERTEX
  5
5E4
  8
0
  6
CONTINUOUS
 62
     7
 10
55.2296099865
 20
229.0926067604
 30
0.0
  0
SEQEND
  5
C3A
  8
0
  6
CONTINUOUS
 62
     7
  0
POLYLINE
  5
73
  8
0
  6
CONTINUOUS
 62
     7
 66
     1
 10
0.0
 20
0.0
 30
0.0
  0
VERTEX
  5
5E5
  8
0
  6
CONTINUOUS
 62
     7
 10
118.4776005947
 20
236.8844954743
 30
0.0
  0
VERTEX
  5
5E6
  8
0
  6
CONTINUOUS
 62
     7
 10
115.2940986358
 20
236.7257563843
 30
0.0
  0
VERTEX
  5
5E7
  8
0
  6
CONTINUOUS
 62
     7
 10
112.0554981434
 20
236.5861384644
 30
0.0
  0
VERTEX
  5
5E8
  8
0
  6
CONTINUOUS
 62
     7
 10
108.7690530025
 20
236.4659516586
 30
0.0
  0
VERTEX
  5
5E9
  8
0
  6
CONTINUOUS
 62
     7
 10
105.1250872814
 20
236.3570062889
 30
0.0
  0
VERTEX
  5
5EA
  8
0
  6
CONTINUOUS
 62
     7
 10
101.4419255458
 20
236.2719623818
 30
0.0
  0
VERTEX
  5
5EB
  8
0
  6
CONTINUOUS
 62
     7
 10
97.7293906414
 20
236.2110583557
 30
0.0
  0
VERTEX
  5
5EC
  8
0
  6
CONTINUOUS
 62
     7
 10
93.9970669948
 20
236.1744491829
 30
0.0
  0
VERTEX
  5
5ED
  8
0
  6
CONTINUOUS
 62
     7
 10
90.2549324237
 20
236.1622421517
 30
0.0
  0
VERTEX
  5
5EE
  8
0
  6
CONTINUOUS
 62
     7
 10
86.5127978527
 20
236.1744491829
 30
0.0
  0
VERTEX
  5
5EF
  8
0
  6
CONTINUOUS
 62
     7
 10
82.7804861271
 20
236.2110583557
 30
0.0
  0
VERTEX
  5
5F0
  8
0
  6
CONTINUOUS
 62
     7
 10
79.0679393016
 20
236.2719623818
 30
0.0
  0
VERTEX
  5
5F1
  8
0
  6
CONTINUOUS
 62
     7
 10
75.384789487
 20
236.3570062889
 30
0.0
  0
VERTEX
  5
5F2
  8
0
  6
CONTINUOUS
 62
     7
 10
71.7408237659
 20
236.4659516586
 30
0.0
  0
VERTEX
  5
5F3
  8
0
  6
CONTINUOUS
 62
     7
 10
68.454390546
 20
236.5861384644
 30
0.0
  0
VERTEX
  5
5F4
  8
0
  6
CONTINUOUS
 62
     7
 10
65.2158079349
 20
236.7257563843
 30
0.0
  0
VERTEX
  5
5F5
  8
0
  6
CONTINUOUS
 62
     7
 10
62.0323238575
 20
236.8844954743
 30
0.0
  0
SEQEND
  5
C39
  8
0
  6
CONTINUOUS
 62
     7
  0
POLYLINE
  5
74
  8
0
  6
CONTINUOUS
 62
     7
 66
     1
 10
0.0
 20
0.0
 30
0.0
  0
VERTEX
  5
5F6
  8
0
  6
CONTINUOUS
 62
     7
 10
124.5102284156
 20
214.3879978432
 30
0.0
  0
VERTEX
  5
5F7
  8
0
  6
CONTINUOUS
 62
     7
 10
124.2587623798
 20
212.8930895104
 30
0.0
  0
VERTEX
  5
5F8
  8
0
  6
CONTINUOUS
 62
     7
 10
123.7938938343
 20
211.4515273346
 30
0.0
  0
VERTEX
  5
5F9
  8
0
  6
CONTINUOUS
 62
     7
 10
123.1226442062
 20
210.1060001625
 30
0.0
  0
VERTEX
  5
5FA
  8
0
  6
CONTINUOUS
 62
     7
 10
122.2627041542
 20
208.8940589203
 30
0.0
  0
VERTEX
  5
5FB
  8
0
  6
CONTINUOUS
 62
     7
 10
121.2324557506
 20
207.8538028969
 30
0.0
  0
VERTEX
  5
5FC
  8
0
  6
CONTINUOUS
 62
     7
 10
120.0592575275
 20
207.0122091545
 30
0.0
  0
VERTEX
  5
5FD
  8
0
  6
CONTINUOUS
 62
     7
 10
118.7752423488
 20
206.398007132
 30
0.0
  0
VERTEX
  5
5FE
  8
0
  6
CONTINUOUS
 62
     7
 10
117.4131629669
 20
206.0222356094
 30
0.0
  0
VERTEX
  5
5FF
  8
0
  6
CONTINUOUS
 62
     7
 10
116.3891670906
 20
205.9058873428
 30
0.0
  0
SEQEND
  5
C38
  8
0
  6
CONTINUOUS
 62
     7
  0
POLYLINE
  5
75
  8
0
  6
CONTINUOUS
 62
     7
 66
     1
 10
0.0
 20
0.0
 30
0.0
  0
VERTEX
  5
600
  8
0
  6
CONTINUOUS
 62
     7
 10
64.1207037174
 20
205.9058873428
 30
0.0
  0
VERTEX
  5
601
  8
0
  6
CONTINUOUS
 62
     7
 10
62.7203998767
 20
206.1007110848
 30
0.0
  0
VERTEX
  5
602
  8
0
  6
CONTINUOUS
 62
     7
 10
61.3717732631
 20
206.542977549
 30
0.0
  0
VERTEX
  5
603
  8
0
  6
CONTINUOUS
 62
     7
 10
60.112505933
 20
207.2248308434
 30
0.0
  0
VERTEX
  5
604
  8
0
  6
CONTINUOUS
 62
     7
 10
58.9749393665
 20
208.1236092819
 30
0.0
  0
VERTEX
  5
605
  8
0
  6
CONTINUOUS
 62
     7
 10
57.9935250484
 20
209.2118947281
 30
0.0
  0
VERTEX
  5
606
  8
0
  6
CONTINUOUS
 62
     7
 10
57.1853933536
 20
210.4584781899
 30
0.0
  0
VERTEX
  5
607
  8
0
  6
CONTINUOUS
 62
     7
 10
56.5706668102
 20
211.8322102799
 30
0.0
  0
VERTEX
  5
608
  8
0
  6
CONTINUOUS
 62
     7
 10
56.1619816028
 20
213.2894603981
 30
0.0
  0
VERTEX
  5
609
  8
0
  6
CONTINUOUS
 62
     7
 10
55.9996423923
 20
214.3879978432
 30
0.0
  0
SEQEND
  5
C37
  8
0
  6
CONTINUOUS
 62
     7
  0
POLYLINE
  5
76
  8
0
  6
CONTINUOUS
 62
     7
 66
     1
 10
0.0
 20
0.0
 30
0.0
  0
VERTEX
  5
60A
  8
0
  6
CONTINUOUS
 62
     7
 10
124.5102284156
 20
214.3879978432
 30
0.0
  0
VERTEX
  5
60B
  8
0
  6
CONTINUOUS
 62
     7
 10
124.8499450885
 20
218.0103509201
 30
0.0
  0
VERTEX
  5
60C
  8
0
  6
CONTINUOUS
 62
     7
 10
125.1898048126
 20
221.6287343277
 30
0.0
  0
VERTEX
  5
60D
  8
0
  6
CONTINUOUS
 62
     7
 10
125.5292294227
 20
225.232240416
 30
0.0
  0
VERTEX
  5
60E
  8
0
  6
CONTINUOUS
 62
     7
 10
125.8675096237
 20
228.8051216377
 30
0.0
  0
SEQEND
  5
C36
  8
0
  6
CONTINUOUS
 62
     7
  0
POLYLINE
  5
77
  8
0
  6
CONTINUOUS
 62
     7
 66
     1
 10
0.0
 20
0.0
 30
0.0
  0
VERTEX
  5
60F
  8
0
  6
CONTINUOUS
 62
     7
 10
54.6423611843
 20
228.8051574005
 30
0.0
  0
VERTEX
  5
610
  8
0
  6
CONTINUOUS
 62
     7
 10
54.9806413852
 20
225.2322761788
 30
0.0
  0
VERTEX
  5
611
  8
0
  6
CONTINUOUS
 62
     7
 10
55.3200659954
 20
221.6287581696
 30
0.0
  0
VERTEX
  5
612
  8
0
  6
CONTINUOUS
 62
     7
 10
55.6599316799
 20
218.010362841
 30
0.0
  0
VERTEX
  5
613
  8
0
  6
CONTINUOUS
 62
     7
 10
55.9996423923
 20
214.3879978432
 30
0.0
  0
SEQEND
  5
C35
  8
0
  6
CONTINUOUS
 62
     7
  0
POLYLINE
  5
78
  8
0
  6
CONTINUOUS
 62
     7
 66
     1
 10
0.0
 20
0.0
 30
0.0
  0
VERTEX
  5
614
  8
0
  6
CONTINUOUS
 62
     7
 10
122.1748051845
 20
236.0252349152
 30
0.0
  0
VERTEX
  5
615
  8
0
  6
CONTINUOUS
 62
     7
 10
122.5685713493
 20
235.857638575
 30
0.0
  0
VERTEX
  5
616
  8
0
  6
CONTINUOUS
 62
     7
 10
123.5355375015
 20
235.2032272591
 30
0.0
  0
VERTEX
  5
617
  8
0
  6
CONTINUOUS
 62
     7
 10
124.3548867904
 20
234.37450812
 30
0.0
  0
VERTEX
  5
618
  8
0
  6
CONTINUOUS
 62
     7
 10
125.0141976081
 20
233.3926527275
 30
0.0
  0
VERTEX
  5
619
  8
0
  6
CONTINUOUS
 62
     7
 10
125.4978535377
 20
232.2785584702
 30
0.0
  0
VERTEX
  5
61A
  8
0
  6
CONTINUOUS
 62
     7
 10
125.7978913986
 20
231.0651986374
 30
0.0
  0
VERTEX
  5
61B
  8
0
  6
CONTINUOUS
 62
     7
 10
125.9045300686
 20
229.9492447151
 30
0.0
  0
VERTEX
  5
61C
  8
0
  6
CONTINUOUS
 62
     7
 10
125.8675096237
 20
228.8051216377
 30
0.0
  0
SEQEND
  5
C34
  8
0
  6
CONTINUOUS
 62
     7
  0
POLYLINE
  5
79
  8
0
  6
CONTINUOUS
 62
     7
 66
     1
 10
0.0
 20
0.0
 30
0.0
  0
VERTEX
  5
61D
  8
0
  6
CONTINUOUS
 62
     7
 10
54.6423611843
 20
228.8051574005
 30
0.0
  0
VERTEX
  5
61E
  8
0
  6
CONTINUOUS
 62
     7
 10
54.6123204433
 20
230.1169721855
 30
0.0
  0
VERTEX
  5
61F
  8
0
  6
CONTINUOUS
 62
     7
 10
54.771441003
 20
231.3871471657
 30
0.0
  0
VERTEX
  5
620
  8
0
  6
CONTINUOUS
 62
     7
 10
55.1208315097
 20
232.5799672379
 30
0.0
  0
VERTEX
  5
621
  8
0
  6
CONTINUOUS
 62
     7
 10
55.6527910434
 20
233.6652009262
 30
0.0
  0
VERTEX
  5
622
  8
0
  6
CONTINUOUS
 62
     7
 10
56.3604889118
 20
234.6134154572
 30
0.0
  0
VERTEX
  5
623
  8
0
  6
CONTINUOUS
 62
     7
 10
57.2251615726
 20
235.4006020798
 30
0.0
  0
VERTEX
  5
624
  8
0
  6
CONTINUOUS
 62
     7
 10
58.2239208423
 20
236.0018818153
 30
0.0
  0
VERTEX
  5
625
  8
0
  6
CONTINUOUS
 62
     7
 10
58.3271560871
 20
236.039695002
 30
0.0
  0
SEQEND
  5
C33
  8
0
  6
CONTINUOUS
 62
     7
  0
POLYLINE
  5
7A
  8
0
  6
CONTINUOUS
 62
     7
 66
     1
 10
0.0
 20
0.0
 30
0.0
  0
VERTEX
  5
626
  8
0
  6
CONTINUOUS
 62
     7
 10
64.1207037174
 20
205.9058873428
 30
0.0
  0
VERTEX
  5
627
  8
0
  6
CONTINUOUS
 62
     7
 10
67.0382914745
 20
205.7756392731
 30
0.0
  0
VERTEX
  5
628
  8
0
  6
CONTINUOUS
 62
     7
 10
69.9994025432
 20
205.6609122528
 30
0.0
  0
VERTEX
  5
629
  8
0
  6
CONTINUOUS
 62
     7
 10
72.9984817707
 20
205.5619089378
 30
0.0
  0
VERTEX
  5
62A
  8
0
  6
CONTINUOUS
 62
     7
 10
77.2566495144
 20
205.4499356522
 30
0.0
  0
VERTEX
  5
62B
  8
0
  6
CONTINUOUS
 62
     7
 10
81.5627036296
 20
205.3696601166
 30
0.0
  0
VERTEX
  5
62C
  8
0
  6
CONTINUOUS
 62
     7
 10
85.900801202
 20
205.3213803543
 30
0.0
  0
VERTEX
  5
62D
  8
0
  6
CONTINUOUS
 62
     7
 10
90.2549324237
 20
205.3052632584
 30
0.0
  0
VERTEX
  5
62E
  8
0
  6
CONTINUOUS
 62
     7
 10
94.6090755664
 20
205.3213803543
 30
0.0
  0
VERTEX
  5
62F
  8
0
  6
CONTINUOUS
 62
     7
 10
98.9471731388
 20
205.3696601166
 30
0.0
  0
VERTEX
  5
630
  8
0
  6
CONTINUOUS
 62
     7
 10
103.2532272541
 20
205.4499356522
 30
0.0
  0
VERTEX
  5
631
  8
0
  6
CONTINUOUS
 62
     7
 10
107.5113949978
 20
205.5619089378
 30
0.0
  0
VERTEX
  5
632
  8
0
  6
CONTINUOUS
 62
     7
 10
110.5104682647
 20
205.6609122528
 30
0.0
  0
VERTEX
  5
633
  8
0
  6
CONTINUOUS
 62
     7
 10
113.4715852939
 20
205.7756392731
 30
0.0
  0
VERTEX
  5
634
  8
0
  6
CONTINUOUS
 62
     7
 10
116.3891670906
 20
205.9058873428
 30
0.0
  0
SEQEND
  5
C32
  8
0
  6
CONTINUOUS
 62
     7
  0
POLYLINE
  5
7B
  8
0
  6
CONTINUOUS
 62
     7
 66
     1
 10
0.0
 20
0.0
 30
0.0
  0
VERTEX
  5
635
  8
0
  6
CONTINUOUS
 62
     7
 10
245.2802626096
 20
229.0925709976
 30
0.0
  0
VERTEX
  5
636
  8
0
  6
CONTINUOUS
 62
     7
 10
245.3076718055
 20
230.4040400757
 30
0.0
  0
VERTEX
  5
637
  8
0
  6
CONTINUOUS
 62
     7
 10
245.145833274
 20
231.6733686699
 30
0.0
  0
VERTEX
  5
638
  8
0
  6
CONTINUOUS
 62
     7
 10
244.7936949932
 20
232.8649012817
 30
0.0
  0
VERTEX
  5
639
  8
0
  6
CONTINUOUS
 62
     7
 10
244.2589847051
 20
233.9484183563
 30
0.0
  0
VERTEX
  5
63A
  8
0
  6
CONTINUOUS
 62
     7
 10
243.548646351
 20
234.8945348038
 30
0.0
  0
VERTEX
  5
63B
  8
0
  6
CONTINUOUS
 62
     7
 10
242.6814464532
 20
235.6793372406
 30
0.0
  0
VERTEX
  5
63C
  8
0
  6
CONTINUOUS
 62
     7
 10
241.6805384361
 20
236.2779705299
 30
0.0
  0
VERTEX
  5
63D
  8
0
  6
CONTINUOUS
 62
     7
 10
240.5714986526
 20
236.6807787193
 30
0.0
  0
VERTEX
  5
63E
  8
0
  6
CONTINUOUS
 62
     7
 10
239.543109914
 20
236.8617980255
 30
0.0
  0
VERTEX
  5
63F
  8
0
  6
CONTINUOUS
 62
     7
 10
238.4776023828
 20
236.8844954743
 30
0.0
  0
SEQEND
  5
C31
  8
0
  6
CONTINUOUS
 62
     7
  0
POLYLINE
  5
7C
  8
0
  6
CONTINUOUS
 62
     7
 66
     1
 10
0.0
 20
0.0
 30
0.0
  0
VERTEX
  5
640
  8
0
  6
CONTINUOUS
 62
     7
 10
243.9386693441
 20
214.5189850105
 30
0.0
  0
VERTEX
  5
641
  8
0
  6
CONTINUOUS
 62
     7
 10
244.2725656234
 20
218.1669800057
 30
0.0
  0
VERTEX
  5
642
  8
0
  6
CONTINUOUS
 62
     7
 10
244.6085331642
 20
221.8121855034
 30
0.0
  0
VERTEX
  5
643
  8
0
  6
CONTINUOUS
 62
     7
 10
244.9452696048
 20
225.4645554794
 30
0.0
  0
VERTEX
  5
644
  8
0
  6
CONTINUOUS
 62
     7
 10
245.2802626096
 20
229.0925709976
 30
0.0
  0
SEQEND
  5
C30
  8
0
  6
CONTINUOUS
 62
     7
  0
POLYLINE
  5
7D
  8
0
  6
CONTINUOUS
 62
     7
 66
     1
 10
0.0
 20
0.0
 30
0.0
  0
VERTEX
  5
645
  8
0
  6
CONTINUOUS
 62
     7
 10
235.8148542844
 20
206.0149519219
 30
0.0
  0
VERTEX
  5
646
  8
0
  6
CONTINUOUS
 62
     7
 10
237.2161624633
 20
206.2101332916
 30
0.0
  0
VERTEX
  5
647
  8
0
  6
CONTINUOUS
 62
     7
 10
238.5655311548
 20
206.652721621
 30
0.0
  0
VERTEX
  5
648
  8
0
  6
CONTINUOUS
 62
     7
 10
239.825260421
 20
207.3348967804
 30
0.0
  0
VERTEX
  5
649
  8
0
  6
CONTINUOUS
 62
     7
 10
240.9630415641
 20
208.2339851631
 30
0.0
  0
VERTEX
  5
64A
  8
0
  6
CONTINUOUS
 62
     7
 10
241.9443098508
 20
209.3224375023
 30
0.0
  0
VERTEX
  5
64B
  8
0
  6
CONTINUOUS
 62
     7
 10
242.7521554433
 20
210.5691163315
 30
0.0
  0
VERTEX
  5
64C
  8
0
  6
CONTINUOUS
 62
     7
 10
243.3665303194
 20
211.9429557099
 30
0.0
  0
VERTEX
  5
64D
  8
0
  6
CONTINUOUS
 62
     7
 10
243.7747923338
 20
213.4002415909
 30
0.0
  0
VERTEX
  5
64E
  8
0
  6
CONTINUOUS
 62
     7
 10
243.9386693441
 20
214.5189850105
 30
0.0
  0
SEQEND
  5
C2F
  8
0
  6
CONTINUOUS
 62
     7
  0
POLYLINE
  5
7E
  8
0
  6
CONTINUOUS
 62
     7
 66
     1
 10
0.0
 20
0.0
 30
0.0
  0
VERTEX
  5
64F
  8
0
  6
CONTINUOUS
 62
     7
 10
184.6950200998
 20
206.0149519219
 30
0.0
  0
VERTEX
  5
650
  8
0
  6
CONTINUOUS
 62
     7
 10
187.5194606983
 20
205.8881251587
 30
0.0
  0
VERTEX
  5
651
  8
0
  6
CONTINUOUS
 62
     7
 10
190.385225197
 20
205.7762353195
 30
0.0
  0
VERTEX
  5
652
  8
0
  6
CONTINUOUS
 62
     7
 10
193.2870117628
 20
205.6794969811
 30
0.0
  0
VERTEX
  5
653
  8
0
  6
CONTINUOUS
 62
     7
 10
197.4739772879
 20
205.5681555046
 30
0.0
  0
VERTEX
  5
654
  8
0
  6
CONTINUOUS
 62
     7
 10
201.708025267
 20
205.4883210434
 30
0.0
  0
VERTEX
  5
655
  8
0
  6
CONTINUOUS
 62
     7
 10
205.973588457
 20
205.4403154625
 30
0.0
  0
VERTEX
  5
656
  8
0
  6
CONTINUOUS
 62
     7
 10
210.2549371921
 20
205.424293734
 30
0.0
  0
VERTEX
  5
657
  8
0
  6
CONTINUOUS
 62
     7
 10
214.5362859272
 20
205.4403154625
 30
0.0
  0
VERTEX
  5
658
  8
0
  6
CONTINUOUS
 62
     7
 10
218.8018491172
 20
205.4883210434
 30
0.0
  0
VERTEX
  5
659
  8
0
  6
CONTINUOUS
 62
     7
 10
223.0358970963
 20
205.5681555046
 30
0.0
  0
VERTEX
  5
65A
  8
0
  6
CONTINUOUS
 62
     7
 10
227.2228626215
 20
205.6794969811
 30
0.0
  0
VERTEX
  5
65B
  8
0
  6
CONTINUOUS
 62
     7
 10
230.1246491872
 20
205.7762353195
 30
0.0
  0
VERTEX
  5
65C
  8
0
  6
CONTINUOUS
 62
     7
 10
232.990413686
 20
205.8881251587
 30
0.0
  0
VERTEX
  5
65D
  8
0
  6
CONTINUOUS
 62
     7
 10
235.8148542844
 20
206.0149519219
 30
0.0
  0
SEQEND
  5
C2E
  8
0
  6
CONTINUOUS
 62
     7
  0
POLYLINE
  5
7F
  8
0
  6
CONTINUOUS
 62
     7
 66
     1
 10
0.0
 20
0.0
 30
0.0
  0
VERTEX
  5
65E
  8
0
  6
CONTINUOUS
 62
     7
 10
176.5712050401
 20
214.5189850105
 30
0.0
  0
VERTEX
  5
65F
  8
0
  6
CONTINUOUS
 62
     7
 10
176.8193153345
 20
213.0235759987
 30
0.0
  0
VERTEX
  5
660
  8
0
  6
CONTINUOUS
 62
     7
 10
177.2809920513
 20
211.5808813347
 30
0.0
  0
VERTEX
  5
661
  8
0
  6
CONTINUOUS
 62
     7
 10
177.949324032
 20
210.233613707
 30
0.0
  0
VERTEX
  5
662
  8
0
  6
CONTINUOUS
 62
     7
 10
178.8067368471
 20
209.0193955673
 30
0.0
  0
VERTEX
  5
663
  8
0
  6
CONTINUOUS
 62
     7
 10
179.8349527322
 20
207.9764215721
 30
0.0
  0
VERTEX
  5
664
  8
0
  6
CONTINUOUS
 62
     7
 10
181.0067323648
 20
207.1317403092
 30
0.0
  0
VERTEX
  5
665
  8
0
  6
CONTINUOUS
 62
     7
 10
182.2899190389
 20
206.5142242684
 30
0.0
  0
VERTEX
  5
666
  8
0
  6
CONTINUOUS
 62
     7
 10
183.651897093
 20
206.1349122299
 30
0.0
  0
VERTEX
  5
667
  8
0
  6
CONTINUOUS
 62
     7
 10
184.6950200998
 20
206.0149519219
 30
0.0
  0
SEQEND
  5
C2D
  8
0
  6
CONTINUOUS
 62
     7
  0
POLYLINE
  5
80
  8
0
  6
CONTINUOUS
 62
     7
 66
     1
 10
0.0
 20
0.0
 30
0.0
  0
VERTEX
  5
668
  8
0
  6
CONTINUOUS
 62
     7
 10
175.2296058141
 20
229.0926067604
 30
0.0
  0
VERTEX
  5
669
  8
0
  6
CONTINUOUS
 62
     7
 10
175.5646017992
 20
225.4646031632
 30
0.0
  0
VERTEX
  5
66A
  8
0
  6
CONTINUOUS
 62
     7
 10
175.9013382398
 20
221.8122093453
 30
0.0
  0
VERTEX
  5
66B
  8
0
  6
CONTINUOUS
 62
     7
 10
176.2373087608
 20
218.1669919266
 30
0.0
  0
VERTEX
  5
66C
  8
0
  6
CONTINUOUS
 62
     7
 10
176.5712050401
 20
214.5189850105
 30
0.0
  0
SEQEND
  5
C2C
  8
0
  6
CONTINUOUS
 62
     7
  0
POLYLINE
  5
81
  8
0
  6
CONTINUOUS
 62
     7
 66
     1
 10
0.0
 20
0.0
 30
0.0
  0
VERTEX
  5
66D
  8
0
  6
CONTINUOUS
 62
     7
 10
182.0323196851
 20
236.8844954743
 30
0.0
  0
VERTEX
  5
66E
  8
0
  6
CONTINUOUS
 62
     7
 10
180.8049468004
 20
236.8437855019
 30
0.0
  0
VERTEX
  5
66F
  8
0
  6
CONTINUOUS
 62
     7
 10
179.6314833366
 20
236.5928380264
 30
0.0
  0
VERTEX
  5
670
  8
0
  6
CONTINUOUS
 62
     7
 10
178.5457310878
 20
236.134156443
 30
0.0
  0
VERTEX
  5
671
  8
0
  6
CONTINUOUS
 62
     7
 10
177.5764045917
 20
235.4821293129
 30
0.0
  0
VERTEX
  5
672
  8
0
  6
CONTINUOUS
 62
     7
 10
176.7547277414
 20
234.6557585968
 30
0.0
  0
VERTEX
  5
673
  8
0
  6
CONTINUOUS
 62
     7
 10
176.0929254495
 20
233.6760370506
 30
0.0
  0
VERTEX
  5
674
  8
0
  6
CONTINUOUS
 62
     7
 10
175.6066409551
 20
232.5637547745
 30
0.0
  0
VERTEX
  5
675
  8
0
  6
CONTINUOUS
 62
     7
 10
175.3039000236
 20
231.3518373741
 30
0.0
  0
VERTEX
  5
676
  8
0
  6
CONTINUOUS
 62
     7
 10
175.1948712074
 20
230.2364914192
 30
0.0
  0
VERTEX
  5
677
  8
0
  6
CONTINUOUS
 62
     7
 10
175.2296058141
 20
229.0926067604
 30
0.0
  0
SEQEND
  5
C2B
  8
0
  6
CONTINUOUS
 62
     7
  0
POLYLINE
  5
82
  8
0
  6
CONTINUOUS
 62
     7
 66
     1
 10
0.0
 20
0.0
 30
0.0
  0
VERTEX
  5
678
  8
0
  6
CONTINUOUS
 62
     7
 10
238.4776023828
 20
236.8844954743
 30
0.0
  0
VERTEX
  5
679
  8
0
  6
CONTINUOUS
 62
     7
 10
235.2940974437
 20
236.7257563843
 30
0.0
  0
VERTEX
  5
67A
  8
0
  6
CONTINUOUS
 62
     7
 10
232.0554984414
 20
236.5861384644
 30
0.0
  0
VERTEX
  5
67B
  8
0
  6
CONTINUOUS
 62
     7
 10
228.7690533005
 20
236.4659516586
 30
0.0
  0
VERTEX
  5
67C
  8
0
  6
CONTINUOUS
 62
     7
 10
225.1250831091
 20
236.3570062889
 30
0.0
  0
VERTEX
  5
67D
  8
0
  6
CONTINUOUS
 62
     7
 10
221.4419310593
 20
236.2719623818
 30
0.0
  0
VERTEX
  5
67E
  8
0
  6
CONTINUOUS
 62
     7
 10
217.7293887042
 20
236.2110583557
 30
0.0
  0
VERTEX
  5
67F
  8
0
  6
CONTINUOUS
 62
     7
 10
213.9970717632
 20
236.1744491829
 30
0.0
  0
VERTEX
  5
680
  8
0
  6
CONTINUOUS
 62
     7
 10
210.2549371921
 20
236.1622421517
 30
0.0
  0
VERTEX
  5
681
  8
0
  6
CONTINUOUS
 62
     7
 10
206.512802621
 20
236.1744491829
 30
0.0
  0
VERTEX
  5
682
  8
0
  6
CONTINUOUS
 62
     7
 10
202.78048568
 20
236.2110583557
 30
0.0
  0
VERTEX
  5
683
  8
0
  6
CONTINUOUS
 62
     7
 10
199.067943325
 20
236.2719623818
 30
0.0
  0
VERTEX
  5
684
  8
0
  6
CONTINUOUS
 62
     7
 10
195.3847912752
 20
236.3570062889
 30
0.0
  0
VERTEX
  5
685
  8
0
  6
CONTINUOUS
 62
     7
 10
191.7408210837
 20
236.4659516586
 30
0.0
  0
VERTEX
  5
686
  8
0
  6
CONTINUOUS
 62
     7
 10
188.4543923341
 20
236.5861384644
 30
0.0
  0
VERTEX
  5
687
  8
0
  6
CONTINUOUS
 62
     7
 10
185.2158127033
 20
236.7257563843
 30
0.0
  0
VERTEX
  5
688
  8
0
  6
CONTINUOUS
 62
     7
 10
182.0323196851
 20
236.8844954743
 30
0.0
  0
SEQEND
  5
C2A
  8
0
  6
CONTINUOUS
 62
     7
  0
POLYLINE
  5
83
  8
0
  6
CONTINUOUS
 62
     7
 66
     1
 10
0.0
 20
0.0
 30
0.0
  0
VERTEX
  5
689
  8
0
  6
CONTINUOUS
 62
     7
 10
244.5102272236
 20
214.3879978432
 30
0.0
  0
VERTEX
  5
68A
  8
0
  6
CONTINUOUS
 62
     7
 10
244.2587611877
 20
212.8930895104
 30
0.0
  0
VERTEX
  5
68B
  8
0
  6
CONTINUOUS
 62
     7
 10
243.7938956224
 20
211.4515273346
 30
0.0
  0
VERTEX
  5
68C
  8
0
  6
CONTINUOUS
 62
     7
 10
243.1226459943
 20
210.1060001625
 30
0.0
  0
VERTEX
  5
68D
  8
0
  6
CONTINUOUS
 62
     7
 10
242.2627059423
 20
208.8940589203
 30
0.0
  0
VERTEX
  5
68E
  8
0
  6
CONTINUOUS
 62
     7
 10
241.2324575388
 20
207.8538028969
 30
0.0
  0
VERTEX
  5
68F
  8
0
  6
CONTINUOUS
 62
     7
 10
240.0592593156
 20
207.0122091545
 30
0.0
  0
VERTEX
  5
690
  8
0
  6
CONTINUOUS
 62
     7
 10
238.775244137
 20
206.398007132
 30
0.0
  0
VERTEX
  5
691
  8
0
  6
CONTINUOUS
 62
     7
 10
237.413164755
 20
206.0222356094
 30
0.0
  0
VERTEX
  5
692
  8
0
  6
CONTINUOUS
 62
     7
 10
236.3891658985
 20
205.9058873428
 30
0.0
  0
SEQEND
  5
C29
  8
0
  6
CONTINUOUS
 62
     7
  0
POLYLINE
  5
84
  8
0
  6
CONTINUOUS
 62
     7
 66
     1
 10
0.0
 20
0.0
 30
0.0
  0
VERTEX
  5
693
  8
0
  6
CONTINUOUS
 62
     7
 10
184.1207084858
 20
205.9058873428
 30
0.0
  0
VERTEX
  5
694
  8
0
  6
CONTINUOUS
 62
     7
 10
182.7203986847
 20
206.1007110848
 30
0.0
  0
VERTEX
  5
695
  8
0
  6
CONTINUOUS
 62
     7
 10
181.3717690908
 20
206.542977549
 30
0.0
  0
VERTEX
  5
696
  8
0
  6
CONTINUOUS
 62
     7
 10
180.1125107013
 20
207.2248308434
 30
0.0
  0
VERTEX
  5
697
  8
0
  6
CONTINUOUS
 62
     7
 10
178.9749381744
 20
208.1236092819
 30
0.0
  0
VERTEX
  5
698
  8
0
  6
CONTINUOUS
 62
     7
 10
177.9935298168
 20
209.2118947281
 30
0.0
  0
VERTEX
  5
699
  8
0
  6
CONTINUOUS
 62
     7
 10
177.1853951418
 20
210.4584781899
 30
0.0
  0
VERTEX
  5
69A
  8
0
  6
CONTINUOUS
 62
     7
 10
176.5706715786
 20
211.8322102799
 30
0.0
  0
VERTEX
  5
69B
  8
0
  6
CONTINUOUS
 62
     7
 10
176.161983391
 20
213.2894603981
 30
0.0
  0
VERTEX
  5
69C
  8
0
  6
CONTINUOUS
 62
     7
 10
175.9996471607
 20
214.3879978432
 30
0.0
  0
SEQEND
  5
C28
  8
0
  6
CONTINUOUS
 62
     7
  0
POLYLINE
  5
85
  8
0
  6
CONTINUOUS
 62
     7
 66
     1
 10
0.0
 20
0.0
 30
0.0
  0
VERTEX
  5
69D
  8
0
  6
CONTINUOUS
 62
     7
 10
244.5102272236
 20
214.3879978432
 30
0.0
  0
VERTEX
  5
69E
  8
0
  6
CONTINUOUS
 62
     7
 10
244.8499438964
 20
218.0103509201
 30
0.0
  0
VERTEX
  5
69F
  8
0
  6
CONTINUOUS
 62
     7
 10
245.1898036205
 20
221.6287343277
 30
0.0
  0
VERTEX
  5
6A0
  8
0
  6
CONTINUOUS
 62
     7
 10
245.5292312109
 20
225.232240416
 30
0.0
  0
VERTEX
  5
6A1
  8
0
  6
CONTINUOUS
 62
     7
 10
245.8675084316
 20
228.8051216377
 30
0.0
  0
SEQEND
  5
C27
  8
0
  6
CONTINUOUS
 62
     7
  0
POLYLINE
  5
86
  8
0
  6
CONTINUOUS
 62
     7
 66
     1
 10
0.0
 20
0.0
 30
0.0
  0
VERTEX
  5
6A2
  8
0
  6
CONTINUOUS
 62
     7
 10
174.6423599922
 20
228.8051574005
 30
0.0
  0
VERTEX
  5
6A3
  8
0
  6
CONTINUOUS
 62
     7
 10
174.9806401931
 20
225.2322761788
 30
0.0
  0
VERTEX
  5
6A4
  8
0
  6
CONTINUOUS
 62
     7
 10
175.3200677835
 20
221.6287581696
 30
0.0
  0
VERTEX
  5
6A5
  8
0
  6
CONTINUOUS
 62
     7
 10
175.6599275076
 20
218.010362841
 30
0.0
  0
VERTEX
  5
6A6
  8
0
  6
CONTINUOUS
 62
     7
 10
175.9996471607
 20
214.3879978432
 30
0.0
  0
SEQEND
  5
C26
  8
0
  6
CONTINUOUS
 62
     7
  0
POLYLINE
  5
87
  8
0
  6
CONTINUOUS
 62
     7
 66
     1
 10
0.0
 20
0.0
 30
0.0
  0
VERTEX
  5
6A7
  8
0
  6
CONTINUOUS
 62
     7
 10
242.1748039924
 20
236.0252349152
 30
0.0
  0
VERTEX
  5
6A8
  8
0
  6
CONTINUOUS
 62
     7
 10
242.5685701572
 20
235.857638575
 30
0.0
  0
VERTEX
  5
6A9
  8
0
  6
CONTINUOUS
 62
     7
 10
243.5355363094
 20
235.2032272591
 30
0.0
  0
VERTEX
  5
6AA
  8
0
  6
CONTINUOUS
 62
     7
 10
244.3548855983
 20
234.37450812
 30
0.0
  0
VERTEX
  5
6AB
  8
0
  6
CONTINUOUS
 62
     7
 10
245.0141993963
 20
233.3926527275
 30
0.0
  0
VERTEX
  5
6AC
  8
0
  6
CONTINUOUS
 62
     7
 10
245.4978523456
 20
232.2785584702
 30
0.0
  0
VERTEX
  5
6AD
  8
0
  6
CONTINUOUS
 62
     7
 10
245.7978902065
 20
231.0651986374
 30
0.0
  0
VERTEX
  5
6AE
  8
0
  6
CONTINUOUS
 62
     7
 10
245.9045318567
 20
229.9492447151
 30
0.0
  0
VERTEX
  5
6AF
  8
0
  6
CONTINUOUS
 62
     7
 10
245.8675084316
 20
228.8051216377
 30
0.0
  0
SEQEND
  5
C25
  8
0
  6
CONTINUOUS
 62
     7
  0
POLYLINE
  5
88
  8
0
  6
CONTINUOUS
 62
     7
 66
     1
 10
0.0
 20
0.0
 30
0.0
  0
VERTEX
  5
6B0
  8
0
  6
CONTINUOUS
 62
     7
 10
174.6423599922
 20
228.8051574005
 30
0.0
  0
VERTEX
  5
6B1
  8
0
  6
CONTINUOUS
 62
     7
 10
174.6123252117
 20
230.1169721855
 30
0.0
  0
VERTEX
  5
6B2
  8
0
  6
CONTINUOUS
 62
     7
 10
174.7714427911
 20
231.3871471657
 30
0.0
  0
VERTEX
  5
6B3
  8
0
  6
CONTINUOUS
 62
     7
 10
175.1208273374
 20
232.5799672379
 30
0.0
  0
VERTEX
  5
6B4
  8
0
  6
CONTINUOUS
 62
     7
 10
175.6527958118
 20
233.6652009262
 30
0.0
  0
VERTEX
  5
6B5
  8
0
  6
CONTINUOUS
 62
     7
 10
176.3604847395
 20
234.6134154572
 30
0.0
  0
VERTEX
  5
6B6
  8
0
  6
CONTINUOUS
 62
     7
 10
177.2251574003
 20
235.4006020798
 30
0.0
  0
VERTEX
  5
6B7
  8
0
  6
CONTINUOUS
 62
     7
 10
178.2239226305
 20
236.0018818153
 30
0.0
  0
VERTEX
  5
6B8
  8
0
  6
CONTINUOUS
 62
     7
 10
178.3271519148
 20
236.039695002
 30
0.0
  0
SEQEND
  5
C24
  8
0
  6
CONTINUOUS
 62
     7
  0
POLYLINE
  5
89
  8
0
  6
CONTINUOUS
 62
     7
 66
     1
 10
0.0
 20
0.0
 30
0.0
  0
VERTEX
  5
6B9
  8
0
  6
CONTINUOUS
 62
     7
 10
184.1207084858
 20
205.9058873428
 30
0.0
  0
VERTEX
  5
6BA
  8
0
  6
CONTINUOUS
 62
     7
 10
187.0382887923
 20
205.7756392731
 30
0.0
  0
VERTEX
  5
6BB
  8
0
  6
CONTINUOUS
 62
     7
 10
189.9994028412
 20
205.6609122528
 30
0.0
  0
VERTEX
  5
6BC
  8
0
  6
CONTINUOUS
 62
     7
 10
192.9984850489
 20
205.5619089378
 30
0.0
  0
VERTEX
  5
6BD
  8
0
  6
CONTINUOUS
 62
     7
 10
197.2566483223
 20
205.4499356522
 30
0.0
  0
VERTEX
  5
6BE
  8
0
  6
CONTINUOUS
 62
     7
 10
201.5626987123
 20
205.3696601166
 30
0.0
  0
VERTEX
  5
6BF
  8
0
  6
CONTINUOUS
 62
     7
 10
205.9007955395
 20
205.3213803543
 30
0.0
  0
VERTEX
  5
6C0
  8
0
  6
CONTINUOUS
 62
     7
 10
210.2549371921
 20
205.3052632584
 30
0.0
  0
VERTEX
  5
6C1
  8
0
  6
CONTINUOUS
 62
     7
 10
214.6090788447
 20
205.3213803543
 30
0.0
  0
VERTEX
  5
6C2
  8
0
  6
CONTINUOUS
 62
     7
 10
218.947175672
 20
205.3696601166
 30
0.0
  0
VERTEX
  5
6C3
  8
0
  6
CONTINUOUS
 62
     7
 10
223.253226062
 20
205.4499356522
 30
0.0
  0
VERTEX
  5
6C4
  8
0
  6
CONTINUOUS
 62
     7
 10
227.5113893353
 20
205.5619089378
 30
0.0
  0
VERTEX
  5
6C5
  8
0
  6
CONTINUOUS
 62
     7
 10
230.510471543
 20
205.6609122528
 30
0.0
  0
VERTEX
  5
6C6
  8
0
  6
CONTINUOUS
 62
     7
 10
233.4715855919
 20
205.7756392731
 30
0.0
  0
VERTEX
  5
6C7
  8
0
  6
CONTINUOUS
 62
     7
 10
236.3891658985
 20
205.9058873428
 30
0.0
  0
SEQEND
  5
C23
  8
0
  6
CONTINUOUS
 62
     7
  0
POLYLINE
  5
8A
  8
0
  6
CONTINUOUS
 62
     7
 66
     1
 10
0.0
 20
0.0
 30
0.0
  0
VERTEX
  5
6C8
  8
0
  6
CONTINUOUS
 62
     7
 10
365.2802643978
 20
229.0925709976
 30
0.0
  0
VERTEX
  5
6C9
  8
0
  6
CONTINUOUS
 62
     7
 10
365.3076706134
 20
230.4040400757
 30
0.0
  0
VERTEX
  5
6CA
  8
0
  6
CONTINUOUS
 62
     7
 10
365.1458320819
 20
231.6733686699
 30
0.0
  0
VERTEX
  5
6CB
  8
0
  6
CONTINUOUS
 62
     7
 10
364.7936997615
 20
232.8649012817
 30
0.0
  0
VERTEX
  5
6CC
  8
0
  6
CONTINUOUS
 62
     7
 10
364.2589864933
 20
233.9484183563
 30
0.0
  0
VERTEX
  5
6CD
  8
0
  6
CONTINUOUS
 62
     7
 10
363.5486421787
 20
234.8945348038
 30
0.0
  0
VERTEX
  5
6CE
  8
0
  6
CONTINUOUS
 62
     7
 10
362.6814422809
 20
235.6793372406
 30
0.0
  0
VERTEX
  5
6CF
  8
0
  6
CONTINUOUS
 62
     7
 10
361.680537244
 20
236.2779705299
 30
0.0
  0
VERTEX
  5
6D0
  8
0
  6
CONTINUOUS
 62
     7
 10
360.5714974605
 20
236.6807787193
 30
0.0
  0
VERTEX
  5
6D1
  8
0
  6
CONTINUOUS
 62
     7
 10
359.5431146824
 20
236.8617980255
 30
0.0
  0
VERTEX
  5
6D2
  8
0
  6
CONTINUOUS
 62
     7
 10
358.4775982105
 20
236.8844954743
 30
0.0
  0
SEQEND
  5
C22
  8
0
  6
CONTINUOUS
 62
     7
  0
POLYLINE
  5
8B
  8
0
  6
CONTINUOUS
 62
     7
 66
     1
 10
0.0
 20
0.0
 30
0.0
  0
VERTEX
  5
6D3
  8
0
  6
CONTINUOUS
 62
     7
 10
363.9386711322
 20
214.5189850105
 30
0.0
  0
VERTEX
  5
6D4
  8
0
  6
CONTINUOUS
 62
     7
 10
364.2725644313
 20
218.1669800057
 30
0.0
  0
VERTEX
  5
6D5
  8
0
  6
CONTINUOUS
 62
     7
 10
364.6085319721
 20
221.8121855034
 30
0.0
  0
VERTEX
  5
6D6
  8
0
  6
CONTINUOUS
 62
     7
 10
364.9452743732
 20
225.4645554794
 30
0.0
  0
VERTEX
  5
6D7
  8
0
  6
CONTINUOUS
 62
     7
 10
365.2802643978
 20
229.0925709976
 30
0.0
  0
SEQEND
  5
C21
  8
0
  6
CONTINUOUS
 62
     7
  0
POLYLINE
  5
8C
  8
0
  6
CONTINUOUS
 62
     7
 66
     1
 10
0.0
 20
0.0
 30
0.0
  0
VERTEX
  5
6D8
  8
0
  6
CONTINUOUS
 62
     7
 10
355.8148560726
 20
206.0149519219
 30
0.0
  0
VERTEX
  5
6D9
  8
0
  6
CONTINUOUS
 62
     7
 10
357.2161612713
 20
206.2101332916
 30
0.0
  0
VERTEX
  5
6DA
  8
0
  6
CONTINUOUS
 62
     7
 10
358.5655269825
 20
206.652721621
 30
0.0
  0
VERTEX
  5
6DB
  8
0
  6
CONTINUOUS
 62
     7
 10
359.8252592289
 20
207.3348967804
 30
0.0
  0
VERTEX
  5
6DC
  8
0
  6
CONTINUOUS
 62
     7
 10
360.963040372
 20
208.2339851631
 30
0.0
  0
VERTEX
  5
6DD
  8
0
  6
CONTINUOUS
 62
     7
 10
361.944311639
 20
209.3224375023
 30
0.0
  0
VERTEX
  5
6DE
  8
0
  6
CONTINUOUS
 62
     7
 10
362.7521572315
 20
210.5691163315
 30
0.0
  0
VERTEX
  5
6DF
  8
0
  6
CONTINUOUS
 62
     7
 10
363.366526147
 20
211.9429557099
 30
0.0
  0
VERTEX
  5
6E0
  8
0
  6
CONTINUOUS
 62
     7
 10
363.7747941219
 20
213.4002415909
 30
0.0
  0
VERTEX
  5
6E1
  8
0
  6
CONTINUOUS
 62
     7
 10
363.9386711322
 20
214.5189850105
 30
0.0
  0
SEQEND
  5
C20
  8
0
  6
CONTINUOUS
 62
     7
  0
POLYLINE
  5
8D
  8
0
  6
CONTINUOUS
 62
     7
 66
     1
 10
0.0
 20
0.0
 30
0.0
  0
VERTEX
  5
6E2
  8
0
  6
CONTINUOUS
 62
     7
 10
304.6950218879
 20
206.0149519219
 30
0.0
  0
VERTEX
  5
6E3
  8
0
  6
CONTINUOUS
 62
     7
 10
307.5194595062
 20
205.8881251587
 30
0.0
  0
VERTEX
  5
6E4
  8
0
  6
CONTINUOUS
 62
     7
 10
310.3852210247
 20
205.7762353195
 30
0.0
  0
VERTEX
  5
6E5
  8
0
  6
CONTINUOUS
 62
     7
 10
313.2870135509
 20
205.6794969811
 30
0.0
  0
VERTEX
  5
6E6
  8
0
  6
CONTINUOUS
 62
     7
 10
317.4739775859
 20
205.5681555046
 30
0.0
  0
VERTEX
  5
6E7
  8
0
  6
CONTINUOUS
 62
     7
 10
321.7080292904
 20
205.4883210434
 30
0.0
  0
VERTEX
  5
6E8
  8
0
  6
CONTINUOUS
 62
     7
 10
325.97358801
 20
205.4403154625
 30
0.0
  0
VERTEX
  5
6E9
  8
0
  6
CONTINUOUS
 62
     7
 10
330.2549419605
 20
205.424293734
 30
0.0
  0
VERTEX
  5
6EA
  8
0
  6
CONTINUOUS
 62
     7
 10
334.5362839901
 20
205.4403154625
 30
0.0
  0
VERTEX
  5
6EB
  8
0
  6
CONTINUOUS
 62
     7
 10
338.8018546306
 20
205.4883210434
 30
0.0
  0
VERTEX
  5
6EC
  8
0
  6
CONTINUOUS
 62
     7
 10
343.0358944141
 20
205.5681555046
 30
0.0
  0
VERTEX
  5
6ED
  8
0
  6
CONTINUOUS
 62
     7
 10
347.2228584491
 20
205.6794969811
 30
0.0
  0
VERTEX
  5
6EE
  8
0
  6
CONTINUOUS
 62
     7
 10
350.1246509754
 20
205.7762353195
 30
0.0
  0
VERTEX
  5
6EF
  8
0
  6
CONTINUOUS
 62
     7
 10
352.9904184543
 20
205.8881251587
 30
0.0
  0
VERTEX
  5
6F0
  8
0
  6
CONTINUOUS
 62
     7
 10
355.8148560726
 20
206.0149519219
 30
0.0
  0
SEQEND
  5
C1F
  8
0
  6
CONTINUOUS
 62
     7
  0
POLYLINE
  5
8E
  8
0
  6
CONTINUOUS
 62
     7
 66
     1
 10
0.0
 20
0.0
 30
0.0
  0
VERTEX
  5
6F1
  8
0
  6
CONTINUOUS
 62
     7
 10
296.5712068283
 20
214.5189850105
 30
0.0
  0
VERTEX
  5
6F2
  8
0
  6
CONTINUOUS
 62
     7
 10
296.8193171226
 20
213.0235759987
 30
0.0
  0
VERTEX
  5
6F3
  8
0
  6
CONTINUOUS
 62
     7
 10
297.2809908592
 20
211.5808813347
 30
0.0
  0
VERTEX
  5
6F4
  8
0
  6
CONTINUOUS
 62
     7
 10
297.9493258201
 20
210.233613707
 30
0.0
  0
VERTEX
  5
6F5
  8
0
  6
CONTINUOUS
 62
     7
 10
298.8067386352
 20
209.0193955673
 30
0.0
  0
VERTEX
  5
6F6
  8
0
  6
CONTINUOUS
 62
     7
 10
299.8349545204
 20
207.9764215721
 30
0.0
  0
VERTEX
  5
6F7
  8
0
  6
CONTINUOUS
 62
     7
 10
301.0067281925
 20
207.1317403092
 30
0.0
  0
VERTEX
  5
6F8
  8
0
  6
CONTINUOUS
 62
     7
 10
302.2899208271
 20
206.5142242684
 30
0.0
  0
VERTEX
  5
6F9
  8
0
  6
CONTINUOUS
 62
     7
 10
303.6518988811
 20
206.1349122299
 30
0.0
  0
VERTEX
  5
6FA
  8
0
  6
CONTINUOUS
 62
     7
 10
304.6950218879
 20
206.0149519219
 30
0.0
  0
SEQEND
  5
C1E
  8
0
  6
CONTINUOUS
 62
     7
  0
POLYLINE
  5
8F
  8
0
  6
CONTINUOUS
 62
     7
 66
     1
 10
0.0
 20
0.0
 30
0.0
  0
VERTEX
  5
6FB
  8
0
  6
CONTINUOUS
 62
     7
 10
295.2296076023
 20
229.0926067604
 30
0.0
  0
VERTEX
  5
6FC
  8
0
  6
CONTINUOUS
 62
     7
 10
295.5646035873
 20
225.4646031632
 30
0.0
  0
VERTEX
  5
6FD
  8
0
  6
CONTINUOUS
 62
     7
 10
295.901340028
 20
221.8122093453
 30
0.0
  0
VERTEX
  5
6FE
  8
0
  6
CONTINUOUS
 62
     7
 10
296.2373075687
 20
218.1669919266
 30
0.0
  0
VERTEX
  5
6FF
  8
0
  6
CONTINUOUS
 62
     7
 10
296.5712068283
 20
214.5189850105
 30
0.0
  0
SEQEND
  5
C1D
  8
0
  6
CONTINUOUS
 62
     7
  0
POLYLINE
  5
90
  8
0
  6
CONTINUOUS
 62
     7
 66
     1
 10
0.0
 20
0.0
 30
0.0
  0
VERTEX
  5
700
  8
0
  6
CONTINUOUS
 62
     7
 10
302.0323214733
 20
236.8844954743
 30
0.0
  0
VERTEX
  5
701
  8
0
  6
CONTINUOUS
 62
     7
 10
300.8049426281
 20
236.8437855019
 30
0.0
  0
VERTEX
  5
702
  8
0
  6
CONTINUOUS
 62
     7
 10
299.6314821445
 20
236.5928380264
 30
0.0
  0
VERTEX
  5
703
  8
0
  6
CONTINUOUS
 62
     7
 10
298.5457298957
 20
236.134156443
 30
0.0
  0
VERTEX
  5
704
  8
0
  6
CONTINUOUS
 62
     7
 10
297.5764033996
 20
235.4821293129
 30
0.0
  0
VERTEX
  5
705
  8
0
  6
CONTINUOUS
 62
     7
 10
296.7547295295
 20
234.6557585968
 30
0.0
  0
VERTEX
  5
706
  8
0
  6
CONTINUOUS
 62
     7
 10
296.0929272377
 20
233.6760370506
 30
0.0
  0
VERTEX
  5
707
  8
0
  6
CONTINUOUS
 62
     7
 10
295.6066427433
 20
232.5637547745
 30
0.0
  0
VERTEX
  5
708
  8
0
  6
CONTINUOUS
 62
     7
 10
295.3038988315
 20
231.3518373741
 30
0.0
  0
VERTEX
  5
709
  8
0
  6
CONTINUOUS
 62
     7
 10
295.1948700153
 20
230.2364914192
 30
0.0
  0
VERTEX
  5
70A
  8
0
  6
CONTINUOUS
 62
     7
 10
295.2296076023
 20
229.0926067604
 30
0.0
  0
SEQEND
  5
C1C
  8
0
  6
CONTINUOUS
 62
     7
  0
POLYLINE
  5
91
  8
0
  6
CONTINUOUS
 62
     7
 66
     1
 10
0.0
 20
0.0
 30
0.0
  0
VERTEX
  5
70B
  8
0
  6
CONTINUOUS
 62
     7
 10
358.4775982105
 20
236.8844954743
 30
0.0
  0
VERTEX
  5
70C
  8
0
  6
CONTINUOUS
 62
     7
 10
355.2940902912
 20
236.7257563843
 30
0.0
  0
VERTEX
  5
70D
  8
0
  6
CONTINUOUS
 62
     7
 10
352.0554957592
 20
236.5861384644
 30
0.0
  0
VERTEX
  5
70E
  8
0
  6
CONTINUOUS
 62
     7
 10
348.7690506183
 20
236.4659516586
 30
0.0
  0
VERTEX
  5
70F
  8
0
  6
CONTINUOUS
 62
     7
 10
345.1250848972
 20
236.3570062889
 30
0.0
  0
VERTEX
  5
710
  8
0
  6
CONTINUOUS
 62
     7
 10
341.4419350826
 20
236.2719623818
 30
0.0
  0
VERTEX
  5
711
  8
0
  6
CONTINUOUS
 62
     7
 10
337.7293882572
 20
236.2110583557
 30
0.0
  0
VERTEX
  5
712
  8
0
  6
CONTINUOUS
 62
     7
 10
333.9970765316
 20
236.1744491829
 30
0.0
  0
VERTEX
  5
713
  8
0
  6
CONTINUOUS
 62
     7
 10
330.2549419605
 20
236.1622421517
 30
0.0
  0
VERTEX
  5
714
  8
0
  6
CONTINUOUS
 62
     7
 10
326.5128073894
 20
236.1744491829
 30
0.0
  0
VERTEX
  5
715
  8
0
  6
CONTINUOUS
 62
     7
 10
322.7804837429
 20
236.2110583557
 30
0.0
  0
VERTEX
  5
716
  8
0
  6
CONTINUOUS
 62
     7
 10
319.0679488384
 20
236.2719623818
 30
0.0
  0
VERTEX
  5
717
  8
0
  6
CONTINUOUS
 62
     7
 10
315.3847871029
 20
236.3570062889
 30
0.0
  0
VERTEX
  5
718
  8
0
  6
CONTINUOUS
 62
     7
 10
311.7408213817
 20
236.4659516586
 30
0.0
  0
VERTEX
  5
719
  8
0
  6
CONTINUOUS
 62
     7
 10
308.4543941223
 20
236.5861384644
 30
0.0
  0
VERTEX
  5
71A
  8
0
  6
CONTINUOUS
 62
     7
 10
305.2158115112
 20
236.7257563843
 30
0.0
  0
VERTEX
  5
71B
  8
0
  6
CONTINUOUS
 62
     7
 10
302.0323214733
 20
236.8844954743
 30
0.0
  0
SEQEND
  5
C1B
  8
0
  6
CONTINUOUS
 62
     7
  0
POLYLINE
  5
92
  8
0
  6
CONTINUOUS
 62
     7
 66
     1
 10
0.0
 20
0.0
 30
0.0
  0
VERTEX
  5
71C
  8
0
  6
CONTINUOUS
 62
     7
 10
364.5102319919
 20
214.3879978432
 30
0.0
  0
VERTEX
  5
71D
  8
0
  6
CONTINUOUS
 62
     7
 10
364.2587599956
 20
212.8930895104
 30
0.0
  0
VERTEX
  5
71E
  8
0
  6
CONTINUOUS
 62
     7
 10
363.7938914501
 20
211.4515273346
 30
0.0
  0
VERTEX
  5
71F
  8
0
  6
CONTINUOUS
 62
     7
 10
363.1226477825
 20
210.1060001625
 30
0.0
  0
VERTEX
  5
720
  8
0
  6
CONTINUOUS
 62
     7
 10
362.2627077304
 20
208.8940589203
 30
0.0
  0
VERTEX
  5
721
  8
0
  6
CONTINUOUS
 62
     7
 10
361.2324533664
 20
207.8538028969
 30
0.0
  0
VERTEX
  5
722
  8
0
  6
CONTINUOUS
 62
     7
 10
360.0592551433
 20
207.0122091545
 30
0.0
  0
VERTEX
  5
723
  8
0
  6
CONTINUOUS
 62
     7
 10
358.7752399646
 20
206.398007132
 30
0.0
  0
VERTEX
  5
724
  8
0
  6
CONTINUOUS
 62
     7
 10
357.4131665432
 20
206.0222356094
 30
0.0
  0
VERTEX
  5
725
  8
0
  6
CONTINUOUS
 62
     7
 10
356.3891706668
 20
205.9058873428
 30
0.0
  0
SEQEND
  5
C1A
  8
0
  6
CONTINUOUS
 62
     7
  0
POLYLINE
  5
93
  8
0
  6
CONTINUOUS
 62
     7
 66
     1
 10
0.0
 20
0.0
 30
0.0
  0
VERTEX
  5
726
  8
0
  6
CONTINUOUS
 62
     7
 10
304.1207072937
 20
205.9058873428
 30
0.0
  0
VERTEX
  5
727
  8
0
  6
CONTINUOUS
 62
     7
 10
302.7203974926
 20
206.1007110848
 30
0.0
  0
VERTEX
  5
728
  8
0
  6
CONTINUOUS
 62
     7
 10
301.3717708789
 20
206.542977549
 30
0.0
  0
VERTEX
  5
729
  8
0
  6
CONTINUOUS
 62
     7
 10
300.1125095092
 20
207.2248308434
 30
0.0
  0
VERTEX
  5
72A
  8
0
  6
CONTINUOUS
 62
     7
 10
298.9749369823
 20
208.1236092819
 30
0.0
  0
VERTEX
  5
72B
  8
0
  6
CONTINUOUS
 62
     7
 10
297.9935286247
 20
209.2118947281
 30
0.0
  0
VERTEX
  5
72C
  8
0
  6
CONTINUOUS
 62
     7
 10
297.1853969299
 20
210.4584781899
 30
0.0
  0
VERTEX
  5
72D
  8
0
  6
CONTINUOUS
 62
     7
 10
296.5706703865
 20
211.8322102799
 30
0.0
  0
VERTEX
  5
72E
  8
0
  6
CONTINUOUS
 62
     7
 10
296.1619851791
 20
213.2894603981
 30
0.0
  0
VERTEX
  5
72F
  8
0
  6
CONTINUOUS
 62
     7
 10
295.9996459686
 20
214.3879978432
 30
0.0
  0
SEQEND
  5
C19
  8
0
  6
CONTINUOUS
 62
     7
  0
POLYLINE
  5
94
  8
0
  6
CONTINUOUS
 62
     7
 66
     1
 10
0.0
 20
0.0
 30
0.0
  0
VERTEX
  5
730
  8
0
  6
CONTINUOUS
 62
     7
 10
364.5102319919
 20
214.3879978432
 30
0.0
  0
VERTEX
  5
731
  8
0
  6
CONTINUOUS
 62
     7
 10
364.8499427044
 20
218.0103509201
 30
0.0
  0
VERTEX
  5
732
  8
0
  6
CONTINUOUS
 62
     7
 10
365.1898083889
 20
221.6287343277
 30
0.0
  0
VERTEX
  5
733
  8
0
  6
CONTINUOUS
 62
     7
 10
365.529232999
 20
225.232240416
 30
0.0
  0
VERTEX
  5
734
  8
0
  6
CONTINUOUS
 62
     7
 10
365.8675132
 20
228.8051216377
 30
0.0
  0
SEQEND
  5
C18
  8
0
  6
CONTINUOUS
 62
     7
  0
POLYLINE
  5
95
  8
0
  6
CONTINUOUS
 62
     7
 66
     1
 10
0.0
 20
0.0
 30
0.0
  0
VERTEX
  5
735
  8
0
  6
CONTINUOUS
 62
     7
 10
294.6423588001
 20
228.8051574005
 30
0.0
  0
VERTEX
  5
736
  8
0
  6
CONTINUOUS
 62
     7
 10
294.980639001
 20
225.2322761788
 30
0.0
  0
VERTEX
  5
737
  8
0
  6
CONTINUOUS
 62
     7
 10
295.3200695717
 20
221.6287581696
 30
0.0
  0
VERTEX
  5
738
  8
0
  6
CONTINUOUS
 62
     7
 10
295.6599292957
 20
218.010362841
 30
0.0
  0
VERTEX
  5
739
  8
0
  6
CONTINUOUS
 62
     7
 10
295.9996459686
 20
214.3879978432
 30
0.0
  0
SEQEND
  5
C17
  8
0
  6
CONTINUOUS
 62
     7
  0
POLYLINE
  5
96
  8
0
  6
CONTINUOUS
 62
     7
 66
     1
 10
0.0
 20
0.0
 30
0.0
  0
VERTEX
  5
73A
  8
0
  6
CONTINUOUS
 62
     7
 10
362.1748028003
 20
236.0252349152
 30
0.0
  0
VERTEX
  5
73B
  8
0
  6
CONTINUOUS
 62
     7
 10
362.5685749256
 20
235.857638575
 30
0.0
  0
VERTEX
  5
73C
  8
0
  6
CONTINUOUS
 62
     7
 10
363.5355410778
 20
235.2032272591
 30
0.0
  0
VERTEX
  5
73D
  8
0
  6
CONTINUOUS
 62
     7
 10
364.3548903667
 20
234.37450812
 30
0.0
  0
VERTEX
  5
73E
  8
0
  6
CONTINUOUS
 62
     7
 10
365.0142011844
 20
233.3926527275
 30
0.0
  0
VERTEX
  5
73F
  8
0
  6
CONTINUOUS
 62
     7
 10
365.497857114
 20
232.2785584702
 30
0.0
  0
VERTEX
  5
740
  8
0
  6
CONTINUOUS
 62
     7
 10
365.7978949749
 20
231.0651986374
 30
0.0
  0
VERTEX
  5
741
  8
0
  6
CONTINUOUS
 62
     7
 10
365.9045276844
 20
229.9492447151
 30
0.0
  0
VERTEX
  5
742
  8
0
  6
CONTINUOUS
 62
     7
 10
365.8675132
 20
228.8051216377
 30
0.0
  0
SEQEND
  5
C16
  8
0
  6
CONTINUOUS
 62
     7
  0
POLYLINE
  5
97
  8
0
  6
CONTINUOUS
 62
     7
 66
     1
 10
0.0
 20
0.0
 30
0.0
  0
VERTEX
  5
743
  8
0
  6
CONTINUOUS
 62
     7
 10
294.6423588001
 20
228.8051574005
 30
0.0
  0
VERTEX
  5
744
  8
0
  6
CONTINUOUS
 62
     7
 10
294.6123240196
 20
230.1169721855
 30
0.0
  0
VERTEX
  5
745
  8
0
  6
CONTINUOUS
 62
     7
 10
294.7714445793
 20
231.3871471657
 30
0.0
  0
VERTEX
  5
746
  8
0
  6
CONTINUOUS
 62
     7
 10
295.1208291256
 20
232.5799672379
 30
0.0
  0
VERTEX
  5
747
  8
0
  6
CONTINUOUS
 62
     7
 10
295.6527946197
 20
233.6652009262
 30
0.0
  0
VERTEX
  5
748
  8
0
  6
CONTINUOUS
 62
     7
 10
296.3604865276
 20
234.6134154572
 30
0.0
  0
VERTEX
  5
749
  8
0
  6
CONTINUOUS
 62
     7
 10
297.225153228
 20
235.4006020798
 30
0.0
  0
VERTEX
  5
74A
  8
0
  6
CONTINUOUS
 62
     7
 10
298.2239244186
 20
236.0018818153
 30
0.0
  0
VERTEX
  5
74B
  8
0
  6
CONTINUOUS
 62
     7
 10
298.3271537029
 20
236.039695002
 30
0.0
  0
SEQEND
  5
C15
  8
0
  6
CONTINUOUS
 62
     7
  0
POLYLINE
  5
98
  8
0
  6
CONTINUOUS
 62
     7
 66
     1
 10
0.0
 20
0.0
 30
0.0
  0
VERTEX
  5
74C
  8
0
  6
CONTINUOUS
 62
     7
 10
304.1207072937
 20
205.9058873428
 30
0.0
  0
VERTEX
  5
74D
  8
0
  6
CONTINUOUS
 62
     7
 10
307.0382890903
 20
205.7756392731
 30
0.0
  0
VERTEX
  5
74E
  8
0
  6
CONTINUOUS
 62
     7
 10
309.9994061195
 20
205.6609122528
 30
0.0
  0
VERTEX
  5
74F
  8
0
  6
CONTINUOUS
 62
     7
 10
312.9984793865
 20
205.5619089378
 30
0.0
  0
VERTEX
  5
750
  8
0
  6
CONTINUOUS
 62
     7
 10
317.2566471302
 20
205.4499356522
 30
0.0
  0
VERTEX
  5
751
  8
0
  6
CONTINUOUS
 62
     7
 10
321.5627012455
 20
205.3696601166
 30
0.0
  0
VERTEX
  5
752
  8
0
  6
CONTINUOUS
 62
     7
 10
325.9007988178
 20
205.3213803543
 30
0.0
  0
VERTEX
  5
753
  8
0
  6
CONTINUOUS
 62
     7
 10
330.2549419605
 20
205.3052632584
 30
0.0
  0
VERTEX
  5
754
  8
0
  6
CONTINUOUS
 62
     7
 10
334.6090731823
 20
205.3213803543
 30
0.0
  0
VERTEX
  5
755
  8
0
  6
CONTINUOUS
 62
     7
 10
338.9471707546
 20
205.3696601166
 30
0.0
  0
VERTEX
  5
756
  8
0
  6
CONTINUOUS
 62
     7
 10
343.2532248699
 20
205.4499356522
 30
0.0
  0
VERTEX
  5
757
  8
0
  6
CONTINUOUS
 62
     7
 10
347.5113926136
 20
205.5619089378
 30
0.0
  0
VERTEX
  5
758
  8
0
  6
CONTINUOUS
 62
     7
 10
350.510471841
 20
205.6609122528
 30
0.0
  0
VERTEX
  5
759
  8
0
  6
CONTINUOUS
 62
     7
 10
353.4715829097
 20
205.7756392731
 30
0.0
  0
VERTEX
  5
75A
  8
0
  6
CONTINUOUS
 62
     7
 10
356.3891706668
 20
205.9058873428
 30
0.0
  0
SEQEND
  5
C14
  8
0
  6
CONTINUOUS
 62
     7
  0
LINE
  5
99
  8
0
  6
CONTINUOUS
 62
     7
 10
72.254937669
 20
144.9645130409
 30
0.0
 11
108.2549390995
 21
144.9645130409
 31
0.0
  0
LINE
  5
9A
  8
0
  6
CONTINUOUS
 62
     7
 10
108.2549390995
 20
144.9645130409
 30
0.0
 11
108.2549390995
 21
143.9645139946
 31
0.0
  0
LINE
  5
9B
  8
0
  6
CONTINUOUS
 62
     7
 10
72.254937669
 20
143.9645139946
 30
0.0
 11
72.254937669
 21
144.9645130409
 31
0.0
  0
ARC
  5
9C
  8
0
  6
CONTINUOUS
 62
     7
 10
105.2549371921
 20
137.5645114197
 30
0.0
 40
3.0
 50
270.0
 51
0.0
  0
ARC
  5
9D
  8
0
  6
CONTINUOUS
 62
     7
 10
75.2549371921
 20
137.5645114197
 30
0.0
 40
3.0
 50
180.0
 51
270.0
  0
LINE
  5
9E
  8
0
  6
CONTINUOUS
 62
     7
 10
108.2549390995
 20
137.5645129456
 30
0.0
 11
108.2549390995
 21
143.9645139946
 31
0.0
  0
LINE
  5
9F
  8
0
  6
CONTINUOUS
 62
     7
 10
105.2549419605
 20
134.5645098461
 30
0.0
 11
75.2549348079
 21
134.5645098461
 31
0.0
  0
LINE
  5
A0
  8
0
  6
CONTINUOUS
 62
     7
 10
72.254937669
 20
137.5645129456
 30
0.0
 11
72.254937669
 21
143.9645139946
 31
0.0
  0
LINE
  5
A1
  8
0
  6
CONTINUOUS
 62
     7
 10
93.2549414837
 20
154.9866704716
 30
0.0
 11
93.2549414837
 21
154.6857981457
 31
0.0
  0
LINE
  5
A2
  8
0
  6
CONTINUOUS
 62
     7
 10
87.2549352848
 20
154.6857981457
 30
0.0
 11
87.2549352848
 21
154.9942164196
 31
0.0
  0
LINE
  5
A3
  8
0
  6
CONTINUOUS
 62
     7
 10
87.2549352848
 20
144.9645130409
 30
0.0
 11
87.2549352848
 21
154.6857981457
 31
0.0
  0
LINE
  5
A4
  8
0
  6
CONTINUOUS
 62
     7
 10
93.2549414837
 20
154.6857981457
 30
0.0
 11
93.2549414837
 21
144.9645130409
 31
0.0
  0
LINE
  5
A5
  8
0
  6
CONTINUOUS
 62
     7
 10
87.2549352848
 20
160.247537352
 30
0.0
 11
87.2549352848
 21
200.0661818756
 31
0.0
  0
LINE
  5
A6
  8
0
  6
CONTINUOUS
 62
     7
 10
93.2549414837
 20
200.0661818756
 30
0.0
 11
93.2549414837
 21
160.2561323418
 31
0.0
  0
LINE
  5
A7
  8
0
  6
CONTINUOUS
 62
     7
 10
87.2549352848
 20
200.0661818756
 30
0.0
 11
87.2549352848
 21
201.6124098076
 31
0.0
  0
LINE
  5
A8
  8
0
  6
CONTINUOUS
 62
     7
 10
93.2549414837
 20
201.6124098076
 30
0.0
 11
93.2549414837
 21
200.0661818756
 31
0.0
  0
LINE
  5
A9
  8
0
  6
CONTINUOUS
 62
     7
 10
87.2549352848
 20
201.6124098076
 30
0.0
 11
87.2549352848
 21
205.3163735642
 31
0.0
  0
LINE
  5
AA
  8
0
  6
CONTINUOUS
 62
     7
 10
93.2549414837
 20
205.3163735642
 30
0.0
 11
93.2549414837
 21
201.6124098076
 31
0.0
  0
LINE
  5
AB
  8
0
  6
CONTINUOUS
 62
     7
 10
345.2549395763
 20
134.5645098461
 30
0.0
 11
315.2549324237
 21
134.5645098461
 31
0.0
  0
ARC
  5
AC
  8
0
  6
CONTINUOUS
 62
     7
 10
315.2549371921
 20
137.5645114197
 30
0.0
 40
3.0
 50
180.0
 51
270.0
  0
LINE
  5
AD
  8
0
  6
CONTINUOUS
 62
     7
 10
312.2549352848
 20
137.5645129456
 30
0.0
 11
312.2549352848
 21
143.9645139946
 31
0.0
  0
LINE
  5
AE
  8
0
  6
CONTINUOUS
 62
     7
 10
348.2549367153
 20
137.5645129456
 30
0.0
 11
348.2549367153
 21
143.9645139946
 31
0.0
  0
ARC
  5
AF
  8
0
  6
CONTINUOUS
 62
     7
 10
345.2549371921
 20
137.5645114197
 30
0.0
 40
3.0
 50
270.0
 51
0.0
  0
LINE
  5
B0
  8
0
  6
CONTINUOUS
 62
     7
 10
312.2549352848
 20
144.9645130409
 30
0.0
 11
348.2549367153
 21
144.9645130409
 31
0.0
  0
LINE
  5
B1
  8
0
  6
CONTINUOUS
 62
     7
 10
312.2549352848
 20
143.9645139946
 30
0.0
 11
312.2549352848
 21
144.9645130409
 31
0.0
  0
LINE
  5
B2
  8
0
  6
CONTINUOUS
 62
     7
 10
348.2549367153
 20
144.9645130409
 30
0.0
 11
348.2549367153
 21
143.9645139946
 31
0.0
  0
LINE
  5
B3
  8
0
  6
CONTINUOUS
 62
     7
 10
333.2549390995
 20
154.9866704716
 30
0.0
 11
333.2549390995
 21
154.6857981457
 31
0.0
  0
LINE
  5
B4
  8
0
  6
CONTINUOUS
 62
     7
 10
327.2549329006
 20
154.6857981457
 30
0.0
 11
327.2549329006
 21
154.9942164196
 31
0.0
  0
LINE
  5
B5
  8
0
  6
CONTINUOUS
 62
     7
 10
333.2549390995
 20
154.6857981457
 30
0.0
 11
333.2549390995
 21
144.9645130409
 31
0.0
  0
LINE
  5
B6
  8
0
  6
CONTINUOUS
 62
     7
 10
327.2549329006
 20
144.9645130409
 30
0.0
 11
327.2549329006
 21
154.6857981457
 31
0.0
  0
LINE
  5
B7
  8
0
  6
CONTINUOUS
 62
     7
 10
327.2549329006
 20
160.247537352
 30
0.0
 11
327.2549329006
 21
200.0661818756
 31
0.0
  0
LINE
  5
B8
  8
0
  6
CONTINUOUS
 62
     7
 10
333.2549390995
 20
200.0661818756
 30
0.0
 11
333.2549390995
 21
160.2561323418
 31
0.0
  0
LINE
  5
B9
  8
0
  6
CONTINUOUS
 62
     7
 10
333.2549390995
 20
201.6124098076
 30
0.0
 11
333.2549390995
 21
200.0661818756
 31
0.0
  0
LINE
  5
BA
  8
0
  6
CONTINUOUS
 62
     7
 10
327.2549329006
 20
200.0661818756
 30
0.0
 11
327.2549329006
 21
201.6124098076
 31
0.0
  0
LINE
  5
BB
  8
0
  6
CONTINUOUS
 62
     7
 10
333.2549390995
 20
205.3163735642
 30
0.0
 11
333.2549390995
 21
201.6124098076
 31
0.0
  0
LINE
  5
BC
  8
0
  6
CONTINUOUS
 62
     7
 10
327.2549329006
 20
201.6124098076
 30
0.0
 11
327.2549329006
 21
205.3163735642
 31
0.0
  0
LINE
  5
BD
  8
0
  6
CONTINUOUS
 62
     7
 10
192.2549364769
 20
143.9645139946
 30
0.0
 11
192.2549364769
 21
144.9645130409
 31
0.0
  0
LINE
  5
BE
  8
0
  6
CONTINUOUS
 62
     7
 10
192.2549364769
 20
144.9645130409
 30
0.0
 11
228.2549379074
 21
144.9645130409
 31
0.0
  0
LINE
  5
BF
  8
0
  6
CONTINUOUS
 62
     7
 10
228.2549379074
 20
144.9645130409
 30
0.0
 11
228.2549379074
 21
143.9645139946
 31
0.0
  0
ARC
  5
C0
  8
0
  6
CONTINUOUS
 62
     7
 10
225.2549371921
 20
137.5645114197
 30
0.0
 40
3.0
 50
270.0
 51
0.0
  0
LINE
  5
C1
  8
0
  6
CONTINUOUS
 62
     7
 10
225.2549377882
 20
134.5645098461
 30
0.0
 11
195.2549365961
 21
134.5645098461
 31
0.0
  0
LINE
  5
C2
  8
0
  6
CONTINUOUS
 62
     7
 10
192.2549364769
 20
137.5645129456
 30
0.0
 11
192.2549364769
 21
143.9645139946
 31
0.0
  0
ARC
  5
C3
  8
0
  6
CONTINUOUS
 62
     7
 10
195.2549371921
 20
137.5645114197
 30
0.0
 40
3.0
 50
180.0
 51
270.0
  0
LINE
  5
C4
  8
0
  6
CONTINUOUS
 62
     7
 10
228.2549379074
 20
137.5645129456
 30
0.0
 11
228.2549379074
 21
143.9645139946
 31
0.0
  0
LINE
  5
C5
  8
0
  6
CONTINUOUS
 62
     7
 10
213.2549371251
 20
154.9866704716
 30
0.0
 11
213.2549371251
 21
154.6857981457
 31
0.0
  0
LINE
  5
C6
  8
0
  6
CONTINUOUS
 62
     7
 10
207.2549372592
 20
154.6857981457
 30
0.0
 11
207.2549372592
 21
154.9942164196
 31
0.0
  0
LINE
  5
C7
  8
0
  6
CONTINUOUS
 62
     7
 10
207.2549372592
 20
144.9645130409
 30
0.0
 11
207.2549372592
 21
154.6857981457
 31
0.0
  0
LINE
  5
C8
  8
0
  6
CONTINUOUS
 62
     7
 10
213.2549371251
 20
154.6857981457
 30
0.0
 11
213.2549371251
 21
144.9645130409
 31
0.0
  0
LINE
  5
C9
  8
0
  6
CONTINUOUS
 62
     7
 10
207.2549372592
 20
160.247537352
 30
0.0
 11
207.2549372592
 21
200.0661818756
 31
0.0
  0
LINE
  5
CA
  8
0
  6
CONTINUOUS
 62
     7
 10
213.2549371251
 20
200.0661818756
 30
0.0
 11
213.2549371251
 21
160.2561323418
 31
0.0
  0
LINE
  5
CB
  8
0
  6
CONTINUOUS
 62
     7
 10
213.2549371251
 20
201.6124098076
 30
0.0
 11
213.2549371251
 21
200.0661818756
 31
0.0
  0
LINE
  5
CC
  8
0
  6
CONTINUOUS
 62
     7
 10
207.2549372592
 20
200.0661818756
 30
0.0
 11
207.2549372592
 21
201.6124098076
 31
0.0
  0
LINE
  5
CD
  8
0
  6
CONTINUOUS
 62
     7
 10
213.2549371251
 20
205.3163735642
 30
0.0
 11
213.2549371251
 21
201.6124098076
 31
0.0
  0
LINE
  5
CE
  8
0
  6
CONTINUOUS
 62
     7
 10
207.2549372592
 20
201.6124098076
 30
0.0
 11
207.2549372592
 21
205.3163735642
 31
0.0
  0
POLYLINE
  5
CF
  8
0
  6
CONTINUOUS
 62
     7
 66
     1
 10
0.0
 20
0.0
 30
0.0
  0
VERTEX
  5
75B
  8
0
  6
CONTINUOUS
 62
     7
 10
127.8550086223
 20
160.6952099575
 30
0.0
  0
VERTEX
  5
75C
  8
0
  6
CONTINUOUS
 62
     7
 10
127.7671334945
 20
160.4411213173
 30
0.0
  0
VERTEX
  5
75D
  8
0
  6
CONTINUOUS
 62
     7
 10
127.5018212997
 20
160.0861100926
 30
0.0
  0
VERTEX
  5
75E
  8
0
  6
CONTINUOUS
 62
     7
 10
127.0928201877
 20
159.6543638481
 30
0.0
  0
VERTEX
  5
75F
  8
0
  6
CONTINUOUS
 62
     7
 10
126.5344081127
 20
159.152427174
 30
0.0
  0
VERTEX
  5
760
  8
0
  6
CONTINUOUS
 62
     7
 10
125.7984457218
 20
158.5969476475
 30
0.0
  0
VERTEX
  5
761
  8
0
  6
CONTINUOUS
 62
     7
 10
124.8963651859
 20
158.0487458481
 30
0.0
  0
VERTEX
  5
762
  8
0
  6
CONTINUOUS
 62
     7
 10
124.0299878322
 20
157.6409189476
 30
0.0
  0
VERTEX
  5
763
  8
0
  6
CONTINUOUS
 62
     7
 10
123.0463144981
 20
157.3034374489
 30
0.0
  0
VERTEX
  5
764
  8
0
  6
CONTINUOUS
 62
     7
 10
122.4212465488
 20
157.153168179
 30
0.0
  0
VERTEX
  5
765
  8
0
  6
CONTINUOUS
 62
     7
 10
121.7674372398
 20
157.0467142834
 30
0.0
  0
SEQEND
  5
C13
  8
0
  6
CONTINUOUS
 62
     7
  0
POLYLINE
  5
D0
  8
0
  6
CONTINUOUS
 62
     7
 66
     1
 10
0.0
 20
0.0
 30
0.0
  0
VERTEX
  5
766
  8
0
  6
CONTINUOUS
 62
     7
 10
127.8550086223
 20
160.6952099575
 30
0.0
  0
VERTEX
  5
767
  8
0
  6
CONTINUOUS
 62
     7
 10
127.8550086223
 20
160.749998547
 30
0.0
  0
VERTEX
  5
768
  8
0
  6
CONTINUOUS
 62
     7
 10
127.8547940456
 20
161.0426931156
 30
0.0
  0
VERTEX
  5
769
  8
0
  6
CONTINUOUS
 62
     7
 10
127.8543172084
 20
161.1654011978
 30
0.0
  0
VERTEX
  5
76A
  8
0
  6
CONTINUOUS
 62
     7
 10
127.853965541
 20
161.1790327801
 30
0.0
  0
VERTEX
  5
76B
  8
0
  6
CONTINUOUS
 62
     7
 10
127.8542099201
 20
161.1661760582
 30
0.0
  0
SEQEND
  5
C12
  8
0
  6
CONTINUOUS
 62
     7
  0
POLYLINE
  5
D1
  8
0
  6
CONTINUOUS
 62
     7
 66
     1
 10
0.0
 20
0.0
 30
0.0
  0
VERTEX
  5
76C
  8
0
  6
CONTINUOUS
 62
     7
 10
127.8549370968
 20
161.4626078381
 30
0.0
  0
VERTEX
  5
76D
  8
0
  6
CONTINUOUS
 62
     7
 10
127.8402266704
 20
161.4148466362
 30
0.0
  0
VERTEX
  5
76E
  8
0
  6
CONTINUOUS
 62
     7
 10
127.8549430572
 20
161.2880496754
 30
0.0
  0
SEQEND
  5
C11
  8
0
  6
CONTINUOUS
 62
     7
  0
POLYLINE
  5
D2
  8
0
  6
CONTINUOUS
 62
     7
 66
     1
 10
0.0
 20
0.0
 30
0.0
  0
VERTEX
  5
76F
  8
0
  6
CONTINUOUS
 62
     7
 10
52.6549396717
 20
161.2880496754
 30
0.0
  0
VERTEX
  5
770
  8
0
  6
CONTINUOUS
 62
     7
 10
52.669650098
 20
161.4148466362
 30
0.0
  0
VERTEX
  5
771
  8
0
  6
CONTINUOUS
 62
     7
 10
52.6549396717
 20
161.4626078381
 30
0.0
  0
SEQEND
  5
C10
  8
0
  6
CONTINUOUS
 62
     7
  0
POLYLINE
  5
D3
  8
0
  6
CONTINUOUS
 62
     7
 66
     1
 10
0.0
 20
0.0
 30
0.0
  0
VERTEX
  5
772
  8
0
  6
CONTINUOUS
 62
     7
 10
52.6548681461
 20
160.6953887714
 30
0.0
  0
VERTEX
  5
773
  8
0
  6
CONTINUOUS
 62
     7
 10
52.6548681461
 20
160.7000856175
 30
0.0
  0
VERTEX
  5
774
  8
0
  6
CONTINUOUS
 62
     7
 10
52.6550350391
 20
161.0185830368
 30
0.0
  0
VERTEX
  5
775
  8
0
  6
CONTINUOUS
 62
     7
 10
52.6554999553
 20
161.1578254475
 30
0.0
  0
VERTEX
  5
776
  8
0
  6
CONTINUOUS
 62
     7
 10
52.655893346
 20
161.1811904682
 30
0.0
  0
VERTEX
  5
777
  8
0
  6
CONTINUOUS
 62
     7
 10
52.6558337413
 20
161.1637799515
 30
0.0
  0
SEQEND
  5
C0F
  8
0
  6
CONTINUOUS
 62
     7
  0
POLYLINE
  5
D4
  8
0
  6
CONTINUOUS
 62
     7
 66
     1
 10
0.0
 20
0.0
 30
0.0
  0
VERTEX
  5
778
  8
0
  6
CONTINUOUS
 62
     7
 10
58.7424335682
 20
157.0467142834
 30
0.0
  0
VERTEX
  5
779
  8
0
  6
CONTINUOUS
 62
     7
 10
57.7283916675
 20
157.2338788284
 30
0.0
  0
VERTEX
  5
77A
  8
0
  6
CONTINUOUS
 62
     7
 10
56.7430792057
 20
157.5380592121
 30
0.0
  0
VERTEX
  5
77B
  8
0
  6
CONTINUOUS
 62
     7
 10
55.8742461406
 20
157.914450623
 30
0.0
  0
VERTEX
  5
77C
  8
0
  6
CONTINUOUS
 62
     7
 10
55.0809679233
 20
158.3560197128
 30
0.0
  0
VERTEX
  5
77D
  8
0
  6
CONTINUOUS
 62
     7
 10
54.3235001766
 20
158.8763861431
 30
0.0
  0
VERTEX
  5
77E
  8
0
  6
CONTINUOUS
 62
     7
 10
53.6822018825
 20
159.4059436096
 30
0.0
  0
VERTEX
  5
77F
  8
0
  6
CONTINUOUS
 62
     7
 10
53.1359729969
 20
159.9429516567
 30
0.0
  0
VERTEX
  5
780
  8
0
  6
CONTINUOUS
 62
     7
 10
52.9278335773
 20
160.1815728916
 30
0.0
  0
VERTEX
  5
781
  8
0
  6
CONTINUOUS
 62
     7
 10
52.7757106029
 20
160.3876023068
 30
0.0
  0
VERTEX
  5
782
  8
0
  6
CONTINUOUS
 62
     7
 10
52.6548681461
 20
160.6953887714
 30
0.0
  0
SEQEND
  5
C0E
  8
0
  6
CONTINUOUS
 62
     7
  0
POLYLINE
  5
D5
  8
0
  6
CONTINUOUS
 62
     7
 66
     1
 10
0.0
 20
0.0
 30
0.0
  0
VERTEX
  5
783
  8
0
  6
CONTINUOUS
 62
     7
 10
121.7674372398
 20
157.0467142834
 30
0.0
  0
VERTEX
  5
784
  8
0
  6
CONTINUOUS
 62
     7
 10
114.6781084739
 20
156.2458007111
 30
0.0
  0
VERTEX
  5
785
  8
0
  6
CONTINUOUS
 62
     7
 10
107.5610456668
 20
155.6183604969
 30
0.0
  0
VERTEX
  5
786
  8
0
  6
CONTINUOUS
 62
     7
 10
100.3881392681
 20
155.1917938961
 30
0.0
  0
VERTEX
  5
787
  8
0
  6
CONTINUOUS
 62
     7
 10
93.2012138569
 20
154.9845783486
 30
0.0
  0
VERTEX
  5
788
  8
0
  6
CONTINUOUS
 62
     7
 10
88.138168832
 20
154.9753813519
 30
0.0
  0
VERTEX
  5
789
  8
0
  6
CONTINUOUS
 62
     7
 10
83.076649686
 20
155.0790517105
 30
0.0
  0
VERTEX
  5
78A
  8
0
  6
CONTINUOUS
 62
     7
 10
78.0059871875
 20
155.2949874176
 30
0.0
  0
VERTEX
  5
78B
  8
0
  6
CONTINUOUS
 62
     7
 10
72.9437051021
 20
155.6187419666
 30
0.0
  0
VERTEX
  5
78C
  8
0
  6
CONTINUOUS
 62
     7
 10
65.8328232967
 20
156.2452940716
 30
0.0
  0
VERTEX
  5
78D
  8
0
  6
CONTINUOUS
 62
     7
 10
58.7424335682
 20
157.0467142834
 30
0.0
  0
SEQEND
  5
C0D
  8
0
  6
CONTINUOUS
 62
     7
  0
POLYLINE
  5
D6
  8
0
  6
CONTINUOUS
 62
     7
 66
     1
 10
0.0
 20
0.0
 30
0.0
  0
VERTEX
  5
78E
  8
0
  6
CONTINUOUS
 62
     7
 10
58.922332307
 20
162.3792855515
 30
0.0
  0
VERTEX
  5
78F
  8
0
  6
CONTINUOUS
 62
     7
 10
57.9158601963
 20
162.5969319119
 30
0.0
  0
VERTEX
  5
790
  8
0
  6
CONTINUOUS
 62
     7
 10
56.9912729465
 20
162.7867429031
 30
0.0
  0
VERTEX
  5
791
  8
0
  6
CONTINUOUS
 62
     7
 10
56.2237796985
 20
162.9247157349
 30
0.0
  0
VERTEX
  5
792
  8
0
  6
CONTINUOUS
 62
     7
 10
55.5882988178
 20
163.0086390747
 30
0.0
  0
VERTEX
  5
793
  8
0
  6
CONTINUOUS
 62
     7
 10
55.286568185
 20
163.029393412
 30
0.0
  0
VERTEX
  5
794
  8
0
  6
CONTINUOUS
 62
     7
 10
55.0485787593
 20
163.027968861
 30
0.0
  0
SEQEND
  5
C0C
  8
0
  6
CONTINUOUS
 62
     7
  0
ARC
  5
D7
  8
0
  6
CONTINUOUS
 62
     7
 10
90.1393195686
 20
301.6152417266
 30
0.0
 40
142.6925078120676
 50
257.3631399214
 51
260.3830426002
  0
ARC
  5
D8
  8
0
  6
CONTINUOUS
 62
     7
 10
89.6533898021
 20
305.2409542649
 30
0.0
 40
146.3873158463284
 50
279.6013439636
 51
282.6002988363
  0
POLYLINE
  5
D9
  8
0
  6
CONTINUOUS
 62
     7
 66
     1
 10
0.0
 20
0.0
 30
0.0
  0
VERTEX
  5
795
  8
0
  6
CONTINUOUS
 62
     7
 10
125.4612980091
 20
163.027968861
 30
0.0
  0
VERTEX
  5
796
  8
0
  6
CONTINUOUS
 62
     7
 10
125.0422117912
 20
163.0190579666
 30
0.0
  0
VERTEX
  5
797
  8
0
  6
CONTINUOUS
 62
     7
 10
124.4325814449
 20
162.947341658
 30
0.0
  0
VERTEX
  5
798
  8
0
  6
CONTINUOUS
 62
     7
 10
123.6813364231
 20
162.8180830254
 30
0.0
  0
VERTEX
  5
799
  8
0
  6
CONTINUOUS
 62
     7
 10
122.7639613353
 20
162.6328913941
 30
0.0
  0
VERTEX
  5
79A
  8
0
  6
CONTINUOUS
 62
     7
 10
121.5875385009
 20
162.3792855515
 30
0.0
  0
SEQEND
  5
C0B
  8
0
  6
CONTINUOUS
 62
     7
  0
POLYLINE
  5
DA
  8
0
  6
CONTINUOUS
 62
     7
 66
     1
 10
0.0
 20
0.0
 30
0.0
  0
VERTEX
  5
79B
  8
0
  6
CONTINUOUS
 62
     7
 10
125.4612801277
 20
163.0280463471
 30
0.0
  0
VERTEX
  5
79C
  8
0
  6
CONTINUOUS
 62
     7
 10
126.3783452713
 20
162.9732339157
 30
0.0
  0
VERTEX
  5
79D
  8
0
  6
CONTINUOUS
 62
     7
 10
126.9795236789
 20
162.9186956658
 30
0.0
  0
VERTEX
  5
79E
  8
0
  6
CONTINUOUS
 62
     7
 10
127.3370442592
 20
162.8629653229
 30
0.0
  0
VERTEX
  5
79F
  8
0
  6
CONTINUOUS
 62
     7
 10
127.5517997944
 20
162.8063528313
 30
0.0
  0
VERTEX
  5
7A0
  8
0
  6
CONTINUOUS
 62
     7
 10
127.6335475647
 20
162.747922398
 30
0.0
  0
VERTEX
  5
7A1
  8
0
  6
CONTINUOUS
 62
     7
 10
127.630382558
 20
162.690368153
 30
0.0
  0
VERTEX
  5
7A2
  8
0
  6
CONTINUOUS
 62
     7
 10
127.603280326
 20
162.6375167145
 30
0.0
  0
VERTEX
  5
7A3
  8
0
  6
CONTINUOUS
 62
     7
 10
127.6011226379
 20
162.5906555428
 30
0.0
  0
VERTEX
  5
7A4
  8
0
  6
CONTINUOUS
 62
     7
 10
127.6480612957
 20
162.4823598637
 30
0.0
  0
VERTEX
  5
7A5
  8
0
  6
CONTINUOUS
 62
     7
 10
127.6572940551
 20
162.4408035053
 30
0.0
  0
SEQEND
  5
C0A
  8
0
  6
CONTINUOUS
 62
     7
  0
ARC
  5
DB
  8
0
  6
CONTINUOUS
 62
     7
 10
122.8099192693
 20
161.6118323207
 30
0.0
 40
4.94651325904411
 50
3.5868728639
 51
8.4287436192
  0
POLYLINE
  5
DC
  8
0
  6
CONTINUOUS
 62
     7
 66
     1
 10
0.0
 20
0.0
 30
0.0
  0
VERTEX
  5
7A6
  8
0
  6
CONTINUOUS
 62
     7
 10
121.6580984794
 20
158.5434643997
 30
0.0
  0
VERTEX
  5
7A7
  8
0
  6
CONTINUOUS
 62
     7
 10
122.6817963325
 20
158.7223915829
 30
0.0
  0
VERTEX
  5
7A8
  8
0
  6
CONTINUOUS
 62
     7
 10
123.6777780258
 20
159.0131728424
 30
0.0
  0
VERTEX
  5
7A9
  8
0
  6
CONTINUOUS
 62
     7
 10
124.5580253803
 20
159.3721179737
 30
0.0
  0
VERTEX
  5
7AA
  8
0
  6
CONTINUOUS
 62
     7
 10
125.3626582824
 20
159.7909240498
 30
0.0
  0
VERTEX
  5
7AB
  8
0
  6
CONTINUOUS
 62
     7
 10
126.1223790847
 20
160.2746276631
 30
0.0
  0
VERTEX
  5
7AC
  8
0
  6
CONTINUOUS
 62
     7
 10
126.7637787067
 20
160.7612042202
 30
0.0
  0
VERTEX
  5
7AD
  8
0
  6
CONTINUOUS
 62
     7
 10
127.2915003502
 20
161.2345008625
 30
0.0
  0
VERTEX
  5
7AE
  8
0
  6
CONTINUOUS
 62
     7
 10
127.6347336971
 20
161.6276292576
 30
0.0
  0
VERTEX
  5
7AF
  8
0
  6
CONTINUOUS
 62
     7
 10
127.7228114807
 20
161.7882935776
 30
0.0
  0
VERTEX
  5
7B0
  8
0
  6
CONTINUOUS
 62
     7
 10
127.7467427456
 20
161.9212894215
 30
0.0
  0
SEQEND
  5
C09
  8
0
  6
CONTINUOUS
 62
     7
  0
POLYLINE
  5
DD
  8
0
  6
CONTINUOUS
 62
     7
 66
     1
 10
0.0
 20
0.0
 30
0.0
  0
VERTEX
  5
7B1
  8
0
  6
CONTINUOUS
 62
     7
 10
121.6580984794
 20
158.5434643997
 30
0.0
  0
VERTEX
  5
7B2
  8
0
  6
CONTINUOUS
 62
     7
 10
116.3072762691
 20
157.9568712486
 30
0.0
  0
VERTEX
  5
7B3
  8
0
  6
CONTINUOUS
 62
     7
 10
110.9411177837
 20
157.4588684811
 30
0.0
  0
VERTEX
  5
7B4
  8
0
  6
CONTINUOUS
 62
     7
 10
105.5488643848
 20
157.0617167725
 30
0.0
  0
VERTEX
  5
7B5
  8
0
  6
CONTINUOUS
 62
     7
 10
100.1457748615
 20
156.7767350449
 30
0.0
  0
VERTEX
  5
7B6
  8
0
  6
CONTINUOUS
 62
     7
 10
94.2442832195
 20
156.6030709519
 30
0.0
  0
VERTEX
  5
7B7
  8
0
  6
CONTINUOUS
 62
     7
 10
88.3391318523
 20
156.5767376198
 30
0.0
  0
VERTEX
  5
7B8
  8
0
  6
CONTINUOUS
 62
     7
 10
82.4139652454
 20
156.7000119461
 30
0.0
  0
VERTEX
  5
7B9
  8
0
  6
CONTINUOUS
 62
     7
 10
76.495927354
 20
156.9687812103
 30
0.0
  0
VERTEX
  5
7BA
  8
0
  6
CONTINUOUS
 62
     7
 10
72.0746336185
 20
157.260796286
 30
0.0
  0
VERTEX
  5
7BB
  8
0
  6
CONTINUOUS
 62
     7
 10
67.6616964542
 20
157.6246945633
 30
0.0
  0
VERTEX
  5
7BC
  8
0
  6
CONTINUOUS
 62
     7
 10
63.2514534198
 20
158.0549149288
 30
0.0
  0
VERTEX
  5
7BD
  8
0
  6
CONTINUOUS
 62
     7
 10
58.8517723285
 20
158.5434643997
 30
0.0
  0
SEQEND
  5
C08
  8
0
  6
CONTINUOUS
 62
     7
  0
POLYLINE
  5
DE
  8
0
  6
CONTINUOUS
 62
     7
 66
     1
 10
0.0
 20
0.0
 30
0.0
  0
VERTEX
  5
7BE
  8
0
  6
CONTINUOUS
 62
     7
 10
52.7631340229
 20
161.9212894215
 30
0.0
  0
VERTEX
  5
7BF
  8
0
  6
CONTINUOUS
 62
     7
 10
52.8374729358
 20
161.6866318955
 30
0.0
  0
VERTEX
  5
7C0
  8
0
  6
CONTINUOUS
 62
     7
 10
53.0947146618
 20
161.3612262978
 30
0.0
  0
VERTEX
  5
7C1
  8
0
  6
CONTINUOUS
 62
     7
 10
53.5044727527
 20
160.9675972237
 30
0.0
  0
VERTEX
  5
7C2
  8
0
  6
CONTINUOUS
 62
     7
 10
54.0722308361
 20
160.5037777199
 30
0.0
  0
VERTEX
  5
7C3
  8
0
  6
CONTINUOUS
 62
     7
 10
54.8049626552
 20
159.9975375904
 30
0.0
  0
VERTEX
  5
7C4
  8
0
  6
CONTINUOUS
 62
     7
 10
55.7011542522
 20
159.4929365887
 30
0.0
  0
VERTEX
  5
7C5
  8
0
  6
CONTINUOUS
 62
     7
 10
56.581264516
 20
159.1053931488
 30
0.0
  0
VERTEX
  5
7C6
  8
0
  6
CONTINUOUS
 62
     7
 10
57.5789985859
 20
158.7840704693
 30
0.0
  0
VERTEX
  5
7C7
  8
0
  6
CONTINUOUS
 62
     7
 10
58.2018075191
 20
158.6433021797
 30
0.0
  0
VERTEX
  5
7C8
  8
0
  6
CONTINUOUS
 62
     7
 10
58.8517723285
 20
158.5434643997
 30
0.0
  0
SEQEND
  5
C07
  8
0
  6
CONTINUOUS
 62
     7
  0
POLYLINE
  5
DF
  8
0
  6
CONTINUOUS
 62
     7
 66
     1
 10
0.0
 20
0.0
 30
0.0
  0
VERTEX
  5
7C9
  8
0
  6
CONTINUOUS
 62
     7
 10
52.7631340229
 20
161.9212953819
 30
0.0
  0
VERTEX
  5
7CA
  8
0
  6
CONTINUOUS
 62
     7
 10
52.7914462291
 20
162.2176317944
 30
0.0
  0
VERTEX
  5
7CB
  8
0
  6
CONTINUOUS
 62
     7
 10
52.8072772228
 20
162.3423068298
 30
0.0
  0
SEQEND
  5
C06
  8
0
  6
CONTINUOUS
 62
     7
  0
POLYLINE
  5
E0
  8
0
  6
CONTINUOUS
 62
     7
 66
     1
 10
0.0
 20
0.0
 30
0.0
  0
VERTEX
  5
7CC
  8
0
  6
CONTINUOUS
 62
     7
 10
52.8526482784
 20
162.4402968659
 30
0.0
  0
VERTEX
  5
7CD
  8
0
  6
CONTINUOUS
 62
     7
 10
52.8627572261
 20
162.4849407448
 30
0.0
  0
VERTEX
  5
7CE
  8
0
  6
CONTINUOUS
 62
     7
 10
52.9087481701
 20
162.5906555428
 30
0.0
  0
VERTEX
  5
7CF
  8
0
  6
CONTINUOUS
 62
     7
 10
52.9065904819
 20
162.6375167145
 30
0.0
  0
VERTEX
  5
7D0
  8
0
  6
CONTINUOUS
 62
     7
 10
52.8794942104
 20
162.690368153
 30
0.0
  0
VERTEX
  5
7D1
  8
0
  6
CONTINUOUS
 62
     7
 10
52.8763232433
 20
162.747922398
 30
0.0
  0
VERTEX
  5
7D2
  8
0
  6
CONTINUOUS
 62
     7
 10
52.9580769741
 20
162.8063528313
 30
0.0
  0
VERTEX
  5
7D3
  8
0
  6
CONTINUOUS
 62
     7
 10
53.1728325092
 20
162.8629653229
 30
0.0
  0
VERTEX
  5
7D4
  8
0
  6
CONTINUOUS
 62
     7
 10
53.5303530895
 20
162.9186956658
 30
0.0
  0
VERTEX
  5
7D5
  8
0
  6
CONTINUOUS
 62
     7
 10
54.1315255367
 20
162.9732339157
 30
0.0
  0
VERTEX
  5
7D6
  8
0
  6
CONTINUOUS
 62
     7
 10
55.0485906803
 20
163.0280463471
 30
0.0
  0
SEQEND
  5
C05
  8
0
  6
CONTINUOUS
 62
     7
  0
LINE
  5
E1
  8
0
  6
CONTINUOUS
 62
     7
 10
127.8549370968
 20
161.4630965962
 30
0.0
 11
127.8549370968
 21
161.7687968983
 31
0.0
  0
LINE
  5
E2
  8
0
  6
CONTINUOUS
 62
     7
 10
52.6549396717
 20
161.2880496754
 30
0.0
 11
52.6549396717
 21
161.1135868801
 31
0.0
  0
LINE
  5
E3
  8
0
  6
CONTINUOUS
 62
     7
 10
52.6549396717
 20
161.758604504
 30
0.0
 11
52.6549396717
 21
161.4630965962
 31
0.0
  0
POLYLINE
  5
E4
  8
0
  6
CONTINUOUS
 62
     7
 66
     1
 10
0.0
 20
0.0
 30
0.0
  0
VERTEX
  5
7D7
  8
0
  6
CONTINUOUS
 62
     7
 10
247.8550074302
 20
160.6952099575
 30
0.0
  0
VERTEX
  5
7D8
  8
0
  6
CONTINUOUS
 62
     7
 10
247.7671352827
 20
160.4411213173
 30
0.0
  0
VERTEX
  5
7D9
  8
0
  6
CONTINUOUS
 62
     7
 10
247.5018201076
 20
160.0861100926
 30
0.0
  0
VERTEX
  5
7DA
  8
0
  6
CONTINUOUS
 62
     7
 10
247.0928219759
 20
159.6543638481
 30
0.0
  0
VERTEX
  5
7DB
  8
0
  6
CONTINUOUS
 62
     7
 10
246.5344069206
 20
159.152427174
 30
0.0
  0
VERTEX
  5
7DC
  8
0
  6
CONTINUOUS
 62
     7
 10
245.7984445297
 20
158.5969476475
 30
0.0
  0
VERTEX
  5
7DD
  8
0
  6
CONTINUOUS
 62
     7
 10
244.896366974
 20
158.0487458481
 30
0.0
  0
VERTEX
  5
7DE
  8
0
  6
CONTINUOUS
 62
     7
 10
244.0299866401
 20
157.6409189476
 30
0.0
  0
VERTEX
  5
7DF
  8
0
  6
CONTINUOUS
 62
     7
 10
243.046313306
 20
157.3034374489
 30
0.0
  0
VERTEX
  5
7E0
  8
0
  6
CONTINUOUS
 62
     7
 10
242.4212453567
 20
157.153168179
 30
0.0
  0
VERTEX
  5
7E1
  8
0
  6
CONTINUOUS
 62
     7
 10
241.7674390279
 20
157.0467142834
 30
0.0
  0
SEQEND
  5
C04
  8
0
  6
CONTINUOUS
 62
     7
  0
POLYLINE
  5
E5
  8
0
  6
CONTINUOUS
 62
     7
 66
     1
 10
0.0
 20
0.0
 30
0.0
  0
VERTEX
  5
7E2
  8
0
  6
CONTINUOUS
 62
     7
 10
247.8550074302
 20
160.6952099575
 30
0.0
  0
VERTEX
  5
7E3
  8
0
  6
CONTINUOUS
 62
     7
 10
247.8550074302
 20
160.749998547
 30
0.0
  0
VERTEX
  5
7E4
  8
0
  6
CONTINUOUS
 62
     7
 10
247.8547928535
 20
161.0426931156
 30
0.0
  0
VERTEX
  5
7E5
  8
0
  6
CONTINUOUS
 62
     7
 10
247.8543160164
 20
161.1654011978
 30
0.0
  0
VERTEX
  5
7E6
  8
0
  6
CONTINUOUS
 62
     7
 10
247.8539643489
 20
161.1790327801
 30
0.0
  0
VERTEX
  5
7E7
  8
0
  6
CONTINUOUS
 62
     7
 10
247.8542117082
 20
161.1661760582
 30
0.0
  0
SEQEND
  5
C03
  8
0
  6
CONTINUOUS
 62
     7
  0
POLYLINE
  5
E6
  8
0
  6
CONTINUOUS
 62
     7
 66
     1
 10
0.0
 20
0.0
 30
0.0
  0
VERTEX
  5
7E8
  8
0
  6
CONTINUOUS
 62
     7
 10
247.8549359047
 20
161.4626078381
 30
0.0
  0
VERTEX
  5
7E9
  8
0
  6
CONTINUOUS
 62
     7
 10
247.8402284586
 20
161.4148466362
 30
0.0
  0
VERTEX
  5
7EA
  8
0
  6
CONTINUOUS
 62
     7
 10
247.8549418651
 20
161.2880496754
 30
0.0
  0
SEQEND
  5
C02
  8
0
  6
CONTINUOUS
 62
     7
  0
POLYLINE
  5
E7
  8
0
  6
CONTINUOUS
 62
     7
 66
     1
 10
0.0
 20
0.0
 30
0.0
  0
VERTEX
  5
7EB
  8
0
  6
CONTINUOUS
 62
     7
 10
172.6549325191
 20
161.2880496754
 30
0.0
  0
VERTEX
  5
7EC
  8
0
  6
CONTINUOUS
 62
     7
 10
172.6696459257
 20
161.4148466362
 30
0.0
  0
VERTEX
  5
7ED
  8
0
  6
CONTINUOUS
 62
     7
 10
172.6549384796
 20
161.4626078381
 30
0.0
  0
SEQEND
  5
C01
  8
0
  6
CONTINUOUS
 62
     7
  0
POLYLINE
  5
E8
  8
0
  6
CONTINUOUS
 62
     7
 66
     1
 10
0.0
 20
0.0
 30
0.0
  0
VERTEX
  5
7EE
  8
0
  6
CONTINUOUS
 62
     7
 10
172.654866954
 20
160.6953887714
 30
0.0
  0
VERTEX
  5
7EF
  8
0
  6
CONTINUOUS
 62
     7
 10
172.654866954
 20
160.7000856175
 30
0.0
  0
VERTEX
  5
7F0
  8
0
  6
CONTINUOUS
 62
     7
 10
172.6550368272
 20
161.0185830368
 30
0.0
  0
VERTEX
  5
7F1
  8
0
  6
CONTINUOUS
 62
     7
 10
172.6555017435
 20
161.1578254475
 30
0.0
  0
VERTEX
  5
7F2
  8
0
  6
CONTINUOUS
 62
     7
 10
172.6558861934
 20
161.1811904682
 30
0.0
  0
VERTEX
  5
7F3
  8
0
  6
CONTINUOUS
 62
     7
 10
172.6558355295
 20
161.1637799515
 30
0.0
  0
SEQEND
  5
C00
  8
0
  6
CONTINUOUS
 62
     7
  0
POLYLINE
  5
E9
  8
0
  6
CONTINUOUS
 62
     7
 66
     1
 10
0.0
 20
0.0
 30
0.0
  0
VERTEX
  5
7F4
  8
0
  6
CONTINUOUS
 62
     7
 10
178.7424353563
 20
157.0467142834
 30
0.0
  0
VERTEX
  5
7F5
  8
0
  6
CONTINUOUS
 62
     7
 10
177.7283874952
 20
157.2338788284
 30
0.0
  0
VERTEX
  5
7F6
  8
0
  6
CONTINUOUS
 62
     7
 10
176.7430809938
 20
157.5380592121
 30
0.0
  0
VERTEX
  5
7F7
  8
0
  6
CONTINUOUS
 62
     7
 10
175.8742419683
 20
157.914450623
 30
0.0
  0
VERTEX
  5
7F8
  8
0
  6
CONTINUOUS
 62
     7
 10
175.0809726917
 20
158.3560197128
 30
0.0
  0
VERTEX
  5
7F9
  8
0
  6
CONTINUOUS
 62
     7
 10
174.3235019647
 20
158.8763861431
 30
0.0
  0
VERTEX
  5
7FA
  8
0
  6
CONTINUOUS
 62
     7
 10
173.6822066509
 20
159.4059436096
 30
0.0
  0
VERTEX
  5
7FB
  8
0
  6
CONTINUOUS
 62
     7
 10
173.1359718048
 20
159.9429516567
 30
0.0
  0
VERTEX
  5
7FC
  8
0
  6
CONTINUOUS
 62
     7
 10
172.927829405
 20
160.1815728916
 30
0.0
  0
VERTEX
  5
7FD
  8
0
  6
CONTINUOUS
 62
     7
 10
172.7757153713
 20
160.3876023068
 30
0.0
  0
VERTEX
  5
7FE
  8
0
  6
CONTINUOUS
 62
     7
 10
172.654866954
 20
160.6953887714
 30
0.0
  0
SEQEND
  5
BFF
  8
0
  6
CONTINUOUS
 62
     7
  0
POLYLINE
  5
EA
  8
0
  6
CONTINUOUS
 62
     7
 66
     1
 10
0.0
 20
0.0
 30
0.0
  0
VERTEX
  5
7FF
  8
0
  6
CONTINUOUS
 62
     7
 10
241.7674390279
 20
157.0467142834
 30
0.0
  0
VERTEX
  5
800
  8
0
  6
CONTINUOUS
 62
     7
 10
234.678108772
 20
156.2458007111
 30
0.0
  0
VERTEX
  5
801
  8
0
  6
CONTINUOUS
 62
     7
 10
227.5610429846
 20
155.6183604969
 30
0.0
  0
VERTEX
  5
802
  8
0
  6
CONTINUOUS
 62
     7
 10
220.3881350958
 20
155.1917938961
 30
0.0
  0
VERTEX
  5
803
  8
0
  6
CONTINUOUS
 62
     7
 10
213.2012109884
 20
154.9845783486
 30
0.0
  0
VERTEX
  5
804
  8
0
  6
CONTINUOUS
 62
     7
 10
208.1381743454
 20
154.9753813519
 30
0.0
  0
VERTEX
  5
805
  8
0
  6
CONTINUOUS
 62
     7
 10
203.0766477489
 20
155.0790517105
 30
0.0
  0
VERTEX
  5
806
  8
0
  6
CONTINUOUS
 62
     7
 10
198.0059822702
 20
155.2949874176
 30
0.0
  0
VERTEX
  5
807
  8
0
  6
CONTINUOUS
 62
     7
 10
192.9437054001
 20
155.6187419666
 30
0.0
  0
VERTEX
  5
808
  8
0
  6
CONTINUOUS
 62
     7
 10
185.8328250848
 20
156.2452940716
 30
0.0
  0
VERTEX
  5
809
  8
0
  6
CONTINUOUS
 62
     7
 10
178.7424353563
 20
157.0467142834
 30
0.0
  0
SEQEND
  5
BFE
  8
0
  6
CONTINUOUS
 62
     7
  0
POLYLINE
  5
EB
  8
0
  6
CONTINUOUS
 62
     7
 66
     1
 10
0.0
 20
0.0
 30
0.0
  0
VERTEX
  5
80A
  8
0
  6
CONTINUOUS
 62
     7
 10
178.9223370754
 20
162.3792855515
 30
0.0
  0
VERTEX
  5
80B
  8
0
  6
CONTINUOUS
 62
     7
 10
177.9158619844
 20
162.5969319119
 30
0.0
  0
VERTEX
  5
80C
  8
0
  6
CONTINUOUS
 62
     7
 10
176.9912687742
 20
162.7867429031
 30
0.0
  0
VERTEX
  5
80D
  8
0
  6
CONTINUOUS
 62
     7
 10
176.2237785064
 20
162.9247157349
 30
0.0
  0
VERTEX
  5
80E
  8
0
  6
CONTINUOUS
 62
     7
 10
175.5882946455
 20
163.0086390747
 30
0.0
  0
VERTEX
  5
80F
  8
0
  6
CONTINUOUS
 62
     7
 10
175.2865669929
 20
163.029393412
 30
0.0
  0
VERTEX
  5
810
  8
0
  6
CONTINUOUS
 62
     7
 10
175.048574587
 20
163.027968861
 30
0.0
  0
SEQEND
  5
BFD
  8
0
  6
CONTINUOUS
 62
     7
  0
ARC
  5
EC
  8
0
  6
CONTINUOUS
 62
     7
 10
210.1385570805
 20
301.611242782
 30
0.0
 40
142.6884378835724
 50
257.3630892534
 51
260.3830757402
  0
ARC
  5
ED
  8
0
  6
CONTINUOUS
 62
     7
 10
209.65338861
 20
305.2409542648
 30
0.0
 40
146.3873158463189
 50
279.6013439636
 51
282.6002988363
  0
POLYLINE
  5
EE
  8
0
  6
CONTINUOUS
 62
     7
 66
     1
 10
0.0
 20
0.0
 30
0.0
  0
VERTEX
  5
811
  8
0
  6
CONTINUOUS
 62
     7
 10
245.4612997972
 20
163.027968861
 30
0.0
  0
VERTEX
  5
812
  8
0
  6
CONTINUOUS
 62
     7
 10
245.0422105991
 20
163.0190579666
 30
0.0
  0
VERTEX
  5
813
  8
0
  6
CONTINUOUS
 62
     7
 10
244.4325802528
 20
162.947341658
 30
0.0
  0
VERTEX
  5
814
  8
0
  6
CONTINUOUS
 62
     7
 10
243.681335231
 20
162.8180830254
 30
0.0
  0
VERTEX
  5
815
  8
0
  6
CONTINUOUS
 62
     7
 10
242.7639601432
 20
162.6328913941
 30
0.0
  0
VERTEX
  5
816
  8
0
  6
CONTINUOUS
 62
     7
 10
241.5875373088
 20
162.3792855515
 30
0.0
  0
SEQEND
  5
BFC
  8
0
  6
CONTINUOUS
 62
     7
  0
POLYLINE
  5
EF
  8
0
  6
CONTINUOUS
 62
     7
 66
     1
 10
0.0
 20
0.0
 30
0.0
  0
VERTEX
  5
817
  8
0
  6
CONTINUOUS
 62
     7
 10
245.4612819158
 20
163.0280463471
 30
0.0
  0
VERTEX
  5
818
  8
0
  6
CONTINUOUS
 62
     7
 10
246.3783470594
 20
162.9732339157
 30
0.0
  0
VERTEX
  5
819
  8
0
  6
CONTINUOUS
 62
     7
 10
246.9795224868
 20
162.9186956658
 30
0.0
  0
VERTEX
  5
81A
  8
0
  6
CONTINUOUS
 62
     7
 10
247.3370430671
 20
162.8629653229
 30
0.0
  0
VERTEX
  5
81B
  8
0
  6
CONTINUOUS
 62
     7
 10
247.5518015825
 20
162.8063528313
 30
0.0
  0
VERTEX
  5
81C
  8
0
  6
CONTINUOUS
 62
     7
 10
247.6335493528
 20
162.747922398
 30
0.0
  0
VERTEX
  5
81D
  8
0
  6
CONTINUOUS
 62
     7
 10
247.6303843462
 20
162.690368153
 30
0.0
  0
VERTEX
  5
81E
  8
0
  6
CONTINUOUS
 62
     7
 10
247.6032821142
 20
162.6375167145
 30
0.0
  0
VERTEX
  5
81F
  8
0
  6
CONTINUOUS
 62
     7
 10
247.601124426
 20
162.5906555428
 30
0.0
  0
VERTEX
  5
820
  8
0
  6
CONTINUOUS
 62
     7
 10
247.6480601036
 20
162.4823598637
 30
0.0
  0
VERTEX
  5
821
  8
0
  6
CONTINUOUS
 62
     7
 10
247.6572958433
 20
162.4408035053
 30
0.0
  0
SEQEND
  5
BFB
  8
0
  6
CONTINUOUS
 62
     7
  0
ARC
  5
F0
  8
0
  6
CONTINUOUS
 62
     7
 10
242.8099180772
 20
161.6118323207
 30
0.0
 40
4.946513259051195
 50
3.5868728639
 51
8.4287436192
  0
POLYLINE
  5
F1
  8
0
  6
CONTINUOUS
 62
     7
 66
     1
 10
0.0
 20
0.0
 30
0.0
  0
VERTEX
  5
822
  8
0
  6
CONTINUOUS
 62
     7
 10
241.6581002676
 20
158.5434643997
 30
0.0
  0
VERTEX
  5
823
  8
0
  6
CONTINUOUS
 62
     7
 10
242.6817951404
 20
158.7223915829
 30
0.0
  0
VERTEX
  5
824
  8
0
  6
CONTINUOUS
 62
     7
 10
243.6777768337
 20
159.0131728424
 30
0.0
  0
VERTEX
  5
825
  8
0
  6
CONTINUOUS
 62
     7
 10
244.5580271684
 20
159.3721179737
 30
0.0
  0
VERTEX
  5
826
  8
0
  6
CONTINUOUS
 62
     7
 10
245.3626570903
 20
159.7909240498
 30
0.0
  0
VERTEX
  5
827
  8
0
  6
CONTINUOUS
 62
     7
 10
246.1223778926
 20
160.2746276631
 30
0.0
  0
VERTEX
  5
828
  8
0
  6
CONTINUOUS
 62
     7
 10
246.7637804948
 20
160.7612042202
 30
0.0
  0
VERTEX
  5
829
  8
0
  6
CONTINUOUS
 62
     7
 10
247.2914991581
 20
161.2345008625
 30
0.0
  0
VERTEX
  5
82A
  8
0
  6
CONTINUOUS
 62
     7
 10
247.634732505
 20
161.6276292576
 30
0.0
  0
VERTEX
  5
82B
  8
0
  6
CONTINUOUS
 62
     7
 10
247.7228132688
 20
161.7882935776
 30
0.0
  0
VERTEX
  5
82C
  8
0
  6
CONTINUOUS
 62
     7
 10
247.7467415535
 20
161.9212894215
 30
0.0
  0
SEQEND
  5
BFA
  8
0
  6
CONTINUOUS
 62
     7
  0
POLYLINE
  5
F2
  8
0
  6
CONTINUOUS
 62
     7
 66
     1
 10
0.0
 20
0.0
 30
0.0
  0
VERTEX
  5
82D
  8
0
  6
CONTINUOUS
 62
     7
 10
241.6581002676
 20
158.5434643997
 30
0.0
  0
VERTEX
  5
82E
  8
0
  6
CONTINUOUS
 62
     7
 10
236.307275077
 20
157.9568712486
 30
0.0
  0
VERTEX
  5
82F
  8
0
  6
CONTINUOUS
 62
     7
 10
230.9411180817
 20
157.4588684811
 30
0.0
  0
VERTEX
  5
830
  8
0
  6
CONTINUOUS
 62
     7
 10
225.5488631927
 20
157.0617167725
 30
0.0
  0
VERTEX
  5
831
  8
0
  6
CONTINUOUS
 62
     7
 10
220.1457699441
 20
156.7767350449
 30
0.0
  0
VERTEX
  5
832
  8
0
  6
CONTINUOUS
 62
     7
 10
214.2442801648
 20
156.6030709519
 30
0.0
  0
VERTEX
  5
833
  8
0
  6
CONTINUOUS
 62
     7
 10
208.3391314053
 20
156.5767376198
 30
0.0
  0
VERTEX
  5
834
  8
0
  6
CONTINUOUS
 62
     7
 10
202.4139685237
 20
156.7000119461
 30
0.0
  0
VERTEX
  5
835
  8
0
  6
CONTINUOUS
 62
     7
 10
196.4959231817
 20
156.9687812103
 30
0.0
  0
VERTEX
  5
836
  8
0
  6
CONTINUOUS
 62
     7
 10
192.0746368968
 20
157.260796286
 30
0.0
  0
VERTEX
  5
837
  8
0
  6
CONTINUOUS
 62
     7
 10
187.661693772
 20
157.6246945633
 30
0.0
  0
VERTEX
  5
838
  8
0
  6
CONTINUOUS
 62
     7
 10
183.2514522277
 20
158.0549149288
 30
0.0
  0
VERTEX
  5
839
  8
0
  6
CONTINUOUS
 62
     7
 10
178.8517741167
 20
158.5434643997
 30
0.0
  0
SEQEND
  5
BF9
  8
0
  6
CONTINUOUS
 62
     7
  0
POLYLINE
  5
F3
  8
0
  6
CONTINUOUS
 62
     7
 66
     1
 10
0.0
 20
0.0
 30
0.0
  0
VERTEX
  5
83A
  8
0
  6
CONTINUOUS
 62
     7
 10
172.7631328308
 20
161.9212894215
 30
0.0
  0
VERTEX
  5
83B
  8
0
  6
CONTINUOUS
 62
     7
 10
172.837474724
 20
161.6866318955
 30
0.0
  0
VERTEX
  5
83C
  8
0
  6
CONTINUOUS
 62
     7
 10
173.0947194301
 20
161.3612262978
 30
0.0
  0
VERTEX
  5
83D
  8
0
  6
CONTINUOUS
 62
     7
 10
173.5044715606
 20
160.9675972237
 30
0.0
  0
VERTEX
  5
83E
  8
0
  6
CONTINUOUS
 62
     7
 10
174.0722326242
 20
160.5037777199
 30
0.0
  0
VERTEX
  5
83F
  8
0
  6
CONTINUOUS
 62
     7
 10
174.8049584829
 20
159.9975375904
 30
0.0
  0
VERTEX
  5
840
  8
0
  6
CONTINUOUS
 62
     7
 10
175.7011500799
 20
159.4929365887
 30
0.0
  0
VERTEX
  5
841
  8
0
  6
CONTINUOUS
 62
     7
 10
176.5812633239
 20
159.1053931488
 30
0.0
  0
VERTEX
  5
842
  8
0
  6
CONTINUOUS
 62
     7
 10
177.579000374
 20
158.7840704693
 30
0.0
  0
VERTEX
  5
843
  8
0
  6
CONTINUOUS
 62
     7
 10
178.2018093073
 20
158.6433021797
 30
0.0
  0
VERTEX
  5
844
  8
0
  6
CONTINUOUS
 62
     7
 10
178.8517741167
 20
158.5434643997
 30
0.0
  0
SEQEND
  5
BF8
  8
0
  6
CONTINUOUS
 62
     7
  0
POLYLINE
  5
F4
  8
0
  6
CONTINUOUS
 62
     7
 66
     1
 10
0.0
 20
0.0
 30
0.0
  0
VERTEX
  5
845
  8
0
  6
CONTINUOUS
 62
     7
 10
172.7631328308
 20
161.9212953819
 30
0.0
  0
VERTEX
  5
846
  8
0
  6
CONTINUOUS
 62
     7
 10
172.7914509975
 20
162.2176317944
 30
0.0
  0
VERTEX
  5
847
  8
0
  6
CONTINUOUS
 62
     7
 10
172.8072790109
 20
162.3423068298
 30
0.0
  0
SEQEND
  5
BF7
  8
0
  6
CONTINUOUS
 62
     7
  0
POLYLINE
  5
F5
  8
0
  6
CONTINUOUS
 62
     7
 66
     1
 10
0.0
 20
0.0
 30
0.0
  0
VERTEX
  5
848
  8
0
  6
CONTINUOUS
 62
     7
 10
172.8526470863
 20
162.4402968659
 30
0.0
  0
VERTEX
  5
849
  8
0
  6
CONTINUOUS
 62
     7
 10
172.8627590143
 20
162.4849407448
 30
0.0
  0
VERTEX
  5
84A
  8
0
  6
CONTINUOUS
 62
     7
 10
172.9087499582
 20
162.5906555428
 30
0.0
  0
VERTEX
  5
84B
  8
0
  6
CONTINUOUS
 62
     7
 10
172.9065922701
 20
162.6375167145
 30
0.0
  0
VERTEX
  5
84C
  8
0
  6
CONTINUOUS
 62
     7
 10
172.8794900381
 20
162.690368153
 30
0.0
  0
VERTEX
  5
84D
  8
0
  6
CONTINUOUS
 62
     7
 10
172.8763250314
 20
162.747922398
 30
0.0
  0
VERTEX
  5
84E
  8
0
  6
CONTINUOUS
 62
     7
 10
172.9580728017
 20
162.8063528313
 30
0.0
  0
VERTEX
  5
84F
  8
0
  6
CONTINUOUS
 62
     7
 10
173.1728313171
 20
162.8629653229
 30
0.0
  0
VERTEX
  5
850
  8
0
  6
CONTINUOUS
 62
     7
 10
173.5303518974
 20
162.9186956658
 30
0.0
  0
VERTEX
  5
851
  8
0
  6
CONTINUOUS
 62
     7
 10
174.1315273248
 20
162.9732339157
 30
0.0
  0
VERTEX
  5
852
  8
0
  6
CONTINUOUS
 62
     7
 10
175.0485924684
 20
163.0280463471
 30
0.0
  0
SEQEND
  5
BF6
  8
0
  6
CONTINUOUS
 62
     7
  0
LINE
  5
F6
  8
0
  6
CONTINUOUS
 62
     7
 10
247.8549359047
 20
161.4630965962
 30
0.0
 11
247.8549359047
 21
161.7687968983
 31
0.0
  0
LINE
  5
F7
  8
0
  6
CONTINUOUS
 62
     7
 10
172.6549384796
 20
161.2880496754
 30
0.0
 11
172.6549384796
 21
161.1135868801
 31
0.0
  0
LINE
  5
F8
  8
0
  6
CONTINUOUS
 62
     7
 10
172.6549384796
 20
161.758604504
 30
0.0
 11
172.6549384796
 21
161.4630965962
 31
0.0
  0
POLYLINE
  5
F9
  8
0
  6
CONTINUOUS
 62
     7
 66
     1
 10
0.0
 20
0.0
 30
0.0
  0
VERTEX
  5
853
  8
0
  6
CONTINUOUS
 62
     7
 10
367.8550062381
 20
160.6952099575
 30
0.0
  0
VERTEX
  5
854
  8
0
  6
CONTINUOUS
 62
     7
 10
367.7671370708
 20
160.4411213173
 30
0.0
  0
VERTEX
  5
855
  8
0
  6
CONTINUOUS
 62
     7
 10
367.501824876
 20
160.0861100926
 30
0.0
  0
VERTEX
  5
856
  8
0
  6
CONTINUOUS
 62
     7
 10
367.0928178035
 20
159.6543638481
 30
0.0
  0
VERTEX
  5
857
  8
0
  6
CONTINUOUS
 62
     7
 10
366.5344057285
 20
159.152427174
 30
0.0
  0
VERTEX
  5
858
  8
0
  6
CONTINUOUS
 62
     7
 10
365.7984433376
 20
158.5969476475
 30
0.0
  0
VERTEX
  5
859
  8
0
  6
CONTINUOUS
 62
     7
 10
364.8963628017
 20
158.0487458481
 30
0.0
  0
VERTEX
  5
85A
  8
0
  6
CONTINUOUS
 62
     7
 10
364.029985448
 20
157.6409189476
 30
0.0
  0
VERTEX
  5
85B
  8
0
  6
CONTINUOUS
 62
     7
 10
363.0463180744
 20
157.3034374489
 30
0.0
  0
VERTEX
  5
85C
  8
0
  6
CONTINUOUS
 62
     7
 10
362.4212441646
 20
157.153168179
 30
0.0
  0
VERTEX
  5
85D
  8
0
  6
CONTINUOUS
 62
     7
 10
361.7674408161
 20
157.0467142834
 30
0.0
  0
SEQEND
  5
BF5
  8
0
  6
CONTINUOUS
 62
     7
  0
POLYLINE
  5
FA
  8
0
  6
CONTINUOUS
 62
     7
 66
     1
 10
0.0
 20
0.0
 30
0.0
  0
VERTEX
  5
85E
  8
0
  6
CONTINUOUS
 62
     7
 10
367.8550062381
 20
160.6952099575
 30
0.0
  0
VERTEX
  5
85F
  8
0
  6
CONTINUOUS
 62
     7
 10
367.8550062381
 20
160.749998547
 30
0.0
  0
VERTEX
  5
860
  8
0
  6
CONTINUOUS
 62
     7
 10
367.8547916614
 20
161.0426931156
 30
0.0
  0
VERTEX
  5
861
  8
0
  6
CONTINUOUS
 62
     7
 10
367.8543148243
 20
161.1654011978
 30
0.0
  0
VERTEX
  5
862
  8
0
  6
CONTINUOUS
 62
     7
 10
367.8539691173
 20
161.1790327801
 30
0.0
  0
VERTEX
  5
863
  8
0
  6
CONTINUOUS
 62
     7
 10
367.8542075359
 20
161.1661760582
 30
0.0
  0
SEQEND
  5
BF4
  8
0
  6
CONTINUOUS
 62
     7
  0
POLYLINE
  5
FB
  8
0
  6
CONTINUOUS
 62
     7
 66
     1
 10
0.0
 20
0.0
 30
0.0
  0
VERTEX
  5
864
  8
0
  6
CONTINUOUS
 62
     7
 10
367.8549347126
 20
161.4626078381
 30
0.0
  0
VERTEX
  5
865
  8
0
  6
CONTINUOUS
 62
     7
 10
367.8402242862
 20
161.4148466362
 30
0.0
  0
VERTEX
  5
866
  8
0
  6
CONTINUOUS
 62
     7
 10
367.8549347126
 20
161.2880496754
 30
0.0
  0
SEQEND
  5
BF3
  8
0
  6
CONTINUOUS
 62
     7
  0
POLYLINE
  5
FC
  8
0
  6
CONTINUOUS
 62
     7
 66
     1
 10
0.0
 20
0.0
 30
0.0
  0
VERTEX
  5
867
  8
0
  6
CONTINUOUS
 62
     7
 10
292.654931327
 20
161.2880496754
 30
0.0
  0
VERTEX
  5
868
  8
0
  6
CONTINUOUS
 62
     7
 10
292.6696477138
 20
161.4148466362
 30
0.0
  0
VERTEX
  5
869
  8
0
  6
CONTINUOUS
 62
     7
 10
292.6549372875
 20
161.4626078381
 30
0.0
  0
SEQEND
  5
BF2
  8
0
  6
CONTINUOUS
 62
     7
  0
POLYLINE
  5
FD
  8
0
  6
CONTINUOUS
 62
     7
 66
     1
 10
0.0
 20
0.0
 30
0.0
  0
VERTEX
  5
86A
  8
0
  6
CONTINUOUS
 62
     7
 10
292.6548657619
 20
160.6953887714
 30
0.0
  0
VERTEX
  5
86B
  8
0
  6
CONTINUOUS
 62
     7
 10
292.6548657619
 20
160.7000856175
 30
0.0
  0
VERTEX
  5
86C
  8
0
  6
CONTINUOUS
 62
     7
 10
292.6550386154
 20
161.0185830368
 30
0.0
  0
VERTEX
  5
86D
  8
0
  6
CONTINUOUS
 62
     7
 10
292.6555035316
 20
161.1578254475
 30
0.0
  0
VERTEX
  5
86E
  8
0
  6
CONTINUOUS
 62
     7
 10
292.6558850013
 20
161.1811904682
 30
0.0
  0
VERTEX
  5
86F
  8
0
  6
CONTINUOUS
 62
     7
 10
292.6558373176
 20
161.1637799515
 30
0.0
  0
SEQEND
  5
BF1
  8
0
  6
CONTINUOUS
 62
     7
  0
POLYLINE
  5
FE
  8
0
  6
CONTINUOUS
 62
     7
 66
     1
 10
0.0
 20
0.0
 30
0.0
  0
VERTEX
  5
870
  8
0
  6
CONTINUOUS
 62
     7
 10
298.7424371444
 20
157.0467142834
 30
0.0
  0
VERTEX
  5
871
  8
0
  6
CONTINUOUS
 62
     7
 10
297.7283892833
 20
157.2338788284
 30
0.0
  0
VERTEX
  5
872
  8
0
  6
CONTINUOUS
 62
     7
 10
296.7430827819
 20
157.5380592121
 30
0.0
  0
VERTEX
  5
873
  8
0
  6
CONTINUOUS
 62
     7
 10
295.8742437564
 20
157.914450623
 30
0.0
  0
VERTEX
  5
874
  8
0
  6
CONTINUOUS
 62
     7
 10
295.0809714996
 20
158.3560197128
 30
0.0
  0
VERTEX
  5
875
  8
0
  6
CONTINUOUS
 62
     7
 10
294.3235037529
 20
158.8763861431
 30
0.0
  0
VERTEX
  5
876
  8
0
  6
CONTINUOUS
 62
     7
 10
293.6822054588
 20
159.4059436096
 30
0.0
  0
VERTEX
  5
877
  8
0
  6
CONTINUOUS
 62
     7
 10
293.1359706127
 20
159.9429516567
 30
0.0
  0
VERTEX
  5
878
  8
0
  6
CONTINUOUS
 62
     7
 10
292.9278311931
 20
160.1815728916
 30
0.0
  0
VERTEX
  5
879
  8
0
  6
CONTINUOUS
 62
     7
 10
292.7757141792
 20
160.3876023068
 30
0.0
  0
VERTEX
  5
87A
  8
0
  6
CONTINUOUS
 62
     7
 10
292.6548657619
 20
160.6953887714
 30
0.0
  0
SEQEND
  5
BF0
  8
0
  6
CONTINUOUS
 62
     7
  0
POLYLINE
  5
FF
  8
0
  6
CONTINUOUS
 62
     7
 66
     1
 10
0.0
 20
0.0
 30
0.0
  0
VERTEX
  5
87B
  8
0
  6
CONTINUOUS
 62
     7
 10
361.7674408161
 20
157.0467142834
 30
0.0
  0
VERTEX
  5
87C
  8
0
  6
CONTINUOUS
 62
     7
 10
354.6781120502
 20
156.2458007111
 30
0.0
  0
VERTEX
  5
87D
  8
0
  6
CONTINUOUS
 62
     7
 10
347.5610432827
 20
155.6183604969
 30
0.0
  0
VERTEX
  5
87E
  8
0
  6
CONTINUOUS
 62
     7
 10
340.3881368839
 20
155.1917938961
 30
0.0
  0
VERTEX
  5
87F
  8
0
  6
CONTINUOUS
 62
     7
 10
333.2012114727
 20
154.9845783486
 30
0.0
  0
VERTEX
  5
880
  8
0
  6
CONTINUOUS
 62
     7
 10
328.1381783687
 20
154.9753813519
 30
0.0
  0
VERTEX
  5
881
  8
0
  6
CONTINUOUS
 62
     7
 10
323.0766473018
 20
155.0790517105
 30
0.0
  0
VERTEX
  5
882
  8
0
  6
CONTINUOUS
 62
     7
 10
318.0059848034
 20
155.2949874176
 30
0.0
  0
VERTEX
  5
883
  8
0
  6
CONTINUOUS
 62
     7
 10
312.9437027179
 20
155.6187419666
 30
0.0
  0
VERTEX
  5
884
  8
0
  6
CONTINUOUS
 62
     7
 10
305.832826873
 20
156.2452940716
 30
0.0
  0
VERTEX
  5
885
  8
0
  6
CONTINUOUS
 62
     7
 10
298.7424371444
 20
157.0467142834
 30
0.0
  0
SEQEND
  5
BEF
  8
0
  6
CONTINUOUS
 62
     7
  0
POLYLINE
  5
100
  8
0
  6
CONTINUOUS
 62
     7
 66
     1
 10
0.0
 20
0.0
 30
0.0
  0
VERTEX
  5
886
  8
0
  6
CONTINUOUS
 62
     7
 10
298.9223358833
 20
162.3792855515
 30
0.0
  0
VERTEX
  5
887
  8
0
  6
CONTINUOUS
 62
     7
 10
297.9158637725
 20
162.5969319119
 30
0.0
  0
VERTEX
  5
888
  8
0
  6
CONTINUOUS
 62
     7
 10
296.9912705623
 20
162.7867429031
 30
0.0
  0
VERTEX
  5
889
  8
0
  6
CONTINUOUS
 62
     7
 10
296.2237773143
 20
162.9247157349
 30
0.0
  0
VERTEX
  5
88A
  8
0
  6
CONTINUOUS
 62
     7
 10
295.5882964336
 20
163.0086390747
 30
0.0
  0
VERTEX
  5
88B
  8
0
  6
CONTINUOUS
 62
     7
 10
295.2865658008
 20
163.029393412
 30
0.0
  0
VERTEX
  5
88C
  8
0
  6
CONTINUOUS
 62
     7
 10
295.0485763752
 20
163.027968861
 30
0.0
  0
SEQEND
  5
BEE
  8
0
  6
CONTINUOUS
 62
     7
  0
ARC
  5
101
  8
0
  6
CONTINUOUS
 62
     7
 10
330.1389901851
 20
301.6134509195
 30
0.0
 40
142.6906875431453
 50
257.3631130655
 51
260.3830519281
  0
ARC
  5
102
  8
0
  6
CONTINUOUS
 62
     7
 10
329.6530071761
 20
305.242922605
 30
0.0
 40
146.3893210295909
 50
279.6013645076
 51
282.6002782923
  0
POLYLINE
  5
103
  8
0
  6
CONTINUOUS
 62
     7
 66
     1
 10
0.0
 20
0.0
 30
0.0
  0
VERTEX
  5
88D
  8
0
  6
CONTINUOUS
 62
     7
 10
365.4612956249
 20
163.027968861
 30
0.0
  0
VERTEX
  5
88E
  8
0
  6
CONTINUOUS
 62
     7
 10
365.0422153675
 20
163.0190579666
 30
0.0
  0
VERTEX
  5
88F
  8
0
  6
CONTINUOUS
 62
     7
 10
364.4325790607
 20
162.947341658
 30
0.0
  0
VERTEX
  5
890
  8
0
  6
CONTINUOUS
 62
     7
 10
363.6813340389
 20
162.8180830254
 30
0.0
  0
VERTEX
  5
891
  8
0
  6
CONTINUOUS
 62
     7
 10
362.7639589512
 20
162.6328913941
 30
0.0
  0
VERTEX
  5
892
  8
0
  6
CONTINUOUS
 62
     7
 10
361.5875420772
 20
162.3792855515
 30
0.0
  0
SEQEND
  5
BED
  8
0
  6
CONTINUOUS
 62
     7
  0
POLYLINE
  5
104
  8
0
  6
CONTINUOUS
 62
     7
 66
     1
 10
0.0
 20
0.0
 30
0.0
  0
VERTEX
  5
893
  8
0
  6
CONTINUOUS
 62
     7
 10
365.461283704
 20
163.0280463471
 30
0.0
  0
VERTEX
  5
894
  8
0
  6
CONTINUOUS
 62
     7
 10
366.3783488475
 20
162.9732339157
 30
0.0
  0
VERTEX
  5
895
  8
0
  6
CONTINUOUS
 62
     7
 10
366.9795212947
 20
162.9186956658
 30
0.0
  0
VERTEX
  5
896
  8
0
  6
CONTINUOUS
 62
     7
 10
367.337041875
 20
162.8629653229
 30
0.0
  0
VERTEX
  5
897
  8
0
  6
CONTINUOUS
 62
     7
 10
367.5517974102
 20
162.8063528313
 30
0.0
  0
VERTEX
  5
898
  8
0
  6
CONTINUOUS
 62
     7
 10
367.6335511409
 20
162.747922398
 30
0.0
  0
VERTEX
  5
899
  8
0
  6
CONTINUOUS
 62
     7
 10
367.6303801738
 20
162.690368153
 30
0.0
  0
VERTEX
  5
89A
  8
0
  6
CONTINUOUS
 62
     7
 10
367.6032839023
 20
162.6375167145
 30
0.0
  0
VERTEX
  5
89B
  8
0
  6
CONTINUOUS
 62
     7
 10
367.6011262142
 20
162.5906555428
 30
0.0
  0
VERTEX
  5
89C
  8
0
  6
CONTINUOUS
 62
     7
 10
367.6480589115
 20
162.4823598637
 30
0.0
  0
VERTEX
  5
89D
  8
0
  6
CONTINUOUS
 62
     7
 10
367.6572976314
 20
162.4408035053
 30
0.0
  0
SEQEND
  5
BEC
  8
0
  6
CONTINUOUS
 62
     7
  0
ARC
  5
105
  8
0
  6
CONTINUOUS
 62
     7
 10
362.8109002769
 20
161.6119358148
 30
0.0
 40
4.945525318989937
 50
3.586388959
 51
8.4292275241
  0
POLYLINE
  5
106
  8
0
  6
CONTINUOUS
 62
     7
 66
     1
 10
0.0
 20
0.0
 30
0.0
  0
VERTEX
  5
89E
  8
0
  6
CONTINUOUS
 62
     7
 10
361.6581020557
 20
158.5434643997
 30
0.0
  0
VERTEX
  5
89F
  8
0
  6
CONTINUOUS
 62
     7
 10
362.6817999088
 20
158.7223915829
 30
0.0
  0
VERTEX
  5
8A0
  8
0
  6
CONTINUOUS
 62
     7
 10
363.6777696811
 20
159.0131728424
 30
0.0
  0
VERTEX
  5
8A1
  8
0
  6
CONTINUOUS
 62
     7
 10
364.5580229961
 20
159.3721179737
 30
0.0
  0
VERTEX
  5
8A2
  8
0
  6
CONTINUOUS
 62
     7
 10
365.3626618587
 20
159.7909240498
 30
0.0
  0
VERTEX
  5
8A3
  8
0
  6
CONTINUOUS
 62
     7
 10
366.122382661
 20
160.2746276631
 30
0.0
  0
VERTEX
  5
8A4
  8
0
  6
CONTINUOUS
 62
     7
 10
366.7637763225
 20
160.7612042202
 30
0.0
  0
VERTEX
  5
8A5
  8
0
  6
CONTINUOUS
 62
     7
 10
367.2915039264
 20
161.2345008625
 30
0.0
  0
VERTEX
  5
8A6
  8
0
  6
CONTINUOUS
 62
     7
 10
367.6347313129
 20
161.6276292576
 30
0.0
  0
VERTEX
  5
8A7
  8
0
  6
CONTINUOUS
 62
     7
 10
367.722815057
 20
161.7882935776
 30
0.0
  0
VERTEX
  5
8A8
  8
0
  6
CONTINUOUS
 62
     7
 10
367.7467403614
 20
161.9212894215
 30
0.0
  0
SEQEND
  5
BEB
  8
0
  6
CONTINUOUS
 62
     7
  0
POLYLINE
  5
107
  8
0
  6
CONTINUOUS
 62
     7
 66
     1
 10
0.0
 20
0.0
 30
0.0
  0
VERTEX
  5
8A9
  8
0
  6
CONTINUOUS
 62
     7
 10
361.6581020557
 20
158.5434643997
 30
0.0
  0
VERTEX
  5
8AA
  8
0
  6
CONTINUOUS
 62
     7
 10
356.3072738849
 20
157.9568712486
 30
0.0
  0
VERTEX
  5
8AB
  8
0
  6
CONTINUOUS
 62
     7
 10
350.9411153995
 20
157.4588684811
 30
0.0
  0
VERTEX
  5
8AC
  8
0
  6
CONTINUOUS
 62
     7
 10
345.5488620006
 20
157.0617167725
 30
0.0
  0
VERTEX
  5
8AD
  8
0
  6
CONTINUOUS
 62
     7
 10
340.1457724773
 20
156.7767350449
 30
0.0
  0
VERTEX
  5
8AE
  8
0
  6
CONTINUOUS
 62
     7
 10
334.2442808353
 20
156.6030709519
 30
0.0
  0
VERTEX
  5
8AF
  8
0
  6
CONTINUOUS
 62
     7
 10
328.3391294681
 20
156.5767376198
 30
0.0
  0
VERTEX
  5
8B0
  8
0
  6
CONTINUOUS
 62
     7
 10
322.4139628612
 20
156.7000119461
 30
0.0
  0
VERTEX
  5
8B1
  8
0
  6
CONTINUOUS
 62
     7
 10
316.4959249698
 20
156.9687812103
 30
0.0
  0
VERTEX
  5
8B2
  8
0
  6
CONTINUOUS
 62
     7
 10
312.0746312343
 20
157.260796286
 30
0.0
  0
VERTEX
  5
8B3
  8
0
  6
CONTINUOUS
 62
     7
 10
307.66169407
 20
157.6246945633
 30
0.0
  0
VERTEX
  5
8B4
  8
0
  6
CONTINUOUS
 62
     7
 10
303.2514510357
 20
158.0549149288
 30
0.0
  0
VERTEX
  5
8B5
  8
0
  6
CONTINUOUS
 62
     7
 10
298.8517759048
 20
158.5434643997
 30
0.0
  0
SEQEND
  5
BEA
  8
0
  6
CONTINUOUS
 62
     7
  0
POLYLINE
  5
108
  8
0
  6
CONTINUOUS
 62
     7
 66
     1
 10
0.0
 20
0.0
 30
0.0
  0
VERTEX
  5
8B6
  8
0
  6
CONTINUOUS
 62
     7
 10
292.7631316387
 20
161.9212894215
 30
0.0
  0
VERTEX
  5
8B7
  8
0
  6
CONTINUOUS
 62
     7
 10
292.8374765121
 20
161.6866318955
 30
0.0
  0
VERTEX
  5
8B8
  8
0
  6
CONTINUOUS
 62
     7
 10
293.094718238
 20
161.3612262978
 30
0.0
  0
VERTEX
  5
8B9
  8
0
  6
CONTINUOUS
 62
     7
 10
293.5044703685
 20
160.9675972237
 30
0.0
  0
VERTEX
  5
8BA
  8
0
  6
CONTINUOUS
 62
     7
 10
294.0722344123
 20
160.5037777199
 30
0.0
  0
VERTEX
  5
8BB
  8
0
  6
CONTINUOUS
 62
     7
 10
294.8049543106
 20
159.9975375904
 30
0.0
  0
VERTEX
  5
8BC
  8
0
  6
CONTINUOUS
 62
     7
 10
295.701151868
 20
159.4929365887
 30
0.0
  0
VERTEX
  5
8BD
  8
0
  6
CONTINUOUS
 62
     7
 10
296.5812621318
 20
159.1053931488
 30
0.0
  0
VERTEX
  5
8BE
  8
0
  6
CONTINUOUS
 62
     7
 10
297.5790021621
 20
158.7840704693
 30
0.0
  0
VERTEX
  5
8BF
  8
0
  6
CONTINUOUS
 62
     7
 10
298.2018110954
 20
158.6433021797
 30
0.0
  0
VERTEX
  5
8C0
  8
0
  6
CONTINUOUS
 62
     7
 10
298.8517759048
 20
158.5434643997
 30
0.0
  0
SEQEND
  5
BE9
  8
0
  6
CONTINUOUS
 62
     7
  0
POLYLINE
  5
109
  8
0
  6
CONTINUOUS
 62
     7
 66
     1
 10
0.0
 20
0.0
 30
0.0
  0
VERTEX
  5
8C1
  8
0
  6
CONTINUOUS
 62
     7
 10
292.7631316387
 20
161.9212953819
 30
0.0
  0
VERTEX
  5
8C2
  8
0
  6
CONTINUOUS
 62
     7
 10
292.7914498054
 20
162.2176317944
 30
0.0
  0
VERTEX
  5
8C3
  8
0
  6
CONTINUOUS
 62
     7
 10
292.8072807991
 20
162.3423068298
 30
0.0
  0
SEQEND
  5
BE8
  8
0
  6
CONTINUOUS
 62
     7
  0
POLYLINE
  5
10A
  8
0
  6
CONTINUOUS
 62
     7
 66
     1
 10
0.0
 20
0.0
 30
0.0
  0
VERTEX
  5
8C4
  8
0
  6
CONTINUOUS
 62
     7
 10
292.8526458942
 20
162.4402968659
 30
0.0
  0
VERTEX
  5
8C5
  8
0
  6
CONTINUOUS
 62
     7
 10
292.8627608024
 20
162.4849407448
 30
0.0
  0
VERTEX
  5
8C6
  8
0
  6
CONTINUOUS
 62
     7
 10
292.9087517463
 20
162.5906555428
 30
0.0
  0
VERTEX
  5
8C7
  8
0
  6
CONTINUOUS
 62
     7
 10
292.9065940582
 20
162.6375167145
 30
0.0
  0
VERTEX
  5
8C8
  8
0
  6
CONTINUOUS
 62
     7
 10
292.8794918262
 20
162.690368153
 30
0.0
  0
VERTEX
  5
8C9
  8
0
  6
CONTINUOUS
 62
     7
 10
292.8763268196
 20
162.747922398
 30
0.0
  0
VERTEX
  5
8CA
  8
0
  6
CONTINUOUS
 62
     7
 10
292.9580745899
 20
162.8063528313
 30
0.0
  0
VERTEX
  5
8CB
  8
0
  6
CONTINUOUS
 62
     7
 10
293.172830125
 20
162.8629653229
 30
0.0
  0
VERTEX
  5
8CC
  8
0
  6
CONTINUOUS
 62
     7
 10
293.5303507053
 20
162.9186956658
 30
0.0
  0
VERTEX
  5
8CD
  8
0
  6
CONTINUOUS
 62
     7
 10
294.131529113
 20
162.9732339157
 30
0.0
  0
VERTEX
  5
8CE
  8
0
  6
CONTINUOUS
 62
     7
 10
295.0485942566
 20
163.0280463471
 30
0.0
  0
SEQEND
  5
BE7
  8
0
  6
CONTINUOUS
 62
     7
  0
LINE
  5
10B
  8
0
  6
CONTINUOUS
 62
     7
 10
367.8549347126
 20
161.4630965962
 30
0.0
 11
367.8549347126
 21
161.7687968983
 31
0.0
  0
LINE
  5
10C
  8
0
  6
CONTINUOUS
 62
     7
 10
292.6549372875
 20
161.2880496754
 30
0.0
 11
292.6549372875
 21
161.1135868801
 31
0.0
  0
LINE
  5
10D
  8
0
  6
CONTINUOUS
 62
     7
 10
292.6549372875
 20
161.758604504
 30
0.0
 11
292.6549372875
 21
161.4630965962
 31
0.0
  0
LINE
  5
10E
  8
0
  6
CONTINUOUS
 62
     7
 10
293.3549342357
 20
158.416142918
 30
0.0
 11
293.3549342357
 21
156.4514367355
 31
0.0
  0
LINE
  5
10F
  8
0
  6
CONTINUOUS
 62
     7
 10
292.5549385749
 20
156.4514367355
 30
0.0
 11
292.5549385749
 21
158.416142918
 31
0.0
  0
LINE
  5
110
  8
0
  6
CONTINUOUS
 62
     7
 10
293.3549342357
 20
158.416142918
 30
0.0
 11
293.3549342357
 21
159.7276835217
 31
0.0
  0
LINE
  5
111
  8
0
  6
CONTINUOUS
 62
     7
 10
292.5549385749
 20
159.667298056
 30
0.0
 11
292.5549385749
 21
158.416142918
 31
0.0
  0
ARC
  5
112
  8
0
  6
CONTINUOUS
 62
     7
 10
293.5549371921
 20
159.6672973526
 30
0.0
 40
1.00000000000001
 50
138.1768700679
 51
180.0
  0
LINE
  5
113
  8
0
  6
CONTINUOUS
 62
     7
 10
293.3549342357
 20
156.4514367355
 30
0.0
 11
293.3549342357
 21
150.6291835083
 31
0.0
  0
LINE
  5
114
  8
0
  6
CONTINUOUS
 62
     7
 10
292.5549385749
 20
150.6291835083
 30
0.0
 11
292.5549385749
 21
156.4514367355
 31
0.0
  0
LINE
  5
115
  8
0
  6
CONTINUOUS
 62
     7
 10
293.3549342357
 20
150.3645925297
 30
0.0
 11
293.3549342357
 21
150.6291835083
 31
0.0
  0
LINE
  5
116
  8
0
  6
CONTINUOUS
 62
     7
 10
292.5549385749
 20
150.6291835083
 30
0.0
 11
292.5549385749
 21
150.3645925297
 31
0.0
  0
LINE
  5
117
  8
0
  6
CONTINUOUS
 62
     7
 10
293.3549342357
 20
150.3645925297
 30
0.0
 11
293.3549342357
 21
148.4722225441
 31
0.0
  0
LINE
  5
118
  8
0
  6
CONTINUOUS
 62
     7
 10
292.5549385749
 20
148.4722225441
 30
0.0
 11
292.5549385749
 21
150.3645925297
 31
0.0
  0
LINE
  5
119
  8
0
  6
CONTINUOUS
 62
     7
 10
293.3549342357
 20
148.4722225441
 30
0.0
 11
293.3549342357
 21
145.0602500214
 31
0.0
  0
LINE
  5
11A
  8
0
  6
CONTINUOUS
 62
     7
 10
292.5549385749
 20
145.0602500214
 30
0.0
 11
292.5549385749
 21
148.4722225441
 31
0.0
  0
LINE
  5
11B
  8
0
  6
CONTINUOUS
 62
     7
 10
293.3549342357
 20
141.1645142807
 30
0.0
 11
292.5549385749
 21
141.1645142807
 31
0.0
  0
LINE
  5
11C
  8
0
  6
CONTINUOUS
 62
     7
 10
293.3549342357
 20
143.1645123734
 30
0.0
 11
293.3549342357
 21
141.1645142807
 31
0.0
  0
LINE
  5
11D
  8
0
  6
CONTINUOUS
 62
     7
 10
292.5549385749
 20
141.1645142807
 30
0.0
 11
292.5549385749
 21
143.1645123734
 31
0.0
  0
LINE
  5
11E
  8
0
  6
CONTINUOUS
 62
     7
 10
293.3549342357
 20
145.0602500214
 30
0.0
 11
293.3549342357
 21
143.1645123734
 31
0.0
  0
LINE
  5
11F
  8
0
  6
CONTINUOUS
 62
     7
 10
292.5549385749
 20
143.1645123734
 30
0.0
 11
292.5549385749
 21
145.0602500214
 31
0.0
  0
LINE
  5
120
  8
0
  6
CONTINUOUS
 62
     7
 10
287.7549348079
 20
143.9645139946
 30
0.0
 11
287.7549348079
 21
136.5645138992
 31
0.0
  0
LINE
  5
121
  8
0
  6
CONTINUOUS
 62
     7
 10
297.7549371921
 20
143.9645139946
 30
0.0
 11
297.7549371921
 21
136.5645138992
 31
0.0
  0
ARC
  5
122
  8
0
  6
CONTINUOUS
 62
     7
 10
295.7549371921
 20
136.5645114197
 30
0.0
 40
2.000000000000057
 50
270.0
 51
0.0
  0
LINE
  5
123
  8
0
  6
CONTINUOUS
 62
     7
 10
295.7549390995
 20
134.5645098461
 30
0.0
 11
289.754938861
 21
134.5645098461
 31
0.0
  0
ARC
  5
124
  8
0
  6
CONTINUOUS
 62
     7
 10
289.7549371921
 20
136.5645114197
 30
0.0
 40
2.0
 50
180.0
 51
270.0
  0
LINE
  5
125
  8
0
  6
CONTINUOUS
 62
     7
 10
297.7549371921
 20
144.9645130409
 30
0.0
 11
293.3549342357
 21
144.9645130409
 31
0.0
  0
LINE
  5
126
  8
0
  6
CONTINUOUS
 62
     7
 10
297.7549371921
 20
144.9645130409
 30
0.0
 11
297.7549371921
 21
143.9645139946
 31
0.0
  0
LINE
  5
127
  8
0
  6
CONTINUOUS
 62
     7
 10
292.5549385749
 20
144.9645130409
 30
0.0
 11
287.7549348079
 21
144.9645130409
 31
0.0
  0
LINE
  5
128
  8
0
  6
CONTINUOUS
 62
     7
 10
287.7549348079
 20
144.9645130409
 30
0.0
 11
287.7549348079
 21
143.9645139946
 31
0.0
  0
LINE
  5
129
  8
0
  6
CONTINUOUS
 62
     7
 10
173.3549384081
 20
158.416142918
 30
0.0
 11
173.3549384081
 21
159.7276835217
 31
0.0
  0
LINE
  5
12A
  8
0
  6
CONTINUOUS
 62
     7
 10
172.5549367868
 20
159.667298056
 30
0.0
 11
172.5549367868
 21
158.416142918
 31
0.0
  0
ARC
  5
12B
  8
0
  6
CONTINUOUS
 62
     7
 10
173.5549371921
 20
159.6672973526
 30
0.0
 40
1.000000000000028
 50
138.1768700679
 51
180.0
  0
LINE
  5
12C
  8
0
  6
CONTINUOUS
 62
     7
 10
173.3549384081
 20
158.416142918
 30
0.0
 11
173.3549384081
 21
156.4514367355
 31
0.0
  0
LINE
  5
12D
  8
0
  6
CONTINUOUS
 62
     7
 10
172.5549367868
 20
156.4514367355
 30
0.0
 11
172.5549367868
 21
158.416142918
 31
0.0
  0
LINE
  5
12E
  8
0
  6
CONTINUOUS
 62
     7
 10
172.5549367868
 20
150.6291835083
 30
0.0
 11
172.5549367868
 21
156.4514367355
 31
0.0
  0
LINE
  5
12F
  8
0
  6
CONTINUOUS
 62
     7
 10
173.3549384081
 20
156.4514367355
 30
0.0
 11
173.3549384081
 21
150.6291835083
 31
0.0
  0
LINE
  5
130
  8
0
  6
CONTINUOUS
 62
     7
 10
172.5549367868
 20
150.6291835083
 30
0.0
 11
172.5549367868
 21
150.3645925297
 31
0.0
  0
LINE
  5
131
  8
0
  6
CONTINUOUS
 62
     7
 10
173.3549384081
 20
150.3645925297
 30
0.0
 11
173.3549384081
 21
150.6291835083
 31
0.0
  0
LINE
  5
132
  8
0
  6
CONTINUOUS
 62
     7
 10
172.5549367868
 20
148.4722225441
 30
0.0
 11
172.5549367868
 21
150.3645925297
 31
0.0
  0
LINE
  5
133
  8
0
  6
CONTINUOUS
 62
     7
 10
173.3549384081
 20
150.3645925297
 30
0.0
 11
173.3549384081
 21
148.4722225441
 31
0.0
  0
LINE
  5
134
  8
0
  6
CONTINUOUS
 62
     7
 10
172.5549367868
 20
145.0602500214
 30
0.0
 11
172.5549367868
 21
148.4722225441
 31
0.0
  0
LINE
  5
135
  8
0
  6
CONTINUOUS
 62
     7
 10
173.3549384081
 20
148.4722225441
 30
0.0
 11
173.3549384081
 21
145.0602500214
 31
0.0
  0
LINE
  5
136
  8
0
  6
CONTINUOUS
 62
     7
 10
173.3549384081
 20
141.1645142807
 30
0.0
 11
172.5549367868
 21
141.1645142807
 31
0.0
  0
LINE
  5
137
  8
0
  6
CONTINUOUS
 62
     7
 10
172.5549367868
 20
141.1645142807
 30
0.0
 11
172.5549367868
 21
143.1645123734
 31
0.0
  0
LINE
  5
138
  8
0
  6
CONTINUOUS
 62
     7
 10
173.3549384081
 20
143.1645123734
 30
0.0
 11
173.3549384081
 21
141.1645142807
 31
0.0
  0
LINE
  5
139
  8
0
  6
CONTINUOUS
 62
     7
 10
172.5549367868
 20
143.1645123734
 30
0.0
 11
172.5549367868
 21
145.0602500214
 31
0.0
  0
LINE
  5
13A
  8
0
  6
CONTINUOUS
 62
     7
 10
173.3549384081
 20
145.0602500214
 30
0.0
 11
173.3549384081
 21
143.1645123734
 31
0.0
  0
ARC
  5
13B
  8
0
  6
CONTINUOUS
 62
     7
 10
169.7549371921
 20
136.5645114197
 30
0.0
 40
2.0
 50
180.0
 51
270.0
  0
LINE
  5
13C
  8
0
  6
CONTINUOUS
 62
     7
 10
167.754936
 20
143.9645139946
 30
0.0
 11
167.754936
 21
136.5645138992
 31
0.0
  0
LINE
  5
13D
  8
0
  6
CONTINUOUS
 62
     7
 10
177.7549383842
 20
143.9645139946
 30
0.0
 11
177.7549383842
 21
136.5645138992
 31
0.0
  0
ARC
  5
13E
  8
0
  6
CONTINUOUS
 62
     7
 10
175.7549371921
 20
136.5645114197
 30
0.0
 40
2.0
 50
270.0
 51
0.0
  0
LINE
  5
13F
  8
0
  6
CONTINUOUS
 62
     7
 10
175.7549373113
 20
134.5645098461
 30
0.0
 11
169.7549370729
 21
134.5645098461
 31
0.0
  0
LINE
  5
140
  8
0
  6
CONTINUOUS
 62
     7
 10
172.5549367868
 20
144.9645130409
 30
0.0
 11
167.754936
 21
144.9645130409
 31
0.0
  0
LINE
  5
141
  8
0
  6
CONTINUOUS
 62
     7
 10
167.754936
 20
144.9645130409
 30
0.0
 11
167.754936
 21
143.9645139946
 31
0.0
  0
LINE
  5
142
  8
0
  6
CONTINUOUS
 62
     7
 10
177.7549383842
 20
144.9645130409
 30
0.0
 11
173.3549384081
 21
144.9645130409
 31
0.0
  0
LINE
  5
143
  8
0
  6
CONTINUOUS
 62
     7
 10
177.7549383842
 20
144.9645130409
 30
0.0
 11
177.7549383842
 21
143.9645139946
 31
0.0
  0
LINE
  5
144
  8
0
  6
CONTINUOUS
 62
     7
 10
53.3549366199
 20
158.416142918
 30
0.0
 11
53.3549366199
 21
159.7276835217
 31
0.0
  0
ARC
  5
145
  8
0
  6
CONTINUOUS
 62
     7
 10
53.5549371921
 20
159.6672973526
 30
0.0
 40
1.00000000000001
 50
138.1768700679
 51
180.0
  0
LINE
  5
146
  8
0
  6
CONTINUOUS
 62
     7
 10
52.5549349987
 20
159.667298056
 30
0.0
 11
52.5549349987
 21
158.416142918
 31
0.0
  0
LINE
  5
147
  8
0
  6
CONTINUOUS
 62
     7
 10
53.3549366199
 20
158.416142918
 30
0.0
 11
53.3549366199
 21
156.4514367355
 31
0.0
  0
LINE
  5
148
  8
0
  6
CONTINUOUS
 62
     7
 10
52.5549349987
 20
156.4514367355
 30
0.0
 11
52.5549349987
 21
158.416142918
 31
0.0
  0
LINE
  5
149
  8
0
  6
CONTINUOUS
 62
     7
 10
53.3549366199
 20
156.4514367355
 30
0.0
 11
53.3549366199
 21
150.6291835083
 31
0.0
  0
LINE
  5
14A
  8
0
  6
CONTINUOUS
 62
     7
 10
52.5549349987
 20
150.6291835083
 30
0.0
 11
52.5549349987
 21
156.4514367355
 31
0.0
  0
LINE
  5
14B
  8
0
  6
CONTINUOUS
 62
     7
 10
53.3549366199
 20
150.3645925297
 30
0.0
 11
53.3549366199
 21
150.6291835083
 31
0.0
  0
LINE
  5
14C
  8
0
  6
CONTINUOUS
 62
     7
 10
52.5549349987
 20
150.6291835083
 30
0.0
 11
52.5549349987
 21
150.3645925297
 31
0.0
  0
LINE
  5
14D
  8
0
  6
CONTINUOUS
 62
     7
 10
53.3549366199
 20
150.3645925297
 30
0.0
 11
53.3549366199
 21
148.4722225441
 31
0.0
  0
LINE
  5
14E
  8
0
  6
CONTINUOUS
 62
     7
 10
52.5549349987
 20
148.4722225441
 30
0.0
 11
52.5549349987
 21
150.3645925297
 31
0.0
  0
LINE
  5
14F
  8
0
  6
CONTINUOUS
 62
     7
 10
53.3549366199
 20
148.4722225441
 30
0.0
 11
53.3549366199
 21
145.0602500214
 31
0.0
  0
LINE
  5
150
  8
0
  6
CONTINUOUS
 62
     7
 10
52.5549349987
 20
145.0602500214
 30
0.0
 11
52.5549349987
 21
148.4722225441
 31
0.0
  0
LINE
  5
151
  8
0
  6
CONTINUOUS
 62
     7
 10
53.3549366199
 20
145.0602500214
 30
0.0
 11
53.3549366199
 21
143.1645123734
 31
0.0
  0
LINE
  5
152
  8
0
  6
CONTINUOUS
 62
     7
 10
52.5549349987
 20
143.1645123734
 30
0.0
 11
52.5549349987
 21
145.0602500214
 31
0.0
  0
LINE
  5
153
  8
0
  6
CONTINUOUS
 62
     7
 10
53.3549366199
 20
141.1645142807
 30
0.0
 11
52.5549349987
 21
141.1645142807
 31
0.0
  0
LINE
  5
154
  8
0
  6
CONTINUOUS
 62
     7
 10
53.3549366199
 20
143.1645123734
 30
0.0
 11
53.3549366199
 21
141.1645142807
 31
0.0
  0
LINE
  5
155
  8
0
  6
CONTINUOUS
 62
     7
 10
52.5549349987
 20
141.1645142807
 30
0.0
 11
52.5549349987
 21
143.1645123734
 31
0.0
  0
ARC
  5
156
  8
0
  6
CONTINUOUS
 62
     7
 10
49.7549371921
 20
136.5645114197
 30
0.0
 40
2.000000000000007
 50
180.0
 51
270.0
  0
LINE
  5
157
  8
0
  6
CONTINUOUS
 62
     7
 10
47.7549371921
 20
143.9645139946
 30
0.0
 11
47.7549371921
 21
136.5645138992
 31
0.0
  0
LINE
  5
158
  8
0
  6
CONTINUOUS
 62
     7
 10
57.7549395763
 20
143.9645139946
 30
0.0
 11
57.7549395763
 21
136.5645138992
 31
0.0
  0
ARC
  5
159
  8
0
  6
CONTINUOUS
 62
     7
 10
55.7549371921
 20
136.5645114197
 30
0.0
 40
2.000000000000007
 50
270.0
 51
0.0
  0
LINE
  5
15A
  8
0
  6
CONTINUOUS
 62
     7
 10
55.7549414837
 20
134.5645098461
 30
0.0
 11
49.7549352848
 21
134.5645098461
 31
0.0
  0
LINE
  5
15B
  8
0
  6
CONTINUOUS
 62
     7
 10
57.7549395763
 20
144.9645130409
 30
0.0
 11
53.3549366199
 21
144.9645130409
 31
0.0
  0
LINE
  5
15C
  8
0
  6
CONTINUOUS
 62
     7
 10
57.7549395763
 20
144.9645130409
 30
0.0
 11
57.7549395763
 21
143.9645139946
 31
0.0
  0
LINE
  5
15D
  8
0
  6
CONTINUOUS
 62
     7
 10
52.5549349987
 20
144.9645130409
 30
0.0
 11
47.7549371921
 21
144.9645130409
 31
0.0
  0
LINE
  5
15E
  8
0
  6
CONTINUOUS
 62
     7
 10
47.7549371921
 20
144.9645130409
 30
0.0
 11
47.7549371921
 21
143.9645139946
 31
0.0
  0
ARC
  5
15F
  8
0
  6
CONTINUOUS
 62
     7
 10
366.9549371921
 20
159.6672973526
 30
0.0
 40
1.000000000000009
 50
0.0
 51
42.1872028391
  0
LINE
  5
160
  8
0
  6
CONTINUOUS
 62
     7
 10
367.9549393856
 20
159.667298056
 30
0.0
 11
367.9549393856
 21
158.416142918
 31
0.0
  0
LINE
  5
161
  8
0
  6
CONTINUOUS
 62
     7
 10
367.1549377643
 20
158.416142918
 30
0.0
 11
367.1549377643
 21
159.7199349178
 31
0.0
  0
LINE
  5
162
  8
0
  6
CONTINUOUS
 62
     7
 10
367.9549393856
 20
156.4514367355
 30
0.0
 11
367.9549393856
 21
158.416142918
 31
0.0
  0
LINE
  5
163
  8
0
  6
CONTINUOUS
 62
     7
 10
367.1549377643
 20
158.416142918
 30
0.0
 11
367.1549377643
 21
156.4514367355
 31
0.0
  0
LINE
  5
164
  8
0
  6
CONTINUOUS
 62
     7
 10
367.9549393856
 20
150.6291835083
 30
0.0
 11
367.9549393856
 21
156.4514367355
 31
0.0
  0
LINE
  5
165
  8
0
  6
CONTINUOUS
 62
     7
 10
367.1549377643
 20
156.4514367355
 30
0.0
 11
367.1549377643
 21
150.6291835083
 31
0.0
  0
LINE
  5
166
  8
0
  6
CONTINUOUS
 62
     7
 10
367.9549393856
 20
150.6291835083
 30
0.0
 11
367.9549393856
 21
150.3645925297
 31
0.0
  0
LINE
  5
167
  8
0
  6
CONTINUOUS
 62
     7
 10
367.1549377643
 20
150.3645925297
 30
0.0
 11
367.1549377643
 21
150.6291835083
 31
0.0
  0
LINE
  5
168
  8
0
  6
CONTINUOUS
 62
     7
 10
367.9549393856
 20
148.4722225441
 30
0.0
 11
367.9549393856
 21
150.3645925297
 31
0.0
  0
LINE
  5
169
  8
0
  6
CONTINUOUS
 62
     7
 10
367.1549377643
 20
150.3645925297
 30
0.0
 11
367.1549377643
 21
148.4722225441
 31
0.0
  0
LINE
  5
16A
  8
0
  6
CONTINUOUS
 62
     7
 10
367.9549393856
 20
145.0602500214
 30
0.0
 11
367.9549393856
 21
148.4722225441
 31
0.0
  0
LINE
  5
16B
  8
0
  6
CONTINUOUS
 62
     7
 10
367.1549377643
 20
148.4722225441
 30
0.0
 11
367.1549377643
 21
145.0602500214
 31
0.0
  0
LINE
  5
16C
  8
0
  6
CONTINUOUS
 62
     7
 10
367.9549393856
 20
143.1645123734
 30
0.0
 11
367.9549393856
 21
145.0602500214
 31
0.0
  0
LINE
  5
16D
  8
0
  6
CONTINUOUS
 62
     7
 10
367.1549377643
 20
145.0602500214
 30
0.0
 11
367.1549377643
 21
143.1645123734
 31
0.0
  0
LINE
  5
16E
  8
0
  6
CONTINUOUS
 62
     7
 10
367.1549377643
 20
141.1645142807
 30
0.0
 11
367.9549393856
 21
141.1645142807
 31
0.0
  0
LINE
  5
16F
  8
0
  6
CONTINUOUS
 62
     7
 10
367.9549393856
 20
141.1645142807
 30
0.0
 11
367.9549393856
 21
143.1645123734
 31
0.0
  0
LINE
  5
170
  8
0
  6
CONTINUOUS
 62
     7
 10
367.1549377643
 20
143.1645123734
 30
0.0
 11
367.1549377643
 21
141.1645142807
 31
0.0
  0
LINE
  5
171
  8
0
  6
CONTINUOUS
 62
     7
 10
362.7549348079
 20
143.9645139946
 30
0.0
 11
362.7549348079
 21
136.5645138992
 31
0.0
  0
LINE
  5
172
  8
0
  6
CONTINUOUS
 62
     7
 10
372.7549371921
 20
143.9645139946
 30
0.0
 11
372.7549371921
 21
136.5645138992
 31
0.0
  0
LINE
  5
173
  8
0
  6
CONTINUOUS
 62
     7
 10
364.7549329006
 20
134.5645098461
 30
0.0
 11
370.7549390995
 21
134.5645098461
 31
0.0
  0
ARC
  5
174
  8
0
  6
CONTINUOUS
 62
     7
 10
370.7549371921
 20
136.5645114197
 30
0.0
 40
2.0
 50
270.0
 51
0.0
  0
ARC
  5
175
  8
0
  6
CONTINUOUS
 62
     7
 10
364.7549371921
 20
136.5645114197
 30
0.0
 40
2.0
 50
180.0
 51
270.0
  0
LINE
  5
176
  8
0
  6
CONTINUOUS
 62
     7
 10
362.7549348079
 20
144.9645130409
 30
0.0
 11
367.1549377643
 21
144.9645130409
 31
0.0
  0
LINE
  5
177
  8
0
  6
CONTINUOUS
 62
     7
 10
362.7549348079
 20
144.9645130409
 30
0.0
 11
362.7549348079
 21
143.9645139946
 31
0.0
  0
LINE
  5
178
  8
0
  6
CONTINUOUS
 62
     7
 10
367.9549393856
 20
144.9645130409
 30
0.0
 11
372.7549371921
 21
144.9645130409
 31
0.0
  0
LINE
  5
179
  8
0
  6
CONTINUOUS
 62
     7
 10
372.7549371921
 20
144.9645130409
 30
0.0
 11
372.7549371921
 21
143.9645139946
 31
0.0
  0
LINE
  5
17A
  8
0
  6
CONTINUOUS
 62
     7
 10
247.1549359762
 20
158.416142918
 30
0.0
 11
247.1549359762
 21
156.4514367355
 31
0.0
  0
LINE
  5
17B
  8
0
  6
CONTINUOUS
 62
     7
 10
247.9549375974
 20
156.4514367355
 30
0.0
 11
247.9549375974
 21
158.416142918
 31
0.0
  0
ARC
  5
17C
  8
0
  6
CONTINUOUS
 62
     7
 10
246.9549371921
 20
159.6672973526
 30
0.0
 40
1.0
 50
0.0
 51
42.1872028391
  0
LINE
  5
17D
  8
0
  6
CONTINUOUS
 62
     7
 10
247.9549375974
 20
159.667298056
 30
0.0
 11
247.9549375974
 21
158.416142918
 31
0.0
  0
LINE
  5
17E
  8
0
  6
CONTINUOUS
 62
     7
 10
247.1549359762
 20
158.416142918
 30
0.0
 11
247.1549359762
 21
159.7199349178
 31
0.0
  0
LINE
  5
17F
  8
0
  6
CONTINUOUS
 62
     7
 10
247.9549375974
 20
150.6291835083
 30
0.0
 11
247.9549375974
 21
156.4514367355
 31
0.0
  0
LINE
  5
180
  8
0
  6
CONTINUOUS
 62
     7
 10
247.1549359762
 20
156.4514367355
 30
0.0
 11
247.1549359762
 21
150.6291835083
 31
0.0
  0
LINE
  5
181
  8
0
  6
CONTINUOUS
 62
     7
 10
247.9549375974
 20
150.6291835083
 30
0.0
 11
247.9549375974
 21
150.3645925297
 31
0.0
  0
LINE
  5
182
  8
0
  6
CONTINUOUS
 62
     7
 10
247.1549359762
 20
150.3645925297
 30
0.0
 11
247.1549359762
 21
150.6291835083
 31
0.0
  0
LINE
  5
183
  8
0
  6
CONTINUOUS
 62
     7
 10
247.9549375974
 20
148.4722225441
 30
0.0
 11
247.9549375974
 21
150.3645925297
 31
0.0
  0
LINE
  5
184
  8
0
  6
CONTINUOUS
 62
     7
 10
247.1549359762
 20
150.3645925297
 30
0.0
 11
247.1549359762
 21
148.4722225441
 31
0.0
  0
LINE
  5
185
  8
0
  6
CONTINUOUS
 62
     7
 10
247.9549375974
 20
145.0602500214
 30
0.0
 11
247.9549375974
 21
148.4722225441
 31
0.0
  0
LINE
  5
186
  8
0
  6
CONTINUOUS
 62
     7
 10
247.1549359762
 20
148.4722225441
 30
0.0
 11
247.1549359762
 21
145.0602500214
 31
0.0
  0
LINE
  5
187
  8
0
  6
CONTINUOUS
 62
     7
 10
247.1549359762
 20
141.1645142807
 30
0.0
 11
247.9549375974
 21
141.1645142807
 31
0.0
  0
LINE
  5
188
  8
0
  6
CONTINUOUS
 62
     7
 10
247.9549375974
 20
141.1645142807
 30
0.0
 11
247.9549375974
 21
143.1645123734
 31
0.0
  0
LINE
  5
189
  8
0
  6
CONTINUOUS
 62
     7
 10
247.1549359762
 20
143.1645123734
 30
0.0
 11
247.1549359762
 21
141.1645142807
 31
0.0
  0
LINE
  5
18A
  8
0
  6
CONTINUOUS
 62
     7
 10
247.9549375974
 20
143.1645123734
 30
0.0
 11
247.9549375974
 21
145.0602500214
 31
0.0
  0
LINE
  5
18B
  8
0
  6
CONTINUOUS
 62
     7
 10
247.1549359762
 20
145.0602500214
 30
0.0
 11
247.1549359762
 21
143.1645123734
 31
0.0
  0
ARC
  5
18C
  8
0
  6
CONTINUOUS
 62
     7
 10
244.7549371921
 20
136.5645114197
 30
0.0
 40
2.0
 50
180.0
 51
270.0
  0
LINE
  5
18D
  8
0
  6
CONTINUOUS
 62
     7
 10
242.754936
 20
143.9645139946
 30
0.0
 11
242.754936
 21
136.5645138992
 31
0.0
  0
LINE
  5
18E
  8
0
  6
CONTINUOUS
 62
     7
 10
252.7549383842
 20
143.9645139946
 30
0.0
 11
252.7549383842
 21
136.5645138992
 31
0.0
  0
LINE
  5
18F
  8
0
  6
CONTINUOUS
 62
     7
 10
244.7549370729
 20
134.5645098461
 30
0.0
 11
250.7549373113
 21
134.5645098461
 31
0.0
  0
ARC
  5
190
  8
0
  6
CONTINUOUS
 62
     7
 10
250.7549371921
 20
136.5645114197
 30
0.0
 40
2.0
 50
270.0
 51
0.0
  0
LINE
  5
191
  8
0
  6
CONTINUOUS
 62
     7
 10
242.754936
 20
144.9645130409
 30
0.0
 11
247.1549359762
 21
144.9645130409
 31
0.0
  0
LINE
  5
192
  8
0
  6
CONTINUOUS
 62
     7
 10
242.754936
 20
144.9645130409
 30
0.0
 11
242.754936
 21
143.9645139946
 31
0.0
  0
LINE
  5
193
  8
0
  6
CONTINUOUS
 62
     7
 10
247.9549375974
 20
144.9645130409
 30
0.0
 11
252.7549383842
 21
144.9645130409
 31
0.0
  0
LINE
  5
194
  8
0
  6
CONTINUOUS
 62
     7
 10
252.7549383842
 20
144.9645130409
 30
0.0
 11
252.7549383842
 21
143.9645139946
 31
0.0
  0
LINE
  5
195
  8
0
  6
CONTINUOUS
 62
     7
 10
127.9549358093
 20
159.667298056
 30
0.0
 11
127.9549358093
 21
158.416142918
 31
0.0
  0
LINE
  5
196
  8
0
  6
CONTINUOUS
 62
     7
 10
127.1549401485
 20
158.416142918
 30
0.0
 11
127.1549401485
 21
159.7199349178
 31
0.0
  0
ARC
  5
197
  8
0
  6
CONTINUOUS
 62
     7
 10
126.9549371921
 20
159.6672973526
 30
0.0
 40
1.0
 50
0.0
 51
42.1872028391
  0
LINE
  5
198
  8
0
  6
CONTINUOUS
 62
     7
 10
127.9549358093
 20
156.4514367355
 30
0.0
 11
127.9549358093
 21
158.416142918
 31
0.0
  0
LINE
  5
199
  8
0
  6
CONTINUOUS
 62
     7
 10
127.1549401485
 20
158.416142918
 30
0.0
 11
127.1549401485
 21
156.4514367355
 31
0.0
  0
LINE
  5
19A
  8
0
  6
CONTINUOUS
 62
     7
 10
127.9549358093
 20
150.6291835083
 30
0.0
 11
127.9549358093
 21
156.4514367355
 31
0.0
  0
LINE
  5
19B
  8
0
  6
CONTINUOUS
 62
     7
 10
127.1549401485
 20
156.4514367355
 30
0.0
 11
127.1549401485
 21
150.6291835083
 31
0.0
  0
LINE
  5
19C
  8
0
  6
CONTINUOUS
 62
     7
 10
127.9549358093
 20
150.6291835083
 30
0.0
 11
127.9549358093
 21
150.3645925297
 31
0.0
  0
LINE
  5
19D
  8
0
  6
CONTINUOUS
 62
     7
 10
127.1549401485
 20
150.3645925297
 30
0.0
 11
127.1549401485
 21
150.6291835083
 31
0.0
  0
LINE
  5
19E
  8
0
  6
CONTINUOUS
 62
     7
 10
127.9549358093
 20
148.4722225441
 30
0.0
 11
127.9549358093
 21
150.3645925297
 31
0.0
  0
LINE
  5
19F
  8
0
  6
CONTINUOUS
 62
     7
 10
127.1549401485
 20
150.3645925297
 30
0.0
 11
127.1549401485
 21
148.4722225441
 31
0.0
  0
LINE
  5
1A0
  8
0
  6
CONTINUOUS
 62
     7
 10
127.9549358093
 20
145.0602500214
 30
0.0
 11
127.9549358093
 21
148.4722225441
 31
0.0
  0
LINE
  5
1A1
  8
0
  6
CONTINUOUS
 62
     7
 10
127.1549401485
 20
148.4722225441
 30
0.0
 11
127.1549401485
 21
145.0602500214
 31
0.0
  0
LINE
  5
1A2
  8
0
  6
CONTINUOUS
 62
     7
 10
127.1549401485
 20
141.1645142807
 30
0.0
 11
127.9549358093
 21
141.1645142807
 31
0.0
  0
LINE
  5
1A3
  8
0
  6
CONTINUOUS
 62
     7
 10
127.9549358093
 20
141.1645142807
 30
0.0
 11
127.9549358093
 21
143.1645123734
 31
0.0
  0
LINE
  5
1A4
  8
0
  6
CONTINUOUS
 62
     7
 10
127.1549401485
 20
143.1645123734
 30
0.0
 11
127.1549401485
 21
141.1645142807
 31
0.0
  0
LINE
  5
1A5
  8
0
  6
CONTINUOUS
 62
     7
 10
127.9549358093
 20
143.1645123734
 30
0.0
 11
127.9549358093
 21
145.0602500214
 31
0.0
  0
LINE
  5
1A6
  8
0
  6
CONTINUOUS
 62
     7
 10
127.1549401485
 20
145.0602500214
 30
0.0
 11
127.1549401485
 21
143.1645123734
 31
0.0
  0
ARC
  5
1A7
  8
0
  6
CONTINUOUS
 62
     7
 10
124.7549371921
 20
136.5645114197
 30
0.0
 40
2.0
 50
180.0
 51
270.0
  0
LINE
  5
1A8
  8
0
  6
CONTINUOUS
 62
     7
 10
122.7549371921
 20
143.9645139946
 30
0.0
 11
122.7549371921
 21
136.5645138992
 31
0.0
  0
LINE
  5
1A9
  8
0
  6
CONTINUOUS
 62
     7
 10
132.7549395763
 20
143.9645139946
 30
0.0
 11
132.7549395763
 21
136.5645138992
 31
0.0
  0
ARC
  5
1AA
  8
0
  6
CONTINUOUS
 62
     7
 10
130.7549371921
 20
136.5645114197
 30
0.0
 40
2.0
 50
270.0
 51
0.0
  0
LINE
  5
1AB
  8
0
  6
CONTINUOUS
 62
     7
 10
124.7549352848
 20
134.5645098461
 30
0.0
 11
130.7549355232
 21
134.5645098461
 31
0.0
  0
LINE
  5
1AC
  8
0
  6
CONTINUOUS
 62
     7
 10
122.7549371921
 20
144.9645130409
 30
0.0
 11
127.1549401485
 21
144.9645130409
 31
0.0
  0
LINE
  5
1AD
  8
0
  6
CONTINUOUS
 62
     7
 10
122.7549371921
 20
144.9645130409
 30
0.0
 11
122.7549371921
 21
143.9645139946
 31
0.0
  0
LINE
  5
1AE
  8
0
  6
CONTINUOUS
 62
     7
 10
127.9549358093
 20
144.9645130409
 30
0.0
 11
132.7549395763
 21
144.9645130409
 31
0.0
  0
LINE
  5
1AF
  8
0
  6
CONTINUOUS
 62
     7
 10
132.7549395763
 20
144.9645130409
 30
0.0
 11
132.7549395763
 21
143.9645139946
 31
0.0
  0
ARC
  5
1B0
  8
0
  6
CONTINUOUS
 62
     7
 10
150.2549371921
 20
185.1645114197
 30
0.0
 40
2.700000000000017
 50
0.0
 51
180.0
  0
ARC
  5
1B1
  8
0
  6
CONTINUOUS
 62
     7
 10
150.2549371921
 20
138.5645114197
 30
0.0
 40
2.700000000000017
 50
180.0
 51
0.0
  0
ARC
  5
1B2
  8
0
  6
CONTINUOUS
 62
     7
 10
154.2549371921
 20
137.3645114197
 30
0.0
 40
2.000000000000028
 50
270.0
 51
0.0
  0
LINE
  5
1B3
  8
0
  6
CONTINUOUS
 62
     7
 10
154.2549369537
 20
135.3645114674
 30
0.0
 11
146.2549386226
 21
135.3645114674
 31
0.0
  0
ARC
  5
1B4
  8
0
  6
CONTINUOUS
 62
     7
 10
146.2549371921
 20
137.3645114197
 30
0.0
 40
2.0
 50
180.0
 51
270.0
  0
LINE
  5
1B5
  8
0
  6
CONTINUOUS
 62
     7
 10
144.2549345695
 20
143.9645139946
 30
0.0
 11
144.2549345695
 21
137.36450956
 31
0.0
  0
LINE
  5
1B6
  8
0
  6
CONTINUOUS
 62
     7
 10
156.2549350464
 20
143.9645139946
 30
0.0
 11
156.2549350464
 21
137.36450956
 31
0.0
  0
LINE
  5
1B7
  8
0
  6
CONTINUOUS
 62
     7
 10
144.2549345695
 20
143.9645139946
 30
0.0
 11
144.2549345695
 21
145.164510466
 31
0.0
  0
LINE
  5
1B8
  8
0
  6
CONTINUOUS
 62
     7
 10
144.2549345695
 20
145.164510466
 30
0.0
 11
147.554939767
 21
145.164510466
 31
0.0
  0
LINE
  5
1B9
  8
0
  6
CONTINUOUS
 62
     7
 10
152.9549358093
 20
145.164510466
 30
0.0
 11
156.2549350464
 21
145.164510466
 31
0.0
  0
LINE
  5
1BA
  8
0
  6
CONTINUOUS
 62
     7
 10
156.2549350464
 20
145.164510466
 30
0.0
 11
156.2549350464
 21
143.9645139946
 31
0.0
  0
ARC
  5
1BB
  8
0
  6
CONTINUOUS
 62
     7
 10
270.2549371921
 20
185.1645114197
 30
0.0
 40
2.700000000000045
 50
0.0
 51
180.0
  0
ARC
  5
1BC
  8
0
  6
CONTINUOUS
 62
     7
 10
270.2549371921
 20
138.5645114197
 30
0.0
 40
2.700000000000045
 50
180.0
 51
0.0
  0
ARC
  5
1BD
  8
0
  6
CONTINUOUS
 62
     7
 10
274.2549371921
 20
137.3645114197
 30
0.0
 40
2.0
 50
270.0
 51
0.0
  0
LINE
  5
1BE
  8
0
  6
CONTINUOUS
 62
     7
 10
274.2549357616
 20
135.3645114674
 30
0.0
 11
266.2549374305
 21
135.3645114674
 31
0.0
  0
ARC
  5
1BF
  8
0
  6
CONTINUOUS
 62
     7
 10
266.2549371921
 20
137.3645114197
 30
0.0
 40
2.0
 50
180.0
 51
270.0
  0
LINE
  5
1C0
  8
0
  6
CONTINUOUS
 62
     7
 10
264.2549393379
 20
143.9645139946
 30
0.0
 11
264.2549393379
 21
137.36450956
 31
0.0
  0
LINE
  5
1C1
  8
0
  6
CONTINUOUS
 62
     7
 10
276.2549398147
 20
143.9645139946
 30
0.0
 11
276.2549398147
 21
137.36450956
 31
0.0
  0
LINE
  5
1C2
  8
0
  6
CONTINUOUS
 62
     7
 10
264.2549393379
 20
143.9645139946
 30
0.0
 11
264.2549393379
 21
145.164510466
 31
0.0
  0
LINE
  5
1C3
  8
0
  6
CONTINUOUS
 62
     7
 10
264.2549393379
 20
145.164510466
 30
0.0
 11
267.5549385749
 21
145.164510466
 31
0.0
  0
LINE
  5
1C4
  8
0
  6
CONTINUOUS
 62
     7
 10
272.9549346172
 20
145.164510466
 30
0.0
 11
276.2549398147
 21
145.164510466
 31
0.0
  0
LINE
  5
1C5
  8
0
  6
CONTINUOUS
 62
     7
 10
276.2549398147
 20
145.164510466
 30
0.0
 11
276.2549398147
 21
143.9645139946
 31
0.0
  0
ARC
  5
1C6
  8
0
  6
CONTINUOUS
 62
     7
 10
390.2549371921
 20
185.1645114197
 30
0.0
 40
2.699999999999989
 50
0.0
 51
180.0
  0
ARC
  5
1C7
  8
0
  6
CONTINUOUS
 62
     7
 10
390.2549371921
 20
138.5645114197
 30
0.0
 40
2.699999999999989
 50
180.0
 51
0.0
  0
ARC
  5
1C8
  8
0
  6
CONTINUOUS
 62
     7
 10
394.2549371921
 20
137.3645114197
 30
0.0
 40
2.0
 50
270.0
 51
0.0
  0
LINE
  5
1C9
  8
0
  6
CONTINUOUS
 62
     7
 10
394.25494053
 20
135.3645114674
 30
0.0
 11
386.2549362384
 21
135.3645114674
 31
0.0
  0
ARC
  5
1CA
  8
0
  6
CONTINUOUS
 62
     7
 10
386.2549371921
 20
137.3645114197
 30
0.0
 40
2.0
 50
180.0
 51
270.0
  0
LINE
  5
1CB
  8
0
  6
CONTINUOUS
 62
     7
 10
384.2549381458
 20
143.9645139946
 30
0.0
 11
384.2549381458
 21
137.36450956
 31
0.0
  0
LINE
  5
1CC
  8
0
  6
CONTINUOUS
 62
     7
 10
396.2549386226
 20
143.9645139946
 30
0.0
 11
396.2549386226
 21
137.36450956
 31
0.0
  0
LINE
  5
1CD
  8
0
  6
CONTINUOUS
 62
     7
 10
384.2549381458
 20
143.9645139946
 30
0.0
 11
384.2549381458
 21
145.164510466
 31
0.0
  0
LINE
  5
1CE
  8
0
  6
CONTINUOUS
 62
     7
 10
384.2549381458
 20
145.164510466
 30
0.0
 11
387.5549373829
 21
145.164510466
 31
0.0
  0
LINE
  5
1CF
  8
0
  6
CONTINUOUS
 62
     7
 10
392.9549393856
 20
145.164510466
 30
0.0
 11
396.2549386226
 21
145.164510466
 31
0.0
  0
LINE
  5
1D0
  8
0
  6
CONTINUOUS
 62
     7
 10
396.2549386226
 20
145.164510466
 30
0.0
 11
396.2549386226
 21
143.9645139946
 31
0.0
  0
ARC
  5
1D1
  8
0
  6
CONTINUOUS
 62
     7
 10
30.2549371921
 20
185.1645114197
 30
0.0
 40
2.699999999999982
 50
0.0
 51
180.0
  0
ARC
  5
1D2
  8
0
  6
CONTINUOUS
 62
     7
 10
30.2549371921
 20
138.5645114197
 30
0.0
 40
2.699999999999982
 50
180.0
 51
0.0
  0
ARC
  5
1D3
  8
0
  6
CONTINUOUS
 62
     7
 10
34.2549371921
 20
137.3645114197
 30
0.0
 40
2.0
 50
270.0
 51
0.0
  0
LINE
  5
1D4
  8
0
  6
CONTINUOUS
 62
     7
 10
34.2549381458
 20
135.3645114674
 30
0.0
 11
26.2549338543
 21
135.3645114674
 31
0.0
  0
ARC
  5
1D5
  8
0
  6
CONTINUOUS
 62
     7
 10
26.2549371921
 20
137.3645114197
 30
0.0
 40
2.0
 50
180.0
 51
270.0
  0
LINE
  5
1D6
  8
0
  6
CONTINUOUS
 62
     7
 10
24.2549357616
 20
143.9645139946
 30
0.0
 11
24.2549357616
 21
137.36450956
 31
0.0
  0
LINE
  5
1D7
  8
0
  6
CONTINUOUS
 62
     7
 10
36.2549362384
 20
143.9645139946
 30
0.0
 11
36.2549362384
 21
137.36450956
 31
0.0
  0
LINE
  5
1D8
  8
0
  6
CONTINUOUS
 62
     7
 10
24.2549357616
 20
145.164510466
 30
0.0
 11
27.5549349987
 21
145.164510466
 31
0.0
  0
LINE
  5
1D9
  8
0
  6
CONTINUOUS
 62
     7
 10
32.9549370014
 20
145.164510466
 30
0.0
 11
36.2549362384
 21
145.164510466
 31
0.0
  0
LINE
  5
1DA
  8
0
  6
CONTINUOUS
 62
     7
 10
36.2549362384
 20
145.164510466
 30
0.0
 11
36.2549362384
 21
143.9645139946
 31
0.0
  0
LINE
  5
1DB
  8
0
  6
CONTINUOUS
 62
     7
 10
24.2549357616
 20
143.9645139946
 30
0.0
 11
24.2549357616
 21
145.164510466
 31
0.0
  0
LINE
  5
1DC
  8
0
  6
CONTINUOUS
 62
     7
 10
71.840649625
 20
69.1645114197
 30
0.0
 11
78.6692199909
 21
69.1645114197
 31
0.0
  0
LINE
  5
1DD
  8
0
  6
CONTINUOUS
 62
     7
 10
71.840649625
 20
70.3645114301
 30
0.0
 11
78.6692199909
 21
70.3645114301
 31
0.0
  0
LINE
  5
1DE
  8
0
  6
CONTINUOUS
 62
     7
 10
82.4278650486
 20
69.1645114197
 30
0.0
 11
78.6692199909
 21
69.1645114197
 31
0.0
  0
LINE
  5
1DF
  8
0
  6
CONTINUOUS
 62
     7
 10
78.6692199909
 20
70.3645114301
 30
0.0
 11
82.4278650486
 21
70.3645114301
 31
0.0
  0
LINE
  5
1E0
  8
0
  6
CONTINUOUS
 62
     7
 10
71.840649625
 20
69.1645114197
 30
0.0
 11
68.0820045673
 21
69.1645114197
 31
0.0
  0
LINE
  5
1E1
  8
0
  6
CONTINUOUS
 62
     7
 10
68.0820045673
 20
70.3645114301
 30
0.0
 11
71.840649625
 21
70.3645114301
 31
0.0
  0
LINE
  5
1E2
  8
0
  6
CONTINUOUS
 62
     7
 10
338.0820093357
 20
70.3645114301
 30
0.0
 11
341.8406543934
 21
70.3645114301
 31
0.0
  0
LINE
  5
1E3
  8
0
  6
CONTINUOUS
 62
     7
 10
341.8406543934
 20
69.1645114197
 30
0.0
 11
338.0820093357
 21
69.1645114197
 31
0.0
  0
LINE
  5
1E4
  8
0
  6
CONTINUOUS
 62
     7
 10
348.6692247593
 20
70.3645114301
 30
0.0
 11
352.4278698169
 21
70.3645114301
 31
0.0
  0
LINE
  5
1E5
  8
0
  6
CONTINUOUS
 62
     7
 10
352.4278698169
 20
69.1645114197
 30
0.0
 11
348.6692247593
 21
69.1645114197
 31
0.0
  0
LINE
  5
1E6
  8
0
  6
CONTINUOUS
 62
     7
 10
341.8406543934
 20
69.1645114197
 30
0.0
 11
348.6692247593
 21
69.1645114197
 31
0.0
  0
LINE
  5
1E7
  8
0
  6
CONTINUOUS
 62
     7
 10
341.8406543934
 20
70.3645114301
 30
0.0
 11
348.6692247593
 21
70.3645114301
 31
0.0
  0
LINE
  5
1E8
  8
0
  6
CONTINUOUS
 62
     7
 10
87.2549352848
 20
69.1645114197
 30
0.0
 11
87.2549352848
 21
70.3645114301
 31
0.0
  0
LINE
  5
1E9
  8
0
  6
CONTINUOUS
 62
     7
 10
82.4278650486
 20
69.1645114197
 30
0.0
 11
87.2549352848
 21
69.1645114197
 31
0.0
  0
LINE
  5
1EA
  8
0
  6
CONTINUOUS
 62
     7
 10
87.2549352848
 20
70.3645114301
 30
0.0
 11
82.4278650486
 21
70.3645114301
 31
0.0
  0
LINE
  5
1EB
  8
0
  6
CONTINUOUS
 62
     7
 10
63.2549343311
 20
69.1645114197
 30
0.0
 11
63.2549343311
 21
70.3645114301
 31
0.0
  0
LINE
  5
1EC
  8
0
  6
CONTINUOUS
 62
     7
 10
63.2549343311
 20
69.1645114197
 30
0.0
 11
68.0820045673
 21
69.1645114197
 31
0.0
  0
LINE
  5
1ED
  8
0
  6
CONTINUOUS
 62
     7
 10
68.0820045673
 20
70.3645114301
 30
0.0
 11
63.2549343311
 21
70.3645114301
 31
0.0
  0
LINE
  5
1EE
  8
0
  6
CONTINUOUS
 62
     7
 10
357.2549400531
 20
69.1645114197
 30
0.0
 11
357.2549400531
 21
70.3645114301
 31
0.0
  0
LINE
  5
1EF
  8
0
  6
CONTINUOUS
 62
     7
 10
352.4278698169
 20
69.1645114197
 30
0.0
 11
357.2549400531
 21
69.1645114197
 31
0.0
  0
LINE
  5
1F0
  8
0
  6
CONTINUOUS
 62
     7
 10
357.2549400531
 20
70.3645114301
 30
0.0
 11
352.4278698169
 21
70.3645114301
 31
0.0
  0
LINE
  5
1F1
  8
0
  6
CONTINUOUS
 62
     7
 10
333.2549390995
 20
69.1645114197
 30
0.0
 11
333.2549390995
 21
70.3645114301
 31
0.0
  0
LINE
  5
1F2
  8
0
  6
CONTINUOUS
 62
     7
 10
333.2549390995
 20
69.1645114197
 30
0.0
 11
338.0820093357
 21
69.1645114197
 31
0.0
  0
LINE
  5
1F3
  8
0
  6
CONTINUOUS
 62
     7
 10
338.0820093357
 20
70.3645114301
 30
0.0
 11
333.2549390995
 21
70.3645114301
 31
0.0
  0
LINE
  5
1F4
  8
0
  6
CONTINUOUS
 62
     7
 10
340.2549324237
 20
70.3645114301
 30
0.0
 11
340.2549324237
 21
134.364512421
 31
0.0
  0
POLYLINE
  5
1F5
  8
0
  6
CONTINUOUS
 62
     7
 66
     1
 10
0.0
 20
0.0
 30
0.0
  0
VERTEX
  5
8CF
  8
0
  6
CONTINUOUS
 62
     7
 10
340.4549417698
 20
134.5645098461
 30
0.0
  0
VERTEX
  5
8D0
  8
0
  6
CONTINUOUS
 62
     7
 10
340.4234705173
 20
134.5330445541
 30
0.0
  0
VERTEX
  5
8D1
  8
0
  6
CONTINUOUS
 62
     7
 10
340.3310594761
 20
134.4406335129
 30
0.0
  0
VERTEX
  5
8D2
  8
0
  6
CONTINUOUS
 62
     7
 10
340.2741489612
 20
134.3837289585
 30
0.0
  0
VERTEX
  5
8D3
  8
0
  6
CONTINUOUS
 62
     7
 10
340.2549324237
 20
134.364512421
 30
0.0
  0
SEQEND
  5
BE6
  8
0
  6
CONTINUOUS
 62
     7
  0
LINE
  5
1F6
  8
0
  6
CONTINUOUS
 62
     7
 10
21.4549360477
 20
134.7645132317
 30
0.0
 11
21.4549360477
 21
135.3645114674
 31
0.0
  0
ARC
  5
1F7
  8
0
  6
CONTINUOUS
 62
     7
 10
21.8549371921
 20
134.7645114197
 30
0.0
 40
0.4000000000000057
 50
180.0
 51
270.0
  0
ARC
  5
1F8
  8
0
  6
CONTINUOUS
 62
     7
 10
398.6549371921
 20
143.9645114197
 30
0.0
 40
0.4000000000000057
 50
0.0
 51
90.0
  0
LINE
  5
1F9
  8
0
  6
CONTINUOUS
 62
     7
 10
399.0549383365
 20
143.9645139946
 30
0.0
 11
399.0549383365
 21
143.3645097984
 31
0.0
  0
POLYLINE
  5
1FA
  8
0
  6
CONTINUOUS
 62
     7
 66
     1
 10
0.0
 20
0.0
 30
0.0
  0
VERTEX
  5
8D4
  8
0
  6
CONTINUOUS
 62
     7
 10
80.0549326145
 20
134.5645098461
 30
0.0
  0
VERTEX
  5
8D5
  8
0
  6
CONTINUOUS
 62
     7
 10
80.0864038669
 20
134.5330445541
 30
0.0
  0
VERTEX
  5
8D6
  8
0
  6
CONTINUOUS
 62
     7
 10
80.1788149082
 20
134.4406335129
 30
0.0
  0
VERTEX
  5
8D7
  8
0
  6
CONTINUOUS
 62
     7
 10
80.235725423
 20
134.3837289585
 30
0.0
  0
VERTEX
  5
8D8
  8
0
  6
CONTINUOUS
 62
     7
 10
80.2549419605
 20
134.364512421
 30
0.0
  0
SEQEND
  5
BE5
  8
0
  6
CONTINUOUS
 62
     7
  0
LINE
  5
1FB
  8
0
  6
CONTINUOUS
 62
     7
 10
80.2549419605
 20
134.364512421
 30
0.0
 11
80.2549419605
 21
70.3645114301
 31
0.0
  0
LINE
  5
1FC
  8
0
  6
CONTINUOUS
 62
     7
 10
340.2549324237
 20
134.364512421
 30
0.0
 11
80.2549419605
 21
134.364512421
 31
0.0
  0
POLYLINE
  5
1FD
  8
0
  6
CONTINUOUS
 62
     7
 66
     1
 10
0.0
 20
0.0
 30
0.0
  0
VERTEX
  5
8D9
  8
0
  6
CONTINUOUS
 62
     7
 10
350.2549348079
 20
134.364512421
 30
0.0
  0
VERTEX
  5
8DA
  8
0
  6
CONTINUOUS
 62
     7
 10
350.2357182705
 20
134.3837289585
 30
0.0
  0
VERTEX
  5
8DB
  8
0
  6
CONTINUOUS
 62
     7
 10
350.1788196766
 20
134.4406335129
 30
0.0
  0
VERTEX
  5
8DC
  8
0
  6
CONTINUOUS
 62
     7
 10
350.0864086353
 20
134.5330445541
 30
0.0
  0
VERTEX
  5
8DD
  8
0
  6
CONTINUOUS
 62
     7
 10
349.9620495044
 20
134.657403685
 30
0.0
  0
VERTEX
  5
8DE
  8
0
  6
CONTINUOUS
 62
     7
 10
349.8105106556
 20
134.8089425339
 30
0.0
  0
VERTEX
  5
8DF
  8
0
  6
CONTINUOUS
 62
     7
 10
349.6376214229
 20
134.9818258061
 30
0.0
  0
VERTEX
  5
8E0
  8
0
  6
CONTINUOUS
 62
     7
 10
349.450021764
 20
135.1694195046
 30
0.0
  0
VERTEX
  5
8E1
  8
0
  6
CONTINUOUS
 62
     7
 10
349.2549357616
 20
135.3645114674
 30
0.0
  0
SEQEND
  5
BE4
  8
0
  6
CONTINUOUS
 62
     7
  0
LINE
  5
1FE
  8
0
  6
CONTINUOUS
 62
     7
 10
398.6549315654
 20
134.364512421
 30
0.0
 11
350.2549348079
 21
134.364512421
 31
0.0
  0
LINE
  5
1FF
  8
0
  6
CONTINUOUS
 62
     7
 10
399.0549383365
 20
135.3645114674
 30
0.0
 11
399.0549383365
 21
134.7645132317
 31
0.0
  0
ARC
  5
200
  8
0
  6
CONTINUOUS
 62
     7
 10
398.6549371921
 20
134.7645114197
 30
0.0
 40
0.4000000000000057
 50
270.0
 51
0.0
  0
LINE
  5
201
  8
0
  6
CONTINUOUS
 62
     7
 10
350.2549348079
 20
134.364512421
 30
0.0
 11
350.2549348079
 21
70.3645114301
 31
0.0
  0
LINE
  5
202
  8
0
  6
CONTINUOUS
 62
     7
 10
399.0549383365
 20
143.3645097984
 30
0.0
 11
399.0549383365
 21
135.3645114674
 31
0.0
  0
LINE
  5
203
  8
0
  6
CONTINUOUS
 62
     7
 10
21.4549360477
 20
143.3645097984
 30
0.0
 11
21.4549360477
 21
143.9645139946
 31
0.0
  0
ARC
  5
204
  8
0
  6
CONTINUOUS
 62
     7
 10
21.8549371921
 20
143.9645114197
 30
0.0
 40
0.4000000000000057
 50
90.0
 51
180.0
  0
LINE
  5
205
  8
0
  6
CONTINUOUS
 62
     7
 10
70.2549395763
 20
70.3645114301
 30
0.0
 11
70.2549395763
 21
134.364512421
 31
0.0
  0
POLYLINE
  5
206
  8
0
  6
CONTINUOUS
 62
     7
 66
     1
 10
0.0
 20
0.0
 30
0.0
  0
VERTEX
  5
8E2
  8
0
  6
CONTINUOUS
 62
     7
 10
70.2549395763
 20
134.364512421
 30
0.0
  0
VERTEX
  5
8E3
  8
0
  6
CONTINUOUS
 62
     7
 10
70.2741561138
 20
134.3837289585
 30
0.0
  0
VERTEX
  5
8E4
  8
0
  6
CONTINUOUS
 62
     7
 10
70.3310547077
 20
134.4406335129
 30
0.0
  0
VERTEX
  5
8E5
  8
0
  6
CONTINUOUS
 62
     7
 10
70.4234657489
 20
134.5330445541
 30
0.0
  0
VERTEX
  5
8E6
  8
0
  6
CONTINUOUS
 62
     7
 10
70.5478248798
 20
134.657403685
 30
0.0
  0
VERTEX
  5
8E7
  8
0
  6
CONTINUOUS
 62
     7
 10
70.6993637287
 20
134.8089425339
 30
0.0
  0
VERTEX
  5
8E8
  8
0
  6
CONTINUOUS
 62
     7
 10
70.8722529613
 20
134.9818258061
 30
0.0
  0
VERTEX
  5
8E9
  8
0
  6
CONTINUOUS
 62
     7
 10
71.0598526203
 20
135.1694195046
 30
0.0
  0
VERTEX
  5
8EA
  8
0
  6
CONTINUOUS
 62
     7
 10
71.2549386226
 20
135.3645114674
 30
0.0
  0
SEQEND
  5
BE3
  8
0
  6
CONTINUOUS
 62
     7
  0
LINE
  5
207
  8
0
  6
CONTINUOUS
 62
     7
 10
21.4549360477
 20
135.3645114674
 30
0.0
 11
21.4549360477
 21
143.3645097984
 31
0.0
  0
LINE
  5
208
  8
0
  6
CONTINUOUS
 62
     7
 10
70.2549395763
 20
134.364512421
 30
0.0
 11
21.8549428188
 21
134.364512421
 31
0.0
  0
LINE
  5
209
  8
0
  6
CONTINUOUS
 62
     7
 10
21.8549428188
 20
144.3645088448
 30
0.0
 11
24.2549357616
 21
144.3645088448
 31
0.0
  0
LINE
  5
20A
  8
0
  6
CONTINUOUS
 62
     7
 10
36.2549362384
 20
144.3645088448
 30
0.0
 11
47.7549371921
 21
144.3645088448
 31
0.0
  0
LINE
  5
20B
  8
0
  6
CONTINUOUS
 62
     7
 10
57.7549395763
 20
144.3645088448
 30
0.0
 11
72.254937669
 21
144.3645088448
 31
0.0
  0
LINE
  5
20C
  8
0
  6
CONTINUOUS
 62
     7
 10
108.2549390995
 20
144.3645088448
 30
0.0
 11
122.7549371921
 21
144.3645088448
 31
0.0
  0
LINE
  5
20D
  8
0
  6
CONTINUOUS
 62
     7
 10
132.7549395763
 20
144.3645088448
 30
0.0
 11
144.2549345695
 21
144.3645088448
 31
0.0
  0
LINE
  5
20E
  8
0
  6
CONTINUOUS
 62
     7
 10
156.2549350464
 20
144.3645088448
 30
0.0
 11
167.754936
 21
144.3645088448
 31
0.0
  0
LINE
  5
20F
  8
0
  6
CONTINUOUS
 62
     7
 10
177.7549383842
 20
144.3645088448
 30
0.0
 11
192.2549364769
 21
144.3645088448
 31
0.0
  0
LINE
  5
210
  8
0
  6
CONTINUOUS
 62
     7
 10
228.2549379074
 20
144.3645088448
 30
0.0
 11
242.754936
 21
144.3645088448
 31
0.0
  0
LINE
  5
211
  8
0
  6
CONTINUOUS
 62
     7
 10
252.7549383842
 20
144.3645088448
 30
0.0
 11
264.2549393379
 21
144.3645088448
 31
0.0
  0
LINE
  5
212
  8
0
  6
CONTINUOUS
 62
     7
 10
276.2549398147
 20
144.3645088448
 30
0.0
 11
287.7549348079
 21
144.3645088448
 31
0.0
  0
LINE
  5
213
  8
0
  6
CONTINUOUS
 62
     7
 10
297.7549371921
 20
144.3645088448
 30
0.0
 11
312.2549352848
 21
144.3645088448
 31
0.0
  0
LINE
  5
214
  8
0
  6
CONTINUOUS
 62
     7
 10
348.2549367153
 20
144.3645088448
 30
0.0
 11
362.7549348079
 21
144.3645088448
 31
0.0
  0
LINE
  5
215
  8
0
  6
CONTINUOUS
 62
     7
 10
372.7549371921
 20
144.3645088448
 30
0.0
 11
384.2549381458
 21
144.3645088448
 31
0.0
  0
LINE
  5
216
  8
0
  6
CONTINUOUS
 62
     7
 10
396.2549386226
 20
144.3645088448
 30
0.0
 11
398.6549315654
 21
144.3645088448
 31
0.0
  0
LINE
  5
217
  8
0
  6
CONTINUOUS
 62
     7
 10
54.863387128
 20
5.2995467186
 30
0.0
 11
55.4700432026
 21
4.2459649593
 31
0.0
  0
LINE
  5
218
  8
0
  6
CONTINUOUS
 62
     7
 10
125.0398931705
 20
4.2460122705
 30
0.0
 11
125.6465432846
 21
5.2995839715
 31
0.0
  0
LINE
  5
219
  8
0
  6
CONTINUOUS
 62
     7
 10
174.8633859359
 20
5.2995467186
 30
0.0
 11
175.4700420105
 21
4.2459649593
 31
0.0
  0
LINE
  5
21A
  8
0
  6
CONTINUOUS
 62
     7
 10
245.0398919784
 20
4.2460122705
 30
0.0
 11
245.6465420925
 21
5.2995839715
 31
0.0
  0
LINE
  5
21B
  8
0
  6
CONTINUOUS
 62
     7
 10
294.8633847438
 20
5.2995467186
 30
0.0
 11
295.4700408184
 21
4.2459649593
 31
0.0
  0
LINE
  5
21C
  8
0
  6
CONTINUOUS
 62
     7
 10
365.0398907863
 20
4.2460122705
 30
0.0
 11
365.6465468608
 21
5.2995839715
 31
0.0
  0
ARC
  5
21D
  8
0
  6
CONTINUOUS
 62
     7
 10
120.6816197314
 20
-71.3224186161
 30
0.0
 40
8.130070049099354
 50
287.2567479278
 51
289.6913094466
  0
ARC
  5
21E
  8
0
  6
CONTINUOUS
 62
     7
 10
59.9368089608
 20
-70.9598425803
 30
0.0
 40
8.508388632078486
 50
250.4720046196
 51
252.7377055099
  0
ARC
  5
21F
  8
0
  6
CONTINUOUS
 62
     7
 10
240.6816337456
 20
-71.3225297982
 30
0.0
 40
8.129960244990798
 50
287.2568980878
 51
289.6914725677
  0
ARC
  5
220
  8
0
  6
CONTINUOUS
 62
     7
 10
179.9375287038
 20
-70.9576038613
 30
0.0
 40
8.510739561502177
 50
250.4724682313
 51
252.7375622255
  0
ARC
  5
221
  8
0
  6
CONTINUOUS
 62
     7
 10
360.6818161229
 20
-71.3231449136
 30
0.0
 40
8.129319246550784
 50
287.2569686965
 51
289.6917152452
  0
ARC
  5
222
  8
0
  6
CONTINUOUS
 62
     7
 10
299.9382488688
 20
-70.9553638334
 30
0.0
 40
8.513091866187885
 50
250.4729318557
 51
252.737418923
  0
LINE
  5
223
  8
0
  6
CONTINUOUS
 62
     7
 10
147.554939767
 20
-1.995329014
 30
0.0
 11
147.554939767
 21
-16.9953285158
 31
0.0
  0
LINE
  5
224
  8
0
  6
CONTINUOUS
 62
     7
 10
152.9549358093
 20
-16.9953285158
 30
0.0
 11
152.9549358093
 21
-1.995329014
 31
0.0
  0
LINE
  5
225
  8
0
  6
CONTINUOUS
 62
     7
 10
152.9549358093
 20
-36.9953288138
 30
0.0
 11
152.9549358093
 21
-16.9953285158
 31
0.0
  0
LINE
  5
226
  8
0
  6
CONTINUOUS
 62
     7
 10
147.554939767
 20
-16.9953285158
 30
0.0
 11
147.554939767
 21
-36.9953288138
 31
0.0
  0
LINE
  5
227
  8
0
  6
CONTINUOUS
 62
     7
 10
147.554939767
 20
-36.9953288138
 30
0.0
 11
147.554939767
 21
-51.9953264296
 31
0.0
  0
LINE
  5
228
  8
0
  6
CONTINUOUS
 62
     7
 10
152.9549358093
 20
-51.9953264296
 30
0.0
 11
152.9549358093
 21
-36.9953288138
 31
0.0
  0
LINE
  5
229
  8
0
  6
CONTINUOUS
 62
     7
 10
267.5549385749
 20
-1.995329014
 30
0.0
 11
267.5549385749
 21
-16.9953285158
 31
0.0
  0
LINE
  5
22A
  8
0
  6
CONTINUOUS
 62
     7
 10
272.9549346172
 20
-16.9953285158
 30
0.0
 11
272.9549346172
 21
-1.995329014
 31
0.0
  0
LINE
  5
22B
  8
0
  6
CONTINUOUS
 62
     7
 10
272.9549346172
 20
-36.9953288138
 30
0.0
 11
272.9549346172
 21
-16.9953285158
 31
0.0
  0
LINE
  5
22C
  8
0
  6
CONTINUOUS
 62
     7
 10
267.5549385749
 20
-16.9953285158
 30
0.0
 11
267.5549385749
 21
-36.9953288138
 31
0.0
  0
LINE
  5
22D
  8
0
  6
CONTINUOUS
 62
     7
 10
267.5549385749
 20
-36.9953288138
 30
0.0
 11
267.5549385749
 21
-51.9953264296
 31
0.0
  0
LINE
  5
22E
  8
0
  6
CONTINUOUS
 62
     7
 10
272.9549346172
 20
-51.9953264296
 30
0.0
 11
272.9549346172
 21
-36.9953288138
 31
0.0
  0
LINE
  5
22F
  8
0
  6
CONTINUOUS
 62
     7
 10
387.5549373829
 20
-1.995329014
 30
0.0
 11
387.5549373829
 21
-16.9953285158
 31
0.0
  0
LINE
  5
230
  8
0
  6
CONTINUOUS
 62
     7
 10
392.9549393856
 20
-16.9953285158
 30
0.0
 11
392.9549393856
 21
-1.995329014
 31
0.0
  0
LINE
  5
231
  8
0
  6
CONTINUOUS
 62
     7
 10
392.9549393856
 20
-36.9953288138
 30
0.0
 11
392.9549393856
 21
-16.9953285158
 31
0.0
  0
LINE
  5
232
  8
0
  6
CONTINUOUS
 62
     7
 10
387.5549373829
 20
-16.9953285158
 30
0.0
 11
387.5549373829
 21
-36.9953288138
 31
0.0
  0
LINE
  5
233
  8
0
  6
CONTINUOUS
 62
     7
 10
387.5549373829
 20
-36.9953288138
 30
0.0
 11
387.5549373829
 21
-51.9953264296
 31
0.0
  0
LINE
  5
234
  8
0
  6
CONTINUOUS
 62
     7
 10
392.9549393856
 20
-51.9953264296
 30
0.0
 11
392.9549393856
 21
-36.9953288138
 31
0.0
  0
LINE
  5
235
  8
0
  6
CONTINUOUS
 62
     7
 10
27.5549349987
 20
-1.995329014
 30
0.0
 11
27.5549349987
 21
-16.9953285158
 31
0.0
  0
LINE
  5
236
  8
0
  6
CONTINUOUS
 62
     7
 10
32.9549370014
 20
-16.9953285158
 30
0.0
 11
32.9549370014
 21
-1.995329014
 31
0.0
  0
LINE
  5
237
  8
0
  6
CONTINUOUS
 62
     7
 10
32.9549370014
 20
-36.9953288138
 30
0.0
 11
32.9549370014
 21
-16.9953285158
 31
0.0
  0
LINE
  5
238
  8
0
  6
CONTINUOUS
 62
     7
 10
27.5549349987
 20
-16.9953285158
 30
0.0
 11
27.5549349987
 21
-36.9953288138
 31
0.0
  0
LINE
  5
239
  8
0
  6
CONTINUOUS
 62
     7
 10
27.5549349987
 20
-36.9953288138
 30
0.0
 11
27.5549349987
 21
-51.9953264296
 31
0.0
  0
LINE
  5
23A
  8
0
  6
CONTINUOUS
 62
     7
 10
32.9549370014
 20
-51.9953264296
 30
0.0
 11
32.9549370014
 21
-36.9953288138
 31
0.0
  0
POLYLINE
  5
23B
  8
0
  6
CONTINUOUS
 62
     7
 66
     1
 10
0.0
 20
0.0
 30
0.0
  0
VERTEX
  5
8EB
  8
0
  6
CONTINUOUS
 62
     7
 10
125.2802608215
 20
4.6841399372
 30
0.0
  0
VERTEX
  5
8EC
  8
0
  6
CONTINUOUS
 62
     7
 10
125.3076729976
 20
4.9887003005
 30
0.0
  0
VERTEX
  5
8ED
  8
0
  6
CONTINUOUS
 62
     7
 10
125.1458344661
 20
5.4083162546
 30
0.0
  0
VERTEX
  5
8EE
  8
0
  6
CONTINUOUS
 62
     7
 10
124.7936961853
 20
5.9274451435
 30
0.0
  0
VERTEX
  5
8EF
  8
0
  6
CONTINUOUS
 62
     7
 10
124.258982917
 20
6.5218219161
 30
0.0
  0
VERTEX
  5
8F0
  8
0
  6
CONTINUOUS
 62
     7
 10
123.5486445629
 20
7.1674244106
 30
0.0
  0
VERTEX
  5
8F1
  8
0
  6
CONTINUOUS
 62
     7
 10
122.6814446651
 20
7.8371094167
 30
0.0
  0
VERTEX
  5
8F2
  8
0
  6
CONTINUOUS
 62
     7
 10
121.6805396282
 20
8.5028664768
 30
0.0
  0
VERTEX
  5
8F3
  8
0
  6
CONTINUOUS
 62
     7
 10
120.5714998447
 20
9.1441424191
 30
0.0
  0
VERTEX
  5
8F4
  8
0
  6
CONTINUOUS
 62
     7
 10
119.5431111061
 20
9.66445297
 30
0.0
  0
VERTEX
  5
8F5
  8
0
  6
CONTINUOUS
 62
     7
 10
118.4776005947
 20
10.1391704381
 30
0.0
  0
SEQEND
  5
BE2
  8
0
  6
CONTINUOUS
 62
     7
  0
ARC
  5
23C
  8
0
  6
CONTINUOUS
 62
     7
 10
120.7833636344
 20
6.9132529032
 30
0.0
 40
5.019066539358837
 50
308.9515864466
 51
333.6323745761
  0
POLYLINE
  5
23D
  8
0
  6
CONTINUOUS
 62
     7
 66
     1
 10
0.0
 20
0.0
 30
0.0
  0
VERTEX
  5
8F6
  8
0
  6
CONTINUOUS
 62
     7
 10
115.8148524963
 20
5.8299513161
 30
0.0
  0
VERTEX
  5
8F7
  8
0
  6
CONTINUOUS
 62
     7
 10
117.2161636554
 20
5.2851499617
 30
0.0
  0
VERTEX
  5
8F8
  8
0
  6
CONTINUOUS
 62
     7
 10
118.5655293666
 20
4.7544302046
 30
0.0
  0
VERTEX
  5
8F9
  8
0
  6
CONTINUOUS
 62
     7
 10
119.825261613
 20
4.2571184784
 30
0.0
  0
VERTEX
  5
8FA
  8
0
  6
CONTINUOUS
 62
     7
 10
120.9630427562
 20
3.813630119
 30
0.0
  0
VERTEX
  5
8FB
  8
0
  6
CONTINUOUS
 62
     7
 10
121.9443140232
 20
3.4463820607
 30
0.0
  0
VERTEX
  5
8FC
  8
0
  6
CONTINUOUS
 62
     7
 10
122.7521536552
 20
3.1712134928
 30
0.0
  0
VERTEX
  5
8FD
  8
0
  6
CONTINUOUS
 62
     7
 10
123.3665285312
 20
3.0053721368
 30
0.0
  0
VERTEX
  5
8FE
  8
0
  6
CONTINUOUS
 62
     7
 10
123.7747905456
 20
2.9599358887
 30
0.0
  0
VERTEX
  5
8FF
  8
0
  6
CONTINUOUS
 62
     7
 10
123.938667556
 20
3.0100376904
 30
0.0
  0
SEQEND
  5
BE1
  8
0
  6
CONTINUOUS
 62
     7
  0
ARC
  5
23E
  8
0
  6
CONTINUOUS
 62
     7
 10
90.254935404
 20
-60.462733464
 30
0.0
 40
71.04948569214037
 50
68.9152735458
 51
111.0847264542
  0
POLYLINE
  5
23F
  8
0
  6
CONTINUOUS
 62
     7
 66
     1
 10
0.0
 20
0.0
 30
0.0
  0
VERTEX
  5
900
  8
0
  6
CONTINUOUS
 62
     7
 10
56.571203252
 20
3.0100376904
 30
0.0
  0
VERTEX
  5
901
  8
0
  6
CONTINUOUS
 62
     7
 10
56.8193135463
 20
2.9599574953
 30
0.0
  0
VERTEX
  5
902
  8
0
  6
CONTINUOUS
 62
     7
 10
57.2809872829
 20
3.0363628268
 30
0.0
  0
VERTEX
  5
903
  8
0
  6
CONTINUOUS
 62
     7
 10
57.9493222438
 20
3.2328677923
 30
0.0
  0
VERTEX
  5
904
  8
0
  6
CONTINUOUS
 62
     7
 10
58.8067350589
 20
3.5343167931
 30
0.0
  0
VERTEX
  5
905
  8
0
  6
CONTINUOUS
 62
     7
 10
59.8349509441
 20
3.9248482883
 30
0.0
  0
VERTEX
  5
906
  8
0
  6
CONTINUOUS
 62
     7
 10
61.0067305767
 20
4.3841188401
 30
0.0
  0
VERTEX
  5
907
  8
0
  6
CONTINUOUS
 62
     7
 10
62.2899232113
 20
4.890678972
 30
0.0
  0
VERTEX
  5
908
  8
0
  6
CONTINUOUS
 62
     7
 10
63.6519012653
 20
5.4252618551
 30
0.0
  0
VERTEX
  5
909
  8
0
  6
CONTINUOUS
 62
     7
 10
64.6950183117
 20
5.8299513161
 30
0.0
  0
SEQEND
  5
BE0
  8
0
  6
CONTINUOUS
 62
     7
  0
ARC
  5
240
  8
0
  6
CONTINUOUS
 62
     7
 10
59.7261732977
 20
6.9128365632
 30
0.0
 40
5.018532865559933
 50
206.3639164025
 51
231.0483896916
  0
POLYLINE
  5
241
  8
0
  6
CONTINUOUS
 62
     7
 66
     1
 10
0.0
 20
0.0
 30
0.0
  0
VERTEX
  5
90A
  8
0
  6
CONTINUOUS
 62
     7
 10
62.0323238575
 20
10.1391912997
 30
0.0
  0
VERTEX
  5
90B
  8
0
  6
CONTINUOUS
 62
     7
 10
60.8049450122
 20
9.5866234601
 30
0.0
  0
VERTEX
  5
90C
  8
0
  6
CONTINUOUS
 62
     7
 10
59.6314845287
 20
8.975687027
 30
0.0
  0
VERTEX
  5
90D
  8
0
  6
CONTINUOUS
 62
     7
 10
58.5457263195
 20
8.3235794306
 30
0.0
  0
VERTEX
  5
90E
  8
0
  6
CONTINUOUS
 62
     7
 10
57.5763998233
 20
7.6529660821
 30
0.0
  0
VERTEX
  5
90F
  8
0
  6
CONTINUOUS
 62
     7
 10
56.7547259533
 20
6.9909954071
 30
0.0
  0
VERTEX
  5
910
  8
0
  6
CONTINUOUS
 62
     7
 10
56.0929236614
 20
6.3597285748
 30
0.0
  0
VERTEX
  5
911
  8
0
  6
CONTINUOUS
 62
     7
 10
55.6066451275
 20
5.7841712236
 30
0.0
  0
VERTEX
  5
912
  8
0
  6
CONTINUOUS
 62
     7
 10
55.3039012157
 20
5.2897112072
 30
0.0
  0
VERTEX
  5
913
  8
0
  6
CONTINUOUS
 62
     7
 10
55.1948723995
 20
4.9425290525
 30
0.0
  0
VERTEX
  5
914
  8
0
  6
CONTINUOUS
 62
     7
 10
55.2296099865
 20
4.6842516959
 30
0.0
  0
SEQEND
  5
BDF
  8
0
  6
CONTINUOUS
 62
     7
  0
ARC
  5
242
  8
0
  6
CONTINUOUS
 62
     7
 10
90.2549371569
 20
-57.6903224532
 30
0.0
 40
73.4667192502936
 50
67.4086611322
 51
112.5912965159
  0
POLYLINE
  5
243
  8
0
  6
CONTINUOUS
 62
     7
 66
     1
 10
0.0
 20
0.0
 30
0.0
  0
VERTEX
  5
915
  8
0
  6
CONTINUOUS
 62
     7
 10
54.6423611843
 20
5.6916186214
 30
0.0
  0
VERTEX
  5
916
  8
0
  6
CONTINUOUS
 62
     7
 10
54.6123204433
 20
5.9941993654
 30
0.0
  0
VERTEX
  5
917
  8
0
  6
CONTINUOUS
 62
     7
 10
54.771441003
 20
6.4121545851
 30
0.0
  0
VERTEX
  5
918
  8
0
  6
CONTINUOUS
 62
     7
 10
55.1208315097
 20
6.9300243259
 30
0.0
  0
VERTEX
  5
919
  8
0
  6
CONTINUOUS
 62
     7
 10
55.6527910434
 20
7.5236299634
 30
0.0
  0
VERTEX
  5
91A
  8
0
  6
CONTINUOUS
 62
     7
 10
56.3604889118
 20
8.1690789759
 30
0.0
  0
VERTEX
  5
91B
  8
0
  6
CONTINUOUS
 62
     7
 10
57.2251615726
 20
8.8392713666
 30
0.0
  0
VERTEX
  5
91C
  8
0
  6
CONTINUOUS
 62
     7
 10
58.2239208423
 20
9.5063792169
 30
0.0
  0
VERTEX
  5
91D
  8
0
  6
CONTINUOUS
 62
     7
 10
59.3311128818
 20
10.1497122645
 30
0.0
  0
VERTEX
  5
91E
  8
0
  6
CONTINUOUS
 62
     7
 10
60.3581009113
 20
10.6723228097
 30
0.0
  0
VERTEX
  5
91F
  8
0
  6
CONTINUOUS
 62
     7
 10
61.4224968158
 20
11.1497791112
 30
0.0
  0
SEQEND
  5
BDE
  8
0
  6
CONTINUOUS
 62
     7
  0
POLYLINE
  5
244
  8
0
  6
CONTINUOUS
 62
     7
 66
     1
 10
0.0
 20
0.0
 30
0.0
  0
VERTEX
  5
920
  8
0
  6
CONTINUOUS
 62
     7
 10
119.0874216758
 20
11.1497597396
 30
0.0
  0
VERTEX
  5
921
  8
0
  6
CONTINUOUS
 62
     7
 10
120.3133282863
 20
10.5941461027
 30
0.0
  0
VERTEX
  5
922
  8
0
  6
CONTINUOUS
 62
     7
 10
121.4849589073
 20
9.9807733297
 30
0.0
  0
VERTEX
  5
923
  8
0
  6
CONTINUOUS
 62
     7
 10
122.5685713493
 20
9.3269349635
 30
0.0
  0
VERTEX
  5
924
  8
0
  6
CONTINUOUS
 62
     7
 10
123.5355375015
 20
8.6552926898
 30
0.0
  0
VERTEX
  5
925
  8
0
  6
CONTINUOUS
 62
     7
 10
124.3548867904
 20
7.9928332567
 30
0.0
  0
VERTEX
  5
926
  8
0
  6
CONTINUOUS
 62
     7
 10
125.0141976081
 20
7.3617042601
 30
0.0
  0
VERTEX
  5
927
  8
0
  6
CONTINUOUS
 62
     7
 10
125.4978535377
 20
6.7868733406
 30
0.0
  0
VERTEX
  5
928
  8
0
  6
CONTINUOUS
 62
     7
 10
125.7978913986
 20
6.2936523557
 30
0.0
  0
VERTEX
  5
929
  8
0
  6
CONTINUOUS
 62
     7
 10
125.9045300686
 20
5.9480042756
 30
0.0
  0
VERTEX
  5
92A
  8
0
  6
CONTINUOUS
 62
     7
 10
125.8675096237
 20
5.6915068626
 30
0.0
  0
SEQEND
  5
BDD
  8
0
  6
CONTINUOUS
 62
     7
  0
ARC
  5
245
  8
0
  6
CONTINUOUS
 62
     7
 10
90.2549361389
 20
-57.6348867376
 30
0.0
 40
74.58310675512382
 50
67.2580129375
 51
112.7419485675
  0
POLYLINE
  5
246
  8
0
  6
CONTINUOUS
 62
     7
 66
     1
 10
0.0
 20
0.0
 30
0.0
  0
VERTEX
  5
92B
  8
0
  6
CONTINUOUS
 62
     7
 10
245.2802626096
 20
4.6841399372
 30
0.0
  0
VERTEX
  5
92C
  8
0
  6
CONTINUOUS
 62
     7
 10
245.3076718055
 20
4.9887003005
 30
0.0
  0
VERTEX
  5
92D
  8
0
  6
CONTINUOUS
 62
     7
 10
245.145833274
 20
5.4083162546
 30
0.0
  0
VERTEX
  5
92E
  8
0
  6
CONTINUOUS
 62
     7
 10
244.7936949932
 20
5.9274451435
 30
0.0
  0
VERTEX
  5
92F
  8
0
  6
CONTINUOUS
 62
     7
 10
244.2589847051
 20
6.5218219161
 30
0.0
  0
VERTEX
  5
930
  8
0
  6
CONTINUOUS
 62
     7
 10
243.548646351
 20
7.1674244106
 30
0.0
  0
VERTEX
  5
931
  8
0
  6
CONTINUOUS
 62
     7
 10
242.6814464532
 20
7.8371094167
 30
0.0
  0
VERTEX
  5
932
  8
0
  6
CONTINUOUS
 62
     7
 10
241.6805384361
 20
8.5028664768
 30
0.0
  0
VERTEX
  5
933
  8
0
  6
CONTINUOUS
 62
     7
 10
240.5714986526
 20
9.1441424191
 30
0.0
  0
VERTEX
  5
934
  8
0
  6
CONTINUOUS
 62
     7
 10
239.543109914
 20
9.66445297
 30
0.0
  0
VERTEX
  5
935
  8
0
  6
CONTINUOUS
 62
     7
 10
238.4776023828
 20
10.1391704381
 30
0.0
  0
SEQEND
  5
BDC
  8
0
  6
CONTINUOUS
 62
     7
  0
ARC
  5
247
  8
0
  6
CONTINUOUS
 62
     7
 10
240.7832700673
 20
6.9133293191
 30
0.0
 40
5.019185912710425
 50
308.9518845672
 51
333.6320764555
  0
POLYLINE
  5
248
  8
0
  6
CONTINUOUS
 62
     7
 66
     1
 10
0.0
 20
0.0
 30
0.0
  0
VERTEX
  5
936
  8
0
  6
CONTINUOUS
 62
     7
 10
235.8148542844
 20
5.8299513161
 30
0.0
  0
VERTEX
  5
937
  8
0
  6
CONTINUOUS
 62
     7
 10
237.2161624633
 20
5.2851499617
 30
0.0
  0
VERTEX
  5
938
  8
0
  6
CONTINUOUS
 62
     7
 10
238.5655311548
 20
4.7544302046
 30
0.0
  0
VERTEX
  5
939
  8
0
  6
CONTINUOUS
 62
     7
 10
239.825260421
 20
4.2571184784
 30
0.0
  0
VERTEX
  5
93A
  8
0
  6
CONTINUOUS
 62
     7
 10
240.9630415641
 20
3.813630119
 30
0.0
  0
VERTEX
  5
93B
  8
0
  6
CONTINUOUS
 62
     7
 10
241.9443098508
 20
3.4463820607
 30
0.0
  0
VERTEX
  5
93C
  8
0
  6
CONTINUOUS
 62
     7
 10
242.7521554433
 20
3.1712134928
 30
0.0
  0
VERTEX
  5
93D
  8
0
  6
CONTINUOUS
 62
     7
 10
243.3665303194
 20
3.0053721368
 30
0.0
  0
VERTEX
  5
93E
  8
0
  6
CONTINUOUS
 62
     7
 10
243.7747923338
 20
2.9599358887
 30
0.0
  0
VERTEX
  5
93F
  8
0
  6
CONTINUOUS
 62
     7
 10
243.9386693441
 20
3.0100376904
 30
0.0
  0
SEQEND
  5
BDB
  8
0
  6
CONTINUOUS
 62
     7
  0
ARC
  5
249
  8
0
  6
CONTINUOUS
 62
     7
 10
210.2549371921
 20
-60.4627209832
 30
0.0
 40
71.04947404698504
 50
68.915269925
 51
111.084730075
  0
POLYLINE
  5
24A
  8
0
  6
CONTINUOUS
 62
     7
 66
     1
 10
0.0
 20
0.0
 30
0.0
  0
VERTEX
  5
940
  8
0
  6
CONTINUOUS
 62
     7
 10
176.5712050401
 20
3.0100376904
 30
0.0
  0
VERTEX
  5
941
  8
0
  6
CONTINUOUS
 62
     7
 10
176.8193153345
 20
2.9599574953
 30
0.0
  0
VERTEX
  5
942
  8
0
  6
CONTINUOUS
 62
     7
 10
177.2809920513
 20
3.0363628268
 30
0.0
  0
VERTEX
  5
943
  8
0
  6
CONTINUOUS
 62
     7
 10
177.949324032
 20
3.2328677923
 30
0.0
  0
VERTEX
  5
944
  8
0
  6
CONTINUOUS
 62
     7
 10
178.8067368471
 20
3.5343167931
 30
0.0
  0
VERTEX
  5
945
  8
0
  6
CONTINUOUS
 62
     7
 10
179.8349527322
 20
3.9248482883
 30
0.0
  0
VERTEX
  5
946
  8
0
  6
CONTINUOUS
 62
     7
 10
181.0067323648
 20
4.3841188401
 30
0.0
  0
VERTEX
  5
947
  8
0
  6
CONTINUOUS
 62
     7
 10
182.2899190389
 20
4.890678972
 30
0.0
  0
VERTEX
  5
948
  8
0
  6
CONTINUOUS
 62
     7
 10
183.651897093
 20
5.4252618551
 30
0.0
  0
VERTEX
  5
949
  8
0
  6
CONTINUOUS
 62
     7
 10
184.6950200998
 20
5.8299513161
 30
0.0
  0
SEQEND
  5
BDA
  8
0
  6
CONTINUOUS
 62
     7
  0
ARC
  5
24B
  8
0
  6
CONTINUOUS
 62
     7
 10
179.726165237
 20
6.9128446795
 30
0.0
 40
5.01853298586967
 50
206.364019141
 51
231.0485353891
  0
POLYLINE
  5
24C
  8
0
  6
CONTINUOUS
 62
     7
 66
     1
 10
0.0
 20
0.0
 30
0.0
  0
VERTEX
  5
94A
  8
0
  6
CONTINUOUS
 62
     7
 10
182.0323196851
 20
10.1391912997
 30
0.0
  0
VERTEX
  5
94B
  8
0
  6
CONTINUOUS
 62
     7
 10
180.8049468004
 20
9.5866234601
 30
0.0
  0
VERTEX
  5
94C
  8
0
  6
CONTINUOUS
 62
     7
 10
179.6314833366
 20
8.975687027
 30
0.0
  0
VERTEX
  5
94D
  8
0
  6
CONTINUOUS
 62
     7
 10
178.5457310878
 20
8.3235794306
 30
0.0
  0
VERTEX
  5
94E
  8
0
  6
CONTINUOUS
 62
     7
 10
177.5764045917
 20
7.6529660821
 30
0.0
  0
VERTEX
  5
94F
  8
0
  6
CONTINUOUS
 62
     7
 10
176.7547277414
 20
6.9909954071
 30
0.0
  0
VERTEX
  5
950
  8
0
  6
CONTINUOUS
 62
     7
 10
176.0929254495
 20
6.3597285748
 30
0.0
  0
VERTEX
  5
951
  8
0
  6
CONTINUOUS
 62
     7
 10
175.6066409551
 20
5.7841712236
 30
0.0
  0
VERTEX
  5
952
  8
0
  6
CONTINUOUS
 62
     7
 10
175.3039000236
 20
5.2897112072
 30
0.0
  0
VERTEX
  5
953
  8
0
  6
CONTINUOUS
 62
     7
 10
175.1948712074
 20
4.9425290525
 30
0.0
  0
VERTEX
  5
954
  8
0
  6
CONTINUOUS
 62
     7
 10
175.2296058141
 20
4.6842516959
 30
0.0
  0
SEQEND
  5
BD9
  8
0
  6
CONTINUOUS
 62
     7
  0
ARC
  5
24D
  8
0
  6
CONTINUOUS
 62
     7
 10
210.2549359648
 20
-57.6903482244
 30
0.0
 40
73.46674418894806
 50
67.4086667073
 51
112.5912909408
  0
POLYLINE
  5
24E
  8
0
  6
CONTINUOUS
 62
     7
 66
     1
 10
0.0
 20
0.0
 30
0.0
  0
VERTEX
  5
955
  8
0
  6
CONTINUOUS
 62
     7
 10
174.6423599922
 20
5.6916186214
 30
0.0
  0
VERTEX
  5
956
  8
0
  6
CONTINUOUS
 62
     7
 10
174.6123252117
 20
5.9941993654
 30
0.0
  0
VERTEX
  5
957
  8
0
  6
CONTINUOUS
 62
     7
 10
174.7714427911
 20
6.4121545851
 30
0.0
  0
VERTEX
  5
958
  8
0
  6
CONTINUOUS
 62
     7
 10
175.1208273374
 20
6.9300243259
 30
0.0
  0
VERTEX
  5
959
  8
0
  6
CONTINUOUS
 62
     7
 10
175.6527958118
 20
7.5236299634
 30
0.0
  0
VERTEX
  5
95A
  8
0
  6
CONTINUOUS
 62
     7
 10
176.3604847395
 20
8.1690789759
 30
0.0
  0
VERTEX
  5
95B
  8
0
  6
CONTINUOUS
 62
     7
 10
177.2251574003
 20
8.8392713666
 30
0.0
  0
VERTEX
  5
95C
  8
0
  6
CONTINUOUS
 62
     7
 10
178.2239226305
 20
9.5063792169
 30
0.0
  0
VERTEX
  5
95D
  8
0
  6
CONTINUOUS
 62
     7
 10
179.3311087095
 20
10.1497122645
 30
0.0
  0
VERTEX
  5
95E
  8
0
  6
CONTINUOUS
 62
     7
 10
180.3581026994
 20
10.6723228097
 30
0.0
  0
VERTEX
  5
95F
  8
0
  6
CONTINUOUS
 62
     7
 10
181.422498604
 20
11.1497791112
 30
0.0
  0
SEQEND
  5
BD8
  8
0
  6
CONTINUOUS
 62
     7
  0
POLYLINE
  5
24F
  8
0
  6
CONTINUOUS
 62
     7
 66
     1
 10
0.0
 20
0.0
 30
0.0
  0
VERTEX
  5
960
  8
0
  6
CONTINUOUS
 62
     7
 10
239.087423464
 20
11.1497597396
 30
0.0
  0
VERTEX
  5
961
  8
0
  6
CONTINUOUS
 62
     7
 10
240.3133270942
 20
10.5941461027
 30
0.0
  0
VERTEX
  5
962
  8
0
  6
CONTINUOUS
 62
     7
 10
241.4849606954
 20
9.9807733297
 30
0.0
  0
VERTEX
  5
963
  8
0
  6
CONTINUOUS
 62
     7
 10
242.5685701572
 20
9.3269349635
 30
0.0
  0
VERTEX
  5
964
  8
0
  6
CONTINUOUS
 62
     7
 10
243.5355363094
 20
8.6552926898
 30
0.0
  0
VERTEX
  5
965
  8
0
  6
CONTINUOUS
 62
     7
 10
244.3548855983
 20
7.9928332567
 30
0.0
  0
VERTEX
  5
966
  8
0
  6
CONTINUOUS
 62
     7
 10
245.0141993963
 20
7.3617042601
 30
0.0
  0
VERTEX
  5
967
  8
0
  6
CONTINUOUS
 62
     7
 10
245.4978523456
 20
6.7868733406
 30
0.0
  0
VERTEX
  5
968
  8
0
  6
CONTINUOUS
 62
     7
 10
245.7978902065
 20
6.2936523557
 30
0.0
  0
VERTEX
  5
969
  8
0
  6
CONTINUOUS
 62
     7
 10
245.9045318567
 20
5.9480042756
 30
0.0
  0
VERTEX
  5
96A
  8
0
  6
CONTINUOUS
 62
     7
 10
245.8675084316
 20
5.6915068626
 30
0.0
  0
SEQEND
  5
BD7
  8
0
  6
CONTINUOUS
 62
     7
  0
ARC
  5
250
  8
0
  6
CONTINUOUS
 62
     7
 10
210.254937927
 20
-57.634893801
 30
0.0
 40
74.58311326932275
 50
67.2580150351
 51
112.7419464699
  0
POLYLINE
  5
251
  8
0
  6
CONTINUOUS
 62
     7
 66
     1
 10
0.0
 20
0.0
 30
0.0
  0
VERTEX
  5
96B
  8
0
  6
CONTINUOUS
 62
     7
 10
365.2802643978
 20
4.6841399372
 30
0.0
  0
VERTEX
  5
96C
  8
0
  6
CONTINUOUS
 62
     7
 10
365.3076706134
 20
4.9887003005
 30
0.0
  0
VERTEX
  5
96D
  8
0
  6
CONTINUOUS
 62
     7
 10
365.1458320819
 20
5.4083162546
 30
0.0
  0
VERTEX
  5
96E
  8
0
  6
CONTINUOUS
 62
     7
 10
364.7936997615
 20
5.9274451435
 30
0.0
  0
VERTEX
  5
96F
  8
0
  6
CONTINUOUS
 62
     7
 10
364.2589864933
 20
6.5218219161
 30
0.0
  0
VERTEX
  5
970
  8
0
  6
CONTINUOUS
 62
     7
 10
363.5486421787
 20
7.1674244106
 30
0.0
  0
VERTEX
  5
971
  8
0
  6
CONTINUOUS
 62
     7
 10
362.6814422809
 20
7.8371094167
 30
0.0
  0
VERTEX
  5
972
  8
0
  6
CONTINUOUS
 62
     7
 10
361.680537244
 20
8.5028664768
 30
0.0
  0
VERTEX
  5
973
  8
0
  6
CONTINUOUS
 62
     7
 10
360.5714974605
 20
9.1441424191
 30
0.0
  0
VERTEX
  5
974
  8
0
  6
CONTINUOUS
 62
     7
 10
359.5431146824
 20
9.66445297
 30
0.0
  0
VERTEX
  5
975
  8
0
  6
CONTINUOUS
 62
     7
 10
358.4775982105
 20
10.1391704381
 30
0.0
  0
SEQEND
  5
BD6
  8
0
  6
CONTINUOUS
 62
     7
  0
ARC
  5
252
  8
0
  6
CONTINUOUS
 62
     7
 10
360.7832333
 20
6.9133602166
 30
0.0
 40
5.019234179454545
 50
308.9520051035
 51
333.6319559192
  0
POLYLINE
  5
253
  8
0
  6
CONTINUOUS
 62
     7
 66
     1
 10
0.0
 20
0.0
 30
0.0
  0
VERTEX
  5
976
  8
0
  6
CONTINUOUS
 62
     7
 10
355.8148560726
 20
5.8299513161
 30
0.0
  0
VERTEX
  5
977
  8
0
  6
CONTINUOUS
 62
     7
 10
357.2161612713
 20
5.2851499617
 30
0.0
  0
VERTEX
  5
978
  8
0
  6
CONTINUOUS
 62
     7
 10
358.5655269825
 20
4.7544302046
 30
0.0
  0
VERTEX
  5
979
  8
0
  6
CONTINUOUS
 62
     7
 10
359.8252592289
 20
4.2571184784
 30
0.0
  0
VERTEX
  5
97A
  8
0
  6
CONTINUOUS
 62
     7
 10
360.963040372
 20
3.813630119
 30
0.0
  0
VERTEX
  5
97B
  8
0
  6
CONTINUOUS
 62
     7
 10
361.944311639
 20
3.4463820607
 30
0.0
  0
VERTEX
  5
97C
  8
0
  6
CONTINUOUS
 62
     7
 10
362.7521572315
 20
3.1712134928
 30
0.0
  0
VERTEX
  5
97D
  8
0
  6
CONTINUOUS
 62
     7
 10
363.366526147
 20
3.0053721368
 30
0.0
  0
VERTEX
  5
97E
  8
0
  6
CONTINUOUS
 62
     7
 10
363.7747941219
 20
2.9599358887
 30
0.0
  0
VERTEX
  5
97F
  8
0
  6
CONTINUOUS
 62
     7
 10
363.9386711322
 20
3.0100376904
 30
0.0
  0
SEQEND
  5
BD5
  8
0
  6
CONTINUOUS
 62
     7
  0
ARC
  5
254
  8
0
  6
CONTINUOUS
 62
     7
 10
330.2549389803
 20
-60.462733464
 30
0.0
 40
71.04948569214034
 50
68.9152735458
 51
111.0847264542
  0
POLYLINE
  5
255
  8
0
  6
CONTINUOUS
 62
     7
 66
     1
 10
0.0
 20
0.0
 30
0.0
  0
VERTEX
  5
980
  8
0
  6
CONTINUOUS
 62
     7
 10
296.5712068283
 20
3.0100376904
 30
0.0
  0
VERTEX
  5
981
  8
0
  6
CONTINUOUS
 62
     7
 10
296.8193171226
 20
2.9599574953
 30
0.0
  0
VERTEX
  5
982
  8
0
  6
CONTINUOUS
 62
     7
 10
297.2809908592
 20
3.0363628268
 30
0.0
  0
VERTEX
  5
983
  8
0
  6
CONTINUOUS
 62
     7
 10
297.9493258201
 20
3.2328677923
 30
0.0
  0
VERTEX
  5
984
  8
0
  6
CONTINUOUS
 62
     7
 10
298.8067386352
 20
3.5343167931
 30
0.0
  0
VERTEX
  5
985
  8
0
  6
CONTINUOUS
 62
     7
 10
299.8349545204
 20
3.9248482883
 30
0.0
  0
VERTEX
  5
986
  8
0
  6
CONTINUOUS
 62
     7
 10
301.0067281925
 20
4.3841188401
 30
0.0
  0
VERTEX
  5
987
  8
0
  6
CONTINUOUS
 62
     7
 10
302.2899208271
 20
4.890678972
 30
0.0
  0
VERTEX
  5
988
  8
0
  6
CONTINUOUS
 62
     7
 10
303.6518988811
 20
5.4252618551
 30
0.0
  0
VERTEX
  5
989
  8
0
  6
CONTINUOUS
 62
     7
 10
304.6950218879
 20
5.8299513161
 30
0.0
  0
SEQEND
  5
BD4
  8
0
  6
CONTINUOUS
 62
     7
  0
ARC
  5
256
  8
0
  6
CONTINUOUS
 62
     7
 10
299.7261251281
 20
6.9128111061
 30
0.0
 40
5.01848053743518
 50
206.3638881184
 51
231.0486664117
  0
POLYLINE
  5
257
  8
0
  6
CONTINUOUS
 62
     7
 66
     1
 10
0.0
 20
0.0
 30
0.0
  0
VERTEX
  5
98A
  8
0
  6
CONTINUOUS
 62
     7
 10
302.0323214733
 20
10.1391912997
 30
0.0
  0
VERTEX
  5
98B
  8
0
  6
CONTINUOUS
 62
     7
 10
300.8049426281
 20
9.5866234601
 30
0.0
  0
VERTEX
  5
98C
  8
0
  6
CONTINUOUS
 62
     7
 10
299.6314821445
 20
8.975687027
 30
0.0
  0
VERTEX
  5
98D
  8
0
  6
CONTINUOUS
 62
     7
 10
298.5457298957
 20
8.3235794306
 30
0.0
  0
VERTEX
  5
98E
  8
0
  6
CONTINUOUS
 62
     7
 10
297.5764033996
 20
7.6529660821
 30
0.0
  0
VERTEX
  5
98F
  8
0
  6
CONTINUOUS
 62
     7
 10
296.7547295295
 20
6.9909954071
 30
0.0
  0
VERTEX
  5
990
  8
0
  6
CONTINUOUS
 62
     7
 10
296.0929272377
 20
6.3597285748
 30
0.0
  0
VERTEX
  5
991
  8
0
  6
CONTINUOUS
 62
     7
 10
295.6066427433
 20
5.7841712236
 30
0.0
  0
VERTEX
  5
992
  8
0
  6
CONTINUOUS
 62
     7
 10
295.3038988315
 20
5.2897112072
 30
0.0
  0
VERTEX
  5
993
  8
0
  6
CONTINUOUS
 62
     7
 10
295.1948700153
 20
4.9425290525
 30
0.0
  0
VERTEX
  5
994
  8
0
  6
CONTINUOUS
 62
     7
 10
295.2296076023
 20
4.6842516959
 30
0.0
  0
SEQEND
  5
BD3
  8
0
  6
CONTINUOUS
 62
     7
  0
ARC
  5
258
  8
0
  6
CONTINUOUS
 62
     7
 10
330.2549347728
 20
-57.6903224532
 30
0.0
 40
73.46671925029277
 50
67.4086611322
 51
112.5912965159
  0
POLYLINE
  5
259
  8
0
  6
CONTINUOUS
 62
     7
 66
     1
 10
0.0
 20
0.0
 30
0.0
  0
VERTEX
  5
995
  8
0
  6
CONTINUOUS
 62
     7
 10
294.6423588001
 20
5.6916186214
 30
0.0
  0
VERTEX
  5
996
  8
0
  6
CONTINUOUS
 62
     7
 10
294.6123240196
 20
5.9941993654
 30
0.0
  0
VERTEX
  5
997
  8
0
  6
CONTINUOUS
 62
     7
 10
294.7714445793
 20
6.4121545851
 30
0.0
  0
VERTEX
  5
998
  8
0
  6
CONTINUOUS
 62
     7
 10
295.1208291256
 20
6.9300243259
 30
0.0
  0
VERTEX
  5
999
  8
0
  6
CONTINUOUS
 62
     7
 10
295.6527946197
 20
7.5236299634
 30
0.0
  0
VERTEX
  5
99A
  8
0
  6
CONTINUOUS
 62
     7
 10
296.3604865276
 20
8.1690789759
 30
0.0
  0
VERTEX
  5
99B
  8
0
  6
CONTINUOUS
 62
     7
 10
297.225153228
 20
8.8392713666
 30
0.0
  0
VERTEX
  5
99C
  8
0
  6
CONTINUOUS
 62
     7
 10
298.2239244186
 20
9.5063792169
 30
0.0
  0
VERTEX
  5
99D
  8
0
  6
CONTINUOUS
 62
     7
 10
299.3311104976
 20
10.1497122645
 30
0.0
  0
VERTEX
  5
99E
  8
0
  6
CONTINUOUS
 62
     7
 10
300.3581044876
 20
10.6723228097
 30
0.0
  0
VERTEX
  5
99F
  8
0
  6
CONTINUOUS
 62
     7
 10
301.4225003921
 20
11.1497791112
 30
0.0
  0
SEQEND
  5
BD2
  8
0
  6
CONTINUOUS
 62
     7
  0
POLYLINE
  5
25A
  8
0
  6
CONTINUOUS
 62
     7
 66
     1
 10
0.0
 20
0.0
 30
0.0
  0
VERTEX
  5
9A0
  8
0
  6
CONTINUOUS
 62
     7
 10
359.0874252521
 20
11.1497597396
 30
0.0
  0
VERTEX
  5
9A1
  8
0
  6
CONTINUOUS
 62
     7
 10
360.3133259021
 20
10.5941461027
 30
0.0
  0
VERTEX
  5
9A2
  8
0
  6
CONTINUOUS
 62
     7
 10
361.4849624836
 20
9.9807733297
 30
0.0
  0
VERTEX
  5
9A3
  8
0
  6
CONTINUOUS
 62
     7
 10
362.5685749256
 20
9.3269349635
 30
0.0
  0
VERTEX
  5
9A4
  8
0
  6
CONTINUOUS
 62
     7
 10
363.5355410778
 20
8.6552926898
 30
0.0
  0
VERTEX
  5
9A5
  8
0
  6
CONTINUOUS
 62
     7
 10
364.3548903667
 20
7.9928332567
 30
0.0
  0
VERTEX
  5
9A6
  8
0
  6
CONTINUOUS
 62
     7
 10
365.0142011844
 20
7.3617042601
 30
0.0
  0
VERTEX
  5
9A7
  8
0
  6
CONTINUOUS
 62
     7
 10
365.497857114
 20
6.7868733406
 30
0.0
  0
VERTEX
  5
9A8
  8
0
  6
CONTINUOUS
 62
     7
 10
365.7978949749
 20
6.2936523557
 30
0.0
  0
VERTEX
  5
9A9
  8
0
  6
CONTINUOUS
 62
     7
 10
365.9045276844
 20
5.9480042756
 30
0.0
  0
VERTEX
  5
9AA
  8
0
  6
CONTINUOUS
 62
     7
 10
365.8675132
 20
5.6915068626
 30
0.0
  0
SEQEND
  5
BD1
  8
0
  6
CONTINUOUS
 62
     7
  0
ARC
  5
25B
  8
0
  6
CONTINUOUS
 62
     7
 10
330.2549397151
 20
-57.6348867376
 30
0.0
 40
74.58310675510786
 50
67.2580129375
 51
112.7419485675
  0
ARC
  5
25C
  8
0
  6
CONTINUOUS
 62
     7
 10
105.8262361589
 20
15.3045413814
 30
0.0
 40
1.00133254743317
 50
30.2905500975
 51
90.0802371884
  0
LINE
  5
25D
  8
0
  6
CONTINUOUS
 62
     7
 10
74.6850309574
 20
16.305872947
 30
0.0
 11
80.675345441
 21
16.305872947
 31
0.0
  0
LINE
  5
25E
  8
0
  6
CONTINUOUS
 62
     7
 10
99.8345313274
 20
16.305872947
 30
0.0
 11
105.8248338901
 21
16.305872947
 31
0.0
  0
ARC
  5
25F
  8
0
  6
CONTINUOUS
 62
     7
 10
74.6836331705
 20
15.3045543293
 30
0.0
 40
1.001319593307506
 50
89.9200182297
 51
149.7098749392
  0
LINE
  5
260
  8
0
  6
CONTINUOUS
 62
     7
 10
73.3360824787
 20
14.9793730676
 30
0.0
 11
73.8190112316
 21
15.8095987141
 31
0.0
  0
LINE
  5
261
  8
0
  6
CONTINUOUS
 62
     7
 10
72.5343165599
 20
14.792086333
 30
0.0
 11
73.4726009571
 21
16.4051266015
 31
0.0
  0
ARC
  5
262
  8
0
  6
CONTINUOUS
 62
     7
 10
74.337222896
 20
15.9000822166
 30
0.0
 40
1.001319593307625
 50
89.9200182297
 51
149.7098749392
  0
LINE
  5
263
  8
0
  6
CONTINUOUS
 62
     7
 10
74.3386206829
 20
16.9014008343
 30
0.0
 11
87.4571857654
 21
16.9014008343
 31
0.0
  0
ARC
  5
264
  8
0
  6
CONTINUOUS
 62
     7
 10
88.2427199452
 20
17.5002787364
 30
0.0
 40
0.9877847382995735
 50
180.0227454777
 51
217.3212811101
  0
LINE
  5
265
  8
0
  6
CONTINUOUS
 62
     7
 10
87.2549352848
 20
17.4998866022
 30
0.0
 11
87.2549352848
 21
21.4700715244
 31
0.0
  0
ARC
  5
266
  8
0
  6
CONTINUOUS
 62
     7
 10
88.251231216
 20
21.4663223967
 30
0.0
 40
0.9963029853184979
 50
89.787039327
 51
179.784393197
  0
LINE
  5
267
  8
0
  6
CONTINUOUS
 62
     7
 10
92.2549424373
 20
22.4626185
 30
0.0
 11
88.2549343311
 21
22.4626185
 31
0.0
  0
ARC
  5
268
  8
0
  6
CONTINUOUS
 62
     7
 10
92.2586406141
 20
21.4663174213
 30
0.0
 40
0.9963079423291834
 50
0.2158918575
 51
90.2126756186
  0
LINE
  5
269
  8
0
  6
CONTINUOUS
 62
     7
 10
93.2549414837
 20
17.4998866022
 30
0.0
 11
93.2549414837
 21
21.4700715244
 31
0.0
  0
ARC
  5
26A
  8
0
  6
CONTINUOUS
 62
     7
 10
92.2671568232
 20
17.5002787364
 30
0.0
 40
0.9877847382995452
 50
322.6787188899
 51
359.9772545223
  0
LINE
  5
26B
  8
0
  6
CONTINUOUS
 62
     7
 10
93.052691003
 20
16.9014008343
 30
0.0
 11
106.1712441646
 21
16.9014008343
 31
0.0
  0
ARC
  5
26C
  8
0
  6
CONTINUOUS
 62
     7
 10
106.1726464334
 20
15.9000692688
 30
0.0
 40
1.001332547433241
 50
30.2905500975
 51
90.0802371884
  0
LINE
  5
26D
  8
0
  6
CONTINUOUS
 62
     7
 10
107.0372758114
 20
16.4051266015
 30
0.0
 11
107.9755602085
 21
14.792086333
 31
0.0
  0
LINE
  5
26E
  8
0
  6
CONTINUOUS
 62
     7
 10
106.6908655368
 20
15.8095987141
 30
0.0
 11
107.1737942897
 21
14.9793730676
 31
0.0
  0
ARC
  5
26F
  8
0
  6
CONTINUOUS
 62
     7
 10
74.6836300689
 20
14.5733418543
 30
0.0
 40
1.001315701579068
 50
89.9198404409
 51
149.7099042986
  0
ARC
  5
270
  8
0
  6
CONTINUOUS
 62
     7
 10
105.8262392604
 20
14.5733289062
 30
0.0
 40
1.001328655991051
 50
30.2905207486
 51
90.0804149658
  0
LINE
  5
271
  8
0
  6
CONTINUOUS
 62
     7
 10
74.6850309574
 20
15.5746565759
 30
0.0
 11
76.1035738193
 21
15.5746565759
 31
0.0
  0
LINE
  5
272
  8
0
  6
CONTINUOUS
 62
     7
 10
104.4062910282
 20
15.5746565759
 30
0.0
 11
105.8248338901
 21
15.5746565759
 31
0.0
  0
LINE
  5
273
  8
0
  6
CONTINUOUS
 62
     7
 10
93.2549414837
 20
17.4998866022
 30
0.0
 11
93.2549414837
 21
16.9014008343
 31
0.0
  0
LINE
  5
274
  8
0
  6
CONTINUOUS
 62
     7
 10
87.2549352848
 20
16.9014008343
 30
0.0
 11
87.2549352848
 21
17.4998866022
 31
0.0
  0
LINE
  5
275
  8
0
  6
CONTINUOUS
 62
     7
 10
93.2549414837
 20
10.4956077039
 30
0.0
 11
93.2549414837
 21
5.2916394174
 31
0.0
  0
LINE
  5
276
  8
0
  6
CONTINUOUS
 62
     7
 10
87.2549352848
 20
5.2916394174
 30
0.0
 11
87.2549352848
 21
10.4956077039
 31
0.0
  0
ARC
  5
277
  8
0
  6
CONTINUOUS
 62
     7
 10
92.2549371921
 20
4.8046709955
 30
0.0
 40
1.0
 50
270.0
 51
0.0
  0
LINE
  5
278
  8
0
  6
CONTINUOUS
 62
     7
 10
93.2549414837
 20
5.2916394174
 30
0.0
 11
93.2549414837
 21
4.8046709597
 31
0.0
  0
ARC
  5
279
  8
0
  6
CONTINUOUS
 62
     7
 10
88.2549371921
 20
4.8046709955
 30
0.0
 40
1.0
 50
180.0
 51
270.0
  0
LINE
  5
27A
  8
0
  6
CONTINUOUS
 62
     7
 10
87.2549352848
 20
4.8046709597
 30
0.0
 11
87.2549352848
 21
5.2916394174
 31
0.0
  0
LINE
  5
27B
  8
0
  6
CONTINUOUS
 62
     7
 10
92.2549424373
 20
3.8046711683
 30
0.0
 11
88.2549343311
 21
3.8046711683
 31
0.0
  0
LINE
  5
27C
  8
0
  6
CONTINUOUS
 62
     7
 10
72.254937669
 20
-6.3953290135
 30
0.0
 11
72.254937669
 21
2.8046710044
 31
0.0
  0
LINE
  5
27D
  8
0
  6
CONTINUOUS
 62
     7
 10
108.2549390995
 20
-6.3953290135
 30
0.0
 11
108.2549390995
 21
2.8046710044
 31
0.0
  0
LINE
  5
27E
  8
0
  6
CONTINUOUS
 62
     7
 10
87.2549352848
 20
2.8046710044
 30
0.0
 11
87.2549352848
 21
4.8046709597
 31
0.0
  0
LINE
  5
27F
  8
0
  6
CONTINUOUS
 62
     7
 10
93.2549414837
 20
4.8046709597
 30
0.0
 11
93.2549414837
 21
2.8046710044
 31
0.0
  0
LINE
  5
280
  8
0
  6
CONTINUOUS
 62
     7
 10
72.254937669
 20
3.8046711683
 30
0.0
 11
87.2549352848
 21
3.8046711683
 31
0.0
  0
LINE
  5
281
  8
0
  6
CONTINUOUS
 62
     7
 10
72.254937669
 20
2.8046710044
 30
0.0
 11
72.254937669
 21
3.8046711683
 31
0.0
  0
LINE
  5
282
  8
0
  6
CONTINUOUS
 62
     7
 10
93.2549414837
 20
3.8046711683
 30
0.0
 11
108.2549390995
 21
3.8046711683
 31
0.0
  0
LINE
  5
283
  8
0
  6
CONTINUOUS
 62
     7
 10
108.2549390995
 20
3.8046711683
 30
0.0
 11
108.2549390995
 21
2.8046710044
 31
0.0
  0
LINE
  5
284
  8
0
  6
CONTINUOUS
 62
     7
 10
108.2549390995
 20
-7.3953291774
 30
0.0
 11
104.2287645542
 21
-7.3953291774
 31
0.0
  0
LINE
  5
285
  8
0
  6
CONTINUOUS
 62
     7
 10
76.2820182048
 20
-7.3953291774
 30
0.0
 11
72.254937669
 21
-7.3953291774
 31
0.0
  0
LINE
  5
286
  8
0
  6
CONTINUOUS
 62
     7
 10
72.254937669
 20
-7.3953291774
 30
0.0
 11
72.254937669
 21
-6.3953290135
 31
0.0
  0
LINE
  5
287
  8
0
  6
CONTINUOUS
 62
     7
 10
108.2549390995
 20
-6.3953290135
 30
0.0
 11
108.2549390995
 21
-7.3953291774
 31
0.0
  0
ARC
  5
288
  8
0
  6
CONTINUOUS
 62
     7
 10
345.8262412137
 20
15.3045543293
 30
0.0
 40
1.001319593307472
 50
30.2901250608
 51
90.0799817703
  0
LINE
  5
289
  8
0
  6
CONTINUOUS
 62
     7
 10
314.6850404941
 20
16.305872947
 30
0.0
 11
320.6753430568
 21
16.305872947
 31
0.0
  0
LINE
  5
28A
  8
0
  6
CONTINUOUS
 62
     7
 10
339.8345289432
 20
16.305872947
 30
0.0
 11
345.8248434269
 21
16.305872947
 31
0.0
  0
ARC
  5
28B
  8
0
  6
CONTINUOUS
 62
     7
 10
314.6836382254
 20
15.3045413814
 30
0.0
 40
1.001332547433202
 50
89.9197628116
 51
149.7094499025
  0
LINE
  5
28C
  8
0
  6
CONTINUOUS
 62
     7
 10
313.3360800945
 20
14.9793730676
 30
0.0
 11
313.8190088474
 21
15.8095987141
 31
0.0
  0
LINE
  5
28D
  8
0
  6
CONTINUOUS
 62
     7
 10
312.5343141758
 20
14.792086333
 30
0.0
 11
313.4725985729
 21
16.4051266015
 31
0.0
  0
ARC
  5
28E
  8
0
  6
CONTINUOUS
 62
     7
 10
314.3372279508
 20
15.9000692688
 30
0.0
 40
1.001332547433189
 50
89.9197628116
 51
149.7094499025
  0
LINE
  5
28F
  8
0
  6
CONTINUOUS
 62
     7
 10
314.3386302196
 20
16.9014008343
 30
0.0
 11
327.4571833812
 21
16.9014008343
 31
0.0
  0
ARC
  5
290
  8
0
  6
CONTINUOUS
 62
     7
 10
328.242717561
 20
17.5002787364
 30
0.0
 40
0.9877847382998578
 50
180.0227454777
 51
217.3212811101
  0
LINE
  5
291
  8
0
  6
CONTINUOUS
 62
     7
 10
327.2549329006
 20
17.4998866022
 30
0.0
 11
327.2549329006
 21
21.4700715244
 31
0.0
  0
ARC
  5
292
  8
0
  6
CONTINUOUS
 62
     7
 10
328.2512337701
 20
21.4663174213
 30
0.0
 40
0.9963079423292288
 50
89.7873243814
 51
179.7841081425
  0
LINE
  5
293
  8
0
  6
CONTINUOUS
 62
     7
 10
332.2549400531
 20
22.4626185
 30
0.0
 11
328.2549319469
 21
22.4626185
 31
0.0
  0
ARC
  5
294
  8
0
  6
CONTINUOUS
 62
     7
 10
332.2586431682
 20
21.4663223967
 30
0.0
 40
0.9963029853184552
 50
0.215606803
 51
90.212960673
  0
LINE
  5
295
  8
0
  6
CONTINUOUS
 62
     7
 10
333.2549390995
 20
17.4998866022
 30
0.0
 11
333.2549390995
 21
21.4700715244
 31
0.0
  0
ARC
  5
296
  8
0
  6
CONTINUOUS
 62
     7
 10
332.267154439
 20
17.5002787364
 30
0.0
 40
0.987784738299227
 50
322.6787188899
 51
359.9772545223
  0
LINE
  5
297
  8
0
  6
CONTINUOUS
 62
     7
 10
333.0526886188
 20
16.9014008343
 30
0.0
 11
346.1712537014
 21
16.9014008343
 31
0.0
  0
ARC
  5
298
  8
0
  6
CONTINUOUS
 62
     7
 10
346.1726514882
 20
15.9000822166
 30
0.0
 40
1.0013195933078
 50
30.2901250608
 51
90.0799817703
  0
LINE
  5
299
  8
0
  6
CONTINUOUS
 62
     7
 10
347.0372734272
 20
16.4051266015
 30
0.0
 11
347.9755578243
 21
14.792086333
 31
0.0
  0
LINE
  5
29A
  8
0
  6
CONTINUOUS
 62
     7
 10
346.6908631527
 20
15.8095987141
 30
0.0
 11
347.1737919056
 21
14.9793730676
 31
0.0
  0
ARC
  5
29B
  8
0
  6
CONTINUOUS
 62
     7
 10
314.6836351239
 20
14.5733289062
 30
0.0
 40
1.001328655991064
 50
89.9195850342
 51
149.7094792514
  0
ARC
  5
29C
  8
0
  6
CONTINUOUS
 62
     7
 10
345.8262443154
 20
14.5733418543
 30
0.0
 40
1.001315701579042
 50
30.2900957014
 51
90.0801595591
  0
LINE
  5
29D
  8
0
  6
CONTINUOUS
 62
     7
 10
314.6850404941
 20
15.5746565759
 30
0.0
 11
316.1035833561
 21
15.5746565759
 31
0.0
  0
LINE
  5
29E
  8
0
  6
CONTINUOUS
 62
     7
 10
344.4063005649
 20
15.5746565759
 30
0.0
 11
345.8248434269
 21
15.5746565759
 31
0.0
  0
LINE
  5
29F
  8
0
  6
CONTINUOUS
 62
     7
 10
333.2549390995
 20
17.4998866022
 30
0.0
 11
333.2549390995
 21
16.9014008343
 31
0.0
  0
LINE
  5
2A0
  8
0
  6
CONTINUOUS
 62
     7
 10
327.2549329006
 20
16.9014008343
 30
0.0
 11
327.2549329006
 21
17.4998866022
 31
0.0
  0
LINE
  5
2A1
  8
0
  6
CONTINUOUS
 62
     7
 10
327.2549329006
 20
5.2916394174
 30
0.0
 11
327.2549329006
 21
10.4956077039
 31
0.0
  0
LINE
  5
2A2
  8
0
  6
CONTINUOUS
 62
     7
 10
333.2549390995
 20
10.4956077039
 30
0.0
 11
333.2549390995
 21
5.2916394174
 31
0.0
  0
ARC
  5
2A3
  8
0
  6
CONTINUOUS
 62
     7
 10
328.2549371921
 20
4.8046709955
 30
0.0
 40
1.0
 50
180.0
 51
270.0
  0
LINE
  5
2A4
  8
0
  6
CONTINUOUS
 62
     7
 10
327.2549329006
 20
4.8046709597
 30
0.0
 11
327.2549329006
 21
5.2916394174
 31
0.0
  0
LINE
  5
2A5
  8
0
  6
CONTINUOUS
 62
     7
 10
332.2549400531
 20
3.8046711683
 30
0.0
 11
328.2549319469
 21
3.8046711683
 31
0.0
  0
ARC
  5
2A6
  8
0
  6
CONTINUOUS
 62
     7
 10
332.2549371921
 20
4.8046709955
 30
0.0
 40
1.0
 50
270.0
 51
0.0
  0
LINE
  5
2A7
  8
0
  6
CONTINUOUS
 62
     7
 10
333.2549390995
 20
5.2916394174
 30
0.0
 11
333.2549390995
 21
4.8046709597
 31
0.0
  0
LINE
  5
2A8
  8
0
  6
CONTINUOUS
 62
     7
 10
333.2549390995
 20
3.8046711683
 30
0.0
 11
348.2549367153
 21
3.8046711683
 31
0.0
  0
LINE
  5
2A9
  8
0
  6
CONTINUOUS
 62
     7
 10
348.2549367153
 20
3.8046711683
 30
0.0
 11
348.2549367153
 21
2.8046710044
 31
0.0
  0
LINE
  5
2AA
  8
0
  6
CONTINUOUS
 62
     7
 10
312.2549352848
 20
2.8046710044
 30
0.0
 11
312.2549352848
 21
3.8046711683
 31
0.0
  0
LINE
  5
2AB
  8
0
  6
CONTINUOUS
 62
     7
 10
312.2549352848
 20
3.8046711683
 30
0.0
 11
327.2549329006
 21
3.8046711683
 31
0.0
  0
LINE
  5
2AC
  8
0
  6
CONTINUOUS
 62
     7
 10
312.2549352848
 20
-6.3953290135
 30
0.0
 11
312.2549352848
 21
2.8046710044
 31
0.0
  0
LINE
  5
2AD
  8
0
  6
CONTINUOUS
 62
     7
 10
348.2549367153
 20
-6.3953290135
 30
0.0
 11
348.2549367153
 21
2.8046710044
 31
0.0
  0
LINE
  5
2AE
  8
0
  6
CONTINUOUS
 62
     7
 10
327.2549329006
 20
2.8046710044
 30
0.0
 11
327.2549329006
 21
4.8046709597
 31
0.0
  0
LINE
  5
2AF
  8
0
  6
CONTINUOUS
 62
     7
 10
333.2549390995
 20
4.8046709597
 30
0.0
 11
333.2549390995
 21
2.8046710044
 31
0.0
  0
LINE
  5
2B0
  8
0
  6
CONTINUOUS
 62
     7
 10
348.2549367153
 20
-7.3953291774
 30
0.0
 11
344.22876217
 21
-7.3953291774
 31
0.0
  0
LINE
  5
2B1
  8
0
  6
CONTINUOUS
 62
     7
 10
316.2820158207
 20
-7.3953291774
 30
0.0
 11
312.2549352848
 21
-7.3953291774
 31
0.0
  0
LINE
  5
2B2
  8
0
  6
CONTINUOUS
 62
     7
 10
312.2549352848
 20
-7.3953291774
 30
0.0
 11
312.2549352848
 21
-6.3953290135
 31
0.0
  0
LINE
  5
2B3
  8
0
  6
CONTINUOUS
 62
     7
 10
348.2549367153
 20
-6.3953290135
 30
0.0
 11
348.2549367153
 21
-7.3953291774
 31
0.0
  0
ARC
  5
2B4
  8
0
  6
CONTINUOUS
 62
     7
 10
225.8262374786
 20
15.3045483482
 30
0.0
 40
1.001325577889873
 50
30.2903213797
 51
90.0801256805
  0
LINE
  5
2B5
  8
0
  6
CONTINUOUS
 62
     7
 10
194.6850372159
 20
16.305872947
 30
0.0
 11
200.6753442489
 21
16.305872947
 31
0.0
  0
LINE
  5
2B6
  8
0
  6
CONTINUOUS
 62
     7
 10
219.8345301353
 20
16.305872947
 30
0.0
 11
225.8248371684
 21
16.305872947
 31
0.0
  0
ARC
  5
2B7
  8
0
  6
CONTINUOUS
 62
     7
 10
194.6836369056
 20
15.3045483482
 30
0.0
 40
1.001325577889768
 50
89.9198743195
 51
149.7096786203
  0
LINE
  5
2B8
  8
0
  6
CONTINUOUS
 62
     7
 10
193.3360797965
 20
14.9793730676
 30
0.0
 11
193.8190115296
 21
15.8095987141
 31
0.0
  0
LINE
  5
2B9
  8
0
  6
CONTINUOUS
 62
     7
 10
192.5343183481
 20
14.792086333
 30
0.0
 11
193.4726012551
 21
16.4051266015
 31
0.0
  0
ARC
  5
2BA
  8
0
  6
CONTINUOUS
 62
     7
 10
194.3372266311
 20
15.9000762356
 30
0.0
 40
1.001325577889802
 50
89.9198743195
 51
149.7096786203
  0
LINE
  5
2BB
  8
0
  6
CONTINUOUS
 62
     7
 10
194.3386269414
 20
16.9014008343
 30
0.0
 11
207.4571819656
 21
16.9014008343
 31
0.0
  0
ARC
  5
2BC
  8
0
  6
CONTINUOUS
 62
     7
 10
208.2426913852
 20
17.5002608391
 30
0.0
 40
0.9877541969110547
 50
180.0217080282
 51
217.3213262934
  0
LINE
  5
2BD
  8
0
  6
CONTINUOUS
 62
     7
 10
207.2549372592
 20
17.4998866022
 30
0.0
 11
207.2549372592
 21
21.4700715244
 31
0.0
  0
ARC
  5
2BE
  8
0
  6
CONTINUOUS
 62
     7
 10
208.2512254938
 20
21.4663301545
 30
0.0
 40
0.9962952596054866
 50
89.7865414901
 51
179.7848376744
  0
LINE
  5
2BF
  8
0
  6
CONTINUOUS
 62
     7
 10
212.2549371474
 20
22.4626185
 30
0.0
 11
208.2549372368
 21
22.4626185
 31
0.0
  0
ARC
  5
2C0
  8
0
  6
CONTINUOUS
 62
     7
 10
212.2586488904
 20
21.4663301545
 30
0.0
 40
0.9962952596054011
 50
0.2151623256
 51
90.2134585099
  0
LINE
  5
2C1
  8
0
  6
CONTINUOUS
 62
     7
 10
213.2549371251
 20
17.4998866022
 30
0.0
 11
213.2549371251
 21
21.4700715244
 31
0.0
  0
ARC
  5
2C2
  8
0
  6
CONTINUOUS
 62
     7
 10
212.267182999
 20
17.5002608391
 30
0.0
 40
0.9877541969109409
 50
322.6786737066
 51
359.9782919718
  0
LINE
  5
2C3
  8
0
  6
CONTINUOUS
 62
     7
 10
213.0526924186
 20
16.9014008343
 30
0.0
 11
226.1712474429
 21
16.9014008343
 31
0.0
  0
ARC
  5
2C4
  8
0
  6
CONTINUOUS
 62
     7
 10
226.1726477531
 20
15.9000762356
 30
0.0
 40
1.001325577889745
 50
30.2903213797
 51
90.0801256805
  0
LINE
  5
2C5
  8
0
  6
CONTINUOUS
 62
     7
 10
227.0372731291
 20
16.4051266015
 30
0.0
 11
227.9755560362
 21
14.792086333
 31
0.0
  0
LINE
  5
2C6
  8
0
  6
CONTINUOUS
 62
     7
 10
226.6908628546
 20
15.8095987141
 30
0.0
 11
227.1737945878
 21
14.9793730676
 31
0.0
  0
ARC
  5
2C7
  8
0
  6
CONTINUOUS
 62
     7
 10
194.683633804
 20
14.5733358732
 30
0.0
 40
1.001321686253497
 50
89.9196965346
 51
149.7097079762
  0
ARC
  5
2C8
  8
0
  6
CONTINUOUS
 62
     7
 10
225.8262405802
 20
14.5733358732
 30
0.0
 40
1.001321686253561
 50
30.2902920238
 51
90.0803034654
  0
LINE
  5
2C9
  8
0
  6
CONTINUOUS
 62
     7
 10
194.6850372159
 20
15.5746565759
 30
0.0
 11
196.1035785877
 21
15.5746565759
 31
0.0
  0
LINE
  5
2CA
  8
0
  6
CONTINUOUS
 62
     7
 10
224.4062957965
 20
15.5746565759
 30
0.0
 11
225.8248371684
 21
15.5746565759
 31
0.0
  0
LINE
  5
2CB
  8
0
  6
CONTINUOUS
 62
     7
 10
207.2549372592
 20
16.9014008343
 30
0.0
 11
207.2549372592
 21
17.4998866022
 31
0.0
  0
LINE
  5
2CC
  8
0
  6
CONTINUOUS
 62
     7
 10
213.2549371251
 20
17.4998866022
 30
0.0
 11
213.2549371251
 21
16.9014008343
 31
0.0
  0
LINE
  5
2CD
  8
0
  6
CONTINUOUS
 62
     7
 10
207.2549372592
 20
5.2916394174
 30
0.0
 11
207.2549372592
 21
10.4956077039
 31
0.0
  0
LINE
  5
2CE
  8
0
  6
CONTINUOUS
 62
     7
 10
213.2549371251
 20
10.4956077039
 30
0.0
 11
213.2549371251
 21
5.2916394174
 31
0.0
  0
ARC
  5
2CF
  8
0
  6
CONTINUOUS
 62
     7
 10
212.2549371921
 20
4.8046709955
 30
0.0
 40
1.0
 50
270.0
 51
0.0
  0
LINE
  5
2D0
  8
0
  6
CONTINUOUS
 62
     7
 10
213.2549371251
 20
5.2916394174
 30
0.0
 11
213.2549371251
 21
4.8046709597
 31
0.0
  0
LINE
  5
2D1
  8
0
  6
CONTINUOUS
 62
     7
 10
212.2549371474
 20
3.8046711683
 30
0.0
 11
208.2549372368
 21
3.8046711683
 31
0.0
  0
ARC
  5
2D2
  8
0
  6
CONTINUOUS
 62
     7
 10
208.2549371921
 20
4.8046709955
 30
0.0
 40
1.0
 50
180.0
 51
270.0
  0
LINE
  5
2D3
  8
0
  6
CONTINUOUS
 62
     7
 10
207.2549372592
 20
4.8046709597
 30
0.0
 11
207.2549372592
 21
5.2916394174
 31
0.0
  0
LINE
  5
2D4
  8
0
  6
CONTINUOUS
 62
     7
 10
192.2549364769
 20
-6.3953290135
 30
0.0
 11
192.2549364769
 21
2.8046710044
 31
0.0
  0
LINE
  5
2D5
  8
0
  6
CONTINUOUS
 62
     7
 10
228.2549379074
 20
-6.3953290135
 30
0.0
 11
228.2549379074
 21
2.8046710044
 31
0.0
  0
LINE
  5
2D6
  8
0
  6
CONTINUOUS
 62
     7
 10
213.2549371251
 20
4.8046709597
 30
0.0
 11
213.2549371251
 21
2.8046710044
 31
0.0
  0
LINE
  5
2D7
  8
0
  6
CONTINUOUS
 62
     7
 10
207.2549372592
 20
2.8046710044
 30
0.0
 11
207.2549372592
 21
4.8046709597
 31
0.0
  0
LINE
  5
2D8
  8
0
  6
CONTINUOUS
 62
     7
 10
192.2549364769
 20
3.8046711683
 30
0.0
 11
207.2549372592
 21
3.8046711683
 31
0.0
  0
LINE
  5
2D9
  8
0
  6
CONTINUOUS
 62
     7
 10
192.2549364769
 20
2.8046710044
 30
0.0
 11
192.2549364769
 21
3.8046711683
 31
0.0
  0
LINE
  5
2DA
  8
0
  6
CONTINUOUS
 62
     7
 10
213.2549371251
 20
3.8046711683
 30
0.0
 11
228.2549379074
 21
3.8046711683
 31
0.0
  0
LINE
  5
2DB
  8
0
  6
CONTINUOUS
 62
     7
 10
228.2549379074
 20
3.8046711683
 30
0.0
 11
228.2549379074
 21
2.8046710044
 31
0.0
  0
LINE
  5
2DC
  8
0
  6
CONTINUOUS
 62
     7
 10
228.2549379074
 20
-7.3953291774
 30
0.0
 11
224.2287678324
 21
-7.3953291774
 31
0.0
  0
LINE
  5
2DD
  8
0
  6
CONTINUOUS
 62
     7
 10
196.2820125424
 20
-7.3953291774
 30
0.0
 11
192.2549364769
 21
-7.3953291774
 31
0.0
  0
LINE
  5
2DE
  8
0
  6
CONTINUOUS
 62
     7
 10
192.2549364769
 20
-7.3953291774
 30
0.0
 11
192.2549364769
 21
-6.3953290135
 31
0.0
  0
LINE
  5
2DF
  8
0
  6
CONTINUOUS
 62
     7
 10
228.2549379074
 20
-6.3953290135
 30
0.0
 11
228.2549379074
 21
-7.3953291774
 31
0.0
  0
ARC
  5
2E0
  8
0
  6
CONTINUOUS
 62
     7
 10
62.1327050875
 20
-19.694786871
 30
0.0
 40
7.349221227328183
 50
115.901904995
 51
164.5641043464
  0
ARC
  5
2E1
  8
0
  6
CONTINUOUS
 62
     7
 10
90.254935404
 20
-79.3841130622
 30
0.0
 40
73.33115047861389
 50
64.7052203947
 51
115.2947796053
  0
ARC
  5
2E2
  8
0
  6
CONTINUOUS
 62
     7
 10
118.3932186924
 20
-19.6814367483
 30
0.0
 40
7.330204822447432
 50
15.3686942198
 51
64.1653831319
  0
POLYLINE
  5
2E3
  8
0
  6
CONTINUOUS
 62
     7
 66
     1
 10
0.0
 20
0.0
 30
0.0
  0
VERTEX
  5
9AB
  8
0
  6
CONTINUOUS
 62
     7
 10
125.4612801277
 20
-17.7387236059
 30
0.0
  0
VERTEX
  5
9AC
  8
0
  6
CONTINUOUS
 62
     7
 10
126.3783452713
 20
-21.0303275287
 30
0.0
  0
VERTEX
  5
9AD
  8
0
  6
CONTINUOUS
 62
     7
 10
126.9795236789
 20
-24.306602627
 30
0.0
  0
VERTEX
  5
9AE
  8
0
  6
CONTINUOUS
 62
     7
 10
127.3370442592
 20
-27.5987429917
 30
0.0
  0
VERTEX
  5
9AF
  8
0
  6
CONTINUOUS
 62
     7
 10
127.5517997944
 20
-30.8939261734
 30
0.0
  0
VERTEX
  5
9B0
  8
0
  6
CONTINUOUS
 62
     7
 10
127.6335475647
 20
-34.1921164095
 30
0.0
  0
VERTEX
  5
9B1
  8
0
  6
CONTINUOUS
 62
     7
 10
127.630382558
 20
-37.4929381907
 30
0.0
  0
VERTEX
  5
9B2
  8
0
  6
CONTINUOUS
 62
     7
 10
127.603280326
 20
-40.7932056487
 30
0.0
  0
VERTEX
  5
9B3
  8
0
  6
CONTINUOUS
 62
     7
 10
127.6011226379
 20
-44.0907223523
 30
0.0
  0
VERTEX
  5
9B4
  8
0
  6
CONTINUOUS
 62
     7
 10
127.6480612957
 20
-50.4108710587
 30
0.0
  0
VERTEX
  5
9B5
  8
0
  6
CONTINUOUS
 62
     7
 10
127.682149192
 20
-56.7316009104
 30
0.0
  0
VERTEX
  5
9B6
  8
0
  6
CONTINUOUS
 62
     7
 10
127.6911554538
 20
-62.9848314822
 30
0.0
  0
VERTEX
  5
9B7
  8
0
  6
CONTINUOUS
 62
     7
 10
127.6929733955
 20
-64.8295535147
 30
0.0
  0
VERTEX
  5
9B8
  8
0
  6
CONTINUOUS
 62
     7
 10
127.6974616253
 20
-66.6970802844
 30
0.0
  0
VERTEX
  5
9B9
  8
0
  6
CONTINUOUS
 62
     7
 10
127.7066586219
 20
-68.5924424231
 30
0.0
  0
VERTEX
  5
9BA
  8
0
  6
CONTINUOUS
 62
     7
 10
127.7226445877
 20
-70.5200089514
 30
0.0
  0
VERTEX
  5
9BB
  8
0
  6
CONTINUOUS
 62
     7
 10
127.7467427456
 20
-72.4885834753
 30
0.0
  0
SEQEND
  5
BD0
  8
0
  6
CONTINUOUS
 62
     7
  0
ARC
  5
2E4
  8
0
  6
CONTINUOUS
 62
     7
 10
121.026595946
 20
-72.6819345536
 30
0.0
 40
6.72292775856622
 50
275.3898914204
 51
1.6480511034
  0
ARC
  5
2E5
  8
0
  6
CONTINUOUS
 62
     7
 10
90.254935404
 20
260.5557837122
 30
0.0
 40
341.3783673145848
 50
264.7219385558
 51
275.2780614442
  0
ARC
  5
2E6
  8
0
  6
CONTINUOUS
 62
     7
 10
59.4732807066
 20
-72.6907765454
 30
0.0
 40
6.713192277529896
 50
178.2740607887
 51
264.6879410205
  0
POLYLINE
  5
2E7
  8
0
  6
CONTINUOUS
 62
     7
 66
     1
 10
0.0
 20
0.0
 30
0.0
  0
VERTEX
  5
9BC
  8
0
  6
CONTINUOUS
 62
     7
 10
52.7631340229
 20
-72.4885834753
 30
0.0
  0
VERTEX
  5
9BD
  8
0
  6
CONTINUOUS
 62
     7
 10
52.7914462291
 20
-70.0915588438
 30
0.0
  0
VERTEX
  5
9BE
  8
0
  6
CONTINUOUS
 62
     7
 10
52.8079924785
 20
-67.7518679202
 30
0.0
  0
VERTEX
  5
9BF
  8
0
  6
CONTINUOUS
 62
     7
 10
52.8157887661
 20
-65.4574646056
 30
0.0
  0
VERTEX
  5
9C0
  8
0
  6
CONTINUOUS
 62
     7
 10
52.8185782634
 20
-63.1995929778
 30
0.0
  0
VERTEX
  5
9C1
  8
0
  6
CONTINUOUS
 62
     7
 10
52.8199849331
 20
-60.9690620005
 30
0.0
  0
VERTEX
  5
9C2
  8
0
  6
CONTINUOUS
 62
     7
 10
52.8228936397
 20
-58.7416245043
 30
0.0
  0
VERTEX
  5
9C3
  8
0
  6
CONTINUOUS
 62
     7
 10
52.8284368717
 20
-56.5007223189
 30
0.0
  0
VERTEX
  5
9C4
  8
0
  6
CONTINUOUS
 62
     7
 10
52.8627572261
 20
-50.294662863
 30
0.0
  0
VERTEX
  5
9C5
  8
0
  6
CONTINUOUS
 62
     7
 10
52.9087481701
 20
-44.0907223523
 30
0.0
  0
VERTEX
  5
9C6
  8
0
  6
CONTINUOUS
 62
     7
 10
52.9065904819
 20
-40.7932056487
 30
0.0
  0
VERTEX
  5
9C7
  8
0
  6
CONTINUOUS
 62
     7
 10
52.8794942104
 20
-37.4929381907
 30
0.0
  0
VERTEX
  5
9C8
  8
0
  6
CONTINUOUS
 62
     7
 10
52.8763232433
 20
-34.1921164095
 30
0.0
  0
VERTEX
  5
9C9
  8
0
  6
CONTINUOUS
 62
     7
 10
52.9580769741
 20
-30.8939261734
 30
0.0
  0
VERTEX
  5
9CA
  8
0
  6
CONTINUOUS
 62
     7
 10
53.1728325092
 20
-27.5987429917
 30
0.0
  0
VERTEX
  5
9CB
  8
0
  6
CONTINUOUS
 62
     7
 10
53.5303530895
 20
-24.306602627
 30
0.0
  0
VERTEX
  5
9CC
  8
0
  6
CONTINUOUS
 62
     7
 10
54.1315255367
 20
-21.0303275287
 30
0.0
  0
VERTEX
  5
9CD
  8
0
  6
CONTINUOUS
 62
     7
 10
55.0485906803
 20
-17.7387236059
 30
0.0
  0
SEQEND
  5
BCF
  8
0
  6
CONTINUOUS
 62
     7
  0
ARC
  5
2E8
  8
0
  6
CONTINUOUS
 62
     7
 10
90.254935404
 20
-79.3718329019
 30
0.0
 40
73.339706205994
 50
64.3650307858
 51
115.6349692142
  0
ARC
  5
2E9
  8
0
  6
CONTINUOUS
 62
     7
 10
118.7287138659
 20
-19.8574951323
 30
0.0
 40
7.365063780396366
 50
15.5445901336
 51
63.7661300822
  0
ARC
  5
2EA
  8
0
  6
CONTINUOUS
 62
     7
 10
61.7633400442
 20
-19.8427266928
 30
0.0
 40
7.343946902241004
 50
116.16011569
 51
164.5291640942
  0
POLYLINE
  5
2EB
  8
0
  6
CONTINUOUS
 62
     7
 66
     1
 10
0.0
 20
0.0
 30
0.0
  0
VERTEX
  5
9CE
  8
0
  6
CONTINUOUS
 62
     7
 10
125.8243797027
 20
-17.8837446868
 30
0.0
  0
VERTEX
  5
9CF
  8
0
  6
CONTINUOUS
 62
     7
 10
126.2582955562
 20
-19.3968994915
 30
0.0
  0
VERTEX
  5
9D0
  8
0
  6
CONTINUOUS
 62
     7
 10
126.6562698089
 20
-20.9100572765
 30
0.0
  0
SEQEND
  5
BCE
  8
0
  6
CONTINUOUS
 62
     7
  0
ARC
  5
2EC
  8
0
  6
CONTINUOUS
 62
     7
 10
68.0136376942
 20
-32.852022318
 30
0.0
 40
59.84602014344697
 50
6.6420820492
 51
11.5103020782
  0
POLYLINE
  5
2ED
  8
0
  6
CONTINUOUS
 62
     7
 66
     1
 10
0.0
 20
0.0
 30
0.0
  0
VERTEX
  5
9D1
  8
0
  6
CONTINUOUS
 62
     7
 10
127.4576900207
 20
-25.9298591316
 30
0.0
  0
VERTEX
  5
9D2
  8
0
  6
CONTINUOUS
 62
     7
 10
127.6819584571
 20
-28.4332795441
 30
0.0
  0
VERTEX
  5
9D3
  8
0
  6
CONTINUOUS
 62
     7
 10
127.8264639579
 20
-30.9370262921
 30
0.0
  0
SEQEND
  5
BCD
  8
0
  6
CONTINUOUS
 62
     7
  0
LINE
  5
2EE
  8
0
  6
CONTINUOUS
 62
     7
 10
127.8549370968
 20
-32.7898962796
 30
0.0
 11
127.8261122905
 21
-30.9370411932
 31
0.0
  0
LINE
  5
2EF
  8
0
  6
CONTINUOUS
 62
     7
 10
127.8549370968
 20
-40.901453644
 30
0.0
 11
127.8549370968
 21
-32.7898962796
 31
0.0
  0
POLYLINE
  5
2F0
  8
0
  6
CONTINUOUS
 62
     7
 66
     1
 10
0.0
 20
0.0
 30
0.0
  0
VERTEX
  5
9D4
  8
0
  6
CONTINUOUS
 62
     7
 10
127.8549370968
 20
-40.9014357626
 30
0.0
  0
VERTEX
  5
9D5
  8
0
  6
CONTINUOUS
 62
     7
 10
127.8402266704
 20
-44.0732999146
 30
0.0
  0
VERTEX
  5
9D6
  8
0
  6
CONTINUOUS
 62
     7
 10
127.8549430572
 20
-50.901324898
 30
0.0
  0
SEQEND
  5
BCC
  8
0
  6
CONTINUOUS
 62
     7
  0
POLYLINE
  5
2F1
  8
0
  6
CONTINUOUS
 62
     7
 66
     1
 10
0.0
 20
0.0
 30
0.0
  0
VERTEX
  5
9D7
  8
0
  6
CONTINUOUS
 62
     7
 10
127.8550086223
 20
-72.5557996333
 30
0.0
  0
VERTEX
  5
9D8
  8
0
  6
CONTINUOUS
 62
     7
 10
127.8550086223
 20
-72.2478581965
 30
0.0
  0
VERTEX
  5
9D9
  8
0
  6
CONTINUOUS
 62
     7
 10
127.8547940456
 20
-69.8360098898
 30
0.0
  0
VERTEX
  5
9DA
  8
0
  6
CONTINUOUS
 62
     7
 10
127.8543172084
 20
-67.45145455
 30
0.0
  0
VERTEX
  5
9DB
  8
0
  6
CONTINUOUS
 62
     7
 10
127.853965541
 20
-65.0881065428
 30
0.0
  0
VERTEX
  5
9DC
  8
0
  6
CONTINUOUS
 62
     7
 10
127.8552828037
 20
-60.3792561591
 30
0.0
  0
VERTEX
  5
9DD
  8
0
  6
CONTINUOUS
 62
     7
 10
127.8587577545
 20
-55.6453539431
 30
0.0
  0
VERTEX
  5
9DE
  8
0
  6
CONTINUOUS
 62
     7
 10
127.8549370968
 20
-50.901324898
 30
0.0
  0
SEQEND
  5
BCB
  8
0
  6
CONTINUOUS
 62
     7
  0
LINE
  5
2F2
  8
0
  6
CONTINUOUS
 62
     7
 10
52.6549396717
 20
-50.901324898
 30
0.0
 11
52.6549396717
 21
-60.899169594
 31
0.0
  0
POLYLINE
  5
2F3
  8
0
  6
CONTINUOUS
 62
     7
 66
     1
 10
0.0
 20
0.0
 30
0.0
  0
VERTEX
  5
9DF
  8
0
  6
CONTINUOUS
 62
     7
 10
52.6549396717
 20
-50.901324898
 30
0.0
  0
VERTEX
  5
9E0
  8
0
  6
CONTINUOUS
 62
     7
 10
52.669650098
 20
-44.0732999146
 30
0.0
  0
VERTEX
  5
9E1
  8
0
  6
CONTINUOUS
 62
     7
 10
52.6549396717
 20
-40.9014357626
 30
0.0
  0
SEQEND
  5
BCA
  8
0
  6
CONTINUOUS
 62
     7
  0
LINE
  5
2F4
  8
0
  6
CONTINUOUS
 62
     7
 10
52.6549396717
 20
-32.7898962796
 30
0.0
 11
52.6549396717
 21
-40.901453644
 31
0.0
  0
LINE
  5
2F5
  8
0
  6
CONTINUOUS
 62
     7
 10
52.6837644779
 20
-30.9370411932
 30
0.0
 11
52.6549396717
 21
-32.7898962796
 31
0.0
  0
POLYLINE
  5
2F6
  8
0
  6
CONTINUOUS
 62
     7
 66
     1
 10
0.0
 20
0.0
 30
0.0
  0
VERTEX
  5
9E2
  8
0
  6
CONTINUOUS
 62
     7
 10
52.6834187709
 20
-30.9370262921
 30
0.0
  0
VERTEX
  5
9E3
  8
0
  6
CONTINUOUS
 62
     7
 10
52.8279242717
 20
-28.4332795441
 30
0.0
  0
VERTEX
  5
9E4
  8
0
  6
CONTINUOUS
 62
     7
 10
53.0521807872
 20
-25.9298591316
 30
0.0
  0
SEQEND
  5
BC9
  8
0
  6
CONTINUOUS
 62
     7
  0
ARC
  5
2F7
  8
0
  6
CONTINUOUS
 62
     7
 10
112.4514535824
 20
-32.8449384617
 30
0.0
 40
59.80072183118431
 50
168.4877862107
 51
173.3596969809
  0
POLYLINE
  5
2F8
  8
0
  6
CONTINUOUS
 62
     7
 66
     1
 10
0.0
 20
0.0
 30
0.0
  0
VERTEX
  5
9E5
  8
0
  6
CONTINUOUS
 62
     7
 10
53.8549361431
 20
-20.9044678509
 30
0.0
  0
VERTEX
  5
9E6
  8
0
  6
CONTINUOUS
 62
     7
 10
54.2523679935
 20
-19.3941040337
 30
0.0
  0
VERTEX
  5
9E7
  8
0
  6
CONTINUOUS
 62
     7
 10
54.6854911052
 20
-17.8837446868
 30
0.0
  0
SEQEND
  5
BC8
  8
0
  6
CONTINUOUS
 62
     7
  0
POLYLINE
  5
2F9
  8
0
  6
CONTINUOUS
 62
     7
 66
     1
 10
0.0
 20
0.0
 30
0.0
  0
VERTEX
  5
9E8
  8
0
  6
CONTINUOUS
 62
     7
 10
52.6548681461
 20
-72.5548519194
 30
0.0
  0
VERTEX
  5
9E9
  8
0
  6
CONTINUOUS
 62
     7
 10
52.6548681461
 20
-72.5295259058
 30
0.0
  0
VERTEX
  5
9EA
  8
0
  6
CONTINUOUS
 62
     7
 10
52.6550350391
 20
-70.1165153086
 30
0.0
  0
VERTEX
  5
9EB
  8
0
  6
CONTINUOUS
 62
     7
 10
52.6554999553
 20
-67.7280499041
 30
0.0
  0
VERTEX
  5
9EC
  8
0
  6
CONTINUOUS
 62
     7
 10
52.655893346
 20
-65.3621329367
 30
0.0
  0
VERTEX
  5
9ED
  8
0
  6
CONTINUOUS
 62
     7
 10
52.6557860576
 20
-63.0073083937
 30
0.0
  0
VERTEX
  5
9EE
  8
0
  6
CONTINUOUS
 62
     7
 10
52.6549396717
 20
-60.899169594
 30
0.0
  0
SEQEND
  5
BC7
  8
0
  6
CONTINUOUS
 62
     7
  0
ARC
  5
2FA
  8
0
  6
CONTINUOUS
 62
     7
 10
121.2105223146
 20
-72.6924408
 30
0.0
 40
6.645891144309237
 50
292.5444205985
 51
1.1780984191
  0
ARC
  5
2FB
  8
0
  6
CONTINUOUS
 62
     7
 10
59.3023878113
 20
-72.6884634762
 30
0.0
 40
6.648862289679426
 50
178.8485408031
 51
250.6418715343
  0
LINE
  5
2FC
  8
0
  6
CONTINUOUS
 62
     7
 10
127.4549362861
 20
-25.9037061036
 30
0.0
 11
127.457976123
 21
-25.929826349
 31
0.0
  0
POLYLINE
  5
2FD
  8
0
  6
CONTINUOUS
 62
     7
 66
     1
 10
0.0
 20
0.0
 30
0.0
  0
VERTEX
  5
9EF
  8
0
  6
CONTINUOUS
 62
     7
 10
126.6560850345
 20
-20.9101004899
 30
0.0
  0
VERTEX
  5
9F0
  8
0
  6
CONTINUOUS
 62
     7
 10
127.1082697116
 20
-23.3959658444
 30
0.0
  0
VERTEX
  5
9F1
  8
0
  6
CONTINUOUS
 62
     7
 10
127.4549362861
 20
-25.9037061036
 30
0.0
  0
SEQEND
  5
BC6
  8
0
  6
CONTINUOUS
 62
     7
  0
POLYLINE
  5
2FE
  8
0
  6
CONTINUOUS
 62
     7
 66
     1
 10
0.0
 20
0.0
 30
0.0
  0
VERTEX
  5
9F2
  8
0
  6
CONTINUOUS
 62
     7
 10
53.0549345218
 20
-25.9037061036
 30
0.0
  0
VERTEX
  5
9F3
  8
0
  6
CONTINUOUS
 62
     7
 10
53.4008679592
 20
-23.4005643427
 30
0.0
  0
VERTEX
  5
9F4
  8
0
  6
CONTINUOUS
 62
     7
 10
53.8537917339
 20
-20.9101004899
 30
0.0
  0
SEQEND
  5
BC5
  8
0
  6
CONTINUOUS
 62
     7
  0
LINE
  5
2FF
  8
0
  6
CONTINUOUS
 62
     7
 10
53.0518946849
 20
-25.929826349
 30
0.0
 11
53.0549345218
 21
-25.9037061036
 31
0.0
  0
LINE
  5
300
  8
0
  6
CONTINUOUS
 62
     7
 10
127.8261122905
 20
-30.9370411932
 30
0.0
 11
127.8549370968
 21
-32.787732631
 31
0.0
  0
LINE
  5
301
  8
0
  6
CONTINUOUS
 62
     7
 10
52.6549396717
 20
-32.787732631
 30
0.0
 11
52.6837644779
 21
-30.9370411932
 31
0.0
  0
ARC
  5
302
  8
0
  6
CONTINUOUS
 62
     7
 10
210.2549371921
 20
-79.3718193782
 30
0.0
 40
73.33969272412413
 50
64.365028314
 51
115.634971686
  0
ARC
  5
303
  8
0
  6
CONTINUOUS
 62
     7
 10
210.2549371921
 20
-79.3840971321
 30
0.0
 40
73.33113480251554
 50
64.7052171818
 51
115.2947828182
  0
ARC
  5
304
  8
0
  6
CONTINUOUS
 62
     7
 10
182.1327176162
 20
-19.6948069358
 30
0.0
 40
7.349242666434302
 50
115.9018910856
 51
164.5639882162
  0
ARC
  5
305
  8
0
  6
CONTINUOUS
 62
     7
 10
238.3932026016
 20
-19.6814536722
 30
0.0
 40
7.330226547465887
 50
15.3687847357
 51
64.1653359624
  0
POLYLINE
  5
306
  8
0
  6
CONTINUOUS
 62
     7
 66
     1
 10
0.0
 20
0.0
 30
0.0
  0
VERTEX
  5
9F5
  8
0
  6
CONTINUOUS
 62
     7
 10
245.4612819158
 20
-17.7387236059
 30
0.0
  0
VERTEX
  5
9F6
  8
0
  6
CONTINUOUS
 62
     7
 10
246.3783470594
 20
-21.0303275287
 30
0.0
  0
VERTEX
  5
9F7
  8
0
  6
CONTINUOUS
 62
     7
 10
246.9795224868
 20
-24.306602627
 30
0.0
  0
VERTEX
  5
9F8
  8
0
  6
CONTINUOUS
 62
     7
 10
247.3370430671
 20
-27.5987429917
 30
0.0
  0
VERTEX
  5
9F9
  8
0
  6
CONTINUOUS
 62
     7
 10
247.5518015825
 20
-30.8939261734
 30
0.0
  0
VERTEX
  5
9FA
  8
0
  6
CONTINUOUS
 62
     7
 10
247.6335493528
 20
-34.1921164095
 30
0.0
  0
VERTEX
  5
9FB
  8
0
  6
CONTINUOUS
 62
     7
 10
247.6303843462
 20
-37.4929381907
 30
0.0
  0
VERTEX
  5
9FC
  8
0
  6
CONTINUOUS
 62
     7
 10
247.6032821142
 20
-40.7932056487
 30
0.0
  0
VERTEX
  5
9FD
  8
0
  6
CONTINUOUS
 62
     7
 10
247.601124426
 20
-44.0907223523
 30
0.0
  0
VERTEX
  5
9FE
  8
0
  6
CONTINUOUS
 62
     7
 10
247.6480601036
 20
-50.4108710587
 30
0.0
  0
VERTEX
  5
9FF
  8
0
  6
CONTINUOUS
 62
     7
 10
247.6821509802
 20
-56.7316009104
 30
0.0
  0
VERTEX
  5
A00
  8
0
  6
CONTINUOUS
 62
     7
 10
247.6911542617
 20
-62.9848314822
 30
0.0
  0
VERTEX
  5
A01
  8
0
  6
CONTINUOUS
 62
     7
 10
247.6929722034
 20
-64.8295535147
 30
0.0
  0
VERTEX
  5
A02
  8
0
  6
CONTINUOUS
 62
     7
 10
247.6974604332
 20
-66.6970802844
 30
0.0
  0
VERTEX
  5
A03
  8
0
  6
CONTINUOUS
 62
     7
 10
247.7066574299
 20
-68.5924424231
 30
0.0
  0
VERTEX
  5
A04
  8
0
  6
CONTINUOUS
 62
     7
 10
247.7226433956
 20
-70.5200089514
 30
0.0
  0
VERTEX
  5
A05
  8
0
  6
CONTINUOUS
 62
     7
 10
247.7467415535
 20
-72.4885834753
 30
0.0
  0
SEQEND
  5
BC4
  8
0
  6
CONTINUOUS
 62
     7
  0
ARC
  5
307
  8
0
  6
CONTINUOUS
 62
     7
 10
241.0265941212
 20
-72.6819342675
 30
0.0
 40
6.722928382776477
 50
275.3899218463
 51
1.6480485111
  0
ARC
  5
308
  8
0
  6
CONTINUOUS
 62
     7
 10
210.2549371921
 20
260.5558058492
 30
0.0
 40
341.378389357681
 50
264.7219388975
 51
275.2780611025
  0
ARC
  5
309
  8
0
  6
CONTINUOUS
 62
     7
 10
179.4732862201
 20
-72.6907703478
 30
0.0
 40
6.713198793403702
 50
178.2741153836
 51
264.6879142591
  0
POLYLINE
  5
30A
  8
0
  6
CONTINUOUS
 62
     7
 66
     1
 10
0.0
 20
0.0
 30
0.0
  0
VERTEX
  5
A06
  8
0
  6
CONTINUOUS
 62
     7
 10
172.7631328308
 20
-72.4885834753
 30
0.0
  0
VERTEX
  5
A07
  8
0
  6
CONTINUOUS
 62
     7
 10
172.7914509975
 20
-70.0915588438
 30
0.0
  0
VERTEX
  5
A08
  8
0
  6
CONTINUOUS
 62
     7
 10
172.8079912864
 20
-67.7518679202
 30
0.0
  0
VERTEX
  5
A09
  8
0
  6
CONTINUOUS
 62
     7
 10
172.815787574
 20
-65.4574646056
 30
0.0
  0
VERTEX
  5
A0A
  8
0
  6
CONTINUOUS
 62
     7
 10
172.8185800516
 20
-63.1995929778
 30
0.0
  0
VERTEX
  5
A0B
  8
0
  6
CONTINUOUS
 62
     7
 10
172.8199807607
 20
-60.9690620005
 30
0.0
  0
VERTEX
  5
A0C
  8
0
  6
CONTINUOUS
 62
     7
 10
172.8228924476
 20
-58.7416245043
 30
0.0
  0
VERTEX
  5
A0D
  8
0
  6
CONTINUOUS
 62
     7
 10
172.8284326994
 20
-56.5007223189
 30
0.0
  0
VERTEX
  5
A0E
  8
0
  6
CONTINUOUS
 62
     7
 10
172.8627590143
 20
-50.294662863
 30
0.0
  0
VERTEX
  5
A0F
  8
0
  6
CONTINUOUS
 62
     7
 10
172.9087499582
 20
-44.0907223523
 30
0.0
  0
VERTEX
  5
A10
  8
0
  6
CONTINUOUS
 62
     7
 10
172.9065922701
 20
-40.7932056487
 30
0.0
  0
VERTEX
  5
A11
  8
0
  6
CONTINUOUS
 62
     7
 10
172.8794900381
 20
-37.4929381907
 30
0.0
  0
VERTEX
  5
A12
  8
0
  6
CONTINUOUS
 62
     7
 10
172.8763250314
 20
-34.1921164095
 30
0.0
  0
VERTEX
  5
A13
  8
0
  6
CONTINUOUS
 62
     7
 10
172.9580728017
 20
-30.8939261734
 30
0.0
  0
VERTEX
  5
A14
  8
0
  6
CONTINUOUS
 62
     7
 10
173.1728313171
 20
-27.5987429917
 30
0.0
  0
VERTEX
  5
A15
  8
0
  6
CONTINUOUS
 62
     7
 10
173.5303518974
 20
-24.306602627
 30
0.0
  0
VERTEX
  5
A16
  8
0
  6
CONTINUOUS
 62
     7
 10
174.1315273248
 20
-21.0303275287
 30
0.0
  0
VERTEX
  5
A17
  8
0
  6
CONTINUOUS
 62
     7
 10
175.0485924684
 20
-17.7387236059
 30
0.0
  0
SEQEND
  5
BC3
  8
0
  6
CONTINUOUS
 62
     7
  0
ARC
  5
30B
  8
0
  6
CONTINUOUS
 62
     7
 10
238.7287244673
 20
-19.8574899214
 30
0.0
 40
7.365053893038959
 50
15.544569452
 51
63.7661944591
  0
ARC
  5
30C
  8
0
  6
CONTINUOUS
 62
     7
 10
181.7633015184
 20
-19.8426953594
 30
0.0
 40
7.343899690940268
 50
116.159920293
 51
164.5293157959
  0
POLYLINE
  5
30D
  8
0
  6
CONTINUOUS
 62
     7
 66
     1
 10
0.0
 20
0.0
 30
0.0
  0
VERTEX
  5
A18
  8
0
  6
CONTINUOUS
 62
     7
 10
245.8243814909
 20
-17.8837446868
 30
0.0
  0
VERTEX
  5
A19
  8
0
  6
CONTINUOUS
 62
     7
 10
246.2582973444
 20
-19.3968994915
 30
0.0
  0
VERTEX
  5
A1A
  8
0
  6
CONTINUOUS
 62
     7
 10
246.6562686168
 20
-20.9100572765
 30
0.0
  0
SEQEND
  5
BC2
  8
0
  6
CONTINUOUS
 62
     7
  0
ARC
  5
30E
  8
0
  6
CONTINUOUS
 62
     7
 10
188.0099593485
 20
-32.8526102116
 30
0.0
 40
59.84974357644771
 50
6.6422335737
 51
11.5101505537
  0
POLYLINE
  5
30F
  8
0
  6
CONTINUOUS
 62
     7
 66
     1
 10
0.0
 20
0.0
 30
0.0
  0
VERTEX
  5
A1B
  8
0
  6
CONTINUOUS
 62
     7
 10
247.4576918089
 20
-25.9298591316
 30
0.0
  0
VERTEX
  5
A1C
  8
0
  6
CONTINUOUS
 62
     7
 10
247.6819542848
 20
-28.4332795441
 30
0.0
  0
VERTEX
  5
A1D
  8
0
  6
CONTINUOUS
 62
     7
 10
247.8264627658
 20
-30.9370262921
 30
0.0
  0
SEQEND
  5
BC1
  8
0
  6
CONTINUOUS
 62
     7
  0
LINE
  5
310
  8
0
  6
CONTINUOUS
 62
     7
 10
247.8549359047
 20
-32.7898962796
 30
0.0
 11
247.8261140787
 21
-30.9370411932
 31
0.0
  0
LINE
  5
311
  8
0
  6
CONTINUOUS
 62
     7
 10
247.8549359047
 20
-40.901453644
 30
0.0
 11
247.8549359047
 21
-32.7898962796
 31
0.0
  0
POLYLINE
  5
312
  8
0
  6
CONTINUOUS
 62
     7
 66
     1
 10
0.0
 20
0.0
 30
0.0
  0
VERTEX
  5
A1E
  8
0
  6
CONTINUOUS
 62
     7
 10
247.8549359047
 20
-40.9014357626
 30
0.0
  0
VERTEX
  5
A1F
  8
0
  6
CONTINUOUS
 62
     7
 10
247.8402284586
 20
-44.0732999146
 30
0.0
  0
VERTEX
  5
A20
  8
0
  6
CONTINUOUS
 62
     7
 10
247.8549418651
 20
-50.901324898
 30
0.0
  0
SEQEND
  5
BC0
  8
0
  6
CONTINUOUS
 62
     7
  0
POLYLINE
  5
313
  8
0
  6
CONTINUOUS
 62
     7
 66
     1
 10
0.0
 20
0.0
 30
0.0
  0
VERTEX
  5
A21
  8
0
  6
CONTINUOUS
 62
     7
 10
247.8550074302
 20
-72.5557996333
 30
0.0
  0
VERTEX
  5
A22
  8
0
  6
CONTINUOUS
 62
     7
 10
247.8550074302
 20
-72.2478581965
 30
0.0
  0
VERTEX
  5
A23
  8
0
  6
CONTINUOUS
 62
     7
 10
247.8547928535
 20
-69.8360098898
 30
0.0
  0
VERTEX
  5
A24
  8
0
  6
CONTINUOUS
 62
     7
 10
247.8543160164
 20
-67.45145455
 30
0.0
  0
VERTEX
  5
A25
  8
0
  6
CONTINUOUS
 62
     7
 10
247.8539643489
 20
-65.0881065428
 30
0.0
  0
VERTEX
  5
A26
  8
0
  6
CONTINUOUS
 62
     7
 10
247.8552845918
 20
-60.3792561591
 30
0.0
  0
VERTEX
  5
A27
  8
0
  6
CONTINUOUS
 62
     7
 10
247.8587595426
 20
-55.6453539431
 30
0.0
  0
VERTEX
  5
A28
  8
0
  6
CONTINUOUS
 62
     7
 10
247.8549359047
 20
-50.901324898
 30
0.0
  0
SEQEND
  5
BBF
  8
0
  6
CONTINUOUS
 62
     7
  0
LINE
  5
314
  8
0
  6
CONTINUOUS
 62
     7
 10
172.6549384796
 20
-50.901324898
 30
0.0
 11
172.6549384796
 21
-60.899169594
 31
0.0
  0
POLYLINE
  5
315
  8
0
  6
CONTINUOUS
 62
     7
 66
     1
 10
0.0
 20
0.0
 30
0.0
  0
VERTEX
  5
A29
  8
0
  6
CONTINUOUS
 62
     7
 10
172.6549325191
 20
-50.901324898
 30
0.0
  0
VERTEX
  5
A2A
  8
0
  6
CONTINUOUS
 62
     7
 10
172.6696459257
 20
-44.0732999146
 30
0.0
  0
VERTEX
  5
A2B
  8
0
  6
CONTINUOUS
 62
     7
 10
172.6549384796
 20
-40.9014357626
 30
0.0
  0
SEQEND
  5
BBE
  8
0
  6
CONTINUOUS
 62
     7
  0
LINE
  5
316
  8
0
  6
CONTINUOUS
 62
     7
 10
172.6549384796
 20
-32.7898962796
 30
0.0
 11
172.6549384796
 21
-40.901453644
 31
0.0
  0
LINE
  5
317
  8
0
  6
CONTINUOUS
 62
     7
 10
172.6837603056
 20
-30.9370411932
 30
0.0
 11
172.6549384796
 21
-32.7898962796
 31
0.0
  0
POLYLINE
  5
318
  8
0
  6
CONTINUOUS
 62
     7
 66
     1
 10
0.0
 20
0.0
 30
0.0
  0
VERTEX
  5
A2C
  8
0
  6
CONTINUOUS
 62
     7
 10
172.6834116184
 20
-30.9370262921
 30
0.0
  0
VERTEX
  5
A2D
  8
0
  6
CONTINUOUS
 62
     7
 10
172.8279200994
 20
-28.4332795441
 30
0.0
  0
VERTEX
  5
A2E
  8
0
  6
CONTINUOUS
 62
     7
 10
173.0521825754
 20
-25.9298591316
 30
0.0
  0
SEQEND
  5
BBD
  8
0
  6
CONTINUOUS
 62
     7
  0
ARC
  5
319
  8
0
  6
CONTINUOUS
 62
     7
 10
232.4552581419
 20
-32.8454763671
 30
0.0
 40
59.80456129353679
 50
168.488009485
 51
173.3596063875
  0
POLYLINE
  5
31A
  8
0
  6
CONTINUOUS
 62
     7
 66
     1
 10
0.0
 20
0.0
 30
0.0
  0
VERTEX
  5
A2F
  8
0
  6
CONTINUOUS
 62
     7
 10
173.8549379312
 20
-20.9044678509
 30
0.0
  0
VERTEX
  5
A30
  8
0
  6
CONTINUOUS
 62
     7
 10
174.2523638212
 20
-19.3941040337
 30
0.0
  0
VERTEX
  5
A31
  8
0
  6
CONTINUOUS
 62
     7
 10
174.6854928934
 20
-17.8837446868
 30
0.0
  0
SEQEND
  5
BBC
  8
0
  6
CONTINUOUS
 62
     7
  0
POLYLINE
  5
31B
  8
0
  6
CONTINUOUS
 62
     7
 66
     1
 10
0.0
 20
0.0
 30
0.0
  0
VERTEX
  5
A32
  8
0
  6
CONTINUOUS
 62
     7
 10
172.654866954
 20
-72.5548519194
 30
0.0
  0
VERTEX
  5
A33
  8
0
  6
CONTINUOUS
 62
     7
 10
172.654866954
 20
-72.5295259058
 30
0.0
  0
VERTEX
  5
A34
  8
0
  6
CONTINUOUS
 62
     7
 10
172.6550368272
 20
-70.1165153086
 30
0.0
  0
VERTEX
  5
A35
  8
0
  6
CONTINUOUS
 62
     7
 10
172.6555017435
 20
-67.7280499041
 30
0.0
  0
VERTEX
  5
A36
  8
0
  6
CONTINUOUS
 62
     7
 10
172.6558861934
 20
-65.3621329367
 30
0.0
  0
VERTEX
  5
A37
  8
0
  6
CONTINUOUS
 62
     7
 10
172.6557848655
 20
-63.0073083937
 30
0.0
  0
VERTEX
  5
A38
  8
0
  6
CONTINUOUS
 62
     7
 10
172.6549384796
 20
-60.899169594
 30
0.0
  0
SEQEND
  5
BBB
  8
0
  6
CONTINUOUS
 62
     7
  0
ARC
  5
31C
  8
0
  6
CONTINUOUS
 62
     7
 10
241.2105258284
 20
-72.6924438723
 30
0.0
 40
6.645886502542963
 50
292.544393283
 51
1.1781257346
  0
ARC
  5
31D
  8
0
  6
CONTINUOUS
 62
     7
 10
179.3023938152
 20
-72.6884595103
 30
0.0
 40
6.648869404511433
 50
178.8485762181
 51
250.641800128
  0
LINE
  5
31E
  8
0
  6
CONTINUOUS
 62
     7
 10
247.4549380743
 20
-25.9037061036
 30
0.0
 11
247.4579779112
 21
-25.929826349
 31
0.0
  0
POLYLINE
  5
31F
  8
0
  6
CONTINUOUS
 62
     7
 66
     1
 10
0.0
 20
0.0
 30
0.0
  0
VERTEX
  5
A39
  8
0
  6
CONTINUOUS
 62
     7
 10
246.6560868227
 20
-20.9101004899
 30
0.0
  0
VERTEX
  5
A3A
  8
0
  6
CONTINUOUS
 62
     7
 10
247.1082714998
 20
-23.3959658444
 30
0.0
  0
VERTEX
  5
A3B
  8
0
  6
CONTINUOUS
 62
     7
 10
247.4549380743
 20
-25.9037061036
 30
0.0
  0
SEQEND
  5
BBA
  8
0
  6
CONTINUOUS
 62
     7
  0
POLYLINE
  5
320
  8
0
  6
CONTINUOUS
 62
     7
 66
     1
 10
0.0
 20
0.0
 30
0.0
  0
VERTEX
  5
A3C
  8
0
  6
CONTINUOUS
 62
     7
 10
173.05493631
 20
-25.9037061036
 30
0.0
  0
VERTEX
  5
A3D
  8
0
  6
CONTINUOUS
 62
     7
 10
173.4008667671
 20
-23.4005643427
 30
0.0
  0
VERTEX
  5
A3E
  8
0
  6
CONTINUOUS
 62
     7
 10
173.8537875616
 20
-20.9101004899
 30
0.0
  0
SEQEND
  5
BB9
  8
0
  6
CONTINUOUS
 62
     7
  0
LINE
  5
321
  8
0
  6
CONTINUOUS
 62
     7
 10
173.0518964731
 20
-25.929826349
 30
0.0
 11
173.05493631
 21
-25.9037061036
 31
0.0
  0
LINE
  5
322
  8
0
  6
CONTINUOUS
 62
     7
 10
247.8261140787
 20
-30.9370411932
 30
0.0
 11
247.8549359047
 21
-32.787732631
 31
0.0
  0
LINE
  5
323
  8
0
  6
CONTINUOUS
 62
     7
 10
172.6549384796
 20
-32.787732631
 30
0.0
 11
172.6837603056
 21
-30.9370411932
 31
0.0
  0
ARC
  5
324
  8
0
  6
CONTINUOUS
 62
     7
 10
330.2549389803
 20
-79.3718331086
 30
0.0
 40
73.33970639235513
 50
64.3650308557
 51
115.6349691443
  0
ARC
  5
325
  8
0
  6
CONTINUOUS
 62
     7
 10
330.2549389803
 20
-79.3841136803
 30
0.0
 40
73.33115103743332
 50
64.705220601
 51
115.294779399
  0
ARC
  5
326
  8
0
  6
CONTINUOUS
 62
     7
 10
302.1327011972
 20
-19.6947897285
 30
0.0
 40
7.349220536149653
 50
115.9018429008
 51
164.5640797475
  0
ARC
  5
327
  8
0
  6
CONTINUOUS
 62
     7
 10
358.3932249401
 20
-19.6814254746
 30
0.0
 40
7.330193511455052
 50
15.3686271333
 51
64.1653635254
  0
POLYLINE
  5
328
  8
0
  6
CONTINUOUS
 62
     7
 66
     1
 10
0.0
 20
0.0
 30
0.0
  0
VERTEX
  5
A3F
  8
0
  6
CONTINUOUS
 62
     7
 10
365.461283704
 20
-17.7387236059
 30
0.0
  0
VERTEX
  5
A40
  8
0
  6
CONTINUOUS
 62
     7
 10
366.3783488475
 20
-21.0303275287
 30
0.0
  0
VERTEX
  5
A41
  8
0
  6
CONTINUOUS
 62
     7
 10
366.9795212947
 20
-24.306602627
 30
0.0
  0
VERTEX
  5
A42
  8
0
  6
CONTINUOUS
 62
     7
 10
367.337041875
 20
-27.5987429917
 30
0.0
  0
VERTEX
  5
A43
  8
0
  6
CONTINUOUS
 62
     7
 10
367.5517974102
 20
-30.8939261734
 30
0.0
  0
VERTEX
  5
A44
  8
0
  6
CONTINUOUS
 62
     7
 10
367.6335511409
 20
-34.1921164095
 30
0.0
  0
VERTEX
  5
A45
  8
0
  6
CONTINUOUS
 62
     7
 10
367.6303801738
 20
-37.4929381907
 30
0.0
  0
VERTEX
  5
A46
  8
0
  6
CONTINUOUS
 62
     7
 10
367.6032839023
 20
-40.7932056487
 30
0.0
  0
VERTEX
  5
A47
  8
0
  6
CONTINUOUS
 62
     7
 10
367.6011262142
 20
-44.0907223523
 30
0.0
  0
VERTEX
  5
A48
  8
0
  6
CONTINUOUS
 62
     7
 10
367.6480589115
 20
-50.4108710587
 30
0.0
  0
VERTEX
  5
A49
  8
0
  6
CONTINUOUS
 62
     7
 10
367.6821527683
 20
-56.7316009104
 30
0.0
  0
VERTEX
  5
A4A
  8
0
  6
CONTINUOUS
 62
     7
 10
367.6911530697
 20
-62.9848314822
 30
0.0
  0
VERTEX
  5
A4B
  8
0
  6
CONTINUOUS
 62
     7
 10
367.6929650509
 20
-64.8295535147
 30
0.0
  0
VERTEX
  5
A4C
  8
0
  6
CONTINUOUS
 62
     7
 10
367.6974592411
 20
-66.6970802844
 30
0.0
  0
VERTEX
  5
A4D
  8
0
  6
CONTINUOUS
 62
     7
 10
367.7066502773
 20
-68.5924424231
 30
0.0
  0
VERTEX
  5
A4E
  8
0
  6
CONTINUOUS
 62
     7
 10
367.722648164
 20
-70.5200089514
 30
0.0
  0
VERTEX
  5
A4F
  8
0
  6
CONTINUOUS
 62
     7
 10
367.7467403614
 20
-72.4885834753
 30
0.0
  0
SEQEND
  5
BB8
  8
0
  6
CONTINUOUS
 62
     7
  0
ARC
  5
329
  8
0
  6
CONTINUOUS
 62
     7
 10
361.0265890109
 20
-72.6819310765
 30
0.0
 40
6.722932207627516
 50
275.3899778237
 51
1.6480203672
  0
ARC
  5
32A
  8
0
  6
CONTINUOUS
 62
     7
 10
330.2549389803
 20
260.5557710772
 30
0.0
 40
341.3783547331183
 50
264.7219383607
 51
275.2780616393
  0
ARC
  5
32B
  8
0
  6
CONTINUOUS
 62
     7
 10
299.4732878327
 20
-72.6907675992
 30
0.0
 40
6.713201514005556
 50
178.2741395531
 51
264.687917923
  0
POLYLINE
  5
32C
  8
0
  6
CONTINUOUS
 62
     7
 66
     1
 10
0.0
 20
0.0
 30
0.0
  0
VERTEX
  5
A50
  8
0
  6
CONTINUOUS
 62
     7
 10
292.7631316387
 20
-72.4885834753
 30
0.0
  0
VERTEX
  5
A51
  8
0
  6
CONTINUOUS
 62
     7
 10
292.7914498054
 20
-70.0915588438
 30
0.0
  0
VERTEX
  5
A52
  8
0
  6
CONTINUOUS
 62
     7
 10
292.8079900943
 20
-67.7518679202
 30
0.0
  0
VERTEX
  5
A53
  8
0
  6
CONTINUOUS
 62
     7
 10
292.8157863819
 20
-65.4574646056
 30
0.0
  0
VERTEX
  5
A54
  8
0
  6
CONTINUOUS
 62
     7
 10
292.8185818397
 20
-63.1995929778
 30
0.0
  0
VERTEX
  5
A55
  8
0
  6
CONTINUOUS
 62
     7
 10
292.8199825489
 20
-60.9690620005
 30
0.0
  0
VERTEX
  5
A56
  8
0
  6
CONTINUOUS
 62
     7
 10
292.8228912555
 20
-58.7416245043
 30
0.0
  0
VERTEX
  5
A57
  8
0
  6
CONTINUOUS
 62
     7
 10
292.8284344875
 20
-56.5007223189
 30
0.0
  0
VERTEX
  5
A58
  8
0
  6
CONTINUOUS
 62
     7
 10
292.8627608024
 20
-50.294662863
 30
0.0
  0
VERTEX
  5
A59
  8
0
  6
CONTINUOUS
 62
     7
 10
292.9087517463
 20
-44.0907223523
 30
0.0
  0
VERTEX
  5
A5A
  8
0
  6
CONTINUOUS
 62
     7
 10
292.9065940582
 20
-40.7932056487
 30
0.0
  0
VERTEX
  5
A5B
  8
0
  6
CONTINUOUS
 62
     7
 10
292.8794918262
 20
-37.4929381907
 30
0.0
  0
VERTEX
  5
A5C
  8
0
  6
CONTINUOUS
 62
     7
 10
292.8763268196
 20
-34.1921164095
 30
0.0
  0
VERTEX
  5
A5D
  8
0
  6
CONTINUOUS
 62
     7
 10
292.9580745899
 20
-30.8939261734
 30
0.0
  0
VERTEX
  5
A5E
  8
0
  6
CONTINUOUS
 62
     7
 10
293.172830125
 20
-27.5987429917
 30
0.0
  0
VERTEX
  5
A5F
  8
0
  6
CONTINUOUS
 62
     7
 10
293.5303507053
 20
-24.306602627
 30
0.0
  0
VERTEX
  5
A60
  8
0
  6
CONTINUOUS
 62
     7
 10
294.131529113
 20
-21.0303275287
 30
0.0
  0
VERTEX
  5
A61
  8
0
  6
CONTINUOUS
 62
     7
 10
295.0485942566
 20
-17.7387236059
 30
0.0
  0
SEQEND
  5
BB7
  8
0
  6
CONTINUOUS
 62
     7
  0
ARC
  5
32D
  8
0
  6
CONTINUOUS
 62
     7
 10
358.7286617125
 20
-19.8575413266
 30
0.0
 40
7.365129851134561
 50
15.5448201664
 51
63.7659000493
  0
ARC
  5
32E
  8
0
  6
CONTINUOUS
 62
     7
 10
301.763304755
 20
-19.8426944772
 30
0.0
 40
7.34390085156527
 50
116.1599543402
 51
164.5293254441
  0
LINE
  5
32F
  8
0
  6
CONTINUOUS
 62
     7
 10
292.6549372875
 20
-50.901324898
 30
0.0
 11
292.6549372875
 21
-60.899169594
 31
0.0
  0
POLYLINE
  5
330
  8
0
  6
CONTINUOUS
 62
     7
 66
     1
 10
0.0
 20
0.0
 30
0.0
  0
VERTEX
  5
A62
  8
0
  6
CONTINUOUS
 62
     7
 10
292.654931327
 20
-50.901324898
 30
0.0
  0
VERTEX
  5
A63
  8
0
  6
CONTINUOUS
 62
     7
 10
292.6696477138
 20
-44.0732999146
 30
0.0
  0
VERTEX
  5
A64
  8
0
  6
CONTINUOUS
 62
     7
 10
292.6549372875
 20
-40.9014357626
 30
0.0
  0
SEQEND
  5
BB6
  8
0
  6
CONTINUOUS
 62
     7
  0
LINE
  5
331
  8
0
  6
CONTINUOUS
 62
     7
 10
292.6549372875
 20
-32.7898962796
 30
0.0
 11
292.6549372875
 21
-40.901453644
 31
0.0
  0
LINE
  5
332
  8
0
  6
CONTINUOUS
 62
     7
 10
292.6837620937
 20
-30.9370411932
 30
0.0
 11
292.6549372875
 21
-32.7898962796
 31
0.0
  0
POLYLINE
  5
333
  8
0
  6
CONTINUOUS
 62
     7
 66
     1
 10
0.0
 20
0.0
 30
0.0
  0
VERTEX
  5
A65
  8
0
  6
CONTINUOUS
 62
     7
 10
292.6834104263
 20
-30.9370262921
 30
0.0
  0
VERTEX
  5
A66
  8
0
  6
CONTINUOUS
 62
     7
 10
292.8279159271
 20
-28.4332795441
 30
0.0
  0
VERTEX
  5
A67
  8
0
  6
CONTINUOUS
 62
     7
 10
293.0521843635
 20
-25.9298591316
 30
0.0
  0
SEQEND
  5
BB5
  8
0
  6
CONTINUOUS
 62
     7
  0
ARC
  5
334
  8
0
  6
CONTINUOUS
 62
     7
 10
352.452803597
 20
-32.8450839731
 30
0.0
 40
59.80207606341344
 50
168.4879081981
 51
173.3597076745
  0
POLYLINE
  5
335
  8
0
  6
CONTINUOUS
 62
     7
 66
     1
 10
0.0
 20
0.0
 30
0.0
  0
VERTEX
  5
A68
  8
0
  6
CONTINUOUS
 62
     7
 10
293.8549397194
 20
-20.9044678509
 30
0.0
  0
VERTEX
  5
A69
  8
0
  6
CONTINUOUS
 62
     7
 10
294.2523656093
 20
-19.3941040337
 30
0.0
  0
VERTEX
  5
A6A
  8
0
  6
CONTINUOUS
 62
     7
 10
294.6854946815
 20
-17.8837446868
 30
0.0
  0
SEQEND
  5
BB4
  8
0
  6
CONTINUOUS
 62
     7
  0
POLYLINE
  5
336
  8
0
  6
CONTINUOUS
 62
     7
 66
     1
 10
0.0
 20
0.0
 30
0.0
  0
VERTEX
  5
A6B
  8
0
  6
CONTINUOUS
 62
     7
 10
292.6548657619
 20
-72.5548519194
 30
0.0
  0
VERTEX
  5
A6C
  8
0
  6
CONTINUOUS
 62
     7
 10
292.6548657619
 20
-72.5295259058
 30
0.0
  0
VERTEX
  5
A6D
  8
0
  6
CONTINUOUS
 62
     7
 10
292.6550386154
 20
-70.1165153086
 30
0.0
  0
VERTEX
  5
A6E
  8
0
  6
CONTINUOUS
 62
     7
 10
292.6555035316
 20
-67.7280499041
 30
0.0
  0
VERTEX
  5
A6F
  8
0
  6
CONTINUOUS
 62
     7
 10
292.6558850013
 20
-65.3621329367
 30
0.0
  0
VERTEX
  5
A70
  8
0
  6
CONTINUOUS
 62
     7
 10
292.6557836734
 20
-63.0073083937
 30
0.0
  0
VERTEX
  5
A71
  8
0
  6
CONTINUOUS
 62
     7
 10
292.6549372875
 20
-60.899169594
 30
0.0
  0
SEQEND
  5
BB3
  8
0
  6
CONTINUOUS
 62
     7
  0
POLYLINE
  5
337
  8
0
  6
CONTINUOUS
 62
     7
 66
     1
 10
0.0
 20
0.0
 30
0.0
  0
VERTEX
  5
A72
  8
0
  6
CONTINUOUS
 62
     7
 10
365.824383279
 20
-17.8837446868
 30
0.0
  0
VERTEX
  5
A73
  8
0
  6
CONTINUOUS
 62
     7
 10
366.258293172
 20
-19.3968994915
 30
0.0
  0
VERTEX
  5
A74
  8
0
  6
CONTINUOUS
 62
     7
 10
366.6562733852
 20
-20.9100572765
 30
0.0
  0
SEQEND
  5
BB2
  8
0
  6
CONTINUOUS
 62
     7
  0
ARC
  5
338
  8
0
  6
CONTINUOUS
 62
     7
 10
308.0149665641
 20
-32.8518802361
 30
0.0
 40
59.84468731097007
 50
6.6420936952
 51
11.5104231132
  0
POLYLINE
  5
339
  8
0
  6
CONTINUOUS
 62
     7
 66
     1
 10
0.0
 20
0.0
 30
0.0
  0
VERTEX
  5
A75
  8
0
  6
CONTINUOUS
 62
     7
 10
367.457693597
 20
-25.9298591316
 30
0.0
  0
VERTEX
  5
A76
  8
0
  6
CONTINUOUS
 62
     7
 10
367.6819501125
 20
-28.4332795441
 30
0.0
  0
VERTEX
  5
A77
  8
0
  6
CONTINUOUS
 62
     7
 10
367.8264556133
 20
-30.9370262921
 30
0.0
  0
SEQEND
  5
BB1
  8
0
  6
CONTINUOUS
 62
     7
  0
LINE
  5
33A
  8
0
  6
CONTINUOUS
 62
     7
 10
367.8549347126
 20
-32.7898962796
 30
0.0
 11
367.8261099064
 21
-30.9370411932
 31
0.0
  0
LINE
  5
33B
  8
0
  6
CONTINUOUS
 62
     7
 10
367.8549347126
 20
-40.901453644
 30
0.0
 11
367.8549347126
 21
-32.7898962796
 31
0.0
  0
POLYLINE
  5
33C
  8
0
  6
CONTINUOUS
 62
     7
 66
     1
 10
0.0
 20
0.0
 30
0.0
  0
VERTEX
  5
A78
  8
0
  6
CONTINUOUS
 62
     7
 10
367.8549347126
 20
-40.9014357626
 30
0.0
  0
VERTEX
  5
A79
  8
0
  6
CONTINUOUS
 62
     7
 10
367.8402242862
 20
-44.0732999146
 30
0.0
  0
VERTEX
  5
A7A
  8
0
  6
CONTINUOUS
 62
     7
 10
367.8549347126
 20
-50.901324898
 30
0.0
  0
SEQEND
  5
BB0
  8
0
  6
CONTINUOUS
 62
     7
  0
POLYLINE
  5
33D
  8
0
  6
CONTINUOUS
 62
     7
 66
     1
 10
0.0
 20
0.0
 30
0.0
  0
VERTEX
  5
A7B
  8
0
  6
CONTINUOUS
 62
     7
 10
367.8550062381
 20
-72.5557996333
 30
0.0
  0
VERTEX
  5
A7C
  8
0
  6
CONTINUOUS
 62
     7
 10
367.8550062381
 20
-72.2478581965
 30
0.0
  0
VERTEX
  5
A7D
  8
0
  6
CONTINUOUS
 62
     7
 10
367.8547916614
 20
-69.8360098898
 30
0.0
  0
VERTEX
  5
A7E
  8
0
  6
CONTINUOUS
 62
     7
 10
367.8543148243
 20
-67.45145455
 30
0.0
  0
VERTEX
  5
A7F
  8
0
  6
CONTINUOUS
 62
     7
 10
367.8539691173
 20
-65.0881065428
 30
0.0
  0
VERTEX
  5
A80
  8
0
  6
CONTINUOUS
 62
     7
 10
367.8552804195
 20
-60.3792561591
 30
0.0
  0
VERTEX
  5
A81
  8
0
  6
CONTINUOUS
 62
     7
 10
367.8587613308
 20
-55.6453539431
 30
0.0
  0
VERTEX
  5
A82
  8
0
  6
CONTINUOUS
 62
     7
 10
367.8549347126
 20
-50.901324898
 30
0.0
  0
SEQEND
  5
BAF
  8
0
  6
CONTINUOUS
 62
     7
  0
ARC
  5
33E
  8
0
  6
CONTINUOUS
 62
     7
 10
361.210521602
 20
-72.6924443118
 30
0.0
 40
6.645889545294549
 50
292.5444663561
 51
1.1781289845
  0
ARC
  5
33F
  8
0
  6
CONTINUOUS
 62
     7
 10
299.3023927921
 20
-72.6884583678
 30
0.0
 40
6.648869550556984
 50
178.8485860905
 51
250.6418262469
  0
LINE
  5
340
  8
0
  6
CONTINUOUS
 62
     7
 10
367.4549398624
 20
-25.9037061036
 30
0.0
 11
367.4579796993
 21
-25.929826349
 31
0.0
  0
POLYLINE
  5
341
  8
0
  6
CONTINUOUS
 62
     7
 66
     1
 10
0.0
 20
0.0
 30
0.0
  0
VERTEX
  5
A83
  8
0
  6
CONTINUOUS
 62
     7
 10
366.6560826503
 20
-20.9101004899
 30
0.0
  0
VERTEX
  5
A84
  8
0
  6
CONTINUOUS
 62
     7
 10
367.1082673275
 20
-23.3959658444
 30
0.0
  0
VERTEX
  5
A85
  8
0
  6
CONTINUOUS
 62
     7
 10
367.4549398624
 20
-25.9037061036
 30
0.0
  0
SEQEND
  5
BAE
  8
0
  6
CONTINUOUS
 62
     7
  0
POLYLINE
  5
342
  8
0
  6
CONTINUOUS
 62
     7
 66
     1
 10
0.0
 20
0.0
 30
0.0
  0
VERTEX
  5
A86
  8
0
  6
CONTINUOUS
 62
     7
 10
293.0549380981
 20
-25.9037061036
 30
0.0
  0
VERTEX
  5
A87
  8
0
  6
CONTINUOUS
 62
     7
 10
293.400865575
 20
-23.4005643427
 30
0.0
  0
VERTEX
  5
A88
  8
0
  6
CONTINUOUS
 62
     7
 10
293.8537893497
 20
-20.9101004899
 30
0.0
  0
SEQEND
  5
BAD
  8
0
  6
CONTINUOUS
 62
     7
  0
LINE
  5
343
  8
0
  6
CONTINUOUS
 62
     7
 10
293.0518982612
 20
-25.929826349
 30
0.0
 11
293.0549380981
 21
-25.9037061036
 31
0.0
  0
LINE
  5
344
  8
0
  6
CONTINUOUS
 62
     7
 10
367.8261099064
 20
-30.9370411932
 30
0.0
 11
367.8549347126
 21
-32.787732631
 31
0.0
  0
LINE
  5
345
  8
0
  6
CONTINUOUS
 62
     7
 10
292.6549372875
 20
-32.787732631
 30
0.0
 11
292.6837620937
 21
-30.9370411932
 31
0.0
  0
LINE
  5
346
  8
0
  6
CONTINUOUS
 62
     7
 10
293.4292612278
 20
-7.0953289419
 30
0.0
 11
293.4292612278
 21
-7.1521481872
 31
0.0
  0
LINE
  5
347
  8
0
  6
CONTINUOUS
 62
     7
 10
293.4292612278
 20
-7.1521481872
 30
0.0
 11
293.6507818901
 21
-7.1673861146
 31
0.0
  0
LINE
  5
348
  8
0
  6
CONTINUOUS
 62
     7
 10
292.6515159809
 20
-68.2953311503
 30
0.0
 11
292.5549385749
 21
-68.2953311503
 31
0.0
  0
LINE
  5
349
  8
0
  6
CONTINUOUS
 62
     7
 10
292.5549385749
 20
-68.2953311503
 30
0.0
 11
292.5549385749
 21
-7.0953289419
 31
0.0
  0
LINE
  5
34A
  8
0
  6
CONTINUOUS
 62
     7
 10
292.5549385749
 20
-7.0953289419
 30
0.0
 11
293.4292612278
 21
-7.0953289419
 31
0.0
  0
ARC
  5
34B
  8
0
  6
CONTINUOUS
 62
     7
 10
294.2188985821
 20
-9.2069123921
 30
0.0
 40
1.99614508009711
 50
359.8798522284
 51
86.029573014
  0
LINE
  5
34C
  8
0
  6
CONTINUOUS
 62
     7
 10
296.2150392734
 20
-9.2110982537
 30
0.0
 11
296.2150392734
 21
-13.6136195064
 31
0.0
  0
ARC
  5
34D
  8
0
  6
CONTINUOUS
 62
     7
 10
297.4168318492
 20
-13.6144028585
 30
0.0
 40
1.201792831047209
 50
179.9626534821
 51
232.2494355137
  0
LINE
  5
34E
  8
0
  6
CONTINUOUS
 62
     7
 10
294.3571148121
 20
-7.215558216
 30
0.0
 11
293.6507818901
 21
-7.1673861146
 31
0.0
  0
LINE
  5
34F
  8
0
  6
CONTINUOUS
 62
     7
 10
292.5549385749
 20
-7.0953289419
 30
0.0
 11
292.5549385749
 21
5.6247876585
 31
0.0
  0
LINE
  5
350
  8
0
  6
CONTINUOUS
 62
     7
 10
293.3549342357
 20
5.6247876585
 30
0.0
 11
293.3549342357
 21
-7.0953289419
 31
0.0
  0
LINE
  5
351
  8
0
  6
CONTINUOUS
 62
     7
 10
292.5549385749
 20
6.8046712875
 30
0.0
 11
293.3549342357
 21
6.8046712875
 31
0.0
  0
LINE
  5
352
  8
0
  6
CONTINUOUS
 62
     7
 10
292.5549385749
 20
5.6247876585
 30
0.0
 11
292.5549385749
 21
6.8046712875
 31
0.0
  0
LINE
  5
353
  8
0
  6
CONTINUOUS
 62
     7
 10
293.3549342357
 20
6.8046712875
 30
0.0
 11
293.3549342357
 21
5.6247876585
 31
0.0
  0
LINE
  5
354
  8
0
  6
CONTINUOUS
 62
     7
 10
292.5549385749
 20
3.8046711683
 30
0.0
 11
287.7549348079
 21
3.8046711683
 31
0.0
  0
LINE
  5
355
  8
0
  6
CONTINUOUS
 62
     7
 10
287.7549348079
 20
3.8046711683
 30
0.0
 11
287.7549348079
 21
2.8046710044
 31
0.0
  0
LINE
  5
356
  8
0
  6
CONTINUOUS
 62
     7
 10
295.7896826469
 20
3.8046711683
 30
0.0
 11
293.3549342357
 21
3.8046711683
 31
0.0
  0
LINE
  5
357
  8
0
  6
CONTINUOUS
 62
     7
 10
297.7549371921
 20
3.1768960506
 30
0.0
 11
297.7549371921
 21
2.8046710044
 31
0.0
  0
LINE
  5
358
  8
0
  6
CONTINUOUS
 62
     7
 10
287.7549348079
 20
2.8046710044
 30
0.0
 11
287.7549348079
 21
-6.3953290135
 31
0.0
  0
LINE
  5
359
  8
0
  6
CONTINUOUS
 62
     7
 10
297.7549371921
 20
2.8046710044
 30
0.0
 11
297.7549371921
 21
-6.3953290135
 31
0.0
  0
LINE
  5
35A
  8
0
  6
CONTINUOUS
 62
     7
 10
297.7549371921
 20
-7.3953291774
 30
0.0
 11
295.0588283741
 21
-7.3953291774
 31
0.0
  0
LINE
  5
35B
  8
0
  6
CONTINUOUS
 62
     7
 10
297.7549371921
 20
-6.3953290135
 30
0.0
 11
297.7549371921
 21
-7.3953291774
 31
0.0
  0
LINE
  5
35C
  8
0
  6
CONTINUOUS
 62
     7
 10
292.5549385749
 20
-7.3953291774
 30
0.0
 11
287.7549348079
 21
-7.3953291774
 31
0.0
  0
LINE
  5
35D
  8
0
  6
CONTINUOUS
 62
     7
 10
287.7549348079
 20
-6.3953290135
 30
0.0
 11
287.7549348079
 21
-7.3953291774
 31
0.0
  0
LINE
  5
35E
  8
0
  6
CONTINUOUS
 62
     7
 10
173.4292624199
 20
-7.0953289419
 30
0.0
 11
173.4292624199
 21
-7.1521481872
 31
0.0
  0
LINE
  5
35F
  8
0
  6
CONTINUOUS
 62
     7
 10
172.6515141927
 20
-68.2953311503
 30
0.0
 11
172.5549367868
 21
-68.2953311503
 31
0.0
  0
LINE
  5
360
  8
0
  6
CONTINUOUS
 62
     7
 10
172.5549367868
 20
-68.2953311503
 30
0.0
 11
172.5549367868
 21
-7.0953289419
 31
0.0
  0
LINE
  5
361
  8
0
  6
CONTINUOUS
 62
     7
 10
172.5549367868
 20
-7.0953289419
 30
0.0
 11
173.4292624199
 21
-7.0953289419
 31
0.0
  0
LINE
  5
362
  8
0
  6
CONTINUOUS
 62
     7
 10
173.4292624199
 20
-7.1521481872
 30
0.0
 11
173.6507830822
 21
-7.1673861146
 31
0.0
  0
ARC
  5
363
  8
0
  6
CONTINUOUS
 62
     7
 10
174.2188982133
 20
-9.2069138453
 30
0.0
 40
1.996146637964908
 50
359.8798940359
 51
86.0295312065
  0
LINE
  5
364
  8
0
  6
CONTINUOUS
 62
     7
 10
176.2150404655
 20
-9.2110982537
 30
0.0
 11
176.2150404655
 21
-13.6136195064
 31
0.0
  0
ARC
  5
365
  8
0
  6
CONTINUOUS
 62
     7
 10
177.4168330413
 20
-13.6144028585
 30
0.0
 40
1.201792831047321
 50
179.9626534821
 51
232.2494355137
  0
LINE
  5
366
  8
0
  6
CONTINUOUS
 62
     7
 10
174.3571160041
 20
-7.215558216
 30
0.0
 11
173.6507830822
 21
-7.1673861146
 31
0.0
  0
LINE
  5
367
  8
0
  6
CONTINUOUS
 62
     7
 10
172.5549367868
 20
-7.0953289419
 30
0.0
 11
172.5549367868
 21
5.6247876585
 31
0.0
  0
LINE
  5
368
  8
0
  6
CONTINUOUS
 62
     7
 10
173.3549384081
 20
5.6247876585
 30
0.0
 11
173.3549384081
 21
-7.0953289419
 31
0.0
  0
LINE
  5
369
  8
0
  6
CONTINUOUS
 62
     7
 10
172.5549367868
 20
6.8046712875
 30
0.0
 11
173.3549384081
 21
6.8046712875
 31
0.0
  0
LINE
  5
36A
  8
0
  6
CONTINUOUS
 62
     7
 10
172.5549367868
 20
5.6247876585
 30
0.0
 11
172.5549367868
 21
6.8046712875
 31
0.0
  0
LINE
  5
36B
  8
0
  6
CONTINUOUS
 62
     7
 10
173.3549384081
 20
6.8046712875
 30
0.0
 11
173.3549384081
 21
5.6247876585
 31
0.0
  0
LINE
  5
36C
  8
0
  6
CONTINUOUS
 62
     7
 10
167.754936
 20
3.8046711683
 30
0.0
 11
167.754936
 21
2.8046710044
 31
0.0
  0
LINE
  5
36D
  8
0
  6
CONTINUOUS
 62
     7
 10
172.5549367868
 20
3.8046711683
 30
0.0
 11
167.754936
 21
3.8046711683
 31
0.0
  0
LINE
  5
36E
  8
0
  6
CONTINUOUS
 62
     7
 10
177.7549383842
 20
3.1768960506
 30
0.0
 11
177.7549383842
 21
2.8046710044
 31
0.0
  0
LINE
  5
36F
  8
0
  6
CONTINUOUS
 62
     7
 10
175.7896808588
 20
3.8046711683
 30
0.0
 11
173.3549384081
 21
3.8046711683
 31
0.0
  0
LINE
  5
370
  8
0
  6
CONTINUOUS
 62
     7
 10
167.754936
 20
2.8046710044
 30
0.0
 11
167.754936
 21
-6.3953290135
 31
0.0
  0
LINE
  5
371
  8
0
  6
CONTINUOUS
 62
     7
 10
177.7549383842
 20
2.8046710044
 30
0.0
 11
177.7549383842
 21
-6.3953290135
 31
0.0
  0
LINE
  5
372
  8
0
  6
CONTINUOUS
 62
     7
 10
177.7549383842
 20
-7.3953291774
 30
0.0
 11
175.0588265859
 21
-7.3953291774
 31
0.0
  0
LINE
  5
373
  8
0
  6
CONTINUOUS
 62
     7
 10
177.7549383842
 20
-6.3953290135
 30
0.0
 11
177.7549383842
 21
-7.3953291774
 31
0.0
  0
LINE
  5
374
  8
0
  6
CONTINUOUS
 62
     7
 10
172.5549367868
 20
-7.3953291774
 30
0.0
 11
167.754936
 21
-7.3953291774
 31
0.0
  0
LINE
  5
375
  8
0
  6
CONTINUOUS
 62
     7
 10
167.754936
 20
-6.3953290135
 30
0.0
 11
167.754936
 21
-7.3953291774
 31
0.0
  0
LINE
  5
376
  8
0
  6
CONTINUOUS
 62
     7
 10
53.4292636119
 20
-7.0953289419
 30
0.0
 11
53.4292636119
 21
-7.1521481872
 31
0.0
  0
LINE
  5
377
  8
0
  6
CONTINUOUS
 62
     7
 10
53.4292636119
 20
-7.1521481872
 30
0.0
 11
53.6507783138
 21
-7.1673861146
 31
0.0
  0
LINE
  5
378
  8
0
  6
CONTINUOUS
 62
     7
 10
52.6515183651
 20
-68.2953311503
 30
0.0
 11
52.5549349987
 21
-68.2953311503
 31
0.0
  0
LINE
  5
379
  8
0
  6
CONTINUOUS
 62
     7
 10
52.5549349987
 20
-68.2953311503
 30
0.0
 11
52.5549349987
 21
-7.0953289419
 31
0.0
  0
LINE
  5
37A
  8
0
  6
CONTINUOUS
 62
     7
 10
52.5549349987
 20
-7.0953289419
 30
0.0
 11
53.4292636119
 21
-7.0953289419
 31
0.0
  0
ARC
  5
37B
  8
0
  6
CONTINUOUS
 62
     7
 10
54.2188941834
 20
-9.2069187072
 30
0.0
 40
1.996151849803427
 50
359.8800339019
 51
86.0293913405
  0
LINE
  5
37C
  8
0
  6
CONTINUOUS
 62
     7
 10
56.2150416576
 20
-9.2110982537
 30
0.0
 11
56.2150416576
 21
-13.6136195064
 31
0.0
  0
ARC
  5
37D
  8
0
  6
CONTINUOUS
 62
     7
 10
57.4167969941
 20
-13.6144211067
 30
0.0
 40
1.201755603831549
 50
179.9617823107
 51
232.2503066851
  0
LINE
  5
37E
  8
0
  6
CONTINUOUS
 62
     7
 10
54.3571171962
 20
-7.215558216
 30
0.0
 11
53.6507783138
 21
-7.1673861146
 31
0.0
  0
LINE
  5
37F
  8
0
  6
CONTINUOUS
 62
     7
 10
52.5549349987
 20
-7.0953289419
 30
0.0
 11
52.5549349987
 21
5.6247876585
 31
0.0
  0
LINE
  5
380
  8
0
  6
CONTINUOUS
 62
     7
 10
53.3549366199
 20
5.6247876585
 30
0.0
 11
53.3549366199
 21
-7.0953289419
 31
0.0
  0
LINE
  5
381
  8
0
  6
CONTINUOUS
 62
     7
 10
52.5549349987
 20
6.8046712875
 30
0.0
 11
53.3549366199
 21
6.8046712875
 31
0.0
  0
LINE
  5
382
  8
0
  6
CONTINUOUS
 62
     7
 10
52.5549349987
 20
5.6247876585
 30
0.0
 11
52.5549349987
 21
6.8046712875
 31
0.0
  0
LINE
  5
383
  8
0
  6
CONTINUOUS
 62
     7
 10
53.3549366199
 20
6.8046712875
 30
0.0
 11
53.3549366199
 21
5.6247876585
 31
0.0
  0
LINE
  5
384
  8
0
  6
CONTINUOUS
 62
     7
 10
52.5549349987
 20
3.8046711683
 30
0.0
 11
47.7549371921
 21
3.8046711683
 31
0.0
  0
LINE
  5
385
  8
0
  6
CONTINUOUS
 62
     7
 10
47.7549371921
 20
3.8046711683
 30
0.0
 11
47.7549371921
 21
2.8046710044
 31
0.0
  0
LINE
  5
386
  8
0
  6
CONTINUOUS
 62
     7
 10
57.7549395763
 20
3.1768960506
 30
0.0
 11
57.7549395763
 21
2.8046710044
 31
0.0
  0
LINE
  5
387
  8
0
  6
CONTINUOUS
 62
     7
 10
55.7896790706
 20
3.8046711683
 30
0.0
 11
53.3549366199
 21
3.8046711683
 31
0.0
  0
LINE
  5
388
  8
0
  6
CONTINUOUS
 62
     7
 10
47.7549371921
 20
2.8046710044
 30
0.0
 11
47.7549371921
 21
-6.3953290135
 31
0.0
  0
LINE
  5
389
  8
0
  6
CONTINUOUS
 62
     7
 10
57.7549395763
 20
2.8046710044
 30
0.0
 11
57.7549395763
 21
-6.3953290135
 31
0.0
  0
LINE
  5
38A
  8
0
  6
CONTINUOUS
 62
     7
 10
57.7549395763
 20
-7.3953291774
 30
0.0
 11
55.0588307582
 21
-7.3953291774
 31
0.0
  0
LINE
  5
38B
  8
0
  6
CONTINUOUS
 62
     7
 10
57.7549395763
 20
-6.3953290135
 30
0.0
 11
57.7549395763
 21
-7.3953291774
 31
0.0
  0
LINE
  5
38C
  8
0
  6
CONTINUOUS
 62
     7
 10
52.5549349987
 20
-7.3953291774
 30
0.0
 11
47.7549371921
 21
-7.3953291774
 31
0.0
  0
LINE
  5
38D
  8
0
  6
CONTINUOUS
 62
     7
 10
47.7549371921
 20
-6.3953290135
 30
0.0
 11
47.7549371921
 21
-7.3953291774
 31
0.0
  0
LINE
  5
38E
  8
0
  6
CONTINUOUS
 62
     7
 10
367.9549393856
 20
-68.2953311503
 30
0.0
 11
367.9549393856
 21
-7.0953289419
 31
0.0
  0
LINE
  5
38F
  8
0
  6
CONTINUOUS
 62
     7
 10
367.8583560192
 20
-68.2953311503
 30
0.0
 11
367.9549393856
 21
-68.2953311503
 31
0.0
  0
LINE
  5
390
  8
0
  6
CONTINUOUS
 62
     7
 10
367.0806107723
 20
-7.1521481872
 30
0.0
 11
366.8590960704
 21
-7.1673861146
 31
0.0
  0
LINE
  5
391
  8
0
  6
CONTINUOUS
 62
     7
 10
367.0806107723
 20
-7.0953289419
 30
0.0
 11
367.0806107723
 21
-7.1521481872
 31
0.0
  0
LINE
  5
392
  8
0
  6
CONTINUOUS
 62
     7
 10
367.9549393856
 20
-7.0953289419
 30
0.0
 11
367.0806107723
 21
-7.0953289419
 31
0.0
  0
ARC
  5
393
  8
0
  6
CONTINUOUS
 62
     7
 10
363.0930360814
 20
-13.6144106332
 30
0.0
 40
1.201796905601806
 50
308.241064846
 51
0.0377170493
  0
LINE
  5
394
  8
0
  6
CONTINUOUS
 62
     7
 10
364.2948327266
 20
-9.2110982537
 30
0.0
 11
364.2948327266
 21
-13.6136195064
 31
0.0
  0
ARC
  5
395
  8
0
  6
CONTINUOUS
 62
     7
 10
366.2909802009
 20
-9.2069187072
 30
0.0
 40
1.996151849803479
 50
93.9706086595
 51
180.1199660981
  0
LINE
  5
396
  8
0
  6
CONTINUOUS
 62
     7
 10
366.152757188
 20
-7.215558216
 30
0.0
 11
366.8590960704
 21
-7.1673861146
 31
0.0
  0
LINE
  5
397
  8
0
  6
CONTINUOUS
 62
     7
 10
367.9549393856
 20
-7.0953289419
 30
0.0
 11
367.9549393856
 21
5.6247876585
 31
0.0
  0
LINE
  5
398
  8
0
  6
CONTINUOUS
 62
     7
 10
367.1549377643
 20
5.6247876585
 30
0.0
 11
367.1549377643
 21
-7.0953289419
 31
0.0
  0
LINE
  5
399
  8
0
  6
CONTINUOUS
 62
     7
 10
367.9549393856
 20
6.8046712875
 30
0.0
 11
367.1549377643
 21
6.8046712875
 31
0.0
  0
LINE
  5
39A
  8
0
  6
CONTINUOUS
 62
     7
 10
367.9549393856
 20
5.6247876585
 30
0.0
 11
367.9549393856
 21
6.8046712875
 31
0.0
  0
LINE
  5
39B
  8
0
  6
CONTINUOUS
 62
     7
 10
367.1549377643
 20
6.8046712875
 30
0.0
 11
367.1549377643
 21
5.6247876585
 31
0.0
  0
LINE
  5
39C
  8
0
  6
CONTINUOUS
 62
     7
 10
362.7549348079
 20
3.1710644811
 30
0.0
 11
362.7549348079
 21
2.8046710044
 31
0.0
  0
LINE
  5
39D
  8
0
  6
CONTINUOUS
 62
     7
 10
364.7202072345
 20
3.8046711683
 30
0.0
 11
367.1549377643
 21
3.8046711683
 31
0.0
  0
LINE
  5
39E
  8
0
  6
CONTINUOUS
 62
     7
 10
367.9549393856
 20
3.8046711683
 30
0.0
 11
372.7549371921
 21
3.8046711683
 31
0.0
  0
LINE
  5
39F
  8
0
  6
CONTINUOUS
 62
     7
 10
372.7549371921
 20
3.8046711683
 30
0.0
 11
372.7549371921
 21
2.8046710044
 31
0.0
  0
LINE
  5
3A0
  8
0
  6
CONTINUOUS
 62
     7
 10
362.7549348079
 20
2.8046710044
 30
0.0
 11
362.7549348079
 21
-6.3953290135
 31
0.0
  0
LINE
  5
3A1
  8
0
  6
CONTINUOUS
 62
     7
 10
372.7549371921
 20
2.8046710044
 30
0.0
 11
372.7549371921
 21
-6.3953290135
 31
0.0
  0
LINE
  5
3A2
  8
0
  6
CONTINUOUS
 62
     7
 10
367.9549393856
 20
-7.3953291774
 30
0.0
 11
372.7549371921
 21
-7.3953291774
 31
0.0
  0
LINE
  5
3A3
  8
0
  6
CONTINUOUS
 62
     7
 10
372.7549371921
 20
-6.3953290135
 30
0.0
 11
372.7549371921
 21
-7.3953291774
 31
0.0
  0
LINE
  5
3A4
  8
0
  6
CONTINUOUS
 62
     7
 10
362.7549348079
 20
-7.3953291774
 30
0.0
 11
365.451043626
 21
-7.3953291774
 31
0.0
  0
LINE
  5
3A5
  8
0
  6
CONTINUOUS
 62
     7
 10
362.7549348079
 20
-6.3953290135
 30
0.0
 11
362.7549348079
 21
-7.3953291774
 31
0.0
  0
LINE
  5
3A6
  8
0
  6
CONTINUOUS
 62
     7
 10
247.9549375974
 20
-68.2953311503
 30
0.0
 11
247.9549375974
 21
-7.0953289419
 31
0.0
  0
LINE
  5
3A7
  8
0
  6
CONTINUOUS
 62
     7
 10
247.8583601915
 20
-68.2953311503
 30
0.0
 11
247.9549375974
 21
-68.2953311503
 31
0.0
  0
LINE
  5
3A8
  8
0
  6
CONTINUOUS
 62
     7
 10
247.0806119644
 20
-7.1521481872
 30
0.0
 11
246.8590913021
 21
-7.1673861146
 31
0.0
  0
LINE
  5
3A9
  8
0
  6
CONTINUOUS
 62
     7
 10
247.0806119644
 20
-7.0953289419
 30
0.0
 11
247.0806119644
 21
-7.1521481872
 31
0.0
  0
LINE
  5
3AA
  8
0
  6
CONTINUOUS
 62
     7
 10
247.9549375974
 20
-7.0953289419
 30
0.0
 11
247.0806119644
 21
-7.0953289419
 31
0.0
  0
ARC
  5
3AB
  8
0
  6
CONTINUOUS
 62
     7
 10
243.0929993687
 20
-13.6143922598
 30
0.0
 40
1.201834798489574
 50
308.2419419619
 51
0.0368399334
  0
LINE
  5
3AC
  8
0
  6
CONTINUOUS
 62
     7
 10
244.2948339187
 20
-9.2110982537
 30
0.0
 11
244.2948339187
 21
-13.6136195064
 31
0.0
  0
ARC
  5
3AD
  8
0
  6
CONTINUOUS
 62
     7
 10
246.2909761709
 20
-9.2069138453
 30
0.0
 40
1.996146637964844
 50
93.9704687935
 51
180.1201059642
  0
LINE
  5
3AE
  8
0
  6
CONTINUOUS
 62
     7
 10
246.1527583801
 20
-7.215558216
 30
0.0
 11
246.8590913021
 21
-7.1673861146
 31
0.0
  0
LINE
  5
3AF
  8
0
  6
CONTINUOUS
 62
     7
 10
247.9549375974
 20
-7.0953289419
 30
0.0
 11
247.9549375974
 21
5.6247876585
 31
0.0
  0
LINE
  5
3B0
  8
0
  6
CONTINUOUS
 62
     7
 10
247.1549359762
 20
5.6247876585
 30
0.0
 11
247.1549359762
 21
-7.0953289419
 31
0.0
  0
LINE
  5
3B1
  8
0
  6
CONTINUOUS
 62
     7
 10
247.9549375974
 20
6.8046712875
 30
0.0
 11
247.1549359762
 21
6.8046712875
 31
0.0
  0
LINE
  5
3B2
  8
0
  6
CONTINUOUS
 62
     7
 10
247.9549375974
 20
5.6247876585
 30
0.0
 11
247.9549375974
 21
6.8046712875
 31
0.0
  0
LINE
  5
3B3
  8
0
  6
CONTINUOUS
 62
     7
 10
247.1549359762
 20
6.8046712875
 30
0.0
 11
247.1549359762
 21
5.6247876585
 31
0.0
  0
LINE
  5
3B4
  8
0
  6
CONTINUOUS
 62
     7
 10
242.754936
 20
3.1710644811
 30
0.0
 11
242.754936
 21
2.8046710044
 31
0.0
  0
LINE
  5
3B5
  8
0
  6
CONTINUOUS
 62
     7
 10
244.7202024662
 20
3.8046711683
 30
0.0
 11
247.1549359762
 21
3.8046711683
 31
0.0
  0
LINE
  5
3B6
  8
0
  6
CONTINUOUS
 62
     7
 10
247.9549375974
 20
3.8046711683
 30
0.0
 11
252.7549383842
 21
3.8046711683
 31
0.0
  0
LINE
  5
3B7
  8
0
  6
CONTINUOUS
 62
     7
 10
252.7549383842
 20
3.8046711683
 30
0.0
 11
252.7549383842
 21
2.8046710044
 31
0.0
  0
LINE
  5
3B8
  8
0
  6
CONTINUOUS
 62
     7
 10
242.754936
 20
2.8046710044
 30
0.0
 11
242.754936
 21
-6.3953290135
 31
0.0
  0
LINE
  5
3B9
  8
0
  6
CONTINUOUS
 62
     7
 10
252.7549383842
 20
2.8046710044
 30
0.0
 11
252.7549383842
 21
-6.3953290135
 31
0.0
  0
LINE
  5
3BA
  8
0
  6
CONTINUOUS
 62
     7
 10
242.754936
 20
-7.3953291774
 30
0.0
 11
245.4510477983
 21
-7.3953291774
 31
0.0
  0
LINE
  5
3BB
  8
0
  6
CONTINUOUS
 62
     7
 10
242.754936
 20
-6.3953290135
 30
0.0
 11
242.754936
 21
-7.3953291774
 31
0.0
  0
LINE
  5
3BC
  8
0
  6
CONTINUOUS
 62
     7
 10
247.9549375974
 20
-7.3953291774
 30
0.0
 11
252.7549383842
 21
-7.3953291774
 31
0.0
  0
LINE
  5
3BD
  8
0
  6
CONTINUOUS
 62
     7
 10
252.7549383842
 20
-6.3953290135
 30
0.0
 11
252.7549383842
 21
-7.3953291774
 31
0.0
  0
LINE
  5
3BE
  8
0
  6
CONTINUOUS
 62
     7
 10
127.9549358093
 20
-68.2953311503
 30
0.0
 11
127.9549358093
 21
-7.0953289419
 31
0.0
  0
LINE
  5
3BF
  8
0
  6
CONTINUOUS
 62
     7
 10
127.8583584034
 20
-68.2953311503
 30
0.0
 11
127.9549358093
 21
-68.2953311503
 31
0.0
  0
LINE
  5
3C0
  8
0
  6
CONTINUOUS
 62
     7
 10
127.0806131565
 20
-7.0953289419
 30
0.0
 11
127.0806131565
 21
-7.1521481872
 31
0.0
  0
LINE
  5
3C1
  8
0
  6
CONTINUOUS
 62
     7
 10
127.9549358093
 20
-7.0953289419
 30
0.0
 11
127.0806131565
 21
-7.0953289419
 31
0.0
  0
LINE
  5
3C2
  8
0
  6
CONTINUOUS
 62
     7
 10
127.0806131565
 20
-7.1521481872
 30
0.0
 11
126.8590924942
 21
-7.1673861146
 31
0.0
  0
ARC
  5
3C3
  8
0
  6
CONTINUOUS
 62
     7
 10
123.0930005608
 20
-13.6143922598
 30
0.0
 40
1.201834798489474
 50
308.2419419619
 51
0.0368399334
  0
LINE
  5
3C4
  8
0
  6
CONTINUOUS
 62
     7
 10
124.2948351108
 20
-9.2110982537
 30
0.0
 11
124.2948351108
 21
-13.6136195064
 31
0.0
  0
ARC
  5
3C5
  8
0
  6
CONTINUOUS
 62
     7
 10
126.2909758021
 20
-9.2069123921
 30
0.0
 40
1.996145080097173
 50
93.970426986
 51
180.1201477716
  0
LINE
  5
3C6
  8
0
  6
CONTINUOUS
 62
     7
 10
126.1527595722
 20
-7.215558216
 30
0.0
 11
126.8590924942
 21
-7.1673861146
 31
0.0
  0
LINE
  5
3C7
  8
0
  6
CONTINUOUS
 62
     7
 10
127.9549358093
 20
-7.0953289419
 30
0.0
 11
127.9549358093
 21
5.6247876585
 31
0.0
  0
LINE
  5
3C8
  8
0
  6
CONTINUOUS
 62
     7
 10
127.1549401485
 20
5.6247876585
 30
0.0
 11
127.1549401485
 21
-7.0953289419
 31
0.0
  0
LINE
  5
3C9
  8
0
  6
CONTINUOUS
 62
     7
 10
127.9549358093
 20
6.8046712875
 30
0.0
 11
127.1549401485
 21
6.8046712875
 31
0.0
  0
LINE
  5
3CA
  8
0
  6
CONTINUOUS
 62
     7
 10
127.9549358093
 20
5.6247876585
 30
0.0
 11
127.9549358093
 21
6.8046712875
 31
0.0
  0
LINE
  5
3CB
  8
0
  6
CONTINUOUS
 62
     7
 10
127.1549401485
 20
6.8046712875
 30
0.0
 11
127.1549401485
 21
5.6247876585
 31
0.0
  0
LINE
  5
3CC
  8
0
  6
CONTINUOUS
 62
     7
 10
122.7549371921
 20
3.1710644811
 30
0.0
 11
122.7549371921
 21
2.8046710044
 31
0.0
  0
LINE
  5
3CD
  8
0
  6
CONTINUOUS
 62
     7
 10
124.7202036583
 20
3.8046711683
 30
0.0
 11
127.1549401485
 21
3.8046711683
 31
0.0
  0
LINE
  5
3CE
  8
0
  6
CONTINUOUS
 62
     7
 10
127.9549358093
 20
3.8046711683
 30
0.0
 11
132.7549395763
 21
3.8046711683
 31
0.0
  0
LINE
  5
3CF
  8
0
  6
CONTINUOUS
 62
     7
 10
132.7549395763
 20
3.8046711683
 30
0.0
 11
132.7549395763
 21
2.8046710044
 31
0.0
  0
LINE
  5
3D0
  8
0
  6
CONTINUOUS
 62
     7
 10
122.7549371921
 20
2.8046710044
 30
0.0
 11
122.7549371921
 21
-6.3953290135
 31
0.0
  0
LINE
  5
3D1
  8
0
  6
CONTINUOUS
 62
     7
 10
132.7549395763
 20
2.8046710044
 30
0.0
 11
132.7549395763
 21
-6.3953290135
 31
0.0
  0
LINE
  5
3D2
  8
0
  6
CONTINUOUS
 62
     7
 10
122.7549371921
 20
-7.3953291774
 30
0.0
 11
125.4510460102
 21
-7.3953291774
 31
0.0
  0
LINE
  5
3D3
  8
0
  6
CONTINUOUS
 62
     7
 10
122.7549371921
 20
-6.3953290135
 30
0.0
 11
122.7549371921
 21
-7.3953291774
 31
0.0
  0
LINE
  5
3D4
  8
0
  6
CONTINUOUS
 62
     7
 10
127.9549358093
 20
-7.3953291774
 30
0.0
 11
132.7549395763
 21
-7.3953291774
 31
0.0
  0
LINE
  5
3D5
  8
0
  6
CONTINUOUS
 62
     7
 10
132.7549395763
 20
-6.3953290135
 30
0.0
 11
132.7549395763
 21
-7.3953291774
 31
0.0
  0
ARC
  5
3D6
  8
0
  6
CONTINUOUS
 62
     7
 10
150.2549371921
 20
-1.9953290045
 30
0.0
 40
2.700000000000017
 50
0.0
 51
180.0
  0
ARC
  5
3D7
  8
0
  6
CONTINUOUS
 62
     7
 10
150.2549371921
 20
-51.9953290045
 30
0.0
 40
2.700000000000017
 50
180.0
 51
0.0
  0
LINE
  5
3D8
  8
0
  6
CONTINUOUS
 62
     7
 10
144.2549345695
 20
2.8046710044
 30
0.0
 11
144.2549345695
 21
4.0046708286
 31
0.0
  0
LINE
  5
3D9
  8
0
  6
CONTINUOUS
 62
     7
 10
144.2549345695
 20
4.0046708286
 30
0.0
 11
156.2549350464
 21
4.0046708286
 31
0.0
  0
LINE
  5
3DA
  8
0
  6
CONTINUOUS
 62
     7
 10
156.2549350464
 20
4.0046708286
 30
0.0
 11
156.2549350464
 21
2.8046710044
 31
0.0
  0
LINE
  5
3DB
  8
0
  6
CONTINUOUS
 62
     7
 10
156.2549350464
 20
2.8046710044
 30
0.0
 11
156.2549350464
 21
-6.795329079
 31
0.0
  0
LINE
  5
3DC
  8
0
  6
CONTINUOUS
 62
     7
 10
144.2549345695
 20
2.8046710044
 30
0.0
 11
144.2549345695
 21
-6.795329079
 31
0.0
  0
LINE
  5
3DD
  8
0
  6
CONTINUOUS
 62
     7
 10
156.2549350464
 20
-7.9953289032
 30
0.0
 11
152.9549358093
 21
-7.9953289032
 31
0.0
  0
LINE
  5
3DE
  8
0
  6
CONTINUOUS
 62
     7
 10
147.554939767
 20
-7.9953289032
 30
0.0
 11
144.2549345695
 21
-7.9953289032
 31
0.0
  0
LINE
  5
3DF
  8
0
  6
CONTINUOUS
 62
     7
 10
156.2549350464
 20
-6.795329079
 30
0.0
 11
156.2549350464
 21
-7.9953289032
 31
0.0
  0
LINE
  5
3E0
  8
0
  6
CONTINUOUS
 62
     7
 10
144.2549345695
 20
-7.9953289032
 30
0.0
 11
144.2549345695
 21
-6.795329079
 31
0.0
  0
ARC
  5
3E1
  8
0
  6
CONTINUOUS
 62
     7
 10
270.2549371921
 20
-1.9953290045
 30
0.0
 40
2.700000000000045
 50
0.0
 51
180.0
  0
ARC
  5
3E2
  8
0
  6
CONTINUOUS
 62
     7
 10
270.2549371921
 20
-51.9953290045
 30
0.0
 40
2.700000000000045
 50
180.0
 51
0.0
  0
LINE
  5
3E3
  8
0
  6
CONTINUOUS
 62
     7
 10
264.2549393379
 20
2.8046710044
 30
0.0
 11
264.2549393379
 21
4.0046708286
 31
0.0
  0
LINE
  5
3E4
  8
0
  6
CONTINUOUS
 62
     7
 10
264.2549393379
 20
4.0046708286
 30
0.0
 11
276.2549398147
 21
4.0046708286
 31
0.0
  0
LINE
  5
3E5
  8
0
  6
CONTINUOUS
 62
     7
 10
276.2549398147
 20
4.0046708286
 30
0.0
 11
276.2549398147
 21
2.8046710044
 31
0.0
  0
LINE
  5
3E6
  8
0
  6
CONTINUOUS
 62
     7
 10
264.2549393379
 20
2.8046710044
 30
0.0
 11
264.2549393379
 21
-6.795329079
 31
0.0
  0
LINE
  5
3E7
  8
0
  6
CONTINUOUS
 62
     7
 10
276.2549398147
 20
2.8046710044
 30
0.0
 11
276.2549398147
 21
-6.795329079
 31
0.0
  0
LINE
  5
3E8
  8
0
  6
CONTINUOUS
 62
     7
 10
276.2549398147
 20
-7.9953289032
 30
0.0
 11
272.9549346172
 21
-7.9953289032
 31
0.0
  0
LINE
  5
3E9
  8
0
  6
CONTINUOUS
 62
     7
 10
267.5549385749
 20
-7.9953289032
 30
0.0
 11
264.2549393379
 21
-7.9953289032
 31
0.0
  0
LINE
  5
3EA
  8
0
  6
CONTINUOUS
 62
     7
 10
264.2549393379
 20
-7.9953289032
 30
0.0
 11
264.2549393379
 21
-6.795329079
 31
0.0
  0
LINE
  5
3EB
  8
0
  6
CONTINUOUS
 62
     7
 10
276.2549398147
 20
-6.795329079
 30
0.0
 11
276.2549398147
 21
-7.9953289032
 31
0.0
  0
ARC
  5
3EC
  8
0
  6
CONTINUOUS
 62
     7
 10
390.2549371921
 20
-1.9953290045
 30
0.0
 40
2.699999999999989
 50
0.0
 51
180.0
  0
ARC
  5
3ED
  8
0
  6
CONTINUOUS
 62
     7
 10
390.2549371921
 20
-51.9953290045
 30
0.0
 40
2.699999999999989
 50
180.0
 51
0.0
  0
LINE
  5
3EE
  8
0
  6
CONTINUOUS
 62
     7
 10
384.2549381458
 20
2.8046710044
 30
0.0
 11
384.2549381458
 21
4.0046708286
 31
0.0
  0
LINE
  5
3EF
  8
0
  6
CONTINUOUS
 62
     7
 10
384.2549381458
 20
4.0046708286
 30
0.0
 11
396.2549386226
 21
4.0046708286
 31
0.0
  0
LINE
  5
3F0
  8
0
  6
CONTINUOUS
 62
     7
 10
396.2549386226
 20
4.0046708286
 30
0.0
 11
396.2549386226
 21
2.8046710044
 31
0.0
  0
LINE
  5
3F1
  8
0
  6
CONTINUOUS
 62
     7
 10
396.2549386226
 20
2.8046710044
 30
0.0
 11
396.2549386226
 21
-6.795329079
 31
0.0
  0
LINE
  5
3F2
  8
0
  6
CONTINUOUS
 62
     7
 10
384.2549381458
 20
2.8046710044
 30
0.0
 11
384.2549381458
 21
-6.795329079
 31
0.0
  0
LINE
  5
3F3
  8
0
  6
CONTINUOUS
 62
     7
 10
396.2549386226
 20
-7.9953289032
 30
0.0
 11
392.9549393856
 21
-7.9953289032
 31
0.0
  0
LINE
  5
3F4
  8
0
  6
CONTINUOUS
 62
     7
 10
387.5549373829
 20
-7.9953289032
 30
0.0
 11
384.2549381458
 21
-7.9953289032
 31
0.0
  0
LINE
  5
3F5
  8
0
  6
CONTINUOUS
 62
     7
 10
396.2549386226
 20
-6.795329079
 30
0.0
 11
396.2549386226
 21
-7.9953289032
 31
0.0
  0
LINE
  5
3F6
  8
0
  6
CONTINUOUS
 62
     7
 10
384.2549381458
 20
-7.9953289032
 30
0.0
 11
384.2549381458
 21
-6.795329079
 31
0.0
  0
ARC
  5
3F7
  8
0
  6
CONTINUOUS
 62
     7
 10
30.2549371921
 20
-1.9953290045
 30
0.0
 40
2.699999999999982
 50
0.0
 51
180.0
  0
ARC
  5
3F8
  8
0
  6
CONTINUOUS
 62
     7
 10
30.2549371921
 20
-51.9953290045
 30
0.0
 40
2.699999999999982
 50
180.0
 51
0.0
  0
LINE
  5
3F9
  8
0
  6
CONTINUOUS
 62
     7
 10
24.2549357616
 20
4.0046708286
 30
0.0
 11
36.2549362384
 21
4.0046708286
 31
0.0
  0
LINE
  5
3FA
  8
0
  6
CONTINUOUS
 62
     7
 10
24.2549357616
 20
2.8046710044
 30
0.0
 11
24.2549357616
 21
4.0046708286
 31
0.0
  0
LINE
  5
3FB
  8
0
  6
CONTINUOUS
 62
     7
 10
36.2549362384
 20
4.0046708286
 30
0.0
 11
36.2549362384
 21
2.8046710044
 31
0.0
  0
LINE
  5
3FC
  8
0
  6
CONTINUOUS
 62
     7
 10
24.2549357616
 20
2.8046710044
 30
0.0
 11
24.2549357616
 21
-6.795329079
 31
0.0
  0
LINE
  5
3FD
  8
0
  6
CONTINUOUS
 62
     7
 10
36.2549362384
 20
2.8046710044
 30
0.0
 11
36.2549362384
 21
-6.795329079
 31
0.0
  0
LINE
  5
3FE
  8
0
  6
CONTINUOUS
 62
     7
 10
36.2549362384
 20
-7.9953289032
 30
0.0
 11
32.9549370014
 21
-7.9953289032
 31
0.0
  0
LINE
  5
3FF
  8
0
  6
CONTINUOUS
 62
     7
 10
27.5549349987
 20
-7.9953289032
 30
0.0
 11
24.2549357616
 21
-7.9953289032
 31
0.0
  0
LINE
  5
400
  8
0
  6
CONTINUOUS
 62
     7
 10
24.2549357616
 20
-7.9953289032
 30
0.0
 11
24.2549357616
 21
-6.795329079
 31
0.0
  0
LINE
  5
401
  8
0
  6
CONTINUOUS
 62
     7
 10
36.2549362384
 20
-6.795329079
 30
0.0
 11
36.2549362384
 21
-7.9953289032
 31
0.0
  0
LINE
  5
402
  8
0
  6
CONTINUOUS
 62
     7
 10
399.0549383365
 20
2.8046710044
 30
0.0
 11
399.0549383365
 21
2.2046709061
 31
0.0
  0
ARC
  5
403
  8
0
  6
CONTINUOUS
 62
     7
 10
398.6549371921
 20
2.8046709955
 30
0.0
 40
0.4000000000000044
 50
0.0
 51
90.0
  0
LINE
  5
404
  8
0
  6
CONTINUOUS
 62
     7
 10
21.4549360477
 20
2.2046709061
 30
0.0
 11
21.4549360477
 21
2.8046710044
 31
0.0
  0
ARC
  5
405
  8
0
  6
CONTINUOUS
 62
     7
 10
21.8549371921
 20
2.8046709955
 30
0.0
 40
0.4000000000000044
 50
90.0
 51
180.0
  0
LINE
  5
406
  8
0
  6
CONTINUOUS
 62
     7
 10
21.8549428188
 20
3.20467107
 30
0.0
 11
24.2549357616
 21
3.20467107
 31
0.0
  0
LINE
  5
407
  8
0
  6
CONTINUOUS
 62
     7
 10
36.2549362384
 20
3.20467107
 30
0.0
 11
47.7549371921
 21
3.20467107
 31
0.0
  0
LINE
  5
408
  8
0
  6
CONTINUOUS
 62
     7
 10
57.8534183704
 20
3.20467107
 30
0.0
 11
72.254937669
 21
3.20467107
 31
0.0
  0
LINE
  5
409
  8
0
  6
CONTINUOUS
 62
     7
 10
108.2549390995
 20
3.20467107
 30
0.0
 11
122.6539311611
 21
3.20467107
 31
0.0
  0
LINE
  5
40A
  8
0
  6
CONTINUOUS
 62
     7
 10
132.7549395763
 20
3.20467107
 30
0.0
 11
144.2549345695
 21
3.20467107
 31
0.0
  0
LINE
  5
40B
  8
0
  6
CONTINUOUS
 62
     7
 10
156.2549350464
 20
3.20467107
 30
0.0
 11
167.754936
 21
3.20467107
 31
0.0
  0
LINE
  5
40C
  8
0
  6
CONTINUOUS
 62
     7
 10
177.8534231388
 20
3.20467107
 30
0.0
 11
192.2549364769
 21
3.20467107
 31
0.0
  0
LINE
  5
40D
  8
0
  6
CONTINUOUS
 62
     7
 10
228.2549379074
 20
3.20467107
 30
0.0
 11
242.653929969
 21
3.20467107
 31
0.0
  0
LINE
  5
40E
  8
0
  6
CONTINUOUS
 62
     7
 10
252.7549383842
 20
3.20467107
 30
0.0
 11
264.2549393379
 21
3.20467107
 31
0.0
  0
LINE
  5
40F
  8
0
  6
CONTINUOUS
 62
     7
 10
276.2549398147
 20
3.20467107
 30
0.0
 11
287.7549348079
 21
3.20467107
 31
0.0
  0
LINE
  5
410
  8
0
  6
CONTINUOUS
 62
     7
 10
297.8534219467
 20
3.20467107
 30
0.0
 11
312.2549352848
 21
3.20467107
 31
0.0
  0
LINE
  5
411
  8
0
  6
CONTINUOUS
 62
     7
 10
348.2549367153
 20
3.20467107
 30
0.0
 11
362.6539287769
 21
3.20467107
 31
0.0
  0
LINE
  5
412
  8
0
  6
CONTINUOUS
 62
     7
 10
372.7549371921
 20
3.20467107
 30
0.0
 11
384.2549381458
 21
3.20467107
 31
0.0
  0
LINE
  5
413
  8
0
  6
CONTINUOUS
 62
     7
 10
396.2549386226
 20
3.20467107
 30
0.0
 11
398.6549315654
 21
3.20467107
 31
0.0
  0
LINE
  5
414
  8
0
  6
CONTINUOUS
 62
     7
 10
21.4549360477
 20
-5.7953289151
 30
0.0
 11
21.4549360477
 21
2.2046709061
 31
0.0
  0
LINE
  5
415
  8
0
  6
CONTINUOUS
 62
     7
 10
399.0549383365
 20
2.2046709061
 30
0.0
 11
399.0549383365
 21
-5.7953289151
 31
0.0
  0
LINE
  5
416
  8
0
  6
CONTINUOUS
 62
     7
 10
399.0549383365
 20
-5.7953289151
 30
0.0
 11
399.0549383365
 21
-6.3953290135
 31
0.0
  0
ARC
  5
417
  8
0
  6
CONTINUOUS
 62
     7
 10
398.6549371921
 20
-6.3953290045
 30
0.0
 40
0.4000000000000012
 50
270.0
 51
0.0
  0
LINE
  5
418
  8
0
  6
CONTINUOUS
 62
     7
 10
398.6549315654
 20
-6.795329079
 30
0.0
 11
396.2549386226
 21
-6.795329079
 31
0.0
  0
LINE
  5
419
  8
0
  6
CONTINUOUS
 62
     7
 10
384.2549381458
 20
-6.795329079
 30
0.0
 11
372.7549371921
 21
-6.795329079
 31
0.0
  0
LINE
  5
41A
  8
0
  6
CONTINUOUS
 62
     7
 10
362.7549348079
 20
-6.795329079
 30
0.0
 11
348.2549367153
 21
-6.795329079
 31
0.0
  0
LINE
  5
41B
  8
0
  6
CONTINUOUS
 62
     7
 10
312.2549352848
 20
-6.795329079
 30
0.0
 11
297.7549371921
 21
-6.795329079
 31
0.0
  0
LINE
  5
41C
  8
0
  6
CONTINUOUS
 62
     7
 10
287.7549348079
 20
-6.795329079
 30
0.0
 11
276.2549398147
 21
-6.795329079
 31
0.0
  0
LINE
  5
41D
  8
0
  6
CONTINUOUS
 62
     7
 10
264.2549393379
 20
-6.795329079
 30
0.0
 11
252.7549383842
 21
-6.795329079
 31
0.0
  0
LINE
  5
41E
  8
0
  6
CONTINUOUS
 62
     7
 10
242.754936
 20
-6.795329079
 30
0.0
 11
228.2549379074
 21
-6.795329079
 31
0.0
  0
LINE
  5
41F
  8
0
  6
CONTINUOUS
 62
     7
 10
192.2549364769
 20
-6.795329079
 30
0.0
 11
177.7549383842
 21
-6.795329079
 31
0.0
  0
LINE
  5
420
  8
0
  6
CONTINUOUS
 62
     7
 10
167.754936
 20
-6.795329079
 30
0.0
 11
156.2549350464
 21
-6.795329079
 31
0.0
  0
LINE
  5
421
  8
0
  6
CONTINUOUS
 62
     7
 10
144.2549345695
 20
-6.795329079
 30
0.0
 11
132.7549395763
 21
-6.795329079
 31
0.0
  0
LINE
  5
422
  8
0
  6
CONTINUOUS
 62
     7
 10
122.7549371921
 20
-6.795329079
 30
0.0
 11
108.2549390995
 21
-6.795329079
 31
0.0
  0
LINE
  5
423
  8
0
  6
CONTINUOUS
 62
     7
 10
72.254937669
 20
-6.795329079
 30
0.0
 11
57.7549395763
 21
-6.795329079
 31
0.0
  0
LINE
  5
424
  8
0
  6
CONTINUOUS
 62
     7
 10
47.7549371921
 20
-6.795329079
 30
0.0
 11
36.2549362384
 21
-6.795329079
 31
0.0
  0
LINE
  5
425
  8
0
  6
CONTINUOUS
 62
     7
 10
24.2549357616
 20
-6.795329079
 30
0.0
 11
21.8549428188
 21
-6.795329079
 31
0.0
  0
ARC
  5
426
  8
0
  6
CONTINUOUS
 62
     7
 10
21.8549371921
 20
-6.3953290045
 30
0.0
 40
0.4000000000000012
 50
180.0
 51
270.0
  0
LINE
  5
427
  8
0
  6
CONTINUOUS
 62
     7
 10
21.4549360477
 20
-6.3953290135
 30
0.0
 11
21.4549360477
 21
-5.7953289151
 31
0.0
  0
POLYLINE
  5
428
  8
0
  6
CONTINUOUS
 62
     7
 66
     1
 10
0.0
 20
0.0
 30
0.0
  0
VERTEX
  5
A89
  8
0
  6
CONTINUOUS
 62
     7
 10
64.6463213169
 20
-10.6508357823
 30
0.0
  0
VERTEX
  5
A8A
  8
0
  6
CONTINUOUS
 62
     7
 10
64.2603454792
 20
-8.438693583
 30
0.0
  0
VERTEX
  5
A8B
  8
0
  6
CONTINUOUS
 62
     7
 10
64.0147981845
 20
-6.795329079
 30
0.0
  0
SEQEND
  5
BAC
  8
0
  6
CONTINUOUS
 62
     7
  0
LINE
  5
429
  8
0
  6
CONTINUOUS
 62
     7
 10
63.2611928188
 20
3.20467107
 30
0.0
 11
63.2549343311
 21
4.2046708614
 31
0.0
  0
LINE
  5
42A
  8
0
  6
CONTINUOUS
 62
     7
 10
63.2549343311
 20
5.2694530785
 30
0.0
 11
63.2549343311
 21
4.2046708614
 31
0.0
  0
LINE
  5
42B
  8
0
  6
CONTINUOUS
 62
     7
 10
83.2549390995
 20
10.2046707273
 30
0.0
 11
83.1893978321
 21
10.2046707273
 31
0.0
  0
ARC
  5
42C
  8
0
  6
CONTINUOUS
 62
     7
 10
83.2549371921
 20
6.2046709955
 30
0.0
 40
4.000000000000014
 50
0.0
 51
90.0
  0
LINE
  5
42D
  8
0
  6
CONTINUOUS
 62
     7
 10
87.2549352848
 20
4.2046708614
 30
0.0
 11
87.2539339267
 21
3.8046711683
 31
0.0
  0
ARC
  5
42E
  8
0
  6
CONTINUOUS
 62
     7
 10
67.2549371921
 20
6.2046709955
 30
0.0
 40
1.500000000000022
 50
270.0
 51
38.8386719473
  0
ARC
  5
42F
  8
0
  6
CONTINUOUS
 62
     7
 10
67.2549371921
 20
6.2046709955
 30
0.0
 40
1.500000000000022
 50
179.2809376961
 51
270.0
  0
CIRCLE
  5
430
  8
0
  6
CONTINUOUS
 62
     7
 10
83.2549371921
 20
6.2046709955
 30
0.0
 40
1.500000000000016
  0
LINE
  5
431
  8
0
  6
CONTINUOUS
 62
     7
 10
357.2549400531
 20
4.2046708614
 30
0.0
 11
357.2549400531
 21
5.2698993683
 31
0.0
  0
LINE
  5
432
  8
0
  6
CONTINUOUS
 62
     7
 10
357.2549400531
 20
4.2046708614
 30
0.0
 11
357.2486815654
 21
3.20467107
 31
0.0
  0
POLYLINE
  5
433
  8
0
  6
CONTINUOUS
 62
     7
 66
     1
 10
0.0
 20
0.0
 30
0.0
  0
VERTEX
  5
A8C
  8
0
  6
CONTINUOUS
 62
     7
 10
356.4950761997
 20
-6.795329079
 30
0.0
  0
VERTEX
  5
A8D
  8
0
  6
CONTINUOUS
 62
     7
 10
356.2495289051
 20
-8.438693583
 30
0.0
  0
VERTEX
  5
A8E
  8
0
  6
CONTINUOUS
 62
     7
 10
355.8633861744
 20
-10.6516858935
 30
0.0
  0
SEQEND
  5
BAB
  8
0
  6
CONTINUOUS
 62
     7
  0
LINE
  5
434
  8
0
  6
CONTINUOUS
 62
     7
 10
333.2559404575
 20
3.8046711683
 30
0.0
 11
333.2549390995
 21
4.2046708614
 31
0.0
  0
ARC
  5
435
  8
0
  6
CONTINUOUS
 62
     7
 10
337.2549371921
 20
6.2046709955
 30
0.0
 40
4.0
 50
90.0
 51
180.0
  0
LINE
  5
436
  8
0
  6
CONTINUOUS
 62
     7
 10
337.3204765522
 20
10.2046707273
 30
0.0
 11
337.2549352848
 21
10.2046707273
 31
0.0
  0
ARC
  5
437
  8
0
  6
CONTINUOUS
 62
     7
 10
353.2549371921
 20
6.2046709955
 30
0.0
 40
1.500000000000042
 50
141.2936122605
 51
0.5532366202
  0
CIRCLE
  5
438
  8
0
  6
CONTINUOUS
 62
     7
 10
337.2549371921
 20
6.2046709955
 30
0.0
 40
1.500000000000008
  0
POLYLINE
  5
439
  8
0
  6
CONTINUOUS
 62
     7
 66
     1
 10
0.0
 20
0.0
 30
0.0
  0
VERTEX
  5
A8F
  8
0
  6
CONTINUOUS
 62
     7
 10
437.0703874832
 20
235.9035818352
 30
0.0
  0
VERTEX
  5
A90
  8
0
  6
CONTINUOUS
 62
     7
 10
437.6556648617
 20
233.2640855087
 30
0.0
  0
VERTEX
  5
A91
  8
0
  6
CONTINUOUS
 62
     7
 10
438.2150276309
 20
230.8023183121
 30
0.0
  0
VERTEX
  5
A92
  8
0
  6
CONTINUOUS
 62
     7
 10
438.7535973197
 20
228.5192816033
 30
0.0
  0
VERTEX
  5
A93
  8
0
  6
CONTINUOUS
 62
     7
 10
439.245539785
 20
226.4099924339
 30
0.0
  0
VERTEX
  5
A94
  8
0
  6
CONTINUOUS
 62
     7
 10
439.6557359701
 20
224.4878499283
 30
0.0
  0
VERTEX
  5
A95
  8
0
  6
CONTINUOUS
 62
     7
 10
439.9680061942
 20
222.7872936501
 30
0.0
  0
VERTEX
  5
A96
  8
0
  6
CONTINUOUS
 62
     7
 10
440.0997369295
 20
221.9688980354
 30
0.0
  0
SEQEND
  5
BAA
  8
0
  6
CONTINUOUS
 62
     7
  0
ARC
  5
43A
  8
0
  6
CONTINUOUS
 62
     7
 10
226.7688942122
 20
185.2952161133
 30
0.0
 40
216.3961531960966
 50
5.3056924443
 51
8.16556371
  0
LINE
  5
43B
  8
0
  6
CONTINUOUS
 62
     7
 10
438.2421790367
 20
236.1622421517
 30
0.0
 11
437.0703874832
 21
235.9035818352
 31
0.0
  0
LINE
  5
43C
  8
0
  6
CONTINUOUS
 62
     7
 10
442.2379015689
 20
205.3052632584
 30
0.0
 11
443.4319845145
 21
205.424293734
 31
0.0
  0
POLYLINE
  5
43D
  8
0
  6
CONTINUOUS
 62
     7
 66
     1
 10
0.0
 20
0.0
 30
0.0
  0
VERTEX
  5
A97
  8
0
  6
CONTINUOUS
 62
     7
 10
522.313357771
 20
158.7928144707
 30
0.0
  0
VERTEX
  5
A98
  8
0
  6
CONTINUOUS
 62
     7
 10
524.0973724728
 20
158.8890402092
 30
0.0
  0
VERTEX
  5
A99
  8
0
  6
CONTINUOUS
 62
     7
 10
526.5184654599
 20
159.033378817
 30
0.0
  0
VERTEX
  5
A9A
  8
0
  6
CONTINUOUS
 62
     7
 10
527.7101530438
 20
159.0232817902
 30
0.0
  0
VERTEX
  5
A9B
  8
0
  6
CONTINUOUS
 62
     7
 10
528.8599624043
 20
158.873727776
 30
0.0
  0
VERTEX
  5
A9C
  8
0
  6
CONTINUOUS
 62
     7
 10
529.9508585339
 20
158.5360853447
 30
0.0
  0
VERTEX
  5
A9D
  8
0
  6
CONTINUOUS
 62
     7
 10
530.9878243809
 20
158.0273060574
 30
0.0
  0
VERTEX
  5
A9E
  8
0
  6
CONTINUOUS
 62
     7
 10
532.3052002793
 20
157.1418850197
 30
0.0
  0
VERTEX
  5
A9F
  8
0
  6
CONTINUOUS
 62
     7
 10
533.5714473134
 20
156.094208218
 30
0.0
  0
VERTEX
  5
AA0
  8
0
  6
CONTINUOUS
 62
     7
 10
534.8121299153
 20
154.9653975739
 30
0.0
  0
SEQEND
  5
BA9
  8
0
  6
CONTINUOUS
 62
     7
  0
LINE
  5
43E
  8
0
  6
CONTINUOUS
 62
     7
 10
534.8123683339
 20
154.9790649189
 30
0.0
 11
534.8404063588
 21
156.5850822701
 31
0.0
  0
LINE
  5
43F
  8
0
  6
CONTINUOUS
 62
     7
 10
522.313357771
 20
160.6672971024
 30
0.0
 11
508.7133540517
 21
160.6672971024
 31
0.0
  0
LINE
  5
440
  8
0
  6
CONTINUOUS
 62
     7
 10
503.3133550292
 20
160.6672971024
 30
0.0
 11
461.1788260495
 21
160.6672971024
 31
0.0
  0
LINE
  5
441
  8
0
  6
CONTINUOUS
 62
     7
 10
458.7133555418
 20
145.164510466
 30
0.0
 11
458.7133555418
 21
170.164510466
 31
0.0
  0
LINE
  5
442
  8
0
  6
CONTINUOUS
 62
     7
 10
453.313355588
 20
170.164510466
 30
0.0
 11
453.313355588
 21
145.164510466
 31
0.0
  0
ARC
  5
443
  8
0
  6
CONTINUOUS
 62
     7
 10
471.0133556252
 20
170.1645114197
 30
0.0
 40
12.29999999999998
 50
90.0
 51
180.0
  0
ARC
  5
444
  8
0
  6
CONTINUOUS
 62
     7
 10
471.0133556252
 20
170.1645114197
 30
0.0
 40
17.70000000000002
 50
90.0
 51
180.0
  0
LINE
  5
445
  8
0
  6
CONTINUOUS
 62
     7
 10
462.0133555239
 20
135.8645109905
 30
0.0
 11
491.0133554345
 21
135.8645109905
 31
0.0
  0
LINE
  5
446
  8
0
  6
CONTINUOUS
 62
     7
 10
491.0133554345
 20
141.2645129933
 30
0.0
 11
462.0133555239
 21
141.2645129933
 31
0.0
  0
LINE
  5
447
  8
0
  6
CONTINUOUS
 62
     7
 10
491.0133554345
 20
187.8645150437
 30
0.0
 11
471.0133551365
 21
187.8645150437
 31
0.0
  0
LINE
  5
448
  8
0
  6
CONTINUOUS
 62
     7
 10
471.0133551365
 20
182.4645130409
 30
0.0
 11
491.0133554345
 21
182.4645130409
 31
0.0
  0
ARC
  5
449
  8
0
  6
CONTINUOUS
 62
     7
 10
491.0133556252
 20
153.5645114197
 30
0.0
 40
12.30000000000001
 50
270.0
 51
0.0
  0
ARC
  5
44A
  8
0
  6
CONTINUOUS
 62
     7
 10
491.0133556252
 20
153.5645114197
 30
0.0
 40
17.69999999999999
 50
270.0
 51
0.0
  0
ARC
  5
44B
  8
0
  6
CONTINUOUS
 62
     7
 10
491.0133556252
 20
170.1645114197
 30
0.0
 40
12.30000000000001
 50
360.0
 51
90.0
  0
ARC
  5
44C
  8
0
  6
CONTINUOUS
 62
     7
 10
491.0133556252
 20
170.1645114197
 30
0.0
 40
17.69999999999999
 50
360.0
 51
90.0
  0
LINE
  5
44D
  8
0
  6
CONTINUOUS
 62
     7
 10
508.7133540517
 20
153.5645096077
 30
0.0
 11
508.7133540517
 21
170.164510466
 31
0.0
  0
LINE
  5
44E
  8
0
  6
CONTINUOUS
 62
     7
 10
503.3133550292
 20
170.164510466
 30
0.0
 11
503.3133550292
 21
153.5645096077
 31
0.0
  0
POLYLINE
  5
44F
  8
0
  6
CONTINUOUS
 62
     7
 66
     1
 10
0.0
 20
0.0
 30
0.0
  0
VERTEX
  5
AA1
  8
0
  6
CONTINUOUS
 62
     7
 10
447.1296033567
 20
205.9058873428
 30
0.0
  0
VERTEX
  5
AA2
  8
0
  6
CONTINUOUS
 62
     7
 10
447.6771562105
 20
206.1007110848
 30
0.0
  0
VERTEX
  5
AA3
  8
0
  6
CONTINUOUS
 62
     7
 10
448.2100820845
 20
206.542977549
 30
0.0
  0
VERTEX
  5
AA4
  8
0
  6
CONTINUOUS
 62
     7
 10
448.709059388
 20
207.2248308434
 30
0.0
  0
VERTEX
  5
AA5
  8
0
  6
CONTINUOUS
 62
     7
 10
449.1537539964
 20
208.1236092819
 30
0.0
  0
VERTEX
  5
AA6
  8
0
  6
CONTINUOUS
 62
     7
 10
449.5218685573
 20
209.2118947281
 30
0.0
  0
VERTEX
  5
AA7
  8
0
  6
CONTINUOUS
 62
     7
 10
449.7976108199
 20
210.4584781899
 30
0.0
  0
VERTEX
  5
AA8
  8
0
  6
CONTINUOUS
 62
     7
 10
449.9638094311
 20
211.8322102799
 30
0.0
  0
VERTEX
  5
AA9
  8
0
  6
CONTINUOUS
 62
     7
 10
450.0094662165
 20
213.2894603981
 30
0.0
  0
VERTEX
  5
AAA
  8
0
  6
CONTINUOUS
 62
     7
 10
449.9610098755
 20
214.3879978432
 30
0.0
  0
SEQEND
  5
BA8
  8
0
  6
CONTINUOUS
 62
     7
  0
POLYLINE
  5
450
  8
0
  6
CONTINUOUS
 62
     7
 66
     1
 10
0.0
 20
0.0
 30
0.0
  0
VERTEX
  5
AAB
  8
0
  6
CONTINUOUS
 62
     7
 10
447.1296033567
 20
205.9058873428
 30
0.0
  0
VERTEX
  5
AAC
  8
0
  6
CONTINUOUS
 62
     7
 10
446.0688425904
 20
205.7756392731
 30
0.0
  0
VERTEX
  5
AAD
  8
0
  6
CONTINUOUS
 62
     7
 10
445.13443026
 20
205.6609122528
 30
0.0
  0
VERTEX
  5
AAE
  8
0
  6
CONTINUOUS
 62
     7
 10
444.3280904298
 20
205.5619089378
 30
0.0
  0
VERTEX
  5
AAF
  8
0
  6
CONTINUOUS
 62
     7
 10
443.4161922639
 20
205.4499356522
 30
0.0
  0
VERTEX
  5
AB0
  8
0
  6
CONTINUOUS
 62
     7
 10
442.762358368
 20
205.3696601166
 30
0.0
  0
VERTEX
  5
AB1
  8
0
  6
CONTINUOUS
 62
     7
 10
442.3691733485
 20
205.3213803543
 30
0.0
  0
VERTEX
  5
AB2
  8
0
  6
CONTINUOUS
 62
     7
 10
442.2379015689
 20
205.3052632584
 30
0.0
  0
SEQEND
  5
BA7
  8
0
  6
CONTINUOUS
 62
     7
  0
POLYLINE
  5
451
  8
0
  6
CONTINUOUS
 62
     7
 66
     1
 10
0.0
 20
0.0
 30
0.0
  0
VERTEX
  5
AB3
  8
0
  6
CONTINUOUS
 62
     7
 10
437.0703874832
 20
235.9035818352
 30
0.0
  0
VERTEX
  5
AB4
  8
0
  6
CONTINUOUS
 62
     7
 10
437.1674044734
 20
235.9154908432
 30
0.0
  0
VERTEX
  5
AB5
  8
0
  6
CONTINUOUS
 62
     7
 10
437.4580441719
 20
235.9511701836
 30
0.0
  0
VERTEX
  5
AB6
  8
0
  6
CONTINUOUS
 62
     7
 10
437.9416598683
 20
236.0105602516
 30
0.0
  0
VERTEX
  5
AB7
  8
0
  6
CONTINUOUS
 62
     7
 10
438.6169804936
 20
236.0934703125
 30
0.0
  0
VERTEX
  5
AB8
  8
0
  6
CONTINUOUS
 62
     7
 10
439.4821046596
 20
236.1996977104
 30
0.0
  0
VERTEX
  5
AB9
  8
0
  6
CONTINUOUS
 62
     7
 10
440.4524816876
 20
236.3188473953
 30
0.0
  0
VERTEX
  5
ABA
  8
0
  6
CONTINUOUS
 62
     7
 10
441.5820299392
 20
236.4575354828
 30
0.0
  0
VERTEX
  5
ABB
  8
0
  6
CONTINUOUS
 62
     7
 10
442.8682475095
 20
236.6154639496
 30
0.0
  0
SEQEND
  5
BA6
  8
0
  6
CONTINUOUS
 62
     7
  0
POLYLINE
  5
452
  8
0
  6
CONTINUOUS
 62
     7
 66
     1
 10
0.0
 20
0.0
 30
0.0
  0
VERTEX
  5
ABC
  8
0
  6
CONTINUOUS
 62
     7
 10
448.3264079993
 20
228.8051574005
 30
0.0
  0
VERTEX
  5
ABD
  8
0
  6
CONTINUOUS
 62
     7
 10
448.0238272553
 20
230.1169721855
 30
0.0
  0
VERTEX
  5
ABE
  8
0
  6
CONTINUOUS
 62
     7
 10
447.6058720356
 20
231.3871471657
 30
0.0
  0
VERTEX
  5
ABF
  8
0
  6
CONTINUOUS
 62
     7
 10
447.0880022948
 20
232.5799672379
 30
0.0
  0
VERTEX
  5
AC0
  8
0
  6
CONTINUOUS
 62
     7
 10
446.4943966573
 20
233.6652009262
 30
0.0
  0
VERTEX
  5
AC1
  8
0
  6
CONTINUOUS
 62
     7
 10
445.8489476448
 20
234.6134154572
 30
0.0
  0
VERTEX
  5
AC2
  8
0
  6
CONTINUOUS
 62
     7
 10
445.1787552541
 20
235.4006020798
 30
0.0
  0
VERTEX
  5
AC3
  8
0
  6
CONTINUOUS
 62
     7
 10
444.5116474038
 20
236.0018818153
 30
0.0
  0
VERTEX
  5
AC4
  8
0
  6
CONTINUOUS
 62
     7
 10
443.8683143561
 20
236.4073841347
 30
0.0
  0
VERTEX
  5
AC5
  8
0
  6
CONTINUOUS
 62
     7
 10
443.345703811
 20
236.5906445755
 30
0.0
  0
VERTEX
  5
AC6
  8
0
  6
CONTINUOUS
 62
     7
 10
442.8682475095
 20
236.6154639496
 30
0.0
  0
SEQEND
  5
BA5
  8
0
  6
CONTINUOUS
 62
     7
  0
POLYLINE
  5
453
  8
0
  6
CONTINUOUS
 62
     7
 66
     1
 10
0.0
 20
0.0
 30
0.0
  0
VERTEX
  5
AC7
  8
0
  6
CONTINUOUS
 62
     7
 10
448.3264079993
 20
228.8051574005
 30
0.0
  0
VERTEX
  5
AC8
  8
0
  6
CONTINUOUS
 62
     7
 10
448.8995133644
 20
225.2322761788
 30
0.0
  0
VERTEX
  5
AC9
  8
0
  6
CONTINUOUS
 62
     7
 10
449.3237710302
 20
221.6287581696
 30
0.0
  0
VERTEX
  5
ACA
  8
0
  6
CONTINUOUS
 62
     7
 10
449.6640181845
 20
218.010362841
 30
0.0
  0
VERTEX
  5
ACB
  8
0
  6
CONTINUOUS
 62
     7
 10
449.9610098755
 20
214.3879978432
 30
0.0
  0
SEQEND
  5
BA4
  8
0
  6
CONTINUOUS
 62
     7
  0
POLYLINE
  5
454
  8
0
  6
CONTINUOUS
 62
     7
 66
     1
 10
0.0
 20
0.0
 30
0.0
  0
VERTEX
  5
ACC
  8
0
  6
CONTINUOUS
 62
     7
 10
443.878835321
 20
236.8844954743
 30
0.0
  0
VERTEX
  5
ACD
  8
0
  6
CONTINUOUS
 62
     7
 10
444.4314031606
 20
236.8437855019
 30
0.0
  0
VERTEX
  5
ACE
  8
0
  6
CONTINUOUS
 62
     7
 10
445.0423395937
 20
236.5928380264
 30
0.0
  0
VERTEX
  5
ACF
  8
0
  6
CONTINUOUS
 62
     7
 10
445.6944471901
 20
236.134156443
 30
0.0
  0
VERTEX
  5
AD0
  8
0
  6
CONTINUOUS
 62
     7
 10
446.3650605386
 20
235.4821293129
 30
0.0
  0
VERTEX
  5
AD1
  8
0
  6
CONTINUOUS
 62
     7
 10
447.0270312136
 20
234.6557585968
 30
0.0
  0
VERTEX
  5
AD2
  8
0
  6
CONTINUOUS
 62
     7
 10
447.6582980459
 20
233.6760370506
 30
0.0
  0
VERTEX
  5
AD3
  8
0
  6
CONTINUOUS
 62
     7
 10
448.233855397
 20
232.5637547745
 30
0.0
  0
VERTEX
  5
AD4
  8
0
  6
CONTINUOUS
 62
     7
 10
448.7283154135
 20
231.3518373741
 30
0.0
  0
VERTEX
  5
AD5
  8
0
  6
CONTINUOUS
 62
     7
 10
449.0754975682
 20
230.2364914192
 30
0.0
  0
VERTEX
  5
AD6
  8
0
  6
CONTINUOUS
 62
     7
 10
449.3337749248
 20
229.0926067604
 30
0.0
  0
SEQEND
  5
BA3
  8
0
  6
CONTINUOUS
 62
     7
  0
POLYLINE
  5
455
  8
0
  6
CONTINUOUS
 62
     7
 66
     1
 10
0.0
 20
0.0
 30
0.0
  0
VERTEX
  5
AD7
  8
0
  6
CONTINUOUS
 62
     7
 10
449.3337749248
 20
229.0926067604
 30
0.0
  0
VERTEX
  5
AD8
  8
0
  6
CONTINUOUS
 62
     7
 10
449.9223957514
 20
225.4646031632
 30
0.0
  0
VERTEX
  5
AD9
  8
0
  6
CONTINUOUS
 62
     7
 10
450.3576966679
 20
221.8122093453
 30
0.0
  0
VERTEX
  5
ADA
  8
0
  6
CONTINUOUS
 62
     7
 10
450.7043125784
 20
218.1669919266
 30
0.0
  0
VERTEX
  5
ADB
  8
0
  6
CONTINUOUS
 62
     7
 10
451.0079885578
 20
214.5189850105
 30
0.0
  0
SEQEND
  5
BA2
  8
0
  6
CONTINUOUS
 62
     7
  0
POLYLINE
  5
456
  8
0
  6
CONTINUOUS
 62
     7
 66
     1
 10
0.0
 20
0.0
 30
0.0
  0
VERTEX
  5
ADC
  8
0
  6
CONTINUOUS
 62
     7
 10
448.1880753046
 20
206.0149519219
 30
0.0
  0
VERTEX
  5
ADD
  8
0
  6
CONTINUOUS
 62
     7
 10
447.16686073
 20
205.8881251587
 30
0.0
  0
VERTEX
  5
ADE
  8
0
  6
CONTINUOUS
 62
     7
 10
446.265933544
 20
205.7762353195
 30
0.0
  0
VERTEX
  5
ADF
  8
0
  6
CONTINUOUS
 62
     7
 10
445.4869365996
 20
205.6794969811
 30
0.0
  0
VERTEX
  5
AE0
  8
0
  6
CONTINUOUS
 62
     7
 10
444.5904141968
 20
205.5681555046
 30
0.0
  0
VERTEX
  5
AE1
  8
0
  6
CONTINUOUS
 62
     7
 10
443.9476004546
 20
205.4883210434
 30
0.0
  0
VERTEX
  5
AE2
  8
0
  6
CONTINUOUS
 62
     7
 10
443.5610449618
 20
205.4403154625
 30
0.0
  0
VERTEX
  5
AE3
  8
0
  6
CONTINUOUS
 62
     7
 10
443.4319845145
 20
205.424293734
 30
0.0
  0
SEQEND
  5
BA1
  8
0
  6
CONTINUOUS
 62
     7
  0
POLYLINE
  5
457
  8
0
  6
CONTINUOUS
 62
     7
 66
     1
 10
0.0
 20
0.0
 30
0.0
  0
VERTEX
  5
AE4
  8
0
  6
CONTINUOUS
 62
     7
 10
451.0079889303
 20
214.5189850105
 30
0.0
  0
VERTEX
  5
AE5
  8
0
  6
CONTINUOUS
 62
     7
 10
451.0580691254
 20
213.0235759987
 30
0.0
  0
VERTEX
  5
AE6
  8
0
  6
CONTINUOUS
 62
     7
 10
450.9816637939
 20
211.5808813347
 30
0.0
  0
VERTEX
  5
AE7
  8
0
  6
CONTINUOUS
 62
     7
 10
450.7851588284
 20
210.233613707
 30
0.0
  0
VERTEX
  5
AE8
  8
0
  6
CONTINUOUS
 62
     7
 10
450.4837098276
 20
209.0193955673
 30
0.0
  0
VERTEX
  5
AE9
  8
0
  6
CONTINUOUS
 62
     7
 10
450.0931783324
 20
207.9764215721
 30
0.0
  0
VERTEX
  5
AEA
  8
0
  6
CONTINUOUS
 62
     7
 10
449.6339077806
 20
207.1317403092
 30
0.0
  0
VERTEX
  5
AEB
  8
0
  6
CONTINUOUS
 62
     7
 10
449.1273476487
 20
206.5142242684
 30
0.0
  0
VERTEX
  5
AEC
  8
0
  6
CONTINUOUS
 62
     7
 10
448.5927647656
 20
206.1349122299
 30
0.0
  0
VERTEX
  5
AED
  8
0
  6
CONTINUOUS
 62
     7
 10
448.1880753046
 20
206.0149519219
 30
0.0
  0
SEQEND
  5
BA0
  8
0
  6
CONTINUOUS
 62
     7
  0
LINE
  5
458
  8
0
  6
CONTINUOUS
 62
     7
 10
443.8788561826
 20
236.8844954743
 30
0.0
 11
443.0308370596
 21
236.7758481278
 31
0.0
  0
POLYLINE
  5
459
  8
0
  6
CONTINUOUS
 62
     7
 66
     1
 10
0.0
 20
0.0
 30
0.0
  0
VERTEX
  5
AEE
  8
0
  6
CONTINUOUS
 62
     7
 10
438.2421790367
 20
236.1622421517
 30
0.0
  0
VERTEX
  5
AEF
  8
0
  6
CONTINUOUS
 62
     7
 10
438.3375241166
 20
236.1744491829
 30
0.0
  0
VERTEX
  5
AF0
  8
0
  6
CONTINUOUS
 62
     7
 10
438.6231480842
 20
236.2110583557
 30
0.0
  0
VERTEX
  5
AF1
  8
0
  6
CONTINUOUS
 62
     7
 10
439.0984072095
 20
236.2719623818
 30
0.0
  0
VERTEX
  5
AF2
  8
0
  6
CONTINUOUS
 62
     7
 10
439.7620706564
 20
236.3570062889
 30
0.0
  0
VERTEX
  5
AF3
  8
0
  6
CONTINUOUS
 62
     7
 10
440.6122474676
 20
236.4659516586
 30
0.0
  0
VERTEX
  5
AF4
  8
0
  6
CONTINUOUS
 62
     7
 10
441.5501667863
 20
236.5861384644
 30
0.0
  0
VERTEX
  5
AF5
  8
0
  6
CONTINUOUS
 62
     7
 10
442.6398246294
 20
236.7257563843
 30
0.0
  0
VERTEX
  5
AF6
  8
0
  6
CONTINUOUS
 62
     7
 10
443.878835321
 20
236.8844954743
 30
0.0
  0
SEQEND
  5
B9F
  8
0
  6
CONTINUOUS
 62
     7
  0
LINE
  5
45A
  8
0
  6
CONTINUOUS
 62
     7
 10
445.4119256442
 20
216.5760843529
 30
0.0
 11
445.2553502029
 21
217.8512899651
 31
0.0
  0
LINE
  5
45B
  8
0
  6
CONTINUOUS
 62
     7
 10
444.8455451732
 20
216.5065495743
 30
0.0
 11
444.1143295472
 21
222.4618284477
 31
0.0
  0
LINE
  5
45C
  8
0
  6
CONTINUOUS
 62
     7
 10
445.4119256442
 20
216.5760843529
 30
0.0
 11
444.8455451732
 21
216.5065495743
 31
0.0
  0
LINE
  5
45D
  8
0
  6
CONTINUOUS
 62
     7
 10
444.5735147899
 20
222.5182025208
 30
0.0
 11
444.1143295472
 21
222.4618284477
 31
0.0
  0
LINE
  5
45E
  8
0
  6
CONTINUOUS
 62
     7
 10
444.8455451732
 20
216.5065495743
 30
0.0
 11
443.1229992514
 21
216.2950484528
 31
0.0
  0
LINE
  5
45F
  8
0
  6
CONTINUOUS
 62
     7
 10
444.1143295472
 20
222.4618284477
 30
0.0
 11
442.3917843705
 21
222.2503273262
 31
0.0
  0
POLYLINE
  5
460
  8
0
  6
CONTINUOUS
 62
     7
 66
     1
 10
0.0
 20
0.0
 30
0.0
  0
VERTEX
  5
AF7
  8
0
  6
CONTINUOUS
 62
     7
 10
443.1229992514
 20
216.2950484528
 30
0.0
  0
VERTEX
  5
AF8
  8
0
  6
CONTINUOUS
 62
     7
 10
443.0909751659
 20
216.2911145462
 30
0.0
  0
VERTEX
  5
AF9
  8
0
  6
CONTINUOUS
 62
     7
 10
443.0512993341
 20
216.2862388863
 30
0.0
  0
VERTEX
  5
AFA
  8
0
  6
CONTINUOUS
 62
     7
 10
443.0043040519
 20
216.2804691567
 30
0.0
  0
VERTEX
  5
AFB
  8
0
  6
CONTINUOUS
 62
     7
 10
442.9503856903
 20
216.2738530411
 30
0.0
  0
VERTEX
  5
AFC
  8
0
  6
CONTINUOUS
 62
     7
 10
442.8899957543
 20
216.2664382233
 30
0.0
  0
VERTEX
  5
AFD
  8
0
  6
CONTINUOUS
 62
     7
 10
442.8236393934
 20
216.2582843079
 30
0.0
  0
VERTEX
  5
AFE
  8
0
  6
CONTINUOUS
 62
     7
 10
442.7518754011
 20
216.2494747414
 30
0.0
  0
VERTEX
  5
AFF
  8
0
  6
CONTINUOUS
 62
     7
 10
442.6753057843
 20
216.2400691284
 30
0.0
  0
SEQEND
  5
B9E
  8
0
  6
CONTINUOUS
 62
     7
  0
POLYLINE
  5
461
  8
0
  6
CONTINUOUS
 62
     7
 66
     1
 10
0.0
 20
0.0
 30
0.0
  0
VERTEX
  5
B00
  8
0
  6
CONTINUOUS
 62
     7
 10
441.9440894132
 20
222.1953480019
 30
0.0
  0
VERTEX
  5
B01
  8
0
  6
CONTINUOUS
 62
     7
 10
442.02065903
 20
222.2047536148
 30
0.0
  0
VERTEX
  5
B02
  8
0
  6
CONTINUOUS
 62
     7
 10
442.0924230223
 20
222.2135631813
 30
0.0
  0
VERTEX
  5
B03
  8
0
  6
CONTINUOUS
 62
     7
 10
442.1587793832
 20
222.2217170967
 30
0.0
  0
VERTEX
  5
B04
  8
0
  6
CONTINUOUS
 62
     7
 10
442.2191693192
 20
222.2291319145
 30
0.0
  0
VERTEX
  5
B05
  8
0
  6
CONTINUOUS
 62
     7
 10
442.2730876809
 20
222.2357480301
 30
0.0
  0
VERTEX
  5
B06
  8
0
  6
CONTINUOUS
 62
     7
 10
442.320082963
 20
222.2415177597
 30
0.0
  0
VERTEX
  5
B07
  8
0
  6
CONTINUOUS
 62
     7
 10
442.3597587948
 20
222.2463934197
 30
0.0
  0
VERTEX
  5
B08
  8
0
  6
CONTINUOUS
 62
     7
 10
442.3917843705
 20
222.2503273262
 30
0.0
  0
SEQEND
  5
B9D
  8
0
  6
CONTINUOUS
 62
     7
  0
LINE
  5
462
  8
0
  6
CONTINUOUS
 62
     7
 10
442.6753057843
 20
216.2400691284
 30
0.0
 11
438.3441149002
 21
215.7082764877
 31
0.0
  0
LINE
  5
463
  8
0
  6
CONTINUOUS
 62
     7
 10
441.9440894132
 20
222.1953480019
 30
0.0
 11
437.6129000192
 21
221.6635434403
 31
0.0
  0
LINE
  5
464
  8
0
  6
CONTINUOUS
 62
     7
 10
437.8478421574
 20
215.6473366989
 30
0.0
 11
437.1166257864
 21
221.6026155724
 31
0.0
  0
POLYLINE
  5
465
  8
0
  6
CONTINUOUS
 62
     7
 66
     1
 10
0.0
 20
0.0
 30
0.0
  0
VERTEX
  5
B09
  8
0
  6
CONTINUOUS
 62
     7
 10
438.3441149002
 20
215.7082764877
 30
0.0
  0
VERTEX
  5
B0A
  8
0
  6
CONTINUOUS
 62
     7
 10
438.236164928
 20
215.6950204147
 30
0.0
  0
VERTEX
  5
B0B
  8
0
  6
CONTINUOUS
 62
     7
 10
438.1385518914
 20
215.6830279602
 30
0.0
  0
VERTEX
  5
B0C
  8
0
  6
CONTINUOUS
 62
     7
 10
438.0529491907
 20
215.6725256218
 30
0.0
  0
VERTEX
  5
B0D
  8
0
  6
CONTINUOUS
 62
     7
 10
437.9808186298
 20
215.6636683716
 30
0.0
  0
VERTEX
  5
B0E
  8
0
  6
CONTINUOUS
 62
     7
 10
437.923395515
 20
215.6566111817
 30
0.0
  0
VERTEX
  5
B0F
  8
0
  6
CONTINUOUS
 62
     7
 10
437.881663323
 20
215.6514851822
 30
0.0
  0
VERTEX
  5
B10
  8
0
  6
CONTINUOUS
 62
     7
 10
437.8563343292
 20
215.6483738197
 30
0.0
  0
VERTEX
  5
B11
  8
0
  6
CONTINUOUS
 62
     7
 10
437.8478421574
 20
215.6473366989
 30
0.0
  0
SEQEND
  5
B9C
  8
0
  6
CONTINUOUS
 62
     7
  0
POLYLINE
  5
466
  8
0
  6
CONTINUOUS
 62
     7
 66
     1
 10
0.0
 20
0.0
 30
0.0
  0
VERTEX
  5
B12
  8
0
  6
CONTINUOUS
 62
     7
 10
437.1166257864
 20
221.6026155724
 30
0.0
  0
VERTEX
  5
B13
  8
0
  6
CONTINUOUS
 62
     7
 10
437.1251179581
 20
221.6036526932
 30
0.0
  0
VERTEX
  5
B14
  8
0
  6
CONTINUOUS
 62
     7
 10
437.1504469519
 20
221.6067640556
 30
0.0
  0
VERTEX
  5
B15
  8
0
  6
CONTINUOUS
 62
     7
 10
437.192179144
 20
221.6118900551
 30
0.0
  0
VERTEX
  5
B16
  8
0
  6
CONTINUOUS
 62
     7
 10
437.2496022587
 20
221.618947245
 30
0.0
  0
VERTEX
  5
B17
  8
0
  6
CONTINUOUS
 62
     7
 10
437.3217328196
 20
221.6277925743
 30
0.0
  0
VERTEX
  5
B18
  8
0
  6
CONTINUOUS
 62
     7
 10
437.4073370104
 20
221.6383068337
 30
0.0
  0
VERTEX
  5
B19
  8
0
  6
CONTINUOUS
 62
     7
 10
437.504948557
 20
221.6502992882
 30
0.0
  0
VERTEX
  5
B1A
  8
0
  6
CONTINUOUS
 62
     7
 10
437.6129000192
 20
221.6635434403
 30
0.0
  0
SEQEND
  5
B9B
  8
0
  6
CONTINUOUS
 62
     7
  0
LINE
  5
467
  8
0
  6
CONTINUOUS
 62
     7
 10
445.2133557504
 20
134.5645098461
 30
0.0
 11
450.2133554524
 21
134.5645098461
 31
0.0
  0
LINE
  5
468
  8
0
  6
CONTINUOUS
 62
     7
 10
436.5181400185
 20
221.5291230454
 30
0.0
 11
432.5479550963
 21
221.0416524185
 31
0.0
  0
LINE
  5
469
  8
0
  6
CONTINUOUS
 62
     7
 10
434.0008749371
 20
201.0030596031
 30
0.0
 11
431.5554081207
 21
220.9197847618
 31
0.0
  0
POLYLINE
  5
46A
  8
0
  6
CONTINUOUS
 62
     7
 66
     1
 10
0.0
 20
0.0
 30
0.0
  0
VERTEX
  5
B1B
  8
0
  6
CONTINUOUS
 62
     7
 10
431.5554081207
 20
220.9197847618
 30
0.0
  0
VERTEX
  5
B1C
  8
0
  6
CONTINUOUS
 62
     7
 10
431.5744801169
 20
220.9221212639
 30
0.0
  0
VERTEX
  5
B1D
  8
0
  6
CONTINUOUS
 62
     7
 10
431.6309614783
 20
220.9290592445
 30
0.0
  0
VERTEX
  5
B1E
  8
0
  6
CONTINUOUS
 62
     7
 10
431.7226825958
 20
220.9403245224
 30
0.0
  0
VERTEX
  5
B1F
  8
0
  6
CONTINUOUS
 62
     7
 10
431.8461193448
 20
220.9554760231
 30
0.0
  0
VERTEX
  5
B20
  8
0
  6
CONTINUOUS
 62
     7
 10
431.9965257054
 20
220.9739415421
 30
0.0
  0
VERTEX
  5
B21
  8
0
  6
CONTINUOUS
 62
     7
 10
432.1681244975
 20
220.9950177445
 30
0.0
  0
VERTEX
  5
B22
  8
0
  6
CONTINUOUS
 62
     7
 10
432.3543189769
 20
221.0178701653
 30
0.0
  0
VERTEX
  5
B23
  8
0
  6
CONTINUOUS
 62
     7
 10
432.5479550963
 20
221.0416524185
 30
0.0
  0
SEQEND
  5
B9A
  8
0
  6
CONTINUOUS
 62
     7
  0
ARC
  5
46B
  8
0
  6
CONTINUOUS
 62
     7
 10
453.8517974687
 20
203.4404491107
 30
0.0
 40
20.00000000000003
 50
187.0
 51
193.0
  0
ARC
  5
46C
  8
0
  6
CONTINUOUS
 62
     7
 10
453.8517974687
 20
203.4404491107
 30
0.0
 40
14.00000000000003
 50
187.0
 51
193.0
  0
LINE
  5
46D
  8
0
  6
CONTINUOUS
 62
     7
 10
438.2419018751
 20
215.6957237496
 30
0.0
 11
439.9561508303
 21
201.7342774643
 31
0.0
  0
POLYLINE
  5
46E
  8
0
  6
CONTINUOUS
 62
     7
 66
     1
 10
0.0
 20
0.0
 30
0.0
  0
VERTEX
  5
B24
  8
0
  6
CONTINUOUS
 62
     7
 10
436.5181400185
 20
221.5291230454
 30
0.0
  0
VERTEX
  5
B25
  8
0
  6
CONTINUOUS
 62
     7
 10
436.5983529692
 20
221.5389816536
 30
0.0
  0
VERTEX
  5
B26
  8
0
  6
CONTINUOUS
 62
     7
 10
436.6780413991
 20
221.5487568153
 30
0.0
  0
VERTEX
  5
B27
  8
0
  6
CONTINUOUS
 62
     7
 10
436.7566852575
 20
221.5584127678
 30
0.0
  0
VERTEX
  5
B28
  8
0
  6
CONTINUOUS
 62
     7
 10
436.8337659841
 20
221.5678779854
 30
0.0
  0
VERTEX
  5
B29
  8
0
  6
CONTINUOUS
 62
     7
 10
436.90878439
 20
221.5770928635
 30
0.0
  0
VERTEX
  5
B2A
  8
0
  6
CONTINUOUS
 62
     7
 10
436.9812457567
 20
221.5859858765
 30
0.0
  0
VERTEX
  5
B2B
  8
0
  6
CONTINUOUS
 62
     7
 10
437.0506777173
 20
221.5945212616
 30
0.0
  0
VERTEX
  5
B2C
  8
0
  6
CONTINUOUS
 62
     7
 10
437.1166257864
 20
221.6026155724
 30
0.0
  0
SEQEND
  5
B99
  8
0
  6
CONTINUOUS
 62
     7
  0
LINE
  5
46F
  8
0
  6
CONTINUOUS
 62
     7
 10
443.8545367425
 20
157.8351168408
 30
0.0
 11
434.364396215
 21
198.9414303078
 31
0.0
  0
LINE
  5
470
  8
0
  6
CONTINUOUS
 62
     7
 10
440.2106164699
 20
200.291129805
 30
0.0
 11
449.7007569974
 21
159.1848222984
 31
0.0
  0
ARC
  5
471
  8
0
  6
CONTINUOUS
 62
     7
 10
430.2133556252
 20
154.6857992537
 30
0.0
 40
14.0
 50
0.0
 51
13.0
  0
LINE
  5
472
  8
0
  6
CONTINUOUS
 62
     7
 10
444.213355959
 20
134.5645098461
 30
0.0
 11
444.213355959
 21
154.6857981457
 31
0.0
  0
LINE
  5
473
  8
0
  6
CONTINUOUS
 62
     7
 10
445.2133557504
 20
134.5645098461
 30
0.0
 11
444.213355959
 21
134.5645098461
 31
0.0
  0
LINE
  5
474
  8
0
  6
CONTINUOUS
 62
     7
 10
450.2133554524
 20
154.6857981457
 30
0.0
 11
450.2133554524
 21
152.9019920601
 31
0.0
  0
ARC
  5
475
  8
0
  6
CONTINUOUS
 62
     7
 10
430.2133556252
 20
154.6857992537
 30
0.0
 40
20.00000000000002
 50
0.0
 51
13.0
  0
LINE
  5
476
  8
0
  6
CONTINUOUS
 62
     7
 10
467.2690800136
 20
161.2331180348
 30
0.0
 11
466.0469486123
 21
160.6626956238
 31
0.0
  0
POLYLINE
  5
477
  8
0
  6
CONTINUOUS
 62
     7
 66
     1
 10
0.0
 20
0.0
 30
0.0
  0
VERTEX
  5
B2D
  8
0
  6
CONTINUOUS
 62
     7
 10
471.9017713075
 20
161.864408709
 30
0.0
  0
VERTEX
  5
B2E
  8
0
  6
CONTINUOUS
 62
     7
 10
470.7692919975
 20
161.8563859238
 30
0.0
  0
VERTEX
  5
B2F
  8
0
  6
CONTINUOUS
 62
     7
 10
469.6906133299
 20
161.7861358894
 30
0.0
  0
VERTEX
  5
B30
  8
0
  6
CONTINUOUS
 62
     7
 10
468.7567828899
 20
161.6582600845
 30
0.0
  0
VERTEX
  5
B31
  8
0
  6
CONTINUOUS
 62
     7
 10
467.9429887539
 20
161.4734856857
 30
0.0
  0
VERTEX
  5
B32
  8
0
  6
CONTINUOUS
 62
     7
 10
467.2690800136
 20
161.2331180348
 30
0.0
  0
SEQEND
  5
B98
  8
0
  6
CONTINUOUS
 62
     7
  0
POLYLINE
  5
478
  8
0
  6
CONTINUOUS
 62
     7
 66
     1
 10
0.0
 20
0.0
 30
0.0
  0
VERTEX
  5
B33
  8
0
  6
CONTINUOUS
 62
     7
 10
474.9224944716
 20
161.8116585983
 30
0.0
  0
VERTEX
  5
B34
  8
0
  6
CONTINUOUS
 62
     7
 10
473.4121306544
 20
161.8380455746
 30
0.0
  0
VERTEX
  5
B35
  8
0
  6
CONTINUOUS
 62
     7
 10
471.9017713075
 20
161.864408709
 30
0.0
  0
SEQEND
  5
B97
  8
0
  6
CONTINUOUS
 62
     7
  0
POLYLINE
  5
479
  8
0
  6
CONTINUOUS
 62
     7
 66
     1
 10
0.0
 20
0.0
 30
0.0
  0
VERTEX
  5
B36
  8
0
  6
CONTINUOUS
 62
     7
 10
479.9217327242
 20
161.7243914379
 30
0.0
  0
VERTEX
  5
B37
  8
0
  6
CONTINUOUS
 62
     7
 10
477.4185909634
 20
161.76111982
 30
0.0
  0
VERTEX
  5
B38
  8
0
  6
CONTINUOUS
 62
     7
 10
474.9281271105
 20
161.8115095867
 30
0.0
  0
SEQEND
  5
B96
  8
0
  6
CONTINUOUS
 62
     7
  0
LINE
  5
47A
  8
0
  6
CONTINUOUS
 62
     7
 10
479.9478529697
 20
161.7239384426
 30
0.0
 11
479.9217327242
 21
161.7243914379
 31
0.0
  0
POLYLINE
  5
47B
  8
0
  6
CONTINUOUS
 62
     7
 66
     1
 10
0.0
 20
0.0
 30
0.0
  0
VERTEX
  5
B39
  8
0
  6
CONTINUOUS
 62
     7
 10
484.9550529128
 20
161.6365222706
 30
0.0
  0
VERTEX
  5
B3A
  8
0
  6
CONTINUOUS
 62
     7
 10
482.4513061648
 20
161.6805104984
 30
0.0
  0
VERTEX
  5
B3B
  8
0
  6
CONTINUOUS
 62
     7
 10
479.9478857523
 20
161.7239384426
 30
0.0
  0
SEQEND
  5
B95
  8
0
  6
CONTINUOUS
 62
     7
  0
LINE
  5
47C
  8
0
  6
CONTINUOUS
 62
     7
 10
486.8057592517
 20
161.5969865097
 30
0.0
 11
484.9550678139
 21
161.6364447846
 31
0.0
  0
LINE
  5
47D
  8
0
  6
CONTINUOUS
 62
     7
 10
494.9194504624
 20
161.4626078381
 30
0.0
 11
486.8057592517
 21
161.5969865097
 31
0.0
  0
POLYLINE
  5
47E
  8
0
  6
CONTINUOUS
 62
     7
 66
     1
 10
0.0
 20
0.0
 30
0.0
  0
VERTEX
  5
B3C
  8
0
  6
CONTINUOUS
 62
     7
 10
503.3133550292
 20
161.3178698792
 30
0.0
  0
VERTEX
  5
B3D
  8
0
  6
CONTINUOUS
 62
     7
 10
498.0913265353
 20
161.4148466362
 30
0.0
  0
VERTEX
  5
B3E
  8
0
  6
CONTINUOUS
 62
     7
 10
494.9194623833
 20
161.4626078381
 30
0.0
  0
SEQEND
  5
B94
  8
0
  6
CONTINUOUS
 62
     7
  0
POLYLINE
  5
47F
  8
0
  6
CONTINUOUS
 62
     7
 66
     1
 10
0.0
 20
0.0
 30
0.0
  0
VERTEX
  5
B3F
  8
0
  6
CONTINUOUS
 62
     7
 10
514.9171962147
 20
161.1135689987
 30
0.0
  0
VERTEX
  5
B40
  8
0
  6
CONTINUOUS
 62
     7
 10
509.9186612969
 20
161.158409573
 30
0.0
  0
VERTEX
  5
B41
  8
0
  6
CONTINUOUS
 62
     7
 10
508.7133540517
 20
161.1896662487
 30
0.0
  0
SEQEND
  5
B93
  8
0
  6
CONTINUOUS
 62
     7
  0
POLYLINE
  5
480
  8
0
  6
CONTINUOUS
 62
     7
 66
     1
 10
0.0
 20
0.0
 30
0.0
  0
VERTEX
  5
B42
  8
0
  6
CONTINUOUS
 62
     7
 10
526.5728785401
 20
160.6953887714
 30
0.0
  0
VERTEX
  5
B43
  8
0
  6
CONTINUOUS
 62
     7
 10
526.5475525265
 20
160.7000856175
 30
0.0
  0
VERTEX
  5
B44
  8
0
  6
CONTINUOUS
 62
     7
 10
524.1345419293
 20
161.0185830368
 30
0.0
  0
VERTEX
  5
B45
  8
0
  6
CONTINUOUS
 62
     7
 10
521.7460765248
 20
161.1578254475
 30
0.0
  0
VERTEX
  5
B46
  8
0
  6
CONTINUOUS
 62
     7
 10
519.3801595574
 20
161.1811904682
 30
0.0
  0
VERTEX
  5
B47
  8
0
  6
CONTINUOUS
 62
     7
 10
517.0253350144
 20
161.1465124859
 30
0.0
  0
VERTEX
  5
B48
  8
0
  6
CONTINUOUS
 62
     7
 10
514.9171962147
 20
161.1135868801
 30
0.0
  0
SEQEND
  5
B92
  8
0
  6
CONTINUOUS
 62
     7
  0
ARC
  5
481
  8
0
  6
CONTINUOUS
 62
     7
 10
524.3372174679
 20
148.4080023279
 30
0.0
 40
12.48911710425681
 50
43.7647639822
 51
79.6879731616
  0
POLYLINE
  5
482
  8
0
  6
CONTINUOUS
 62
     7
 66
     1
 10
0.0
 20
0.0
 30
0.0
  0
VERTEX
  5
B49
  8
0
  6
CONTINUOUS
 62
     7
 10
534.8030163651
 20
154.9792258515
 30
0.0
  0
VERTEX
  5
B4A
  8
0
  6
CONTINUOUS
 62
     7
 10
534.8055793648
 20
154.9753813519
 30
0.0
  0
VERTEX
  5
B4B
  8
0
  6
CONTINUOUS
 62
     7
 10
534.7368730908
 20
155.0790517105
 30
0.0
  0
VERTEX
  5
B4C
  8
0
  6
CONTINUOUS
 62
     7
 10
534.5929099923
 20
155.2949874176
 30
0.0
  0
VERTEX
  5
B4D
  8
0
  6
CONTINUOUS
 62
     7
 10
534.3740536576
 20
155.6187419666
 30
0.0
  0
VERTEX
  5
B4E
  8
0
  6
CONTINUOUS
 62
     7
 10
533.9392794972
 20
156.2452940716
 30
0.0
  0
VERTEX
  5
B4F
  8
0
  6
CONTINUOUS
 62
     7
 10
533.3566798573
 20
157.0467142834
 30
0.0
  0
SEQEND
  5
B91
  8
0
  6
CONTINUOUS
 62
     7
  0
POLYLINE
  5
483
  8
0
  6
CONTINUOUS
 62
     7
 66
     1
 10
0.0
 20
0.0
 30
0.0
  0
VERTEX
  5
B50
  8
0
  6
CONTINUOUS
 62
     7
 10
526.506610096
 20
161.9212894215
 30
0.0
  0
VERTEX
  5
B51
  8
0
  6
CONTINUOUS
 62
     7
 10
527.6547147637
 20
161.6820602192
 30
0.0
  0
VERTEX
  5
B52
  8
0
  6
CONTINUOUS
 62
     7
 10
528.7566913968
 20
161.3612262978
 30
0.0
  0
VERTEX
  5
B53
  8
0
  6
CONTINUOUS
 62
     7
 10
529.77718252
 20
160.961249329
 30
0.0
  0
VERTEX
  5
B54
  8
0
  6
CONTINUOUS
 62
     7
 10
530.6999577885
 20
160.5037777199
 30
0.0
  0
VERTEX
  5
B55
  8
0
  6
CONTINUOUS
 62
     7
 10
531.5576149827
 20
159.9909572376
 30
0.0
  0
VERTEX
  5
B56
  8
0
  6
CONTINUOUS
 62
     7
 10
532.277478159
 20
159.4929365887
 30
0.0
  0
VERTEX
  5
B57
  8
0
  6
CONTINUOUS
 62
     7
 10
532.7838613396
 20
159.1008035912
 30
0.0
  0
VERTEX
  5
B58
  8
0
  6
CONTINUOUS
 62
     7
 10
533.1538035279
 20
158.7840704693
 30
0.0
  0
VERTEX
  5
B59
  8
0
  6
CONTINUOUS
 62
     7
 10
533.3026363259
 20
158.6426346077
 30
0.0
  0
VERTEX
  5
B5A
  8
0
  6
CONTINUOUS
 62
     7
 10
533.3931638604
 20
158.5434643997
 30
0.0
  0
SEQEND
  5
B90
  8
0
  6
CONTINUOUS
 62
     7
  0
POLYLINE
  5
484
  8
0
  6
CONTINUOUS
 62
     7
 66
     1
 10
0.0
 20
0.0
 30
0.0
  0
VERTEX
  5
B5B
  8
0
  6
CONTINUOUS
 62
     7
 10
467.1018711036
 20
162.3792855515
 30
0.0
  0
VERTEX
  5
B5C
  8
0
  6
CONTINUOUS
 62
     7
 10
467.6852895623
 20
162.5969319119
 30
0.0
  0
VERTEX
  5
B5D
  8
0
  6
CONTINUOUS
 62
     7
 10
468.4550656682
 20
162.7867429031
 30
0.0
  0
VERTEX
  5
B5E
  8
0
  6
CONTINUOUS
 62
     7
 10
469.3452938204
 20
162.9247157349
 30
0.0
  0
VERTEX
  5
B5F
  8
0
  6
CONTINUOUS
 62
     7
 10
470.3800170427
 20
163.0086390747
 30
0.0
  0
VERTEX
  5
B60
  8
0
  6
CONTINUOUS
 62
     7
 10
471.0516317492
 20
163.029393412
 30
0.0
  0
VERTEX
  5
B61
  8
0
  6
CONTINUOUS
 62
     7
 10
471.7567442661
 20
163.027968861
 30
0.0
  0
SEQEND
  5
B8F
  8
0
  6
CONTINUOUS
 62
     7
  0
ARC
  5
485
  8
0
  6
CONTINUOUS
 62
     7
 10
513.6938377546
 20
62.5252131823
 30
0.0
 40
110.1891425010063
 50
115.0137833831
 51
117.0477933463
  0
POLYLINE
  5
486
  8
0
  6
CONTINUOUS
 62
     7
 66
     1
 10
0.0
 20
0.0
 30
0.0
  0
VERTEX
  5
B62
  8
0
  6
CONTINUOUS
 62
     7
 10
534.8289443856
 20
156.5852789654
 30
0.0
  0
VERTEX
  5
B63
  8
0
  6
CONTINUOUS
 62
     7
 10
534.8347558385
 20
156.5767376198
 30
0.0
  0
VERTEX
  5
B64
  8
0
  6
CONTINUOUS
 62
     7
 10
534.7502245312
 20
156.7000119461
 30
0.0
  0
VERTEX
  5
B65
  8
0
  6
CONTINUOUS
 62
     7
 10
534.5632268792
 20
156.9687812103
 30
0.0
  0
VERTEX
  5
B66
  8
0
  6
CONTINUOUS
 62
     7
 10
534.3564106827
 20
157.260796286
 30
0.0
  0
VERTEX
  5
B67
  8
0
  6
CONTINUOUS
 62
     7
 10
534.0925588017
 20
157.6246945633
 30
0.0
  0
VERTEX
  5
B68
  8
0
  6
CONTINUOUS
 62
     7
 10
533.7712957268
 20
158.0549149288
 30
0.0
  0
VERTEX
  5
B69
  8
0
  6
CONTINUOUS
 62
     7
 10
533.3931638604
 20
158.5434643997
 30
0.0
  0
SEQEND
  5
B8E
  8
0
  6
CONTINUOUS
 62
     7
  0
POLYLINE
  5
487
  8
0
  6
CONTINUOUS
 62
     7
 66
     1
 10
0.0
 20
0.0
 30
0.0
  0
VERTEX
  5
B6A
  8
0
  6
CONTINUOUS
 62
     7
 10
526.506610096
 20
161.9212953819
 30
0.0
  0
VERTEX
  5
B6B
  8
0
  6
CONTINUOUS
 62
     7
 10
524.1095854645
 20
162.2176317944
 30
0.0
  0
VERTEX
  5
B6C
  8
0
  6
CONTINUOUS
 62
     7
 10
521.7698945408
 20
162.3479156269
 30
0.0
  0
VERTEX
  5
B6D
  8
0
  6
CONTINUOUS
 62
     7
 10
519.4754912263
 20
162.3711614384
 30
0.0
  0
VERTEX
  5
B6E
  8
0
  6
CONTINUOUS
 62
     7
 10
517.2176195984
 20
162.3392610325
 30
0.0
  0
VERTEX
  5
B6F
  8
0
  6
CONTINUOUS
 62
     7
 10
514.9870886212
 20
162.3029141201
 30
0.0
  0
VERTEX
  5
B70
  8
0
  6
CONTINUOUS
 62
     7
 10
512.759651125
 20
162.301513411
 30
0.0
  0
VERTEX
  5
B71
  8
0
  6
CONTINUOUS
 62
     7
 10
510.5187489396
 20
162.3333661331
 30
0.0
  0
VERTEX
  5
B72
  8
0
  6
CONTINUOUS
 62
     7
 10
508.7133540517
 20
162.3774616493
 30
0.0
  0
SEQEND
  5
B8D
  8
0
  6
CONTINUOUS
 62
     7
  0
POLYLINE
  5
488
  8
0
  6
CONTINUOUS
 62
     7
 66
     1
 10
0.0
 20
0.0
 30
0.0
  0
VERTEX
  5
B73
  8
0
  6
CONTINUOUS
 62
     7
 10
503.3133550292
 20
162.5019697918
 30
0.0
  0
VERTEX
  5
B74
  8
0
  6
CONTINUOUS
 62
     7
 10
498.108748973
 20
162.5906555428
 30
0.0
  0
VERTEX
  5
B75
  8
0
  6
CONTINUOUS
 62
     7
 10
494.8112322693
 20
162.6375167145
 30
0.0
  0
VERTEX
  5
B76
  8
0
  6
CONTINUOUS
 62
     7
 10
491.5109648114
 20
162.690368153
 30
0.0
  0
VERTEX
  5
B77
  8
0
  6
CONTINUOUS
 62
     7
 10
488.2101430302
 20
162.747922398
 30
0.0
  0
VERTEX
  5
B78
  8
0
  6
CONTINUOUS
 62
     7
 10
484.9119527941
 20
162.8063528313
 30
0.0
  0
VERTEX
  5
B79
  8
0
  6
CONTINUOUS
 62
     7
 10
481.6167696124
 20
162.8629653229
 30
0.0
  0
VERTEX
  5
B7A
  8
0
  6
CONTINUOUS
 62
     7
 10
478.3246292477
 20
162.9186956658
 30
0.0
  0
VERTEX
  5
B7B
  8
0
  6
CONTINUOUS
 62
     7
 10
475.0483541494
 20
162.9732339157
 30
0.0
  0
VERTEX
  5
B7C
  8
0
  6
CONTINUOUS
 62
     7
 10
471.7567502266
 20
163.0280463471
 30
0.0
  0
SEQEND
  5
B8C
  8
0
  6
CONTINUOUS
 62
     7
  0
POLYLINE
  5
489
  8
0
  6
CONTINUOUS
 62
     7
 66
     1
 10
0.0
 20
0.0
 30
0.0
  0
VERTEX
  5
B7D
  8
0
  6
CONTINUOUS
 62
     7
 10
508.7133540517
 20
161.2133173718
 30
0.0
  0
VERTEX
  5
B7E
  8
0
  6
CONTINUOUS
 62
     7
 10
511.1206247216
 20
161.1554114594
 30
0.0
  0
VERTEX
  5
B7F
  8
0
  6
CONTINUOUS
 62
     7
 10
514.9171962147
 20
161.1135868801
 30
0.0
  0
SEQEND
  5
B8B
  8
0
  6
CONTINUOUS
 62
     7
  0
POLYLINE
  5
48A
  8
0
  6
CONTINUOUS
 62
     7
 66
     1
 10
0.0
 20
0.0
 30
0.0
  0
VERTEX
  5
B80
  8
0
  6
CONTINUOUS
 62
     7
 10
486.8079229003
 20
161.720850922
 30
0.0
  0
VERTEX
  5
B81
  8
0
  6
CONTINUOUS
 62
     7
 10
489.2163081771
 20
161.7786197437
 30
0.0
  0
VERTEX
  5
B82
  8
0
  6
CONTINUOUS
 62
     7
 10
492.0740141278
 20
161.6500227226
 30
0.0
  0
VERTEX
  5
B83
  8
0
  6
CONTINUOUS
 62
     7
 10
494.9194802647
 20
161.4630965962
 30
0.0
  0
SEQEND
  5
B8A
  8
0
  6
CONTINUOUS
 62
     7
  0
LINE
  5
48B
  8
0
  6
CONTINUOUS
 62
     7
 10
484.9550678139
 20
161.6364984287
 30
0.0
 11
486.8079229003
 21
161.720850922
 31
0.0
  0
POLYLINE
  5
48C
  8
0
  6
CONTINUOUS
 62
     7
 66
     1
 10
0.0
 20
0.0
 30
0.0
  0
VERTEX
  5
B84
  8
0
  6
CONTINUOUS
 62
     7
 10
474.9281271105
 20
161.8115572704
 30
0.0
  0
VERTEX
  5
B85
  8
0
  6
CONTINUOUS
 62
     7
 10
476.107887805
 20
161.8947176708
 30
0.0
  0
VERTEX
  5
B86
  8
0
  6
CONTINUOUS
 62
     7
 10
477.3023872381
 20
161.8881551994
 30
0.0
  0
VERTEX
  5
B87
  8
0
  6
CONTINUOUS
 62
     7
 10
478.6230309611
 20
161.8152050747
 30
0.0
  0
VERTEX
  5
B88
  8
0
  6
CONTINUOUS
 62
     7
 10
479.9478559499
 20
161.7240099682
 30
0.0
  0
SEQEND
  5
B89
  8
0
  6
CONTINUOUS
 62
     7
  0
LINE
  5
48D
  8
0
  6
CONTINUOUS
 62
     7
 10
460.8133556997
 20
143.9645139946
 30
0.0
 11
460.8133556997
 21
143.3645097984
 31
0.0
  0
ARC
  5
48E
  8
0
  6
CONTINUOUS
 62
     7
 10
460.4133556252
 20
143.9645114197
 30
0.0
 40
0.4000000000000341
 50
0.0
 51
90.0
  0
LINE
  5
48F
  8
0
  6
CONTINUOUS
 62
     7
 10
450.8133555507
 20
134.5645098461
 30
0.0
 11
450.2133554524
 21
134.5645098461
 31
0.0
  0
LINE
  5
490
  8
0
  6
CONTINUOUS
 62
     7
 10
450.2133554524
 20
134.5645098461
 30
0.0
 11
450.2133554524
 21
135.3645114674
 31
0.0
  0
LINE
  5
491
  8
0
  6
CONTINUOUS
 62
     7
 10
450.8133555507
 20
135.3645114674
 30
0.0
 11
450.8133555507
 21
134.5645098461
 31
0.0
  0
LINE
  5
492
  8
0
  6
CONTINUOUS
 62
     7
 10
461.4133557981
 20
134.5645098461
 30
0.0
 11
460.8133556997
 21
134.5645098461
 31
0.0
  0
LINE
  5
493
  8
0
  6
CONTINUOUS
 62
     7
 10
460.8133556997
 20
134.5645098461
 30
0.0
 11
460.8133556997
 21
135.3645114674
 31
0.0
  0
LINE
  5
494
  8
0
  6
CONTINUOUS
 62
     7
 10
461.4133557981
 20
135.3645114674
 30
0.0
 11
461.4133557981
 21
134.5645098461
 31
0.0
  0
ARC
  5
495
  8
0
  6
CONTINUOUS
 62
     7
 10
520.3133556252
 20
158.4161415379
 30
0.0
 40
2.000000000000037
 50
280.7804509646
 51
0.0
  0
ARC
  5
496
  8
0
  6
CONTINUOUS
 62
     7
 10
445.868987068
 20
549.3918901338
 30
0.0
 40
400.0000000000002
 50
274.5077079787
 51
278.256844918
  0
ARC
  5
497
  8
0
  6
CONTINUOUS
 62
     7
 10
445.868987068
 20
549.3918901338
 30
0.0
 40
400.0000000000002
 50
279.0392433502
 51
280.7804509646
  0
ARC
  5
498
  8
0
  6
CONTINUOUS
 62
     7
 10
464.7313574474
 20
310.13426542
 30
0.0
 40
160.0000000000003
 50
273.0746772222
 51
274.5077079787
  0
ARC
  5
499
  8
0
  6
CONTINUOUS
 62
     7
 10
474.0106429772
 20
137.3833034544
 30
0.0
 40
12.99999999999997
 50
93.0746772222
 51
121.4611845106
  0
ARC
  5
49A
  8
0
  6
CONTINUOUS
 62
     7
 10
469.3133556252
 20
145.0602489103
 30
0.0
 40
4.000000000000001
 50
121.4611845106
 51
180.0
  0
LINE
  5
49B
  8
0
  6
CONTINUOUS
 62
     7
 10
465.313355506
 20
143.1645123734
 30
0.0
 11
465.313355506
 21
145.0602500214
 31
0.0
  0
ARC
  5
49C
  8
0
  6
CONTINUOUS
 62
     7
 10
463.3133556252
 20
143.1645114197
 30
0.0
 40
2.0
 50
288.1948723388
 51
0.0
  0
LINE
  5
49D
  8
0
  6
CONTINUOUS
 62
     7
 10
447.2133553331
 20
146.2113408817
 30
0.0
 11
447.2133553331
 21
143.1645123734
 31
0.0
  0
ARC
  5
49E
  8
0
  6
CONTINUOUS
 62
     7
 10
455.2133556252
 20
146.2113390873
 30
0.0
 40
8.000000000000057
 50
148.4862321611
 51
180.0
  0
ARC
  5
49F
  8
0
  6
CONTINUOUS
 62
     7
 10
465.4435306621
 20
139.9388978788
 30
0.0
 40
19.99999999999992
 50
102.5040575207
 51
109.6643105065
  0
ARC
  5
4A0
  8
0
  6
CONTINUOUS
 62
     7
 10
465.4435306621
 20
139.9388978788
 30
0.0
 40
19.99999999999994
 50
127.337488847
 51
148.4862321611
  0
LINE
  5
4A1
  8
0
  6
CONTINUOUS
 62
     7
 10
461.1133555626
 20
159.4645111336
 30
0.0
 11
461.1133555626
 21
159.667298056
 31
0.0
  0
LINE
  5
4A2
  8
0
  6
CONTINUOUS
 62
     7
 10
522.313357771
 20
159.667298056
 30
0.0
 11
522.313357771
 21
158.416142918
 31
0.0
  0
LINE
  5
4A3
  8
0
  6
CONTINUOUS
 62
     7
 10
449.213355661
 20
141.1645142807
 30
0.0
 11
450.0133557921
 21
141.1645142807
 31
0.0
  0
ARC
  5
4A4
  8
0
  6
CONTINUOUS
 62
     7
 10
449.2133556252
 20
143.1645114197
 30
0.0
 40
2.0
 50
180.0
 51
270.0
  0
LINE
  5
4A5
  8
0
  6
CONTINUOUS
 62
     7
 10
461.1133555626
 20
160.6593696846
 30
0.0
 11
461.1701748078
 21
160.6593696846
 31
0.0
  0
LINE
  5
4A6
  8
0
  6
CONTINUOUS
 62
     7
 10
461.1701748078
 20
160.6593696846
 30
0.0
 11
461.1788260495
 21
160.6612591519
 31
0.0
  0
LINE
  5
4A7
  8
0
  6
CONTINUOUS
 62
     7
 10
522.313357771
 20
160.6672971024
 30
0.0
 11
522.313357771
 21
159.667298056
 31
0.0
  0
LINE
  5
4A8
  8
0
  6
CONTINUOUS
 62
     7
 10
461.1133555626
 20
159.667298056
 30
0.0
 11
461.1133555626
 21
160.6593696846
 31
0.0
  0
LINE
  5
4A9
  8
0
  6
CONTINUOUS
 62
     7
 10
461.2133557653
 20
143.9645139946
 30
0.0
 11
461.2133557653
 21
137.36450956
 31
0.0
  0
ARC
  5
4AA
  8
0
  6
CONTINUOUS
 62
     7
 10
460.8133556252
 20
143.9645114197
 30
0.0
 40
0.4000000000000341
 50
0.0
 51
90.0
  0
ARC
  5
4AB
  8
0
  6
CONTINUOUS
 62
     7
 10
451.2133556252
 20
143.9645114197
 30
0.0
 40
0.4000000000000057
 50
90.0
 51
180.0
  0
LINE
  5
4AC
  8
0
  6
CONTINUOUS
 62
     7
 10
450.8133555507
 20
143.3645097984
 30
0.0
 11
450.8133555507
 21
143.9645139946
 31
0.0
  0
LINE
  5
4AD
  8
0
  6
CONTINUOUS
 62
     7
 10
451.2133556163
 20
145.164510466
 30
0.0
 11
460.8133556997
 21
145.164510466
 31
0.0
  0
ARC
  5
4AE
  8
0
  6
CONTINUOUS
 62
     7
 10
460.8133556252
 20
143.9645114197
 30
0.0
 40
1.200000000000017
 50
0.0
 51
90.0
  0
LINE
  5
4AF
  8
0
  6
CONTINUOUS
 62
     7
 10
462.0133555239
 20
143.9645139946
 30
0.0
 11
462.0133555239
 21
137.36450956
 31
0.0
  0
LINE
  5
4B0
  8
0
  6
CONTINUOUS
 62
     7
 10
451.2133556163
 20
144.3645088448
 30
0.0
 11
451.8133557146
 21
144.3645088448
 31
0.0
  0
LINE
  5
4B1
  8
0
  6
CONTINUOUS
 62
     7
 10
459.8133555358
 20
144.3645088448
 30
0.0
 11
460.8133556997
 21
144.3645088448
 31
0.0
  0
ARC
  5
4B2
  8
0
  6
CONTINUOUS
 62
     7
 10
451.2133556252
 20
143.9645114197
 30
0.0
 40
1.200000000000017
 50
90.0
 51
180.0
  0
LINE
  5
4B3
  8
0
  6
CONTINUOUS
 62
     7
 10
450.0133557921
 20
137.36450956
 30
0.0
 11
450.0133557921
 21
143.9645139946
 31
0.0
  0
LINE
  5
4B4
  8
0
  6
CONTINUOUS
 62
     7
 10
450.8133555507
 20
135.3645114674
 30
0.0
 11
450.0133557921
 21
135.3645114674
 31
0.0
  0
LINE
  5
4B5
  8
0
  6
CONTINUOUS
 62
     7
 10
450.0133557921
 20
135.3645114674
 30
0.0
 11
450.0133557921
 21
137.36450956
 31
0.0
  0
LINE
  5
4B6
  8
0
  6
CONTINUOUS
 62
     7
 10
462.0133555239
 20
135.3645114674
 30
0.0
 11
461.2133557653
 21
135.3645114674
 31
0.0
  0
LINE
  5
4B7
  8
0
  6
CONTINUOUS
 62
     7
 10
462.0133555239
 20
137.36450956
 30
0.0
 11
462.0133555239
 21
135.3645114674
 31
0.0
  0
LINE
  5
4B8
  8
0
  6
CONTINUOUS
 62
     7
 10
461.2133557653
 20
135.3645114674
 30
0.0
 11
461.2133557653
 21
137.36450956
 31
0.0
  0
ARC
  5
4B9
  8
0
  6
CONTINUOUS
 62
     7
 10
451.8133556252
 20
135.3645114197
 30
0.0
 40
1.0
 50
180.0
 51
270.0
  0
ARC
  5
4BA
  8
0
  6
CONTINUOUS
 62
     7
 10
451.8133556252
 20
143.3645114197
 30
0.0
 40
1.0
 50
90.0
 51
180.0
  0
LINE
  5
4BB
  8
0
  6
CONTINUOUS
 62
     7
 10
459.8133555358
 20
134.364512421
 30
0.0
 11
451.8133557146
 21
134.364512421
 31
0.0
  0
LINE
  5
4BC
  8
0
  6
CONTINUOUS
 62
     7
 10
451.8133557146
 20
144.3645088448
 30
0.0
 11
459.8133555358
 21
144.3645088448
 31
0.0
  0
LINE
  5
4BD
  8
0
  6
CONTINUOUS
 62
     7
 10
450.8133555507
 20
135.3645114674
 30
0.0
 11
450.8133555507
 21
143.3645097984
 31
0.0
  0
ARC
  5
4BE
  8
0
  6
CONTINUOUS
 62
     7
 10
459.8133556252
 20
143.3645114197
 30
0.0
 40
1.0
 50
0.0
 51
90.0
  0
ARC
  5
4BF
  8
0
  6
CONTINUOUS
 62
     7
 10
459.8133556252
 20
135.3645114197
 30
0.0
 40
1.0
 50
270.0
 51
0.0
  0
LINE
  5
4C0
  8
0
  6
CONTINUOUS
 62
     7
 10
460.8133556997
 20
143.3645097984
 30
0.0
 11
460.8133556997
 21
135.3645114674
 31
0.0
  0
LINE
  5
4C1
  8
0
  6
CONTINUOUS
 62
     7
 10
447.813355804
 20
69.1645114197
 30
0.0
 11
443.8133558934
 21
69.1645114197
 31
0.0
  0
LINE
  5
4C2
  8
0
  6
CONTINUOUS
 62
     7
 10
443.8133558934
 20
69.1645114197
 30
0.0
 11
443.8133558934
 21
70.3645114301
 31
0.0
  0
LINE
  5
4C3
  8
0
  6
CONTINUOUS
 62
     7
 10
443.8133558934
 20
70.3645114301
 30
0.0
 11
447.813355804
 21
70.3645114301
 31
0.0
  0
LINE
  5
4C4
  8
0
  6
CONTINUOUS
 62
     7
 10
477.1817772394
 20
70.3645114301
 30
0.0
 11
449.8133557593
 21
70.3645114301
 31
0.0
  0
LINE
  5
4C5
  8
0
  6
CONTINUOUS
 62
     7
 10
449.8133557593
 20
69.1645114197
 30
0.0
 11
477.1817772394
 21
69.1645114197
 31
0.0
  0
LINE
  5
4C6
  8
0
  6
CONTINUOUS
 62
     7
 10
447.813355804
 20
70.3645114301
 30
0.0
 11
449.8133557593
 21
70.3645114301
 31
0.0
  0
LINE
  5
4C7
  8
0
  6
CONTINUOUS
 62
     7
 10
447.813355804
 20
69.1645114197
 30
0.0
 11
449.8133557593
 21
69.1645114197
 31
0.0
  0
LINE
  5
4C8
  8
0
  6
CONTINUOUS
 62
     7
 10
479.8133550888
 20
70.3645114301
 30
0.0
 11
479.8133550888
 21
69.1645114197
 31
0.0
  0
LINE
  5
4C9
  8
0
  6
CONTINUOUS
 62
     7
 10
477.1817772394
 20
70.3645114301
 30
0.0
 11
479.8133550888
 21
70.3645114301
 31
0.0
  0
LINE
  5
4CA
  8
0
  6
CONTINUOUS
 62
     7
 10
479.8133550888
 20
69.1645114197
 30
0.0
 11
477.1817772394
 21
69.1645114197
 31
0.0
  0
LINE
  5
4CB
  8
0
  6
CONTINUOUS
 62
     7
 10
450.8133555507
 20
70.3645114301
 30
0.0
 11
450.8133555507
 21
134.5645098461
 31
0.0
  0
LINE
  5
4CC
  8
0
  6
CONTINUOUS
 62
     7
 10
460.8133556997
 20
134.5645098461
 30
0.0
 11
460.8133556997
 21
70.3645114301
 31
0.0
  0
ENDSEC
  0
EOF
