  0
SECTION
  2
HEADER
  9
$ACADVER
  1
AC1009
  9
$DWGCODEPAGE
  3
ansi_1252
  9
$INSBASE
 10
0.0
 20
0.0
 30
0.0
  9
$EXTMIN
 10
0.0
 20
0.0
 30
0.0
  9
$EXTMAX
 10
420.0
 20
297.0
 30
0.0
  9
$LIMMIN
 10
0.0
 20
0.0
  9
$LIMMAX
 10
420.0
 20
297.0
  9
$ORTHOMODE
 70
     0
  9
$REGENMODE
 70
     1
  9
$FILLMODE
 70
     1
  9
$QTEXTMODE
 70
     0
  9
$MIRRTEXT
 70
     1
  9
$DRAGMODE
 70
     2
  9
$LTSCALE
 40
1.0
  9
$OSMODE
 70
    37
  9
$ATTMODE
 70
     1
  9
$TEXTSIZE
 40
3.5
  9
$TRACEWID
 40
1.0
  9
$TEXTSTYLE
  7
STANDARD
  9
$CLAYER
  8
0
  9
$CELTYPE
  6
BYLAYER
  9
$CECOLOR
 62
   256
  9
$DIMSCALE
 40
1.0
  9
$DIMASZ
 40
4.0
  9
$DIMEXO
 40
0.0
  9
$DIMDLI
 40
3.75
  9
$DIMRND
 40
0.0
  9
$DIMDLE
 40
0.0
  9
$DIMEXE
 40
2.0
  9
$DIMTP
 40
0.0
  9
$DIMTM
 40
0.0
  9
$DIMTXT
 40
3.5
  9
$DIMCEN
 40
2.5
  9
$DIMTSZ
 40
0.0
  9
$DIMTOL
 70
     0
  9
$DIMLIM
 70
     0
  9
$DIMTIH
 70
     1
  9
$DIMTOH
 70
     1
  9
$DIMSE1
 70
     0
  9
$DIMSE2
 70
     0
  9
$DIMTAD
 70
     1
  9
$DIMZIN
 70
     0
  9
$DIMBLK
  1

  9
$DIMASO
 70
     1
  9
$DIMSHO
 70
     1
  9
$DIMPOST
  1

  9
$DIMAPOST
  1

  9
$DIMALT
 70
     0
  9
$DIMALTD
 70
     3
  9
$DIMALTF
 40
0.0393700787
  9
$DIMLFAC
 40
5.0
  9
$DIMTOFL
 70
     1
  9
$DIMTVP
 40
0.0
  9
$DIMTIX
 70
     0
  9
$DIMSOXD
 70
     0
  9
$DIMSAH
 70
     0
  9
$DIMBLK1
  1

  9
$DIMBLK2
  1

  9
$DIMSTYLE
  2
ISO-25
  9
$DIMCLRD
 70
     0
  9
$DIMCLRE
 70
     0
  9
$DIMCLRT
 70
     0
  9
$DIMTFAC
 40
1.0
  9
$DIMGAP
 40
1.524
  9
$LUNITS
 70
     2
  9
$LUPREC
 70
     2
  9
$SKETCHINC
 40
1.0
  9
$FILLETRAD
 40
10.0
  9
$AUNITS
 70
     0
  9
$AUPREC
 70
     2
  9
$MENU
  1
.
  9
$ELEVATION
 40
0.0
  9
$PELEVATION
 40
0.0
  9
$THICKNESS
 40
0.0
  9
$LIMCHECK
 70
     0
  9
$CHAMFERA
 40
10.0
  9
$CHAMFERB
 40
10.0
  9
$SKPOLY
 70
     0
  9
$TDCREATE
 40
2457802.448760949
  9
$TDUPDATE
 40
2457802.448761099
  9
$TDINDWG
 40
0.0000000116
  9
$TDUSRTIMER
 40
0.0000000116
  9
$USRTIMER
 70
     1
  9
$ANGBASE
 50
0.0
  9
$ANGDIR
 70
     0
  9
$PDMODE
 70
     0
  9
$PDSIZE
 40
-1.0
  9
$PLINEWID
 40
0.0
  9
$COORDS
 70
     1
  9
$SPLFRAME
 70
     0
  9
$SPLINETYPE
 70
     6
  9
$SPLINESEGS
 70
     8
  9
$ATTDIA
 70
     0
  9
$ATTREQ
 70
     1
  9
$HANDLING
 70
     1
  9
$HANDSEED
  5
318
  9
$SURFTAB1
 70
     6
  9
$SURFTAB2
 70
     6
  9
$SURFTYPE
 70
     6
  9
$SURFU
 70
     6
  9
$SURFV
 70
     6
  9
$UCSNAME
  2

  9
$UCSORG
 10
0.0
 20
0.0
 30
0.0
  9
$UCSXDIR
 10
1.0
 20
0.0
 30
0.0
  9
$UCSYDIR
 10
0.0
 20
1.0
 30
0.0
  9
$PUCSNAME
  2

  9
$PUCSORG
 10
0.0
 20
0.0
 30
0.0
  9
$PUCSXDIR
 10
1.0
 20
0.0
 30
0.0
  9
$PUCSYDIR
 10
0.0
 20
1.0
 30
0.0
  9
$USERI1
 70
     0
  9
$USERI2
 70
     0
  9
$USERI3
 70
     0
  9
$USERI4
 70
     0
  9
$USERI5
 70
     0
  9
$USERR1
 40
0.0
  9
$USERR2
 40
0.0
  9
$USERR3
 40
0.0
  9
$USERR4
 40
0.0
  9
$USERR5
 40
0.0
  9
$WORLDVIEW
 70
     1
  9
$SHADEDGE
 70
     3
  9
$SHADEDIF
 70
    70
  9
$TILEMODE
 70
     1
  9
$MAXACTVP
 70
    64
  9
$PLIMCHECK
 70
     0
  9
$PEXTMIN
 10
1.0000000000E+20
 20
1.0000000000E+20
 30
1.0000000000E+20
  9
$PEXTMAX
 10
-1.0000000000E+20
 20
-1.0000000000E+20
 30
-1.0000000000E+20
  9
$PLIMMIN
 10
0.0
 20
0.0
  9
$PLIMMAX
 10
420.0
 20
297.0
  9
$UNITMODE
 70
     0
  9
$VISRETAIN
 70
     1
  9
$PLINEGEN
 70
     0
  9
$PSLTSCALE
 70
     1
  0
ENDSEC
  0
SECTION
  2
TABLES
  0
TABLE
  2
VPORT
 70
     1
  0
VPORT
  2
*ACTIVE
 70
     0
 10
0.0
 20
0.0
 11
1.0
 21
1.0
 12
210.0
 22
148.5
 13
0.0
 23
0.0
 14
10.0
 24
10.0
 15
10.0
 25
10.0
 16
0.0
 26
0.0
 36
1.0
 17
0.0
 27
0.0
 37
0.0
 40
297.0
 41
1.4141414141
 42
50.0
 43
0.0
 44
0.0
 50
0.0
 51
0.0
 71
     0
 72
  2000
 73
     1
 74
     3
 75
     0
 76
     0
 77
     0
 78
     0
  0
ENDTAB
  0
TABLE
  2
LTYPE
 70
     6
  0
LTYPE
  2
CONTINUOUS
 70
     0
  3
Solid line
 72
    65
 73
     0
 40
0.0
  0
LTYPE
  2
HIDDEN
 70
     0
  3
Hidden __ __ __ __ __ __ __ __ __ __ __ __ __ __
 72
    65
 73
     2
 40
1.905
 49
1.27
 49
-0.635
  0
LTYPE
  2
PHANTOM
 70
     0
  3
Phantom ______  __  __  ______  __  __  ______
 72
    65
 73
     6
 40
12.7
 49
6.35
 49
-1.27
 49
1.27
 49
-1.27
 49
1.27
 49
-1.27
  0
LTYPE
  2
CENTER
 70
     0
  3
Center ____ _ ____ _ ____ _ ____ _ ____ _ ____
 72
    65
 73
     4
 40
10.16
 49
6.35
 49
-1.27
 49
1.27
 49
-1.27
  0
LTYPE
  2
CENTERX2
 70
     0
  3
Center (2x) ________  __  ________  __  _____
 72
    65
 73
     4
 40
20.32
 49
12.7
 49
-2.54
 49
2.54
 49
-2.54
  0
LTYPE
  2
DOT2
 70
     0
  3
Dot (.5x) ........................................
 72
    65
 73
     2
 40
0.635
 49
0.0
 49
-0.635
  0
ENDTAB
  0
TABLE
  2
LAYER
 70
     2
  0
LAYER
  2
0
 70
     0
 62
     7
  6
CONTINUOUS
  0
LAYER
  2
FORMAT
 70
     0
 62
     7
  6
CONTINUOUS
  0
ENDTAB
  0
TABLE
  2
STYLE
 70
     1
  0
STYLE
  2
STANDARD
 70
     0
 40
0.0
 41
1.0
 50
0.0
 71
     0
 42
3.5
  3
txt
  4

  0
ENDTAB
  0
TABLE
  2
VIEW
 70
     0
  0
ENDTAB
  0
TABLE
  2
UCS
 70
     0
  0
ENDTAB
  0
TABLE
  2
APPID
 70
     1
  0
APPID
  2
ACAD
 70
     0
  0
ENDTAB
  0
TABLE
  2
DIMSTYLE
 70
     1
  0
DIMSTYLE
  2
ISO-25
 70
     0
  3

  4

  5

  6

  7

 40
1.0
 41
2.5
 42
0.625
 43
3.75
 44
1.25
 45
0.0
 46
0.0
 47
0.0
 48
0.0
140
2.5
141
2.5
142
0.0
143
0.0393700787
144
1.0
145
0.0
146
1.0
147
0.625
 71
     0
 72
     0
 73
     0
 74
     0
 75
     0
 76
     0
 77
     1
 78
     8
170
     0
171
     3
172
     1
173
     0
174
     0
175
     0
176
     0
177
     0
178
     0
  0
ENDTAB
  0
ENDSEC
  0
SECTION
  2
BLOCKS
  0
BLOCK
  8
0
  2
$MODEL_SPACE
 70
     0
 10
0.0
 20
0.0
 30
0.0
  3
$MODEL_SPACE
  1

  0
ENDBLK
  5
21
  8
0
  0
BLOCK
 67
     1
  8
0
  2
$PAPER_SPACE
 70
     0
 10
0.0
 20
0.0
 30
0.0
  3
$PAPER_SPACE
  1

  0
ENDBLK
  5
1D
 67
     1
  8
0
  0
ENDSEC
  0
SECTION
  2
ENTITIES
  0
POLYLINE
  5
45
  8
0
  6
CONTINUOUS
 62
     7
 66
     1
 10
0.0
 20
0.0
 30
0.0
  0
VERTEX
  5
173
  8
0
  6
CONTINUOUS
 62
     7
 10
117.8604587896
 20
263.5293707254
 30
0.0
  0
VERTEX
  5
174
  8
0
  6
CONTINUOUS
 62
     7
 10
116.5855992445
 20
263.3591600209
 30
0.0
  0
VERTEX
  5
175
  8
0
  6
CONTINUOUS
 62
     7
 10
115.4927581311
 20
263.218093904
 30
0.0
  0
VERTEX
  5
176
  8
0
  6
CONTINUOUS
 62
     7
 10
114.5822314467
 20
263.1039645362
 30
0.0
  0
VERTEX
  5
177
  8
0
  6
CONTINUOUS
 62
     7
 10
113.8542541932
 20
263.0149332317
 30
0.0
  0
VERTEX
  5
178
  8
0
  6
CONTINUOUS
 62
     7
 10
113.2558631212
 20
262.9432139979
 30
0.0
  0
VERTEX
  5
179
  8
0
  6
CONTINUOUS
 62
     7
 10
112.8348162895
 20
262.893624357
 30
0.0
  0
VERTEX
  5
17A
  8
0
  6
CONTINUOUS
 62
     7
 10
112.3986342141
 20
262.843392045
 30
0.0
  0
VERTEX
  5
17B
  8
0
  6
CONTINUOUS
 62
     7
 10
111.9292871031
 20
262.7905899599
 30
0.0
  0
VERTEX
  5
17C
  8
0
  6
CONTINUOUS
 62
     7
 10
111.426755051
 20
262.7354063657
 30
0.0
  0
VERTEX
  5
17D
  8
0
  6
CONTINUOUS
 62
     7
 10
110.8910179295
 20
262.678040737
 30
0.0
  0
VERTEX
  5
17E
  8
0
  6
CONTINUOUS
 62
     7
 10
109.4967131017
 20
262.5354240342
 30
0.0
  0
VERTEX
  5
17F
  8
0
  6
CONTINUOUS
 62
     7
 10
107.9175461151
 20
262.3849251293
 30
0.0
  0
VERTEX
  5
180
  8
0
  6
CONTINUOUS
 62
     7
 10
106.5979849186
 20
262.2678043889
 30
0.0
  0
VERTEX
  5
181
  8
0
  6
CONTINUOUS
 62
     7
 10
105.2712763461
 20
262.1586282922
 30
0.0
  0
VERTEX
  5
182
  8
0
  6
CONTINUOUS
 62
     7
 10
104.0377128786
 20
262.0659603861
 30
0.0
  0
VERTEX
  5
183
  8
0
  6
CONTINUOUS
 62
     7
 10
102.8974650799
 20
261.9886815784
 30
0.0
  0
VERTEX
  5
184
  8
0
  6
CONTINUOUS
 62
     7
 10
101.850689749
 20
261.9258530869
 30
0.0
  0
VERTEX
  5
185
  8
0
  6
CONTINUOUS
 62
     7
 10
100.8975335359
 20
261.8767337492
 30
0.0
  0
VERTEX
  5
186
  8
0
  6
CONTINUOUS
 62
     7
 10
100.0381368004
 20
261.8407846006
 30
0.0
  0
VERTEX
  5
187
  8
0
  6
CONTINUOUS
 62
     7
 10
99.2719277155
 20
261.817523684
 30
0.0
  0
VERTEX
  5
188
  8
0
  6
CONTINUOUS
 62
     7
 10
98.9113158771
 20
261.8080766048
 30
0.0
  0
VERTEX
  5
189
  8
0
  6
CONTINUOUS
 62
     7
 10
98.5576458865
 20
261.7973182384
 30
0.0
  0
VERTEX
  5
18A
  8
0
  6
CONTINUOUS
 62
     7
 10
98.2109051872
 20
261.7848620231
 30
0.0
  0
VERTEX
  5
18B
  8
0
  6
CONTINUOUS
 62
     7
 10
97.8710981009
 20
261.7713157634
 30
0.0
  0
VERTEX
  5
18C
  8
0
  6
CONTINUOUS
 62
     7
 10
97.3154343545
 20
261.7482810419
 30
0.0
  0
VERTEX
  5
18D
  8
0
  6
CONTINUOUS
 62
     7
 10
96.7002691142
 20
261.7233932817
 30
0.0
  0
VERTEX
  5
18E
  8
0
  6
CONTINUOUS
 62
     7
 10
95.9673939644
 20
261.6951310318
 30
0.0
  0
VERTEX
  5
18F
  8
0
  6
CONTINUOUS
 62
     7
 10
95.116783922
 20
261.6641732516
 30
0.0
  0
VERTEX
  5
190
  8
0
  6
CONTINUOUS
 62
     7
 10
94.0993629221
 20
261.6296877597
 30
0.0
  0
VERTEX
  5
191
  8
0
  6
CONTINUOUS
 62
     7
 10
92.9526709151
 20
261.5940714136
 30
0.0
  0
VERTEX
  5
192
  8
0
  6
CONTINUOUS
 62
     7
 10
91.676866339
 20
261.5584139699
 30
0.0
  0
VERTEX
  5
193
  8
0
  6
CONTINUOUS
 62
     7
 10
85.6293119065
 20
261.4437567239
 30
0.0
  0
VERTEX
  5
194
  8
0
  6
CONTINUOUS
 62
     7
 10
79.6122602641
 20
261.4142544116
 30
0.0
  0
VERTEX
  5
195
  8
0
  6
CONTINUOUS
 62
     7
 10
77.2377191728
 20
261.4251989268
 30
0.0
  0
VERTEX
  5
196
  8
0
  6
CONTINUOUS
 62
     7
 10
75.0026661164
 20
261.4472301128
 30
0.0
  0
VERTEX
  5
197
  8
0
  6
CONTINUOUS
 62
     7
 10
72.9214340498
 20
261.478057098
 30
0.0
  0
VERTEX
  5
198
  8
0
  6
CONTINUOUS
 62
     7
 10
70.9940471239
 20
261.5156110009
 30
0.0
  0
VERTEX
  5
199
  8
0
  6
CONTINUOUS
 62
     7
 10
69.2107814673
 20
261.5582460967
 30
0.0
  0
VERTEX
  5
19A
  8
0
  6
CONTINUOUS
 62
     7
 10
68.3013579928
 20
261.5829683336
 30
0.0
  0
VERTEX
  5
19B
  8
0
  6
CONTINUOUS
 62
     7
 10
67.3492168518
 20
261.6110839424
 30
0.0
  0
VERTEX
  5
19C
  8
0
  6
CONTINUOUS
 62
     7
 10
66.3543787738
 20
261.6429812757
 30
0.0
  0
VERTEX
  5
19D
  8
0
  6
CONTINUOUS
 62
     7
 10
65.3168681638
 20
261.6790844536
 30
0.0
  0
VERTEX
  5
19E
  8
0
  6
CONTINUOUS
 62
     7
 10
64.2925128097
 20
261.7176719257
 30
0.0
  0
VERTEX
  5
19F
  8
0
  6
CONTINUOUS
 62
     7
 10
63.6241917179
 20
261.7444711271
 30
0.0
  0
VERTEX
  5
1A0
  8
0
  6
CONTINUOUS
 62
     7
 10
63.1435221947
 20
261.7645529389
 30
0.0
  0
VERTEX
  5
1A1
  8
0
  6
CONTINUOUS
 62
     7
 10
62.8294821538
 20
261.7780293501
 30
0.0
  0
VERTEX
  5
1A2
  8
0
  6
CONTINUOUS
 62
     7
 10
62.3486015266
 20
261.7988344169
 30
0.0
  0
VERTEX
  5
1A3
  8
0
  6
CONTINUOUS
 62
     7
 10
61.7926898151
 20
261.8219042541
 30
0.0
  0
VERTEX
  5
1A4
  8
0
  6
CONTINUOUS
 62
     7
 10
61.1618086
 20
261.8460320227
 30
0.0
  0
VERTEX
  5
1A5
  8
0
  6
CONTINUOUS
 62
     7
 10
60.4559620326
 20
261.8734344966
 30
0.0
  0
VERTEX
  5
1A6
  8
0
  6
CONTINUOUS
 62
     7
 10
59.6742318619
 20
261.9076561459
 30
0.0
  0
VERTEX
  5
1A7
  8
0
  6
CONTINUOUS
 62
     7
 10
58.8120807219
 20
261.952486931
 30
0.0
  0
VERTEX
  5
1A8
  8
0
  6
CONTINUOUS
 62
     7
 10
57.8689354009
 20
262.0088379992
 30
0.0
  0
VERTEX
  5
1A9
  8
0
  6
CONTINUOUS
 62
     7
 10
56.8449109116
 20
262.0772662692
 30
0.0
  0
VERTEX
  5
1AA
  8
0
  6
CONTINUOUS
 62
     7
 10
55.7401295738
 20
262.1584626344
 30
0.0
  0
VERTEX
  5
1AB
  8
0
  6
CONTINUOUS
 62
     7
 10
54.5547235848
 20
262.2532531491
 30
0.0
  0
VERTEX
  5
1AC
  8
0
  6
CONTINUOUS
 62
     7
 10
52.4907397299
 20
262.4356214005
 30
0.0
  0
VERTEX
  5
1AD
  8
0
  6
CONTINUOUS
 62
     7
 10
50.2354782597
 20
262.6583173788
 30
0.0
  0
VERTEX
  5
1AE
  8
0
  6
CONTINUOUS
 62
     7
 10
47.8896354171
 20
262.9147103042
 30
0.0
  0
VERTEX
  5
1AF
  8
0
  6
CONTINUOUS
 62
     7
 10
45.4732058076
 20
263.2045643069
 30
0.0
  0
VERTEX
  5
1B0
  8
0
  6
CONTINUOUS
 62
     7
 10
42.9865582441
 20
263.5293707534
 30
0.0
  0
SEQEND
  5
317
  8
0
  6
CONTINUOUS
 62
     7
  0
POLYLINE
  5
46
  8
0
  6
CONTINUOUS
 62
     7
 66
     1
 10
0.0
 20
0.0
 30
0.0
  0
VERTEX
  5
1B1
  8
0
  6
CONTINUOUS
 62
     7
 10
118.0235719161
 20
262.9456216396
 30
0.0
  0
VERTEX
  5
1B2
  8
0
  6
CONTINUOUS
 62
     7
 10
117.941356706
 20
263.3066127676
 30
0.0
  0
VERTEX
  5
1B3
  8
0
  6
CONTINUOUS
 62
     7
 10
117.8073420206
 20
263.8955947418
 30
0.0
  0
SEQEND
  5
316
  8
0
  6
CONTINUOUS
 62
     7
  0
POLYLINE
  5
47
  8
0
  6
CONTINUOUS
 62
     7
 66
     1
 10
0.0
 20
0.0
 30
0.0
  0
VERTEX
  5
1B4
  8
0
  6
CONTINUOUS
 62
     7
 10
43.0396749076
 20
263.8955978999
 30
0.0
  0
VERTEX
  5
1B5
  8
0
  6
CONTINUOUS
 62
     7
 10
42.9069875461
 20
263.312447988
 30
0.0
  0
VERTEX
  5
1B6
  8
0
  6
CONTINUOUS
 62
     7
 10
42.8224188968
 20
262.9411192589
 30
0.0
  0
SEQEND
  5
315
  8
0
  6
CONTINUOUS
 62
     7
  0
LINE
  5
48
  8
0
  6
CONTINUOUS
 62
     7
 10
73.2505777939
 20
171.5413189867
 30
0.0
 11
77.0092243353
 21
171.5413189867
 31
0.0
  0
LINE
  5
49
  8
0
  6
CONTINUOUS
 62
     7
 10
77.0092243353
 20
170.3413189867
 30
0.0
 11
73.2505777939
 21
170.3413189867
 31
0.0
  0
LINE
  5
4A
  8
0
  6
CONTINUOUS
 62
     7
 10
83.8377929061
 20
171.5413189867
 30
0.0
 11
87.5964394475
 21
171.5413189867
 31
0.0
  0
LINE
  5
4B
  8
0
  6
CONTINUOUS
 62
     7
 10
87.5964394475
 20
170.3413189867
 30
0.0
 11
83.8377929061
 21
170.3413189867
 31
0.0
  0
LINE
  5
4C
  8
0
  6
CONTINUOUS
 62
     7
 10
77.0092243353
 20
171.5413189867
 30
0.0
 11
83.8377929061
 21
171.5413189867
 31
0.0
  0
LINE
  5
4D
  8
0
  6
CONTINUOUS
 62
     7
 10
77.0092243353
 20
170.3413189867
 30
0.0
 11
83.8377929061
 21
170.3413189867
 31
0.0
  0
LINE
  5
4E
  8
0
  6
CONTINUOUS
 62
     7
 10
68.4235086207
 20
170.3413189867
 30
0.0
 11
68.4235086207
 21
171.5413189867
 31
0.0
  0
LINE
  5
4F
  8
0
  6
CONTINUOUS
 62
     7
 10
73.2505777939
 20
171.5413189867
 30
0.0
 11
68.4235086207
 21
171.5413189867
 31
0.0
  0
LINE
  5
50
  8
0
  6
CONTINUOUS
 62
     7
 10
68.4235086207
 20
170.3413189867
 30
0.0
 11
73.2505777939
 21
170.3413189867
 31
0.0
  0
LINE
  5
51
  8
0
  6
CONTINUOUS
 62
     7
 10
92.4235086207
 20
170.3413189867
 30
0.0
 11
92.4235086207
 21
171.5413189867
 31
0.0
  0
LINE
  5
52
  8
0
  6
CONTINUOUS
 62
     7
 10
92.4235086207
 20
171.5413189867
 30
0.0
 11
87.5964394475
 21
171.5413189867
 31
0.0
  0
LINE
  5
53
  8
0
  6
CONTINUOUS
 62
     7
 10
87.5964394475
 20
170.3413189867
 30
0.0
 11
92.4235086207
 21
170.3413189867
 31
0.0
  0
LINE
  5
54
  8
0
  6
CONTINUOUS
 62
     7
 10
75.4235086207
 20
171.5413189867
 30
0.0
 11
75.4235086207
 21
235.5413189867
 31
0.0
  0
LINE
  5
55
  8
0
  6
CONTINUOUS
 62
     7
 10
75.4235086207
 20
235.5413189867
 30
0.0
 11
76.4235086207
 21
236.5413189867
 31
0.0
  0
LINE
  5
56
  8
0
  6
CONTINUOUS
 62
     7
 10
75.4235086207
 20
235.5413189867
 30
0.0
 11
37.2235086207
 21
235.5413189867
 31
0.0
  0
LINE
  5
57
  8
0
  6
CONTINUOUS
 62
     7
 10
124.0235086207
 20
244.5413189867
 30
0.0
 11
124.0235086207
 21
236.5413189867
 31
0.0
  0
LINE
  5
58
  8
0
  6
CONTINUOUS
 62
     7
 10
124.0235086207
 20
236.5413189867
 30
0.0
 11
124.0235086207
 21
235.9413189867
 31
0.0
  0
ARC
  5
59
  8
0
  6
CONTINUOUS
 62
     7
 10
123.6235086207
 20
235.9413189867
 30
0.0
 40
0.4000000000000341
 50
270.0
 51
0.0
  0
LINE
  5
5A
  8
0
  6
CONTINUOUS
 62
     7
 10
84.4235086207
 20
236.5413189867
 30
0.0
 11
85.4235086207
 21
235.5413189867
 31
0.0
  0
LINE
  5
5B
  8
0
  6
CONTINUOUS
 62
     7
 10
85.4235086207
 20
235.5413189867
 30
0.0
 11
85.4235086207
 21
171.5413189867
 31
0.0
  0
LINE
  5
5C
  8
0
  6
CONTINUOUS
 62
     7
 10
124.0235086207
 20
245.1413189867
 30
0.0
 11
124.0235086207
 21
244.5413189867
 31
0.0
  0
ARC
  5
5D
  8
0
  6
CONTINUOUS
 62
     7
 10
123.6235086207
 20
245.1413189867
 30
0.0
 40
0.4000000000000341
 50
0.0
 51
90.0
  0
LINE
  5
5E
  8
0
  6
CONTINUOUS
 62
     7
 10
36.8235086207
 20
236.5413189867
 30
0.0
 11
36.8235086207
 21
244.5413189867
 31
0.0
  0
LINE
  5
5F
  8
0
  6
CONTINUOUS
 62
     7
 10
36.8235086207
 20
244.5413189867
 30
0.0
 11
36.8235086207
 21
245.1413189867
 31
0.0
  0
ARC
  5
60
  8
0
  6
CONTINUOUS
 62
     7
 10
37.2235086207
 20
245.1413189867
 30
0.0
 40
0.4000000000000057
 50
90.0
 51
180.0
  0
LINE
  5
61
  8
0
  6
CONTINUOUS
 62
     7
 10
37.2235086207
 20
245.5413189867
 30
0.0
 11
37.9235086207
 21
245.5413189867
 31
0.0
  0
LINE
  5
62
  8
0
  6
CONTINUOUS
 62
     7
 10
47.9235086207
 20
245.5413189867
 30
0.0
 11
112.9235086207
 21
245.5413189867
 31
0.0
  0
LINE
  5
63
  8
0
  6
CONTINUOUS
 62
     7
 10
122.9235086207
 20
245.5413189867
 30
0.0
 11
123.6235086207
 21
245.5413189867
 31
0.0
  0
LINE
  5
64
  8
0
  6
CONTINUOUS
 62
     7
 10
123.6235086207
 20
235.5413189867
 30
0.0
 11
85.4235086207
 21
235.5413189867
 31
0.0
  0
LINE
  5
65
  8
0
  6
CONTINUOUS
 62
     7
 10
36.8235086207
 20
235.9413189867
 30
0.0
 11
36.8235086207
 21
236.5413189867
 31
0.0
  0
ARC
  5
66
  8
0
  6
CONTINUOUS
 62
     7
 10
37.2235086207
 20
235.9413189867
 30
0.0
 40
0.4000000000000057
 50
180.0
 51
270.0
  0
POLYLINE
  5
67
  8
0
  6
CONTINUOUS
 62
     7
 66
     1
 10
0.0
 20
0.0
 30
0.0
  0
VERTEX
  5
1B7
  8
0
  6
CONTINUOUS
 62
     7
 10
118.0235797828
 20
261.8720178475
 30
0.0
  0
VERTEX
  5
1B8
  8
0
  6
CONTINUOUS
 62
     7
 10
117.9357061347
 20
261.6179312868
 30
0.0
  0
VERTEX
  5
1B9
  8
0
  6
CONTINUOUS
 62
     7
 10
117.6703919199
 20
261.2629153212
 30
0.0
  0
VERTEX
  5
1BA
  8
0
  6
CONTINUOUS
 62
     7
 10
117.2613920869
 20
260.831171443
 30
0.0
  0
VERTEX
  5
1BB
  8
0
  6
CONTINUOUS
 62
     7
 10
116.7029768805
 20
260.3292335844
 30
0.0
  0
VERTEX
  5
1BC
  8
0
  6
CONTINUOUS
 62
     7
 10
115.9670169241
 20
259.7737565079
 30
0.0
  0
VERTEX
  5
1BD
  8
0
  6
CONTINUOUS
 62
     7
 10
115.0649376838
 20
259.2255557676
 30
0.0
  0
VERTEX
  5
1BE
  8
0
  6
CONTINUOUS
 62
     7
 10
114.1985589771
 20
258.8177275598
 30
0.0
  0
VERTEX
  5
1BF
  8
0
  6
CONTINUOUS
 62
     7
 10
113.2148839604
 20
258.4802476294
 30
0.0
  0
VERTEX
  5
1C0
  8
0
  6
CONTINUOUS
 62
     7
 10
112.5898176788
 20
258.3299779663
 30
0.0
  0
VERTEX
  5
1C1
  8
0
  6
CONTINUOUS
 62
     7
 10
111.9360093271
 20
258.2235209224
 30
0.0
  0
SEQEND
  5
314
  8
0
  6
CONTINUOUS
 62
     7
  0
POLYLINE
  5
68
  8
0
  6
CONTINUOUS
 62
     7
 66
     1
 10
0.0
 20
0.0
 30
0.0
  0
VERTEX
  5
1C2
  8
0
  6
CONTINUOUS
 62
     7
 10
118.0235790338
 20
261.8720174744
 30
0.0
  0
VERTEX
  5
1C3
  8
0
  6
CONTINUOUS
 62
     7
 10
118.0235775427
 20
261.9268037572
 30
0.0
  0
VERTEX
  5
1C4
  8
0
  6
CONTINUOUS
 62
     7
 10
118.0233632522
 20
262.2195018425
 30
0.0
  0
VERTEX
  5
1C5
  8
0
  6
CONTINUOUS
 62
     7
 10
118.0228861372
 20
262.3422087198
 30
0.0
  0
VERTEX
  5
1C6
  8
0
  6
CONTINUOUS
 62
     7
 10
118.0225357025
 20
262.3558419855
 30
0.0
  0
VERTEX
  5
1C7
  8
0
  6
CONTINUOUS
 62
     7
 10
118.0227817777
 20
262.342983622
 30
0.0
  0
SEQEND
  5
313
  8
0
  6
CONTINUOUS
 62
     7
  0
POLYLINE
  5
69
  8
0
  6
CONTINUOUS
 62
     7
 66
     1
 10
0.0
 20
0.0
 30
0.0
  0
VERTEX
  5
1C8
  8
0
  6
CONTINUOUS
 62
     7
 10
118.0235085022
 20
262.6394150351
 30
0.0
  0
VERTEX
  5
1C9
  8
0
  6
CONTINUOUS
 62
     7
 10
118.0087989338
 20
262.5916527709
 30
0.0
  0
VERTEX
  5
1CA
  8
0
  6
CONTINUOUS
 62
     7
 10
118.0235119892
 20
262.4648561808
 30
0.0
  0
SEQEND
  5
312
  8
0
  6
CONTINUOUS
 62
     7
  0
POLYLINE
  5
6A
  8
0
  6
CONTINUOUS
 62
     7
 66
     1
 10
0.0
 20
0.0
 30
0.0
  0
VERTEX
  5
1CB
  8
0
  6
CONTINUOUS
 62
     7
 10
42.8235052522
 20
262.4648561808
 30
0.0
  0
VERTEX
  5
1CC
  8
0
  6
CONTINUOUS
 62
     7
 10
42.8382183075
 20
262.5916527709
 30
0.0
  0
VERTEX
  5
1CD
  8
0
  6
CONTINUOUS
 62
     7
 10
42.8235087395
 20
262.6394150345
 30
0.0
  0
SEQEND
  5
311
  8
0
  6
CONTINUOUS
 62
     7
  0
POLYLINE
  5
6B
  8
0
  6
CONTINUOUS
 62
     7
 66
     1
 10
0.0
 20
0.0
 30
0.0
  0
VERTEX
  5
1CE
  8
0
  6
CONTINUOUS
 62
     7
 10
42.8234373938
 20
261.8721948947
 30
0.0
  0
VERTEX
  5
1CF
  8
0
  6
CONTINUOUS
 62
     7
 10
42.8234373557
 20
261.8768916794
 30
0.0
  0
VERTEX
  5
1D0
  8
0
  6
CONTINUOUS
 62
     7
 10
42.8236078047
 20
262.195389545
 30
0.0
  0
VERTEX
  5
1D1
  8
0
  6
CONTINUOUS
 62
     7
 10
42.8240727697
 20
262.3346304437
 30
0.0
  0
VERTEX
  5
1D2
  8
0
  6
CONTINUOUS
 62
     7
 10
42.8244589055
 20
262.3579966224
 30
0.0
  0
VERTEX
  5
1D3
  8
0
  6
CONTINUOUS
 62
     7
 10
42.8244066781
 20
262.3405865474
 30
0.0
  0
SEQEND
  5
310
  8
0
  6
CONTINUOUS
 62
     7
  0
POLYLINE
  5
6C
  8
0
  6
CONTINUOUS
 62
     7
 66
     1
 10
0.0
 20
0.0
 30
0.0
  0
VERTEX
  5
1D4
  8
0
  6
CONTINUOUS
 62
     7
 10
48.9110079143
 20
258.2235209224
 30
0.0
  0
VERTEX
  5
1D5
  8
0
  6
CONTINUOUS
 62
     7
 10
47.8969598985
 20
258.4106836811
 30
0.0
  0
VERTEX
  5
1D6
  8
0
  6
CONTINUOUS
 62
     7
 10
46.9116533691
 20
258.7148645927
 30
0.0
  0
VERTEX
  5
1D7
  8
0
  6
CONTINUOUS
 62
     7
 10
46.0428148105
 20
259.0912573756
 30
0.0
  0
VERTEX
  5
1D8
  8
0
  6
CONTINUOUS
 62
     7
 10
45.2495444143
 20
259.532828722
 30
0.0
  0
VERTEX
  5
1D9
  8
0
  6
CONTINUOUS
 62
     7
 10
44.4920729695
 20
260.0531920695
 30
0.0
  0
VERTEX
  5
1DA
  8
0
  6
CONTINUOUS
 62
     7
 10
43.8507792535
 20
260.5827498743
 30
0.0
  0
VERTEX
  5
1DB
  8
0
  6
CONTINUOUS
 62
     7
 10
43.304542847
 20
261.1197601981
 30
0.0
  0
VERTEX
  5
1DC
  8
0
  6
CONTINUOUS
 62
     7
 10
43.0964004984
 20
261.3583811806
 30
0.0
  0
VERTEX
  5
1DD
  8
0
  6
CONTINUOUS
 62
     7
 10
42.9442868161
 20
261.5644099776
 30
0.0
  0
VERTEX
  5
1DE
  8
0
  6
CONTINUOUS
 62
     7
 10
42.8234373938
 20
261.8721948945
 30
0.0
  0
SEQEND
  5
30F
  8
0
  6
CONTINUOUS
 62
     7
  0
POLYLINE
  5
6D
  8
0
  6
CONTINUOUS
 62
     7
 66
     1
 10
0.0
 20
0.0
 30
0.0
  0
VERTEX
  5
1DF
  8
0
  6
CONTINUOUS
 62
     7
 10
111.9360093271
 20
258.2235209224
 30
0.0
  0
VERTEX
  5
1E0
  8
0
  6
CONTINUOUS
 62
     7
 10
104.850377344
 20
257.4225825771
 30
0.0
  0
VERTEX
  5
1E1
  8
0
  6
CONTINUOUS
 62
     7
 10
97.7296143094
 20
256.7951684721
 30
0.0
  0
VERTEX
  5
1E2
  8
0
  6
CONTINUOUS
 62
     7
 10
90.5616694462
 20
256.3683985647
 30
0.0
  0
VERTEX
  5
1E3
  8
0
  6
CONTINUOUS
 62
     7
 10
83.3697823256
 20
256.1613849469
 30
0.0
  0
VERTEX
  5
1E4
  8
0
  6
CONTINUOUS
 62
     7
 10
78.308558861
 20
256.1520887805
 30
0.0
  0
VERTEX
  5
1E5
  8
0
  6
CONTINUOUS
 62
     7
 10
73.245219329
 20
256.255859994
 30
0.0
  0
VERTEX
  5
1E6
  8
0
  6
CONTINUOUS
 62
     7
 10
68.1762516979
 20
256.4715889464
 30
0.0
  0
VERTEX
  5
1E7
  8
0
  6
CONTINUOUS
 62
     7
 10
63.1122774162
 20
256.7955494929
 30
0.0
  0
VERTEX
  5
1E8
  8
0
  6
CONTINUOUS
 62
     7
 10
56.0013970533
 20
257.422100674
 30
0.0
  0
VERTEX
  5
1E9
  8
0
  6
CONTINUOUS
 62
     7
 10
48.9110079143
 20
258.2235209224
 30
0.0
  0
SEQEND
  5
30E
  8
0
  6
CONTINUOUS
 62
     7
  0
POLYLINE
  5
6E
  8
0
  6
CONTINUOUS
 62
     7
 66
     1
 10
0.0
 20
0.0
 30
0.0
  0
VERTEX
  5
1EA
  8
0
  6
CONTINUOUS
 62
     7
 10
49.0909087139
 20
263.556092828
 30
0.0
  0
VERTEX
  5
1EB
  8
0
  6
CONTINUOUS
 62
     7
 10
48.084434766
 20
263.7737406808
 30
0.0
  0
VERTEX
  5
1EC
  8
0
  6
CONTINUOUS
 62
     7
 10
47.1598398082
 20
263.9635532356
 30
0.0
  0
VERTEX
  5
1ED
  8
0
  6
CONTINUOUS
 62
     7
 10
46.3923498142
 20
264.1015246953
 30
0.0
  0
VERTEX
  5
1EE
  8
0
  6
CONTINUOUS
 62
     7
 10
45.7568673403
 20
264.1854470737
 30
0.0
  0
VERTEX
  5
1EF
  8
0
  6
CONTINUOUS
 62
     7
 10
45.4551377979
 20
264.2062011356
 30
0.0
  0
VERTEX
  5
1F0
  8
0
  6
CONTINUOUS
 62
     7
 10
45.2171462671
 20
264.204777477
 30
0.0
  0
SEQEND
  5
30D
  8
0
  6
CONTINUOUS
 62
     7
  0
ARC
  5
6F
  8
0
  6
CONTINUOUS
 62
     7
 10
82.2392847127
 20
411.7939034726
 30
0.0
 40
151.8988589031734
 50
257.3951042645
 51
260.2018334821
  0
ARC
  5
70
  8
0
  6
CONTINUOUS
 62
     7
 10
80.0895479774
 20
405.2118136779
 30
0.0
 40
145.152038589124
 50
279.5697339633
 51
282.6010614768
  0
POLYLINE
  5
71
  8
0
  6
CONTINUOUS
 62
     7
 66
     1
 10
0.0
 20
0.0
 30
0.0
  0
VERTEX
  5
1F1
  8
0
  6
CONTINUOUS
 62
     7
 10
115.6298709743
 20
264.204777477
 30
0.0
  0
VERTEX
  5
1F2
  8
0
  6
CONTINUOUS
 62
     7
 10
115.2107817083
 20
264.1958668782
 30
0.0
  0
VERTEX
  5
1F3
  8
0
  6
CONTINUOUS
 62
     7
 10
114.6011525968
 20
264.1241510195
 30
0.0
  0
VERTEX
  5
1F4
  8
0
  6
CONTINUOUS
 62
     7
 10
113.8499077972
 20
263.9948923719
 30
0.0
  0
VERTEX
  5
1F5
  8
0
  6
CONTINUOUS
 62
     7
 10
112.932531467
 20
263.8096985326
 30
0.0
  0
VERTEX
  5
1F6
  8
0
  6
CONTINUOUS
 62
     7
 10
111.7561085275
 20
263.556092828
 30
0.0
  0
SEQEND
  5
30C
  8
0
  6
CONTINUOUS
 62
     7
  0
POLYLINE
  5
72
  8
0
  6
CONTINUOUS
 62
     7
 66
     1
 10
0.0
 20
0.0
 30
0.0
  0
VERTEX
  5
1F7
  8
0
  6
CONTINUOUS
 62
     7
 10
115.6298519708
 20
264.204852782
 30
0.0
  0
VERTEX
  5
1F8
  8
0
  6
CONTINUOUS
 62
     7
 10
116.5469193496
 20
264.1500406952
 30
0.0
  0
VERTEX
  5
1F9
  8
0
  6
CONTINUOUS
 62
     7
 10
117.1480931812
 20
264.0955050943
 30
0.0
  0
VERTEX
  5
1FA
  8
0
  6
CONTINUOUS
 62
     7
 10
117.5056157746
 20
264.0397751189
 30
0.0
  0
VERTEX
  5
1FB
  8
0
  6
CONTINUOUS
 62
     7
 10
117.7203741518
 20
263.983158966
 30
0.0
  0
VERTEX
  5
1FC
  8
0
  6
CONTINUOUS
 62
     7
 10
117.8021197651
 20
263.9247288149
 30
0.0
  0
VERTEX
  5
1FD
  8
0
  6
CONTINUOUS
 62
     7
 10
117.7989549601
 20
263.8671760332
 30
0.0
  0
VERTEX
  5
1FE
  8
0
  6
CONTINUOUS
 62
     7
 10
117.771854086
 20
263.814322734
 30
0.0
  0
VERTEX
  5
1FF
  8
0
  6
CONTINUOUS
 62
     7
 10
117.7696962886
 20
263.7674615658
 30
0.0
  0
VERTEX
  5
200
  8
0
  6
CONTINUOUS
 62
     7
 10
117.8166329904
 20
263.6591671581
 30
0.0
  0
VERTEX
  5
201
  8
0
  6
CONTINUOUS
 62
     7
 10
117.8258672376
 20
263.6176095485
 30
0.0
  0
SEQEND
  5
30B
  8
0
  6
CONTINUOUS
 62
     7
  0
ARC
  5
73
  8
0
  6
CONTINUOUS
 62
     7
 10
112.9794024021
 20
262.7887486094
 30
0.0
 40
4.945594110330647
 50
3.586263918
 51
8.4290134301
  0
POLYLINE
  5
74
  8
0
  6
CONTINUOUS
 62
     7
 66
     1
 10
0.0
 20
0.0
 30
0.0
  0
VERTEX
  5
202
  8
0
  6
CONTINUOUS
 62
     7
 10
111.8266721208
 20
259.7202718289
 30
0.0
  0
VERTEX
  5
203
  8
0
  6
CONTINUOUS
 62
     7
 10
112.8503659789
 20
259.8991978468
 30
0.0
  0
VERTEX
  5
204
  8
0
  6
CONTINUOUS
 62
     7
 10
113.8463467761
 20
260.1899792194
 30
0.0
  0
VERTEX
  5
205
  8
0
  6
CONTINUOUS
 62
     7
 10
114.7265978821
 20
260.5489279514
 30
0.0
  0
VERTEX
  5
206
  8
0
  6
CONTINUOUS
 62
     7
 10
115.5312295405
 20
260.9677299843
 30
0.0
  0
VERTEX
  5
207
  8
0
  6
CONTINUOUS
 62
     7
 10
116.2909488101
 20
261.4514344854
 30
0.0
  0
VERTEX
  5
208
  8
0
  6
CONTINUOUS
 62
     7
 10
116.9323530685
 20
261.9380101991
 30
0.0
  0
VERTEX
  5
209
  8
0
  6
CONTINUOUS
 62
     7
 10
117.4600718884
 20
262.4113089913
 30
0.0
  0
VERTEX
  5
20A
  8
0
  6
CONTINUOUS
 62
     7
 10
117.8033052222
 20
262.8044342932
 30
0.0
  0
VERTEX
  5
20B
  8
0
  6
CONTINUOUS
 62
     7
 10
117.8913852288
 20
262.9651032583
 30
0.0
  0
VERTEX
  5
20C
  8
0
  6
CONTINUOUS
 62
     7
 10
117.9153119906
 20
263.0980998333
 30
0.0
  0
SEQEND
  5
30A
  8
0
  6
CONTINUOUS
 62
     7
  0
POLYLINE
  5
75
  8
0
  6
CONTINUOUS
 62
     7
 66
     1
 10
0.0
 20
0.0
 30
0.0
  0
VERTEX
  5
20D
  8
0
  6
CONTINUOUS
 62
     7
 10
111.8266721208
 20
259.7202718289
 30
0.0
  0
VERTEX
  5
20E
  8
0
  6
CONTINUOUS
 62
     7
 10
106.4772432984
 20
259.1337854761
 30
0.0
  0
VERTEX
  5
20F
  8
0
  6
CONTINUOUS
 62
     7
 10
101.1096897137
 20
258.6356770402
 30
0.0
  0
VERTEX
  5
210
  8
0
  6
CONTINUOUS
 62
     7
 10
95.7192849012
 20
258.2384984496
 30
0.0
  0
VERTEX
  5
211
  8
0
  6
CONTINUOUS
 62
     7
 10
90.3143413512
 20
257.9535430552
 30
0.0
  0
VERTEX
  5
212
  8
0
  6
CONTINUOUS
 62
     7
 10
84.4155783354
 20
257.7797306867
 30
0.0
  0
VERTEX
  5
213
  8
0
  6
CONTINUOUS
 62
     7
 10
78.5077029102
 20
257.7535442053
 30
0.0
  0
VERTEX
  5
214
  8
0
  6
CONTINUOUS
 62
     7
 10
72.5852132483
 20
257.8765261137
 30
0.0
  0
VERTEX
  5
215
  8
0
  6
CONTINUOUS
 62
     7
 10
66.6644941269
 20
258.1455905604
 30
0.0
  0
VERTEX
  5
216
  8
0
  6
CONTINUOUS
 62
     7
 10
62.2423217549
 20
258.4376702176
 30
0.0
  0
VERTEX
  5
217
  8
0
  6
CONTINUOUS
 62
     7
 10
57.8284970123
 20
258.8016596995
 30
0.0
  0
VERTEX
  5
218
  8
0
  6
CONTINUOUS
 62
     7
 10
53.4207753771
 20
259.2316322767
 30
0.0
  0
VERTEX
  5
219
  8
0
  6
CONTINUOUS
 62
     7
 10
49.0203451205
 20
259.7202718289
 30
0.0
  0
SEQEND
  5
309
  8
0
  6
CONTINUOUS
 62
     7
  0
POLYLINE
  5
76
  8
0
  6
CONTINUOUS
 62
     7
 66
     1
 10
0.0
 20
0.0
 30
0.0
  0
VERTEX
  5
21A
  8
0
  6
CONTINUOUS
 62
     7
 10
42.9317052508
 20
263.0980998333
 30
0.0
  0
VERTEX
  5
21B
  8
0
  6
CONTINUOUS
 62
     7
 10
43.0060468461
 20
262.863436754
 30
0.0
  0
VERTEX
  5
21C
  8
0
  6
CONTINUOUS
 62
     7
 10
43.2632899904
 20
262.5380322791
 30
0.0
  0
VERTEX
  5
21D
  8
0
  6
CONTINUOUS
 62
     7
 10
43.6730420633
 20
262.1444068744
 30
0.0
  0
VERTEX
  5
21E
  8
0
  6
CONTINUOUS
 62
     7
 10
44.2408041387
 20
261.6805849566
 30
0.0
  0
VERTEX
  5
21F
  8
0
  6
CONTINUOUS
 62
     7
 10
44.9735285432
 20
261.1743444922
 30
0.0
  0
VERTEX
  5
220
  8
0
  6
CONTINUOUS
 62
     7
 10
45.8697214159
 20
260.6697424168
 30
0.0
  0
VERTEX
  5
221
  8
0
  6
CONTINUOUS
 62
     7
 10
46.7498362243
 20
260.2821982738
 30
0.0
  0
VERTEX
  5
222
  8
0
  6
CONTINUOUS
 62
     7
 10
47.7475706851
 20
259.9608762806
 30
0.0
  0
VERTEX
  5
223
  8
0
  6
CONTINUOUS
 62
     7
 10
48.3703798944
 20
259.8201070693
 30
0.0
  0
VERTEX
  5
224
  8
0
  6
CONTINUOUS
 62
     7
 10
49.0203451205
 20
259.7202718289
 30
0.0
  0
SEQEND
  5
308
  8
0
  6
CONTINUOUS
 62
     7
  0
POLYLINE
  5
77
  8
0
  6
CONTINUOUS
 62
     7
 66
     1
 10
0.0
 20
0.0
 30
0.0
  0
VERTEX
  5
225
  8
0
  6
CONTINUOUS
 62
     7
 10
42.9317054231
 20
263.0981017077
 30
0.0
  0
VERTEX
  5
226
  8
0
  6
CONTINUOUS
 62
     7
 10
42.960023139
 20
263.3944381055
 30
0.0
  0
VERTEX
  5
227
  8
0
  6
CONTINUOUS
 62
     7
 10
42.9758502102
 20
263.5191167452
 30
0.0
  0
SEQEND
  5
307
  8
0
  6
CONTINUOUS
 62
     7
  0
POLYLINE
  5
78
  8
0
  6
CONTINUOUS
 62
     7
 66
     1
 10
0.0
 20
0.0
 30
0.0
  0
VERTEX
  5
228
  8
0
  6
CONTINUOUS
 62
     7
 10
43.0212196698
 20
263.6171034226
 30
0.0
  0
VERTEX
  5
229
  8
0
  6
CONTINUOUS
 62
     7
 10
43.0313302081
 20
263.6617504073
 30
0.0
  0
VERTEX
  5
22A
  8
0
  6
CONTINUOUS
 62
     7
 10
43.0773209527
 20
263.7674615658
 30
0.0
  0
VERTEX
  5
22B
  8
0
  6
CONTINUOUS
 62
     7
 10
43.0751631554
 20
263.814322734
 30
0.0
  0
VERTEX
  5
22C
  8
0
  6
CONTINUOUS
 62
     7
 10
43.0480622813
 20
263.8671760332
 30
0.0
  0
VERTEX
  5
22D
  8
0
  6
CONTINUOUS
 62
     7
 10
43.0448974763
 20
263.9247288149
 30
0.0
  0
VERTEX
  5
22E
  8
0
  6
CONTINUOUS
 62
     7
 10
43.1266430896
 20
263.983158966
 30
0.0
  0
VERTEX
  5
22F
  8
0
  6
CONTINUOUS
 62
     7
 10
43.3414014667
 20
264.0397751189
 30
0.0
  0
VERTEX
  5
230
  8
0
  6
CONTINUOUS
 62
     7
 10
43.6989240602
 20
264.0955050943
 30
0.0
  0
VERTEX
  5
231
  8
0
  6
CONTINUOUS
 62
     7
 10
44.3000978918
 20
264.1500406952
 30
0.0
  0
VERTEX
  5
232
  8
0
  6
CONTINUOUS
 62
     7
 10
45.2171652706
 20
264.204852782
 30
0.0
  0
SEQEND
  5
306
  8
0
  6
CONTINUOUS
 62
     7
  0
LINE
  5
79
  8
0
  6
CONTINUOUS
 62
     7
 10
118.0235086207
 20
262.6399044296
 30
0.0
 11
118.0235086207
 21
262.9456072475
 31
0.0
  0
LINE
  5
7A
  8
0
  6
CONTINUOUS
 62
     7
 10
42.8235086207
 20
262.4648556032
 30
0.0
 11
42.8235086207
 21
262.2903944523
 31
0.0
  0
LINE
  5
7B
  8
0
  6
CONTINUOUS
 62
     7
 10
42.8235086207
 20
262.9408727541
 30
0.0
 11
42.8235086207
 21
262.6399044254
 31
0.0
  0
LINE
  5
7C
  8
0
  6
CONTINUOUS
 62
     7
 10
43.5235086207
 20
259.5929491049
 30
0.0
 11
43.5235086207
 21
257.6282468507
 31
0.0
  0
LINE
  5
7D
  8
0
  6
CONTINUOUS
 62
     7
 10
42.7235086207
 20
257.6282468507
 30
0.0
 11
42.7235086207
 21
259.5929491049
 31
0.0
  0
LINE
  5
7E
  8
0
  6
CONTINUOUS
 62
     7
 10
43.5235086207
 20
259.5929491049
 30
0.0
 11
43.5235086207
 21
260.9044928164
 31
0.0
  0
ARC
  5
7F
  8
0
  6
CONTINUOUS
 62
     7
 10
43.7235086207
 20
260.8441049196
 30
0.0
 40
1.000000000000024
 50
138.1768700679
 51
180.0
  0
LINE
  5
80
  8
0
  6
CONTINUOUS
 62
     7
 10
42.7235086207
 20
260.8441049196
 30
0.0
 11
42.7235086207
 21
259.5929491049
 31
0.0
  0
LINE
  5
81
  8
0
  6
CONTINUOUS
 62
     7
 10
43.5235086207
 20
257.6282468507
 30
0.0
 11
43.5235086207
 21
251.8059898445
 31
0.0
  0
LINE
  5
82
  8
0
  6
CONTINUOUS
 62
     7
 10
42.7235086207
 20
251.8059898445
 30
0.0
 11
42.7235086207
 21
257.6282468507
 31
0.0
  0
LINE
  5
83
  8
0
  6
CONTINUOUS
 62
     7
 10
43.5235086207
 20
251.5413971807
 30
0.0
 11
43.5235086207
 21
251.8059898445
 31
0.0
  0
LINE
  5
84
  8
0
  6
CONTINUOUS
 62
     7
 10
42.7235086207
 20
251.8059898445
 30
0.0
 11
42.7235086207
 21
251.5413971807
 31
0.0
  0
LINE
  5
85
  8
0
  6
CONTINUOUS
 62
     7
 10
43.5235086207
 20
251.5413971807
 30
0.0
 11
43.5235086207
 21
249.6490322355
 31
0.0
  0
LINE
  5
86
  8
0
  6
CONTINUOUS
 62
     7
 10
42.7235086207
 20
249.6490322355
 30
0.0
 11
42.7235086207
 21
251.5413971807
 31
0.0
  0
LINE
  5
87
  8
0
  6
CONTINUOUS
 62
     7
 10
43.5235086207
 20
249.6490322355
 30
0.0
 11
43.5235086207
 21
246.2370564773
 31
0.0
  0
LINE
  5
88
  8
0
  6
CONTINUOUS
 62
     7
 10
42.7235086207
 20
246.2370564773
 30
0.0
 11
42.7235086207
 21
249.6490322355
 31
0.0
  0
LINE
  5
89
  8
0
  6
CONTINUOUS
 62
     7
 10
43.5235086207
 20
246.2370564773
 30
0.0
 11
43.5235086207
 21
244.3413189867
 31
0.0
  0
LINE
  5
8A
  8
0
  6
CONTINUOUS
 62
     7
 10
42.7235086207
 20
244.3413189867
 30
0.0
 11
42.7235086207
 21
246.2370564773
 31
0.0
  0
LINE
  5
8B
  8
0
  6
CONTINUOUS
 62
     7
 10
43.5235086207
 20
242.3413189867
 30
0.0
 11
42.7235086207
 21
242.3413189867
 31
0.0
  0
LINE
  5
8C
  8
0
  6
CONTINUOUS
 62
     7
 10
43.5235086207
 20
244.3413189867
 30
0.0
 11
43.5235086207
 21
242.3413189867
 31
0.0
  0
LINE
  5
8D
  8
0
  6
CONTINUOUS
 62
     7
 10
42.7235086207
 20
242.3413189867
 30
0.0
 11
42.7235086207
 21
244.3413189867
 31
0.0
  0
LINE
  5
8E
  8
0
  6
CONTINUOUS
 62
     7
 10
37.9235086207
 20
245.1413189867
 30
0.0
 11
37.9235086207
 21
237.7413189867
 31
0.0
  0
LINE
  5
8F
  8
0
  6
CONTINUOUS
 62
     7
 10
47.9235086207
 20
245.1413189867
 30
0.0
 11
47.9235086207
 21
237.7413189867
 31
0.0
  0
LINE
  5
90
  8
0
  6
CONTINUOUS
 62
     7
 10
45.9235086207
 20
235.7413189867
 30
0.0
 11
39.9235086207
 21
235.7413189867
 31
0.0
  0
ARC
  5
91
  8
0
  6
CONTINUOUS
 62
     7
 10
39.9235086207
 20
237.7413189867
 30
0.0
 40
2.000000000000007
 50
180.0
 51
270.0
  0
ARC
  5
92
  8
0
  6
CONTINUOUS
 62
     7
 10
45.9235086207
 20
237.7413189867
 30
0.0
 40
2.000000000000007
 50
270.0
 51
0.0
  0
LINE
  5
93
  8
0
  6
CONTINUOUS
 62
     7
 10
42.7235086207
 20
246.1413189867
 30
0.0
 11
37.9235086207
 21
246.1413189867
 31
0.0
  0
LINE
  5
94
  8
0
  6
CONTINUOUS
 62
     7
 10
37.9235086207
 20
246.1413189867
 30
0.0
 11
37.9235086207
 21
245.1413189867
 31
0.0
  0
LINE
  5
95
  8
0
  6
CONTINUOUS
 62
     7
 10
47.9235086207
 20
246.1413189867
 30
0.0
 11
43.5235086207
 21
246.1413189867
 31
0.0
  0
LINE
  5
96
  8
0
  6
CONTINUOUS
 62
     7
 10
47.9235086207
 20
246.1413189867
 30
0.0
 11
47.9235086207
 21
245.1413189867
 31
0.0
  0
ARC
  5
97
  8
0
  6
CONTINUOUS
 62
     7
 10
117.1235086207
 20
260.8441049196
 30
0.0
 40
1.000000000000028
 50
0.0
 51
42.1872028391
  0
LINE
  5
98
  8
0
  6
CONTINUOUS
 62
     7
 10
117.3235086207
 20
259.5929491049
 30
0.0
 11
117.3235086207
 21
260.8967422111
 31
0.0
  0
LINE
  5
99
  8
0
  6
CONTINUOUS
 62
     7
 10
118.1235086207
 20
260.8441049196
 30
0.0
 11
118.1235086207
 21
259.5929491049
 31
0.0
  0
LINE
  5
9A
  8
0
  6
CONTINUOUS
 62
     7
 10
117.3235086207
 20
259.5929491049
 30
0.0
 11
117.3235086207
 21
257.6282468507
 31
0.0
  0
LINE
  5
9B
  8
0
  6
CONTINUOUS
 62
     7
 10
118.1235086207
 20
257.6282468507
 30
0.0
 11
118.1235086207
 21
259.5929491049
 31
0.0
  0
LINE
  5
9C
  8
0
  6
CONTINUOUS
 62
     7
 10
117.3235086207
 20
257.6282468507
 30
0.0
 11
117.3235086207
 21
251.8059898445
 31
0.0
  0
LINE
  5
9D
  8
0
  6
CONTINUOUS
 62
     7
 10
118.1235086207
 20
251.8059898445
 30
0.0
 11
118.1235086207
 21
257.6282468507
 31
0.0
  0
LINE
  5
9E
  8
0
  6
CONTINUOUS
 62
     7
 10
117.3235086207
 20
251.5413971807
 30
0.0
 11
117.3235086207
 21
251.8059898445
 31
0.0
  0
LINE
  5
9F
  8
0
  6
CONTINUOUS
 62
     7
 10
118.1235086207
 20
251.8059898445
 30
0.0
 11
118.1235086207
 21
251.5413971807
 31
0.0
  0
LINE
  5
A0
  8
0
  6
CONTINUOUS
 62
     7
 10
117.3235086207
 20
251.5413971807
 30
0.0
 11
117.3235086207
 21
249.6490322355
 31
0.0
  0
LINE
  5
A1
  8
0
  6
CONTINUOUS
 62
     7
 10
118.1235086207
 20
249.6490322355
 30
0.0
 11
118.1235086207
 21
251.5413971807
 31
0.0
  0
LINE
  5
A2
  8
0
  6
CONTINUOUS
 62
     7
 10
117.3235086207
 20
249.6490322355
 30
0.0
 11
117.3235086207
 21
246.2370564773
 31
0.0
  0
LINE
  5
A3
  8
0
  6
CONTINUOUS
 62
     7
 10
118.1235086207
 20
246.2370564773
 30
0.0
 11
118.1235086207
 21
249.6490322355
 31
0.0
  0
LINE
  5
A4
  8
0
  6
CONTINUOUS
 62
     7
 10
117.3235086207
 20
246.2370564773
 30
0.0
 11
117.3235086207
 21
244.3413189867
 31
0.0
  0
LINE
  5
A5
  8
0
  6
CONTINUOUS
 62
     7
 10
118.1235086207
 20
244.3413189867
 30
0.0
 11
118.1235086207
 21
246.2370564773
 31
0.0
  0
LINE
  5
A6
  8
0
  6
CONTINUOUS
 62
     7
 10
117.3235086207
 20
242.3413189867
 30
0.0
 11
118.1235086207
 21
242.3413189867
 31
0.0
  0
LINE
  5
A7
  8
0
  6
CONTINUOUS
 62
     7
 10
117.3235086207
 20
244.3413189867
 30
0.0
 11
117.3235086207
 21
242.3413189867
 31
0.0
  0
LINE
  5
A8
  8
0
  6
CONTINUOUS
 62
     7
 10
118.1235086207
 20
242.3413189867
 30
0.0
 11
118.1235086207
 21
244.3413189867
 31
0.0
  0
ARC
  5
A9
  8
0
  6
CONTINUOUS
 62
     7
 10
114.9235086207
 20
237.7413189867
 30
0.0
 40
2.0
 50
180.0
 51
270.0
  0
LINE
  5
AA
  8
0
  6
CONTINUOUS
 62
     7
 10
112.9235086207
 20
245.1413189867
 30
0.0
 11
112.9235086207
 21
237.7413189867
 31
0.0
  0
LINE
  5
AB
  8
0
  6
CONTINUOUS
 62
     7
 10
122.9235086207
 20
245.1413189867
 30
0.0
 11
122.9235086207
 21
237.7413189867
 31
0.0
  0
ARC
  5
AC
  8
0
  6
CONTINUOUS
 62
     7
 10
120.9235086207
 20
237.7413189867
 30
0.0
 40
2.0
 50
270.0
 51
0.0
  0
LINE
  5
AD
  8
0
  6
CONTINUOUS
 62
     7
 10
114.9235086207
 20
235.7413189867
 30
0.0
 11
120.9235086207
 21
235.7413189867
 31
0.0
  0
LINE
  5
AE
  8
0
  6
CONTINUOUS
 62
     7
 10
118.1235086207
 20
246.1413189867
 30
0.0
 11
122.9235086207
 21
246.1413189867
 31
0.0
  0
LINE
  5
AF
  8
0
  6
CONTINUOUS
 62
     7
 10
122.9235086207
 20
246.1413189867
 30
0.0
 11
122.9235086207
 21
245.1413189867
 31
0.0
  0
LINE
  5
B0
  8
0
  6
CONTINUOUS
 62
     7
 10
112.9235086207
 20
246.1413189867
 30
0.0
 11
117.3235086207
 21
246.1413189867
 31
0.0
  0
LINE
  5
B1
  8
0
  6
CONTINUOUS
 62
     7
 10
112.9235086207
 20
246.1413189867
 30
0.0
 11
112.9235086207
 21
245.1413189867
 31
0.0
  0
POLYLINE
  5
B2
  8
0
  6
CONTINUOUS
 62
     7
 66
     1
 10
0.0
 20
0.0
 30
0.0
  0
VERTEX
  5
233
  8
0
  6
CONTINUOUS
 62
     7
 10
302.8046982278
 20
259.9696224189
 30
0.0
  0
VERTEX
  5
234
  8
0
  6
CONTINUOUS
 62
     7
 10
304.588714862
 20
260.0658460358
 30
0.0
  0
VERTEX
  5
235
  8
0
  6
CONTINUOUS
 62
     7
 10
307.0098060833
 20
260.2101853425
 30
0.0
  0
VERTEX
  5
236
  8
0
  6
CONTINUOUS
 62
     7
 10
308.2014984683
 20
260.2000875036
 30
0.0
  0
VERTEX
  5
237
  8
0
  6
CONTINUOUS
 62
     7
 10
309.3513068321
 20
260.0505343289
 30
0.0
  0
VERTEX
  5
238
  8
0
  6
CONTINUOUS
 62
     7
 10
310.4422007118
 20
259.7128914939
 30
0.0
  0
VERTEX
  5
239
  8
0
  6
CONTINUOUS
 62
     7
 10
311.4791677118
 20
259.2041146279
 30
0.0
  0
VERTEX
  5
23A
  8
0
  6
CONTINUOUS
 62
     7
 10
312.7965454807
 20
258.3186943021
 30
0.0
  0
VERTEX
  5
23B
  8
0
  6
CONTINUOUS
 62
     7
 10
314.0627925509
 20
257.271013458
 30
0.0
  0
VERTEX
  5
23C
  8
0
  6
CONTINUOUS
 62
     7
 10
315.3034742705
 20
256.1422023548
 30
0.0
  0
SEQEND
  5
305
  8
0
  6
CONTINUOUS
 62
     7
  0
LINE
  5
B3
  8
0
  6
CONTINUOUS
 62
     7
 10
315.3037117998
 20
256.1558103978
 30
0.0
 11
315.3317450768
 21
257.7618357606
 31
0.0
  0
LINE
  5
B4
  8
0
  6
CONTINUOUS
 62
     7
 10
302.8046982278
 20
261.8441049196
 30
0.0
 11
241.6701684976
 21
261.8441049196
 31
0.0
  0
ARC
  5
B5
  8
0
  6
CONTINUOUS
 62
     7
 10
232.3046982278
 20
244.5413189867
 30
0.0
 40
1.0
 50
90.0
 51
180.0
  0
LINE
  5
B6
  8
0
  6
CONTINUOUS
 62
     7
 10
231.3046982278
 20
236.5413189867
 30
0.0
 11
231.3046982278
 21
244.5413189867
 31
0.0
  0
LINE
  5
B7
  8
0
  6
CONTINUOUS
 62
     7
 10
232.3046982278
 20
245.5413189867
 30
0.0
 11
240.3046982278
 21
245.5413189867
 31
0.0
  0
ARC
  5
B8
  8
0
  6
CONTINUOUS
 62
     7
 10
232.3046982278
 20
236.5413189867
 30
0.0
 40
1.0
 50
180.0
 51
270.0
  0
LINE
  5
B9
  8
0
  6
CONTINUOUS
 62
     7
 10
240.3046982278
 20
235.5413189867
 30
0.0
 11
232.3046982278
 21
235.5413189867
 31
0.0
  0
ARC
  5
BA
  8
0
  6
CONTINUOUS
 62
     7
 10
240.3046982278
 20
244.5413189867
 30
0.0
 40
1.0
 50
0.0
 51
90.0
  0
LINE
  5
BB
  8
0
  6
CONTINUOUS
 62
     7
 10
241.3046982278
 20
244.5413189867
 30
0.0
 11
241.3046982278
 21
236.5413189867
 31
0.0
  0
ARC
  5
BC
  8
0
  6
CONTINUOUS
 62
     7
 10
240.3046982278
 20
236.5413189867
 30
0.0
 40
1.0
 50
270.0
 51
0.0
  0
LINE
  5
BD
  8
0
  6
CONTINUOUS
 62
     7
 10
224.3046982278
 20
170.3413189867
 30
0.0
 11
224.3046982278
 21
171.5413189867
 31
0.0
  0
LINE
  5
BE
  8
0
  6
CONTINUOUS
 62
     7
 10
228.3046982278
 20
170.3413189867
 30
0.0
 11
224.3046982278
 21
170.3413189867
 31
0.0
  0
LINE
  5
BF
  8
0
  6
CONTINUOUS
 62
     7
 10
224.3046982278
 20
171.5413189867
 30
0.0
 11
228.3046982278
 21
171.5413189867
 31
0.0
  0
LINE
  5
C0
  8
0
  6
CONTINUOUS
 62
     7
 10
228.3046982278
 20
170.3413189867
 30
0.0
 11
230.3046982278
 21
170.3413189867
 31
0.0
  0
LINE
  5
C1
  8
0
  6
CONTINUOUS
 62
     7
 10
228.3046982278
 20
171.5413189867
 30
0.0
 11
230.3046982278
 21
171.5413189867
 31
0.0
  0
LINE
  5
C2
  8
0
  6
CONTINUOUS
 62
     7
 10
230.3046982278
 20
170.3413189867
 30
0.0
 11
257.6731192805
 21
170.3413189867
 31
0.0
  0
LINE
  5
C3
  8
0
  6
CONTINUOUS
 62
     7
 10
257.6731192805
 20
171.5413189867
 30
0.0
 11
230.3046982278
 21
171.5413189867
 31
0.0
  0
LINE
  5
C4
  8
0
  6
CONTINUOUS
 62
     7
 10
260.3046982278
 20
171.5413189867
 30
0.0
 11
260.3046982278
 21
170.3413189867
 31
0.0
  0
LINE
  5
C5
  8
0
  6
CONTINUOUS
 62
     7
 10
260.3046982278
 20
170.3413189867
 30
0.0
 11
257.6731192805
 21
170.3413189867
 31
0.0
  0
LINE
  5
C6
  8
0
  6
CONTINUOUS
 62
     7
 10
257.6731192805
 20
171.5413189867
 30
0.0
 11
260.3046982278
 21
171.5413189867
 31
0.0
  0
LINE
  5
C7
  8
0
  6
CONTINUOUS
 62
     7
 10
231.3046982278
 20
171.5413189867
 30
0.0
 11
231.3046982278
 21
235.7413189867
 31
0.0
  0
LINE
  5
C8
  8
0
  6
CONTINUOUS
 62
     7
 10
241.3046982278
 20
235.7413189867
 30
0.0
 11
241.3046982278
 21
171.5413189867
 31
0.0
  0
POLYLINE
  5
C9
  8
0
  6
CONTINUOUS
 62
     7
 66
     1
 10
0.0
 20
0.0
 30
0.0
  0
VERTEX
  5
23D
  8
0
  6
CONTINUOUS
 62
     7
 10
247.7604228329
 20
262.4099232198
 30
0.0
  0
VERTEX
  5
23E
  8
0
  6
CONTINUOUS
 62
     7
 10
246.68634769
 20
261.9105933136
 30
0.0
  0
VERTEX
  5
23F
  8
0
  6
CONTINUOUS
 62
     7
 10
246.5481529171
 20
261.8441049196
 30
0.0
  0
SEQEND
  5
304
  8
0
  6
CONTINUOUS
 62
     7
  0
POLYLINE
  5
CA
  8
0
  6
CONTINUOUS
 62
     7
 66
     1
 10
0.0
 20
0.0
 30
0.0
  0
VERTEX
  5
240
  8
0
  6
CONTINUOUS
 62
     7
 10
252.3931144928
 20
263.0412176908
 30
0.0
  0
VERTEX
  5
241
  8
0
  6
CONTINUOUS
 62
     7
 10
251.2606346222
 20
263.0331936287
 30
0.0
  0
VERTEX
  5
242
  8
0
  6
CONTINUOUS
 62
     7
 10
250.1819553518
 20
262.9629423723
 30
0.0
  0
VERTEX
  5
243
  8
0
  6
CONTINUOUS
 62
     7
 10
249.2481256143
 20
262.8350703116
 30
0.0
  0
VERTEX
  5
244
  8
0
  6
CONTINUOUS
 62
     7
 10
248.4343315192
 20
262.6502956331
 30
0.0
  0
VERTEX
  5
245
  8
0
  6
CONTINUOUS
 62
     7
 10
248.0720309929
 20
262.5350884721
 30
0.0
  0
VERTEX
  5
246
  8
0
  6
CONTINUOUS
 62
     7
 10
247.7604228329
 20
262.4099232198
 30
0.0
  0
SEQEND
  5
303
  8
0
  6
CONTINUOUS
 62
     7
  0
POLYLINE
  5
CB
  8
0
  6
CONTINUOUS
 62
     7
 66
     1
 10
0.0
 20
0.0
 30
0.0
  0
VERTEX
  5
247
  8
0
  6
CONTINUOUS
 62
     7
 10
255.4138365127
 20
262.9884633731
 30
0.0
  0
VERTEX
  5
248
  8
0
  6
CONTINUOUS
 62
     7
 10
253.9034731173
 20
263.0148524591
 30
0.0
  0
VERTEX
  5
249
  8
0
  6
CONTINUOUS
 62
     7
 10
252.3931144928
 20
263.0412176908
 30
0.0
  0
SEQEND
  5
302
  8
0
  6
CONTINUOUS
 62
     7
  0
POLYLINE
  5
CC
  8
0
  6
CONTINUOUS
 62
     7
 66
     1
 10
0.0
 20
0.0
 30
0.0
  0
VERTEX
  5
24A
  8
0
  6
CONTINUOUS
 62
     7
 10
260.4130749944
 20
262.9012013408
 30
0.0
  0
VERTEX
  5
24B
  8
0
  6
CONTINUOUS
 62
     7
 10
257.9099342196
 20
262.9379289969
 30
0.0
  0
VERTEX
  5
24C
  8
0
  6
CONTINUOUS
 62
     7
 10
255.4194692361
 20
262.9883172887
 30
0.0
  0
SEQEND
  5
301
  8
0
  6
CONTINUOUS
 62
     7
  0
LINE
  5
CD
  8
0
  6
CONTINUOUS
 62
     7
 10
260.4391948966
 20
262.9007478251
 30
0.0
 11
260.4130749548
 21
262.9012013415
 31
0.0
  0
POLYLINE
  5
CE
  8
0
  6
CONTINUOUS
 62
     7
 66
     1
 10
0.0
 20
0.0
 30
0.0
  0
VERTEX
  5
24D
  8
0
  6
CONTINUOUS
 62
     7
 10
265.4463965152
 20
262.8133327295
 30
0.0
  0
VERTEX
  5
24E
  8
0
  6
CONTINUOUS
 62
     7
 10
262.9426491229
 20
262.8573176291
 30
0.0
  0
VERTEX
  5
24F
  8
0
  6
CONTINUOUS
 62
     7
 10
260.4392281332
 20
262.9007472449
 30
0.0
  0
SEQEND
  5
300
  8
0
  6
CONTINUOUS
 62
     7
  0
LINE
  5
CF
  8
0
  6
CONTINUOUS
 62
     7
 10
267.29710226
 20
262.7737922771
 30
0.0
 11
265.4464094793
 21
262.8132519856
 31
0.0
  0
LINE
  5
D0
  8
0
  6
CONTINUOUS
 62
     7
 10
275.4107916204
 20
262.6394152255
 30
0.0
 11
267.29710226
 21
262.7737922771
 31
0.0
  0
POLYLINE
  5
D1
  8
0
  6
CONTINUOUS
 62
     7
 66
     1
 10
0.0
 20
0.0
 30
0.0
  0
VERTEX
  5
250
  8
0
  6
CONTINUOUS
 62
     7
 10
285.4106944943
 20
262.4648561808
 30
0.0
  0
VERTEX
  5
251
  8
0
  6
CONTINUOUS
 62
     7
 10
278.5826685188
 20
262.5916527709
 30
0.0
  0
VERTEX
  5
252
  8
0
  6
CONTINUOUS
 62
     7
 10
275.4108038616
 20
262.6394150345
 30
0.0
  0
SEQEND
  5
2FF
  8
0
  6
CONTINUOUS
 62
     7
  0
POLYLINE
  5
D2
  8
0
  6
CONTINUOUS
 62
     7
 66
     1
 10
0.0
 20
0.0
 30
0.0
  0
VERTEX
  5
253
  8
0
  6
CONTINUOUS
 62
     7
 10
295.4085388236
 20
262.2903744062
 30
0.0
  0
VERTEX
  5
254
  8
0
  6
CONTINUOUS
 62
     7
 10
290.4100058588
 20
262.335219006
 30
0.0
  0
VERTEX
  5
255
  8
0
  6
CONTINUOUS
 62
     7
 10
285.410694488
 20
262.4648556032
 30
0.0
  0
SEQEND
  5
2FE
  8
0
  6
CONTINUOUS
 62
     7
  0
POLYLINE
  5
D3
  8
0
  6
CONTINUOUS
 62
     7
 66
     1
 10
0.0
 20
0.0
 30
0.0
  0
VERTEX
  5
256
  8
0
  6
CONTINUOUS
 62
     7
 10
307.0642185731
 20
261.8721948947
 30
0.0
  0
VERTEX
  5
257
  8
0
  6
CONTINUOUS
 62
     7
 10
307.0388960034
 20
261.8768916794
 30
0.0
  0
VERTEX
  5
258
  8
0
  6
CONTINUOUS
 62
     7
 10
304.6258833337
 20
262.195389545
 30
0.0
  0
VERTEX
  5
259
  8
0
  6
CONTINUOUS
 62
     7
 10
302.2374191642
 20
262.3346304437
 30
0.0
  0
VERTEX
  5
25A
  8
0
  6
CONTINUOUS
 62
     7
 10
299.8715002469
 20
262.3579966224
 30
0.0
  0
VERTEX
  5
25B
  8
0
  6
CONTINUOUS
 62
     7
 10
297.5166747239
 20
262.3233173907
 30
0.0
  0
VERTEX
  5
25C
  8
0
  6
CONTINUOUS
 62
     7
 10
295.4085386381
 20
262.2903944462
 30
0.0
  0
SEQEND
  5
2FD
  8
0
  6
CONTINUOUS
 62
     7
  0
ARC
  5
D4
  8
0
  6
CONTINUOUS
 62
     7
 10
304.8368706932
 20
249.6002500007
 30
0.0
 40
12.47243801584977
 50
43.7399351859
 51
79.7128473478
  0
POLYLINE
  5
D5
  8
0
  6
CONTINUOUS
 62
     7
 66
     1
 10
0.0
 20
0.0
 30
0.0
  0
VERTEX
  5
25D
  8
0
  6
CONTINUOUS
 62
     7
 10
315.2943746314
 20
256.1559734285
 30
0.0
  0
VERTEX
  5
25E
  8
0
  6
CONTINUOUS
 62
     7
 10
315.2969422646
 20
256.1520887805
 30
0.0
  0
VERTEX
  5
25F
  8
0
  6
CONTINUOUS
 62
     7
 10
315.2282152129
 20
256.255859994
 30
0.0
  0
VERTEX
  5
260
  8
0
  6
CONTINUOUS
 62
     7
 10
315.0843230606
 20
256.4715889464
 30
0.0
  0
VERTEX
  5
261
  8
0
  6
CONTINUOUS
 62
     7
 10
314.8653934518
 20
256.7955494929
 30
0.0
  0
VERTEX
  5
262
  8
0
  6
CONTINUOUS
 62
     7
 10
314.4306232002
 20
257.422100674
 30
0.0
  0
VERTEX
  5
263
  8
0
  6
CONTINUOUS
 62
     7
 10
313.8480253735
 20
258.2235209224
 30
0.0
  0
SEQEND
  5
2FC
  8
0
  6
CONTINUOUS
 62
     7
  0
POLYLINE
  5
D6
  8
0
  6
CONTINUOUS
 62
     7
 66
     1
 10
0.0
 20
0.0
 30
0.0
  0
VERTEX
  5
264
  8
0
  6
CONTINUOUS
 62
     7
 10
306.9979510935
 20
263.0980998333
 30
0.0
  0
VERTEX
  5
265
  8
0
  6
CONTINUOUS
 62
     7
 10
308.1294938605
 20
262.863436754
 30
0.0
  0
VERTEX
  5
266
  8
0
  6
CONTINUOUS
 62
     7
 10
309.2480340388
 20
262.5380322791
 30
0.0
  0
VERTEX
  5
267
  8
0
  6
CONTINUOUS
 62
     7
 10
310.2566617294
 20
262.1444068744
 30
0.0
  0
VERTEX
  5
268
  8
0
  6
CONTINUOUS
 62
     7
 10
311.1913008905
 20
261.6805849566
 30
0.0
  0
VERTEX
  5
269
  8
0
  6
CONTINUOUS
 62
     7
 10
312.0389164877
 20
261.1743444922
 30
0.0
  0
VERTEX
  5
26A
  8
0
  6
CONTINUOUS
 62
     7
 10
312.7688224325
 20
260.6697424168
 30
0.0
  0
VERTEX
  5
26B
  8
0
  6
CONTINUOUS
 62
     7
 10
313.2695140114
 20
260.2821982738
 30
0.0
  0
VERTEX
  5
26C
  8
0
  6
CONTINUOUS
 62
     7
 10
313.6451487356
 20
259.9608762806
 30
0.0
  0
VERTEX
  5
26D
  8
0
  6
CONTINUOUS
 62
     7
 10
313.7933218064
 20
259.8201070693
 30
0.0
  0
VERTEX
  5
26E
  8
0
  6
CONTINUOUS
 62
     7
 10
313.8845082256
 20
259.7202718289
 30
0.0
  0
SEQEND
  5
2FB
  8
0
  6
CONTINUOUS
 62
     7
  0
POLYLINE
  5
D7
  8
0
  6
CONTINUOUS
 62
     7
 66
     1
 10
0.0
 20
0.0
 30
0.0
  0
VERTEX
  5
26F
  8
0
  6
CONTINUOUS
 62
     7
 10
247.5932139982
 20
263.556092828
 30
0.0
  0
VERTEX
  5
270
  8
0
  6
CONTINUOUS
 62
     7
 10
248.176631946
 20
263.7737406808
 30
0.0
  0
VERTEX
  5
271
  8
0
  6
CONTINUOUS
 62
     7
 10
248.9464084891
 20
263.9635532356
 30
0.0
  0
VERTEX
  5
272
  8
0
  6
CONTINUOUS
 62
     7
 10
249.8366360102
 20
264.1015246953
 30
0.0
  0
VERTEX
  5
273
  8
0
  6
CONTINUOUS
 62
     7
 10
250.8713602569
 20
264.1854470737
 30
0.0
  0
VERTEX
  5
274
  8
0
  6
CONTINUOUS
 62
     7
 10
251.5429748578
 20
264.2062011356
 30
0.0
  0
VERTEX
  5
275
  8
0
  6
CONTINUOUS
 62
     7
 10
252.248086683
 20
264.204777477
 30
0.0
  0
SEQEND
  5
2FA
  8
0
  6
CONTINUOUS
 62
     7
  0
ARC
  5
D8
  8
0
  6
CONTINUOUS
 62
     7
 10
298.1465029418
 20
155.5944573205
 30
0.0
 40
119.2113659197373
 50
115.0914534064
 51
116.9714666957
  0
POLYLINE
  5
D9
  8
0
  6
CONTINUOUS
 62
     7
 66
     1
 10
0.0
 20
0.0
 30
0.0
  0
VERTEX
  5
276
  8
0
  6
CONTINUOUS
 62
     7
 10
315.3202848217
 20
257.7620359077
 30
0.0
  0
VERTEX
  5
277
  8
0
  6
CONTINUOUS
 62
     7
 10
315.3260989471
 20
257.7535442053
 30
0.0
  0
VERTEX
  5
278
  8
0
  6
CONTINUOUS
 62
     7
 10
315.2416448242
 20
257.8765261137
 30
0.0
  0
VERTEX
  5
279
  8
0
  6
CONTINUOUS
 62
     7
 10
315.0545691944
 20
258.1455905604
 30
0.0
  0
VERTEX
  5
27A
  8
0
  6
CONTINUOUS
 62
     7
 10
314.8477600831
 20
258.437540414
 30
0.0
  0
VERTEX
  5
27B
  8
0
  6
CONTINUOUS
 62
     7
 10
314.583786041
 20
258.8016596995
 30
0.0
  0
VERTEX
  5
27C
  8
0
  6
CONTINUOUS
 62
     7
 10
314.2627004135
 20
259.2316322767
 30
0.0
  0
VERTEX
  5
27D
  8
0
  6
CONTINUOUS
 62
     7
 10
313.8845082256
 20
259.7202718289
 30
0.0
  0
SEQEND
  5
2F9
  8
0
  6
CONTINUOUS
 62
     7
  0
POLYLINE
  5
DA
  8
0
  6
CONTINUOUS
 62
     7
 66
     1
 10
0.0
 20
0.0
 30
0.0
  0
VERTEX
  5
27E
  8
0
  6
CONTINUOUS
 62
     7
 10
306.9979514155
 20
263.0981017077
 30
0.0
  0
VERTEX
  5
27F
  8
0
  6
CONTINUOUS
 62
     7
 10
304.6009278763
 20
263.3944381055
 30
0.0
  0
VERTEX
  5
280
  8
0
  6
CONTINUOUS
 62
     7
 10
302.2612399737
 20
263.524724073
 30
0.0
  0
VERTEX
  5
281
  8
0
  6
CONTINUOUS
 62
     7
 10
299.966834884
 20
263.5479711401
 30
0.0
  0
VERTEX
  5
282
  8
0
  6
CONTINUOUS
 62
     7
 10
297.7089621306
 20
263.5160656552
 30
0.0
  0
VERTEX
  5
283
  8
0
  6
CONTINUOUS
 62
     7
 10
295.4784323799
 20
263.4797205446
 30
0.0
  0
VERTEX
  5
284
  8
0
  6
CONTINUOUS
 62
     7
 10
293.2509934292
 20
263.4783194946
 30
0.0
  0
VERTEX
  5
285
  8
0
  6
CONTINUOUS
 62
     7
 10
291.0100941989
 20
263.5101721289
 30
0.0
  0
VERTEX
  5
286
  8
0
  6
CONTINUOUS
 62
     7
 10
284.8040334611
 20
263.6617504073
 30
0.0
  0
VERTEX
  5
287
  8
0
  6
CONTINUOUS
 62
     7
 10
278.6000927231
 20
263.7674615658
 30
0.0
  0
VERTEX
  5
288
  8
0
  6
CONTINUOUS
 62
     7
 10
275.3025741511
 20
263.814322734
 30
0.0
  0
VERTEX
  5
289
  8
0
  6
CONTINUOUS
 62
     7
 10
272.0023087441
 20
263.8671760332
 30
0.0
  0
VERTEX
  5
28A
  8
0
  6
CONTINUOUS
 62
     7
 10
268.7014850392
 20
263.9247288149
 30
0.0
  0
VERTEX
  5
28B
  8
0
  6
CONTINUOUS
 62
     7
 10
265.403296683
 20
263.983158966
 30
0.0
  0
VERTEX
  5
28C
  8
0
  6
CONTINUOUS
 62
     7
 10
262.1081117872
 20
264.0397751189
 30
0.0
  0
VERTEX
  5
28D
  8
0
  6
CONTINUOUS
 62
     7
 10
258.8159721453
 20
264.0955050943
 30
0.0
  0
VERTEX
  5
28E
  8
0
  6
CONTINUOUS
 62
     7
 10
255.5396973362
 20
264.1500406952
 30
0.0
  0
VERTEX
  5
28F
  8
0
  6
CONTINUOUS
 62
     7
 10
252.2480933719
 20
264.204852782
 30
0.0
  0
SEQEND
  5
2F8
  8
0
  6
CONTINUOUS
 62
     7
  0
POLYLINE
  5
DB
  8
0
  6
CONTINUOUS
 62
     7
 66
     1
 10
0.0
 20
0.0
 30
0.0
  0
VERTEX
  5
290
  8
0
  6
CONTINUOUS
 62
     7
 10
285.410694488
 20
262.4648556032
 30
0.0
  0
VERTEX
  5
291
  8
0
  6
CONTINUOUS
 62
     7
 10
287.8164964883
 20
262.4235193618
 30
0.0
  0
VERTEX
  5
292
  8
0
  6
CONTINUOUS
 62
     7
 10
291.611968583
 20
262.3322217566
 30
0.0
  0
VERTEX
  5
293
  8
0
  6
CONTINUOUS
 62
     7
 10
295.4085393045
 20
262.2903944523
 30
0.0
  0
SEQEND
  5
2F7
  8
0
  6
CONTINUOUS
 62
     7
  0
POLYLINE
  5
DC
  8
0
  6
CONTINUOUS
 62
     7
 66
     1
 10
0.0
 20
0.0
 30
0.0
  0
VERTEX
  5
294
  8
0
  6
CONTINUOUS
 62
     7
 10
267.2992643642
 20
262.8976591441
 30
0.0
  0
VERTEX
  5
295
  8
0
  6
CONTINUOUS
 62
     7
 10
268.5016502368
 20
262.9524154276
 30
0.0
  0
VERTEX
  5
296
  8
0
  6
CONTINUOUS
 62
     7
 10
269.707649313
 20
262.9554283928
 30
0.0
  0
VERTEX
  5
297
  8
0
  6
CONTINUOUS
 62
     7
 10
271.1367793097
 20
262.9087722608
 30
0.0
  0
VERTEX
  5
298
  8
0
  6
CONTINUOUS
 62
     7
 10
272.5653576327
 20
262.8268275798
 30
0.0
  0
VERTEX
  5
299
  8
0
  6
CONTINUOUS
 62
     7
 10
275.41082374
 20
262.6399044254
 30
0.0
  0
SEQEND
  5
2F6
  8
0
  6
CONTINUOUS
 62
     7
  0
LINE
  5
DD
  8
0
  6
CONTINUOUS
 62
     7
 10
265.4464104154
 20
262.8133038128
 30
0.0
 11
267.2992643642
 21
262.8976591441
 31
0.0
  0
POLYLINE
  5
DE
  8
0
  6
CONTINUOUS
 62
     7
 66
     1
 10
0.0
 20
0.0
 30
0.0
  0
VERTEX
  5
29A
  8
0
  6
CONTINUOUS
 62
     7
 10
255.4194700925
 20
262.9883647277
 30
0.0
  0
VERTEX
  5
29B
  8
0
  6
CONTINUOUS
 62
     7
 10
256.5992303164
 20
263.071523552
 30
0.0
  0
VERTEX
  5
29C
  8
0
  6
CONTINUOUS
 62
     7
 10
257.79373058
 20
263.0649619997
 30
0.0
  0
VERTEX
  5
29D
  8
0
  6
CONTINUOUS
 62
     7
 10
259.114373255
 20
262.9920118377
 30
0.0
  0
VERTEX
  5
29E
  8
0
  6
CONTINUOUS
 62
     7
 10
260.439199213
 20
262.9008166155
 30
0.0
  0
SEQEND
  5
2F5
  8
0
  6
CONTINUOUS
 62
     7
  0
ARC
  5
DF
  8
0
  6
CONTINUOUS
 62
     7
 10
231.7046982278
 20
245.1413189867
 30
0.0
 40
1.000000000000028
 50
90.0
 51
180.0
  0
LINE
  5
E0
  8
0
  6
CONTINUOUS
 62
     7
 10
231.7046982278
 20
246.1413189867
 30
0.0
 11
240.9046982278
 21
246.1413189867
 31
0.0
  0
ARC
  5
E1
  8
0
  6
CONTINUOUS
 62
     7
 10
240.9046982278
 20
245.1413189867
 30
0.0
 40
1.000000000000028
 50
0.0
 51
90.0
  0
LINE
  5
E2
  8
0
  6
CONTINUOUS
 62
     7
 10
241.9046982278
 20
245.1413189867
 30
0.0
 11
241.9046982278
 21
237.7413189867
 31
0.0
  0
LINE
  5
E3
  8
0
  6
CONTINUOUS
 62
     7
 10
241.3046982278
 20
245.1413189867
 30
0.0
 11
241.3046982278
 21
244.5413189867
 31
0.0
  0
ARC
  5
E4
  8
0
  6
CONTINUOUS
 62
     7
 10
240.9046982278
 20
245.1413189867
 30
0.0
 40
0.4000000000000057
 50
0.0
 51
90.0
  0
LINE
  5
E5
  8
0
  6
CONTINUOUS
 62
     7
 10
231.7046982278
 20
245.5413189867
 30
0.0
 11
232.3046982278
 21
245.5413189867
 31
0.0
  0
LINE
  5
E6
  8
0
  6
CONTINUOUS
 62
     7
 10
240.3046982278
 20
245.5413189867
 30
0.0
 11
240.9046982278
 21
245.5413189867
 31
0.0
  0
ARC
  5
E7
  8
0
  6
CONTINUOUS
 62
     7
 10
231.7046982278
 20
245.1413189867
 30
0.0
 40
0.4000000000000057
 50
90.0
 51
180.0
  0
LINE
  5
E8
  8
0
  6
CONTINUOUS
 62
     7
 10
231.3046982278
 20
244.5413189867
 30
0.0
 11
231.3046982278
 21
245.1413189867
 31
0.0
  0
LINE
  5
E9
  8
0
  6
CONTINUOUS
 62
     7
 10
230.7046982278
 20
237.7413189867
 30
0.0
 11
230.7046982278
 21
245.1413189867
 31
0.0
  0
LINE
  5
EA
  8
0
  6
CONTINUOUS
 62
     7
 10
231.3046982278
 20
235.7413189867
 30
0.0
 11
230.7046982278
 21
235.7413189867
 31
0.0
  0
LINE
  5
EB
  8
0
  6
CONTINUOUS
 62
     7
 10
230.7046982278
 20
235.7413189867
 30
0.0
 11
230.7046982278
 21
237.7413189867
 31
0.0
  0
LINE
  5
EC
  8
0
  6
CONTINUOUS
 62
     7
 10
231.3046982278
 20
236.5413189867
 30
0.0
 11
231.3046982278
 21
235.7413189867
 31
0.0
  0
LINE
  5
ED
  8
0
  6
CONTINUOUS
 62
     7
 10
241.9046982278
 20
235.7413189867
 30
0.0
 11
241.3046982278
 21
235.7413189867
 31
0.0
  0
LINE
  5
EE
  8
0
  6
CONTINUOUS
 62
     7
 10
241.9046982278
 20
237.7413189867
 30
0.0
 11
241.9046982278
 21
235.7413189867
 31
0.0
  0
LINE
  5
EF
  8
0
  6
CONTINUOUS
 62
     7
 10
241.3046982278
 20
235.7413189867
 30
0.0
 11
241.3046982278
 21
236.5413189867
 31
0.0
  0
ARC
  5
F0
  8
0
  6
CONTINUOUS
 62
     7
 10
300.8046982278
 20
259.5929491049
 30
0.0
 40
2.0
 50
280.7804509646
 51
0.0
  0
ARC
  5
F1
  8
0
  6
CONTINUOUS
 62
     7
 10
226.3603296707
 20
650.5686977008
 30
0.0
 40
400.0000000000001
 50
274.5077079787
 51
280.7804509646
  0
ARC
  5
F2
  8
0
  6
CONTINUOUS
 62
     7
 10
245.2227000501
 20
411.311072987
 30
0.0
 40
160.0000000000002
 50
273.0746772222
 51
274.5077079787
  0
ARC
  5
F3
  8
0
  6
CONTINUOUS
 62
     7
 10
254.5019855798
 20
238.5601110214
 30
0.0
 40
12.99999999999998
 50
93.0746772222
 51
121.4611845106
  0
ARC
  5
F4
  8
0
  6
CONTINUOUS
 62
     7
 10
249.8046982278
 20
246.2370564773
 30
0.0
 40
4.000000000000001
 50
121.4611845106
 51
180.0
  0
LINE
  5
F5
  8
0
  6
CONTINUOUS
 62
     7
 10
245.8046982278
 20
244.3413189867
 30
0.0
 11
245.8046982278
 21
246.2370564773
 31
0.0
  0
ARC
  5
F6
  8
0
  6
CONTINUOUS
 62
     7
 10
243.8046982278
 20
244.3413189867
 30
0.0
 40
2.0
 50
270.0
 51
0.0
  0
LINE
  5
F7
  8
0
  6
CONTINUOUS
 62
     7
 10
241.9046982278
 20
242.3413189867
 30
0.0
 11
243.8046982278
 21
242.3413189867
 31
0.0
  0
LINE
  5
F8
  8
0
  6
CONTINUOUS
 62
     7
 10
229.7046982278
 20
242.3413189867
 30
0.0
 11
230.7046982278
 21
242.3413189867
 31
0.0
  0
LINE
  5
F9
  8
0
  6
CONTINUOUS
 62
     7
 10
241.6046982278
 20
260.6413189867
 30
0.0
 11
241.6046982278
 21
260.8441049196
 31
0.0
  0
LINE
  5
FA
  8
0
  6
CONTINUOUS
 62
     7
 10
302.8046982278
 20
260.8441049196
 30
0.0
 11
302.8046982278
 21
259.5929491049
 31
0.0
  0
LINE
  5
FB
  8
0
  6
CONTINUOUS
 62
     7
 10
227.7046982278
 20
247.3881466543
 30
0.0
 11
227.7046982278
 21
244.3413189867
 31
0.0
  0
ARC
  5
FC
  8
0
  6
CONTINUOUS
 62
     7
 10
229.7046982278
 20
244.3413189867
 30
0.0
 40
2.0
 50
180.0
 51
270.0
  0
ARC
  5
FD
  8
0
  6
CONTINUOUS
 62
     7
 10
235.7046982278
 20
247.3881466543
 30
0.0
 40
8.000000000000018
 50
148.4862321611
 51
180.0
  0
ARC
  5
FE
  8
0
  6
CONTINUOUS
 62
     7
 10
245.9348732647
 20
241.1157054458
 30
0.0
 40
19.99999999999996
 50
102.5040575207
 51
148.4862321611
  0
LINE
  5
FF
  8
0
  6
CONTINUOUS
 62
     7
 10
241.6046982278
 20
261.8361763119
 30
0.0
 11
241.6615172595
 21
261.8361763119
 31
0.0
  0
LINE
  5
100
  8
0
  6
CONTINUOUS
 62
     7
 10
241.6615172595
 20
261.8361763119
 30
0.0
 11
241.6701684976
 21
261.8380639332
 31
0.0
  0
LINE
  5
101
  8
0
  6
CONTINUOUS
 62
     7
 10
302.8046982278
 20
261.8441049196
 30
0.0
 11
302.8046982278
 21
260.8441049196
 31
0.0
  0
LINE
  5
102
  8
0
  6
CONTINUOUS
 62
     7
 10
241.6046982278
 20
260.8441049196
 30
0.0
 11
241.6046982278
 21
261.8361763119
 31
0.0
  0
ARC
  5
103
  8
0
  6
CONTINUOUS
 62
     7
 10
110.8483742654
 20
17.2248732491
 30
0.0
 40
8.135736283371694
 50
287.2576761343
 51
289.6904108781
  0
ARC
  5
104
  8
0
  6
CONTINUOUS
 62
     7
 10
50.0982474711
 20
17.5607133537
 30
0.0
 40
8.485862930121439
 50
250.4692623835
 51
252.740935805
  0
LINE
  5
105
  8
0
  6
CONTINUOUS
 62
     7
 10
37.2235086207
 20
91.7465961071
 30
0.0
 11
37.9235086207
 21
91.7465961071
 31
0.0
  0
LINE
  5
106
  8
0
  6
CONTINUOUS
 62
     7
 10
47.9235086207
 20
91.7465961071
 30
0.0
 11
112.9235086207
 21
91.7465961071
 31
0.0
  0
LINE
  5
107
  8
0
  6
CONTINUOUS
 62
     7
 10
122.9235086207
 20
91.7465961071
 30
0.0
 11
123.6235086207
 21
91.7465961071
 31
0.0
  0
LINE
  5
108
  8
0
  6
CONTINUOUS
 62
     7
 10
124.0235086207
 20
91.3465961071
 30
0.0
 11
124.0235086207
 21
90.7465961071
 31
0.0
  0
ARC
  5
109
  8
0
  6
CONTINUOUS
 62
     7
 10
123.6235086207
 20
91.3465961071
 30
0.0
 40
0.4000000000000057
 50
0.0
 51
90.0
  0
LINE
  5
10A
  8
0
  6
CONTINUOUS
 62
     7
 10
36.8235086207
 20
82.7465961071
 30
0.0
 11
36.8235086207
 21
90.7465961071
 31
0.0
  0
LINE
  5
10B
  8
0
  6
CONTINUOUS
 62
     7
 10
36.8235086207
 20
90.7465961071
 30
0.0
 11
36.8235086207
 21
91.3465961071
 31
0.0
  0
ARC
  5
10C
  8
0
  6
CONTINUOUS
 62
     7
 10
37.2235086207
 20
91.3465961071
 30
0.0
 40
0.4000000000000057
 50
90.0
 51
180.0
  0
LINE
  5
10D
  8
0
  6
CONTINUOUS
 62
     7
 10
124.0235086207
 20
90.7465961071
 30
0.0
 11
124.0235086207
 21
82.7465961071
 31
0.0
  0
LINE
  5
10E
  8
0
  6
CONTINUOUS
 62
     7
 10
124.0235086207
 20
82.7465961071
 30
0.0
 11
124.0235086207
 21
82.1465961071
 31
0.0
  0
ARC
  5
10F
  8
0
  6
CONTINUOUS
 62
     7
 10
123.6235086207
 20
82.1465961071
 30
0.0
 40
0.4000000000000199
 50
270.0
 51
0.0
  0
LINE
  5
110
  8
0
  6
CONTINUOUS
 62
     7
 10
36.8235086207
 20
82.1465961071
 30
0.0
 11
36.8235086207
 21
82.7465961071
 31
0.0
  0
ARC
  5
111
  8
0
  6
CONTINUOUS
 62
     7
 10
37.2235086207
 20
82.1465961071
 30
0.0
 40
0.4000000000000199
 50
180.0
 51
270.0
  0
LINE
  5
112
  8
0
  6
CONTINUOUS
 62
     7
 10
123.6235086207
 20
81.7465961071
 30
0.0
 11
122.9235086207
 21
81.7465961071
 31
0.0
  0
LINE
  5
113
  8
0
  6
CONTINUOUS
 62
     7
 10
112.9235086207
 20
81.7465961071
 30
0.0
 11
90.8769304396
 21
81.7465961071
 31
0.0
  0
LINE
  5
114
  8
0
  6
CONTINUOUS
 62
     7
 10
70.0335167765
 20
81.7465961071
 30
0.0
 11
47.9235086207
 21
81.7465961071
 31
0.0
  0
LINE
  5
115
  8
0
  6
CONTINUOUS
 62
     7
 10
37.9235086207
 20
81.7465961071
 30
0.0
 11
37.2235086207
 21
81.7465961071
 31
0.0
  0
CIRCLE
  5
116
  8
0
  6
CONTINUOUS
 62
     7
 10
88.4235086207
 20
94.7465961071
 30
0.0
 40
1.5
  0
CIRCLE
  5
117
  8
0
  6
CONTINUOUS
 62
     7
 10
72.4235086207
 20
94.7465961071
 30
0.0
 40
1.499999999999986
  0
LINE
  5
118
  8
0
  6
CONTINUOUS
 62
     7
 10
69.1989183798
 20
81.6351470046
 30
0.0
 11
69.1833672781
 21
81.7465961071
 31
0.0
  0
LINE
  5
119
  8
0
  6
CONTINUOUS
 62
     7
 10
68.4297588648
 20
91.7465961071
 30
0.0
 11
68.4235086207
 21
92.7465961071
 31
0.0
  0
LINE
  5
11A
  8
0
  6
CONTINUOUS
 62
     7
 10
68.4235086207
 20
94.7465961071
 30
0.0
 11
68.4235086207
 21
92.7465961071
 31
0.0
  0
ARC
  5
11B
  8
0
  6
CONTINUOUS
 62
     7
 10
72.4235086207
 20
94.7465961071
 30
0.0
 40
4.0
 50
90.0
 51
180.0
  0
LINE
  5
11C
  8
0
  6
CONTINUOUS
 62
     7
 10
88.4235086207
 20
98.7465961071
 30
0.0
 11
72.4235086207
 21
98.7465961071
 31
0.0
  0
ARC
  5
11D
  8
0
  6
CONTINUOUS
 62
     7
 10
88.4235086207
 20
94.7465961071
 30
0.0
 40
4.000000000000014
 50
0.0
 51
90.0
  0
LINE
  5
11E
  8
0
  6
CONTINUOUS
 62
     7
 10
92.4235086207
 20
92.7465961071
 30
0.0
 11
92.4235086207
 21
94.7465961071
 31
0.0
  0
LINE
  5
11F
  8
0
  6
CONTINUOUS
 62
     7
 10
92.4235086207
 20
92.7465961071
 30
0.0
 11
92.4172583765
 21
91.7465961071
 31
0.0
  0
LINE
  5
120
  8
0
  6
CONTINUOUS
 62
     7
 10
91.6636499633
 20
81.7465961071
 30
0.0
 11
91.647723608
 21
81.6324717759
 31
0.0
  0
ARC
  5
121
  8
0
  6
CONTINUOUS
 62
     7
 10
52.3012840559
 20
68.8471220728
 30
0.0
 40
7.349236627343908
 50
115.9018688918
 51
164.564005231
  0
ARC
  5
122
  8
0
  6
CONTINUOUS
 62
     7
 10
80.4235086207
 20
9.1627166066
 30
0.0
 40
73.32671456589338
 50
64.7035851004
 51
115.2964148996
  0
ARC
  5
123
  8
0
  6
CONTINUOUS
 62
     7
 10
108.5617767463
 20
68.8604734462
 30
0.0
 40
7.330223203315753
 50
15.3687771588
 51
64.1653487184
  0
POLYLINE
  5
124
  8
0
  6
CONTINUOUS
 62
     7
 66
     1
 10
0.0
 20
0.0
 30
0.0
  0
VERTEX
  5
29F
  8
0
  6
CONTINUOUS
 62
     7
 10
115.6298519708
 20
70.8032009631
 30
0.0
  0
VERTEX
  5
2A0
  8
0
  6
CONTINUOUS
 62
     7
 10
116.5469193496
 20
67.5115969987
 30
0.0
  0
VERTEX
  5
2A1
  8
0
  6
CONTINUOUS
 62
     7
 10
117.1480931812
 20
64.2353221897
 30
0.0
  0
VERTEX
  5
2A2
  8
0
  6
CONTINUOUS
 62
     7
 10
117.5056157746
 20
60.9431825478
 30
0.0
  0
VERTEX
  5
2A3
  8
0
  6
CONTINUOUS
 62
     7
 10
117.7203741518
 20
57.647997652
 30
0.0
  0
VERTEX
  5
2A4
  8
0
  6
CONTINUOUS
 62
     7
 10
117.8021197651
 20
54.3498092957
 30
0.0
  0
VERTEX
  5
2A5
  8
0
  6
CONTINUOUS
 62
     7
 10
117.7989549601
 20
51.0489855909
 30
0.0
  0
VERTEX
  5
2A6
  8
0
  6
CONTINUOUS
 62
     7
 10
117.771854086
 20
47.7487201838
 30
0.0
  0
VERTEX
  5
2A7
  8
0
  6
CONTINUOUS
 62
     7
 10
117.7696962886
 20
44.4512016119
 30
0.0
  0
VERTEX
  5
2A8
  8
0
  6
CONTINUOUS
 62
     7
 10
117.8166329904
 20
38.1310541272
 30
0.0
  0
VERTEX
  5
2A9
  8
0
  6
CONTINUOUS
 62
     7
 10
117.8507234886
 20
31.8103267146
 30
0.0
  0
VERTEX
  5
2AA
  8
0
  6
CONTINUOUS
 62
     7
 10
117.8597266066
 20
25.5570949694
 30
0.0
  0
VERTEX
  5
2AB
  8
0
  6
CONTINUOUS
 62
     7
 10
117.861542418
 20
23.7123742861
 30
0.0
  0
VERTEX
  5
2AC
  8
0
  6
CONTINUOUS
 62
     7
 10
117.866032323
 20
21.8448419951
 30
0.0
  0
VERTEX
  5
2AD
  8
0
  6
CONTINUOUS
 62
     7
 10
117.8752275817
 20
19.9494828547
 30
0.0
  0
VERTEX
  5
2AE
  8
0
  6
CONTINUOUS
 62
     7
 10
117.8912161918
 20
18.0219166443
 30
0.0
  0
VERTEX
  5
2AF
  8
0
  6
CONTINUOUS
 62
     7
 10
117.9153118183
 20
16.0533429195
 30
0.0
  0
SEQEND
  5
2F4
  8
0
  6
CONTINUOUS
 62
     7
  0
ARC
  5
125
  8
0
  6
CONTINUOUS
 62
     7
 10
111.1954385827
 20
15.8597467719
 30
0.0
 40
6.722661542173786
 50
275.3878027248
 51
1.6502086676
  0
ARC
  5
126
  8
0
  6
CONTINUOUS
 62
     7
 10
80.4235086207
 20
349.0971885683
 30
0.0
 40
341.3778510591058
 50
264.7219304797
 51
275.2780695203
  0
ARC
  5
127
  8
0
  6
CONTINUOUS
 62
     7
 10
49.6416694519
 20
15.8509857045
 30
0.0
 40
6.713014833361029
 50
178.2726107856
 51
264.6893778219
  0
POLYLINE
  5
128
  8
0
  6
CONTINUOUS
 62
     7
 66
     1
 10
0.0
 20
0.0
 30
0.0
  0
VERTEX
  5
2B0
  8
0
  6
CONTINUOUS
 62
     7
 10
42.9317054231
 20
16.0533429195
 30
0.0
  0
VERTEX
  5
2B1
  8
0
  6
CONTINUOUS
 62
     7
 10
42.960023139
 20
18.4503664587
 30
0.0
  0
VERTEX
  5
2B2
  8
0
  6
CONTINUOUS
 62
     7
 10
42.9765620208
 20
20.7900543612
 30
0.0
  0
VERTEX
  5
2B3
  8
0
  6
CONTINUOUS
 62
     7
 10
42.9843584981
 20
23.084459451
 30
0.0
  0
VERTEX
  5
2B4
  8
0
  6
CONTINUOUS
 62
     7
 10
42.9871506957
 20
25.3423322044
 30
0.0
  0
VERTEX
  5
2B5
  8
0
  6
CONTINUOUS
 62
     7
 10
42.9885524472
 20
27.5728619551
 30
0.0
  0
VERTEX
  5
2B6
  8
0
  6
CONTINUOUS
 62
     7
 10
42.9914639058
 20
29.8003009058
 30
0.0
  0
VERTEX
  5
2B7
  8
0
  6
CONTINUOUS
 62
     7
 10
42.9970045309
 20
32.041200136
 30
0.0
  0
VERTEX
  5
2B8
  8
0
  6
CONTINUOUS
 62
     7
 10
43.0313302081
 20
38.2472608739
 30
0.0
  0
VERTEX
  5
2B9
  8
0
  6
CONTINUOUS
 62
     7
 10
43.0773209527
 20
44.4512016119
 30
0.0
  0
VERTEX
  5
2BA
  8
0
  6
CONTINUOUS
 62
     7
 10
43.0751631554
 20
47.7487201838
 30
0.0
  0
VERTEX
  5
2BB
  8
0
  6
CONTINUOUS
 62
     7
 10
43.0480622813
 20
51.0489855909
 30
0.0
  0
VERTEX
  5
2BC
  8
0
  6
CONTINUOUS
 62
     7
 10
43.0448974763
 20
54.3498092957
 30
0.0
  0
VERTEX
  5
2BD
  8
0
  6
CONTINUOUS
 62
     7
 10
43.1266430896
 20
57.647997652
 30
0.0
  0
VERTEX
  5
2BE
  8
0
  6
CONTINUOUS
 62
     7
 10
43.3414014667
 20
60.9431825478
 30
0.0
  0
VERTEX
  5
2BF
  8
0
  6
CONTINUOUS
 62
     7
 10
43.6989240602
 20
64.2353221897
 30
0.0
  0
VERTEX
  5
2C0
  8
0
  6
CONTINUOUS
 62
     7
 10
44.3000978918
 20
67.5115969987
 30
0.0
  0
VERTEX
  5
2C1
  8
0
  6
CONTINUOUS
 62
     7
 10
45.2171652706
 20
70.8032009631
 30
0.0
  0
SEQEND
  5
2F3
  8
0
  6
CONTINUOUS
 62
     7
  0
ARC
  5
129
  8
0
  6
CONTINUOUS
 62
     7
 10
80.4235086207
 20
9.1750939674
 30
0.0
 40
73.33519586257242
 50
64.3633412798
 51
115.6366587202
  0
ARC
  5
12A
  8
0
  6
CONTINUOUS
 62
     7
 10
108.896763227
 20
68.6839947953
 30
0.0
 40
7.365684744798508
 50
15.5467555336
 51
63.7639826318
  0
ARC
  5
12B
  8
0
  6
CONTINUOUS
 62
     7
 10
51.9219334148
 20
68.7074697682
 30
0.0
 40
7.332123861946924
 50
116.1186031405
 51
164.5706586941
  0
POLYLINE
  5
12C
  8
0
  6
CONTINUOUS
 62
     7
 66
     1
 10
0.0
 20
0.0
 30
0.0
  0
VERTEX
  5
2C2
  8
0
  6
CONTINUOUS
 62
     7
 10
115.9929527087
 20
70.6581798422
 30
0.0
  0
VERTEX
  5
2C3
  8
0
  6
CONTINUOUS
 62
     7
 10
116.4268687741
 20
69.145026312
 30
0.0
  0
VERTEX
  5
2C4
  8
0
  6
CONTINUOUS
 62
     7
 10
116.8248414443
 20
67.6318679895
 30
0.0
  0
SEQEND
  5
2F2
  8
0
  6
CONTINUOUS
 62
     7
  0
ARC
  5
12D
  8
0
  6
CONTINUOUS
 62
     7
 10
58.2425512554
 20
55.6995438769
 30
0.0
 40
59.78496905645513
 50
6.639592609
 51
11.5127871977
  0
POLYLINE
  5
12E
  8
0
  6
CONTINUOUS
 62
     7
 66
     1
 10
0.0
 20
0.0
 30
0.0
  0
VERTEX
  5
2C5
  8
0
  6
CONTINUOUS
 62
     7
 10
117.6262621747
 20
62.6120662018
 30
0.0
  0
VERTEX
  5
2C6
  8
0
  6
CONTINUOUS
 62
     7
 10
117.8505271301
 20
60.1086452959
 30
0.0
  0
VERTEX
  5
2C7
  8
0
  6
CONTINUOUS
 62
     7
 10
117.9950328782
 20
57.6048979873
 30
0.0
  0
SEQEND
  5
2F1
  8
0
  6
CONTINUOUS
 62
     7
  0
LINE
  5
12F
  8
0
  6
CONTINUOUS
 62
     7
 10
118.0235086207
 20
55.7520299707
 30
0.0
 11
117.9946863578
 21
57.6048839196
 31
0.0
  0
LINE
  5
130
  8
0
  6
CONTINUOUS
 62
     7
 10
118.0235086207
 20
47.6404706697
 30
0.0
 11
118.0235086207
 21
55.7520299707
 31
0.0
  0
POLYLINE
  5
131
  8
0
  6
CONTINUOUS
 62
     7
 66
     1
 10
0.0
 20
0.0
 30
0.0
  0
VERTEX
  5
2C8
  8
0
  6
CONTINUOUS
 62
     7
 10
118.0235085022
 20
47.6404905108
 30
0.0
  0
VERTEX
  5
2C9
  8
0
  6
CONTINUOUS
 62
     7
 10
118.0087989338
 20
44.4686258162
 30
0.0
  0
VERTEX
  5
2CA
  8
0
  6
CONTINUOUS
 62
     7
 10
118.0235119892
 20
37.6405998406
 30
0.0
  0
SEQEND
  5
2F0
  8
0
  6
CONTINUOUS
 62
     7
  0
POLYLINE
  5
132
  8
0
  6
CONTINUOUS
 62
     7
 66
     1
 10
0.0
 20
0.0
 30
0.0
  0
VERTEX
  5
2CB
  8
0
  6
CONTINUOUS
 62
     7
 10
118.0235790338
 20
15.9861233449
 30
0.0
  0
VERTEX
  5
2CC
  8
0
  6
CONTINUOUS
 62
     7
 10
118.0235775427
 20
16.2940671902
 30
0.0
  0
VERTEX
  5
2CD
  8
0
  6
CONTINUOUS
 62
     7
 10
118.0233632522
 20
18.7059174854
 30
0.0
  0
VERTEX
  5
2CE
  8
0
  6
CONTINUOUS
 62
     7
 10
118.0228861372
 20
21.0904679025
 30
0.0
  0
VERTEX
  5
2CF
  8
0
  6
CONTINUOUS
 62
     7
 10
118.0225357025
 20
23.4538196472
 30
0.0
  0
VERTEX
  5
2D0
  8
0
  6
CONTINUOUS
 62
     7
 10
118.0238555873
 20
28.1626678088
 30
0.0
  0
VERTEX
  5
2D1
  8
0
  6
CONTINUOUS
 62
     7
 10
118.0273299322
 20
32.8965736893
 30
0.0
  0
VERTEX
  5
2D2
  8
0
  6
CONTINUOUS
 62
     7
 10
118.0235086207
 20
37.640599847
 30
0.0
  0
SEQEND
  5
2EF
  8
0
  6
CONTINUOUS
 62
     7
  0
LINE
  5
133
  8
0
  6
CONTINUOUS
 62
     7
 10
42.8235086207
 20
37.640599847
 30
0.0
 11
42.8235086207
 21
27.6427550305
 31
0.0
  0
POLYLINE
  5
134
  8
0
  6
CONTINUOUS
 62
     7
 66
     1
 10
0.0
 20
0.0
 30
0.0
  0
VERTEX
  5
2D3
  8
0
  6
CONTINUOUS
 62
     7
 10
42.8235052522
 20
37.6405998406
 30
0.0
  0
VERTEX
  5
2D4
  8
0
  6
CONTINUOUS
 62
     7
 10
42.8382183075
 20
44.4686258162
 30
0.0
  0
VERTEX
  5
2D5
  8
0
  6
CONTINUOUS
 62
     7
 10
42.8235087395
 20
47.6404904734
 30
0.0
  0
SEQEND
  5
2EE
  8
0
  6
CONTINUOUS
 62
     7
  0
LINE
  5
135
  8
0
  6
CONTINUOUS
 62
     7
 10
42.8235086207
 20
55.7520299707
 30
0.0
 11
42.8235086207
 21
47.6404705949
 31
0.0
  0
LINE
  5
136
  8
0
  6
CONTINUOUS
 62
     7
 10
42.8523308836
 20
57.6048839196
 30
0.0
 11
42.8235086207
 21
55.7520299707
 31
0.0
  0
POLYLINE
  5
137
  8
0
  6
CONTINUOUS
 62
     7
 66
     1
 10
0.0
 20
0.0
 30
0.0
  0
VERTEX
  5
2D6
  8
0
  6
CONTINUOUS
 62
     7
 10
42.8519843562
 20
57.6048978197
 30
0.0
  0
VERTEX
  5
2D7
  8
0
  6
CONTINUOUS
 62
     7
 10
42.996490105
 20
60.1086452121
 30
0.0
  0
VERTEX
  5
2D8
  8
0
  6
CONTINUOUS
 62
     7
 10
43.2207550667
 20
62.6120662018
 30
0.0
  0
SEQEND
  5
2ED
  8
0
  6
CONTINUOUS
 62
     7
  0
ARC
  5
138
  8
0
  6
CONTINUOUS
 62
     7
 10
102.623243094
 20
55.6965442742
 30
0.0
 40
59.80396705858804
 50
168.487987306
 51
173.3596328873
  0
POLYLINE
  5
139
  8
0
  6
CONTINUOUS
 62
     7
 66
     1
 10
0.0
 20
0.0
 30
0.0
  0
VERTEX
  5
2D9
  8
0
  6
CONTINUOUS
 62
     7
 10
44.0235086221
 20
67.6374578222
 30
0.0
  0
VERTEX
  5
2DA
  8
0
  6
CONTINUOUS
 62
     7
 10
44.420934706
 20
69.1478212177
 30
0.0
  0
VERTEX
  5
2DB
  8
0
  6
CONTINUOUS
 62
     7
 10
44.8540645327
 20
70.6581798422
 30
0.0
  0
SEQEND
  5
2EC
  8
0
  6
CONTINUOUS
 62
     7
  0
POLYLINE
  5
13A
  8
0
  6
CONTINUOUS
 62
     7
 66
     1
 10
0.0
 20
0.0
 30
0.0
  0
VERTEX
  5
2DC
  8
0
  6
CONTINUOUS
 62
     7
 10
42.8234373938
 20
15.9870757619
 30
0.0
  0
VERTEX
  5
2DD
  8
0
  6
CONTINUOUS
 62
     7
 10
42.8234373557
 20
16.0123983316
 30
0.0
  0
VERTEX
  5
2DE
  8
0
  6
CONTINUOUS
 62
     7
 10
42.8236078047
 20
18.4254110013
 30
0.0
  0
VERTEX
  5
2DF
  8
0
  6
CONTINUOUS
 62
     7
 10
42.8240727697
 20
20.8138751707
 30
0.0
  0
VERTEX
  5
2E0
  8
0
  6
CONTINUOUS
 62
     7
 10
42.8244589055
 20
23.179794088
 30
0.0
  0
VERTEX
  5
2E1
  8
0
  6
CONTINUOUS
 62
     7
 10
42.8243548735
 20
25.5346196111
 30
0.0
  0
VERTEX
  5
2E2
  8
0
  6
CONTINUOUS
 62
     7
 10
42.8235086203
 20
27.6427556969
 30
0.0
  0
SEQEND
  5
2EB
  8
0
  6
CONTINUOUS
 62
     7
  0
ARC
  5
13B
  8
0
  6
CONTINUOUS
 62
     7
 10
111.3804951685
 20
15.848875333
 30
0.0
 40
6.644502288498728
 50
292.5777047535
 51
1.1835928603
  0
ARC
  5
13C
  8
0
  6
CONTINUOUS
 62
     7
 10
49.4713930431
 20
15.8539626828
 30
0.0
 40
6.649288187967659
 50
178.8529107389
 51
250.63976322
  0
LINE
  5
13D
  8
0
  6
CONTINUOUS
 62
     7
 10
117.6235086161
 20
62.6382193802
 30
0.0
 11
117.6265484044
 21
62.6120994384
 31
0.0
  0
POLYLINE
  5
13E
  8
0
  6
CONTINUOUS
 62
     7
 66
     1
 10
0.0
 20
0.0
 30
0.0
  0
VERTEX
  5
2E3
  8
0
  6
CONTINUOUS
 62
     7
 10
116.8246578269
 20
67.6318250704
 30
0.0
  0
VERTEX
  5
2E4
  8
0
  6
CONTINUOUS
 62
     7
 10
117.2768430583
 20
65.1459588523
 30
0.0
  0
VERTEX
  5
2E5
  8
0
  6
CONTINUOUS
 62
     7
 10
117.6235086207
 20
62.6382193407
 30
0.0
  0
SEQEND
  5
2EA
  8
0
  6
CONTINUOUS
 62
     7
  0
POLYLINE
  5
13F
  8
0
  6
CONTINUOUS
 62
     7
 66
     1
 10
0.0
 20
0.0
 30
0.0
  0
VERTEX
  5
2E6
  8
0
  6
CONTINUOUS
 62
     7
 10
43.2235086207
 20
62.6382193406
 30
0.0
  0
VERTEX
  5
2E7
  8
0
  6
CONTINUOUS
 62
     7
 10
43.5694385179
 20
65.1413601154
 30
0.0
  0
VERTEX
  5
2E8
  8
0
  6
CONTINUOUS
 62
     7
 10
44.0223594203
 20
67.6318250988
 30
0.0
  0
SEQEND
  5
2E9
  8
0
  6
CONTINUOUS
 62
     7
  0
LINE
  5
140
  8
0
  6
CONTINUOUS
 62
     7
 10
43.220468837
 20
62.6120994384
 30
0.0
 11
43.2235086253
 21
62.6382193802
 31
0.0
  0
LINE
  5
141
  8
0
  6
CONTINUOUS
 62
     7
 10
117.9946863516
 20
57.6048850233
 30
0.0
 11
118.0235086207
 21
55.7541920749
 31
0.0
  0
LINE
  5
142
  8
0
  6
CONTINUOUS
 62
     7
 10
42.8235086207
 20
55.7541920749
 30
0.0
 11
42.8523308846
 21
57.6048848557
 31
0.0
  0
LINE
  5
143
  8
0
  6
CONTINUOUS
 62
     7
 10
43.5978330358
 20
81.4465961071
 30
0.0
 11
43.5978330358
 21
81.3897770755
 31
0.0
  0
LINE
  5
144
  8
0
  6
CONTINUOUS
 62
     7
 10
43.5978330358
 20
81.3897770755
 30
0.0
 11
43.8193543732
 21
81.3745390146
 31
0.0
  0
LINE
  5
145
  8
0
  6
CONTINUOUS
 62
     7
 10
42.8200860157
 20
20.2465961071
 30
0.0
 11
42.7235086207
 21
20.2465961071
 31
0.0
  0
LINE
  5
146
  8
0
  6
CONTINUOUS
 62
     7
 10
42.7235086207
 20
20.2465961071
 30
0.0
 11
42.7235086207
 21
81.4465961071
 31
0.0
  0
LINE
  5
147
  8
0
  6
CONTINUOUS
 62
     7
 10
42.7235086207
 20
81.4465961071
 30
0.0
 11
43.5978330358
 21
81.4465961071
 31
0.0
  0
ARC
  5
148
  8
0
  6
CONTINUOUS
 62
     7
 10
44.3874678183
 20
79.3350101467
 30
0.0
 40
1.996148102666497
 50
359.8799160485
 51
86.029442839
  0
LINE
  5
149
  8
0
  6
CONTINUOUS
 62
     7
 10
46.3836115368
 20
79.3308265022
 30
0.0
 11
46.3836115368
 21
74.9283055038
 31
0.0
  0
ARC
  5
14A
  8
0
  6
CONTINUOUS
 62
     7
 10
47.5853959932
 20
74.9275188833
 30
0.0
 40
1.201784713782073
 50
179.962497411
 51
232.2496553428
  0
LINE
  5
14B
  8
0
  6
CONTINUOUS
 62
     7
 10
44.5256887819
 20
81.3263670241
 30
0.0
 11
43.8193543732
 21
81.3745390146
 31
0.0
  0
LINE
  5
14C
  8
0
  6
CONTINUOUS
 62
     7
 10
42.7235086207
 20
81.4465961071
 30
0.0
 11
42.7235086207
 21
94.1667127984
 31
0.0
  0
LINE
  5
14D
  8
0
  6
CONTINUOUS
 62
     7
 10
43.5235086207
 20
94.1667127984
 30
0.0
 11
43.5235086207
 21
81.4465961071
 31
0.0
  0
LINE
  5
14E
  8
0
  6
CONTINUOUS
 62
     7
 10
42.7235086207
 20
95.3465961071
 30
0.0
 11
43.5235086207
 21
95.3465961071
 31
0.0
  0
LINE
  5
14F
  8
0
  6
CONTINUOUS
 62
     7
 10
42.7235086207
 20
94.1667127984
 30
0.0
 11
42.7235086207
 21
95.3465961071
 31
0.0
  0
LINE
  5
150
  8
0
  6
CONTINUOUS
 62
     7
 10
43.5235086207
 20
95.3465961071
 30
0.0
 11
43.5235086207
 21
94.1667127984
 31
0.0
  0
LINE
  5
151
  8
0
  6
CONTINUOUS
 62
     7
 10
37.9235086207
 20
92.3465961071
 30
0.0
 11
37.9235086207
 21
91.3465961071
 31
0.0
  0
LINE
  5
152
  8
0
  6
CONTINUOUS
 62
     7
 10
42.7235086207
 20
92.3465961071
 30
0.0
 11
37.9235086207
 21
92.3465961071
 31
0.0
  0
LINE
  5
153
  8
0
  6
CONTINUOUS
 62
     7
 10
47.9235086207
 20
92.3465961071
 30
0.0
 11
47.9235086207
 21
91.3465961071
 31
0.0
  0
LINE
  5
154
  8
0
  6
CONTINUOUS
 62
     7
 10
47.9235086207
 20
92.3465961071
 30
0.0
 11
43.5235086207
 21
92.3465961071
 31
0.0
  0
LINE
  5
155
  8
0
  6
CONTINUOUS
 62
     7
 10
37.9235086207
 20
91.3465961071
 30
0.0
 11
37.9235086207
 21
82.1465961071
 31
0.0
  0
LINE
  5
156
  8
0
  6
CONTINUOUS
 62
     7
 10
47.9235086207
 20
91.3465961071
 30
0.0
 11
47.9235086207
 21
82.1465961071
 31
0.0
  0
LINE
  5
157
  8
0
  6
CONTINUOUS
 62
     7
 10
42.7235086207
 20
81.1465961071
 30
0.0
 11
37.9235086207
 21
81.1465961071
 31
0.0
  0
LINE
  5
158
  8
0
  6
CONTINUOUS
 62
     7
 10
37.9235086207
 20
82.1465961071
 30
0.0
 11
37.9235086207
 21
81.1465961071
 31
0.0
  0
LINE
  5
159
  8
0
  6
CONTINUOUS
 62
     7
 10
47.9235086207
 20
81.1465961071
 30
0.0
 11
45.2273985993
 21
81.1465961071
 31
0.0
  0
LINE
  5
15A
  8
0
  6
CONTINUOUS
 62
     7
 10
47.9235086207
 20
82.1465961071
 30
0.0
 11
47.9235086207
 21
81.1465961071
 31
0.0
  0
LINE
  5
15B
  8
0
  6
CONTINUOUS
 62
     7
 10
118.1235086207
 20
20.2465961071
 30
0.0
 11
118.1235086207
 21
81.4465961071
 31
0.0
  0
LINE
  5
15C
  8
0
  6
CONTINUOUS
 62
     7
 10
118.0269313571
 20
20.2465961071
 30
0.0
 11
118.1235086207
 21
20.2465961071
 31
0.0
  0
LINE
  5
15D
  8
0
  6
CONTINUOUS
 62
     7
 10
117.2491842056
 20
81.3897770755
 30
0.0
 11
117.0276628682
 21
81.3745390146
 31
0.0
  0
LINE
  5
15E
  8
0
  6
CONTINUOUS
 62
     7
 10
117.2491842056
 20
81.4465961071
 30
0.0
 11
117.2491842056
 21
81.3897770755
 31
0.0
  0
LINE
  5
15F
  8
0
  6
CONTINUOUS
 62
     7
 10
118.1235086207
 20
81.4465961071
 30
0.0
 11
117.2491842056
 21
81.4465961071
 31
0.0
  0
ARC
  5
160
  8
0
  6
CONTINUOUS
 62
     7
 10
113.2615794865
 20
74.9275294206
 30
0.0
 40
1.201826468626019
 50
308.2417194605
 51
0.0369989301
  0
LINE
  5
161
  8
0
  6
CONTINUOUS
 62
     7
 10
114.4634057045
 20
79.3308265022
 30
0.0
 11
114.4634057046
 21
74.9283055038
 31
0.0
  0
ARC
  5
162
  8
0
  6
CONTINUOUS
 62
     7
 10
116.459549423
 20
79.3350101467
 30
0.0
 40
1.996148102666508
 50
93.970557161
 51
180.1200839515
  0
LINE
  5
163
  8
0
  6
CONTINUOUS
 62
     7
 10
116.3213284595
 20
81.3263670241
 30
0.0
 11
117.0276628682
 21
81.3745390146
 31
0.0
  0
LINE
  5
164
  8
0
  6
CONTINUOUS
 62
     7
 10
118.1235086207
 20
81.4465961071
 30
0.0
 11
118.1235086207
 21
94.1667127984
 31
0.0
  0
LINE
  5
165
  8
0
  6
CONTINUOUS
 62
     7
 10
117.3235086207
 20
94.1667127984
 30
0.0
 11
117.3235086207
 21
81.4465961071
 31
0.0
  0
LINE
  5
166
  8
0
  6
CONTINUOUS
 62
     7
 10
118.1235086207
 20
95.3465961071
 30
0.0
 11
117.3235086207
 21
95.3465961071
 31
0.0
  0
LINE
  5
167
  8
0
  6
CONTINUOUS
 62
     7
 10
118.1235086207
 20
94.1667127984
 30
0.0
 11
118.1235086207
 21
95.3465961071
 31
0.0
  0
LINE
  5
168
  8
0
  6
CONTINUOUS
 62
     7
 10
117.3235086207
 20
95.3465961071
 30
0.0
 11
117.3235086207
 21
94.1667127984
 31
0.0
  0
LINE
  5
169
  8
0
  6
CONTINUOUS
 62
     7
 10
112.9235086207
 20
92.3465961071
 30
0.0
 11
117.3235086207
 21
92.3465961071
 31
0.0
  0
LINE
  5
16A
  8
0
  6
CONTINUOUS
 62
     7
 10
112.9235086207
 20
92.3465961071
 30
0.0
 11
112.9235086207
 21
91.3465961071
 31
0.0
  0
LINE
  5
16B
  8
0
  6
CONTINUOUS
 62
     7
 10
118.1235086207
 20
92.3465961071
 30
0.0
 11
122.9235086207
 21
92.3465961071
 31
0.0
  0
LINE
  5
16C
  8
0
  6
CONTINUOUS
 62
     7
 10
122.9235086207
 20
92.3465961071
 30
0.0
 11
122.9235086207
 21
91.3465961071
 31
0.0
  0
LINE
  5
16D
  8
0
  6
CONTINUOUS
 62
     7
 10
112.9235086207
 20
91.3465961071
 30
0.0
 11
112.9235086207
 21
82.1465961071
 31
0.0
  0
LINE
  5
16E
  8
0
  6
CONTINUOUS
 62
     7
 10
122.9235086207
 20
91.3465961071
 30
0.0
 11
122.9235086207
 21
82.1465961071
 31
0.0
  0
LINE
  5
16F
  8
0
  6
CONTINUOUS
 62
     7
 10
112.9235086207
 20
81.1465961071
 30
0.0
 11
115.6196186421
 21
81.1465961071
 31
0.0
  0
LINE
  5
170
  8
0
  6
CONTINUOUS
 62
     7
 10
112.9235086207
 20
82.1465961071
 30
0.0
 11
112.9235086207
 21
81.1465961071
 31
0.0
  0
LINE
  5
171
  8
0
  6
CONTINUOUS
 62
     7
 10
118.1235086207
 20
81.1465961071
 30
0.0
 11
122.9235086207
 21
81.1465961071
 31
0.0
  0
LINE
  5
172
  8
0
  6
CONTINUOUS
 62
     7
 10
122.9235086207
 20
82.1465961071
 30
0.0
 11
122.9235086207
 21
81.1465961071
 31
0.0
  0
ENDSEC
  0
EOF
