  0
SECTION
  2
HEADER
  9
$ACADVER
  1
AC1009
  9
$DWGCODEPAGE
  3
ansi_1252
  9
$INSBASE
 10
0.0
 20
0.0
 30
0.0
  9
$EXTMIN
 10
0.0
 20
0.0
 30
0.0
  9
$EXTMAX
 10
420.0
 20
297.0
 30
0.0
  9
$LIMMIN
 10
0.0
 20
0.0
  9
$LIMMAX
 10
420.0
 20
297.0
  9
$ORTHOMODE
 70
     0
  9
$REGENMODE
 70
     1
  9
$FILLMODE
 70
     1
  9
$QTEXTMODE
 70
     0
  9
$MIRRTEXT
 70
     1
  9
$DRAGMODE
 70
     2
  9
$LTSCALE
 40
1.0
  9
$OSMODE
 70
    37
  9
$ATTMODE
 70
     1
  9
$TEXTSIZE
 40
3.5
  9
$TRACEWID
 40
1.0
  9
$TEXTSTYLE
  7
STANDARD
  9
$CLAYER
  8
0
  9
$CELTYPE
  6
BYLAYER
  9
$CECOLOR
 62
   256
  9
$DIMSCALE
 40
1.0
  9
$DIMASZ
 40
4.0
  9
$DIMEXO
 40
0.0
  9
$DIMDLI
 40
3.75
  9
$DIMRND
 40
0.0
  9
$DIMDLE
 40
0.0
  9
$DIMEXE
 40
2.0
  9
$DIMTP
 40
0.0
  9
$DIMTM
 40
0.0
  9
$DIMTXT
 40
3.5
  9
$DIMCEN
 40
2.5
  9
$DIMTSZ
 40
0.0
  9
$DIMTOL
 70
     0
  9
$DIMLIM
 70
     0
  9
$DIMTIH
 70
     1
  9
$DIMTOH
 70
     1
  9
$DIMSE1
 70
     0
  9
$DIMSE2
 70
     0
  9
$DIMTAD
 70
     1
  9
$DIMZIN
 70
     0
  9
$DIMBLK
  1

  9
$DIMASO
 70
     1
  9
$DIMSHO
 70
     1
  9
$DIMPOST
  1

  9
$DIMAPOST
  1

  9
$DIMALT
 70
     0
  9
$DIMALTD
 70
     3
  9
$DIMALTF
 40
0.0393700787
  9
$DIMLFAC
 40
5.0
  9
$DIMTOFL
 70
     1
  9
$DIMTVP
 40
0.0
  9
$DIMTIX
 70
     0
  9
$DIMSOXD
 70
     0
  9
$DIMSAH
 70
     0
  9
$DIMBLK1
  1

  9
$DIMBLK2
  1

  9
$DIMSTYLE
  2
ISO-25
  9
$DIMCLRD
 70
     0
  9
$DIMCLRE
 70
     0
  9
$DIMCLRT
 70
     0
  9
$DIMTFAC
 40
1.0
  9
$DIMGAP
 40
1.524
  9
$LUNITS
 70
     2
  9
$LUPREC
 70
     2
  9
$SKETCHINC
 40
1.0
  9
$FILLETRAD
 40
10.0
  9
$AUNITS
 70
     0
  9
$AUPREC
 70
     2
  9
$MENU
  1
.
  9
$ELEVATION
 40
0.0
  9
$PELEVATION
 40
0.0
  9
$THICKNESS
 40
0.0
  9
$LIMCHECK
 70
     0
  9
$CHAMFERA
 40
10.0
  9
$CHAMFERB
 40
10.0
  9
$SKPOLY
 70
     0
  9
$TDCREATE
 40
2457802.431491759
  9
$TDUPDATE
 40
2457802.431491991
  9
$TDINDWG
 40
0.0000000116
  9
$TDUSRTIMER
 40
0.0000000116
  9
$USRTIMER
 70
     1
  9
$ANGBASE
 50
0.0
  9
$ANGDIR
 70
     0
  9
$PDMODE
 70
     0
  9
$PDSIZE
 40
-1.0
  9
$PLINEWID
 40
0.0
  9
$COORDS
 70
     1
  9
$SPLFRAME
 70
     0
  9
$SPLINETYPE
 70
     6
  9
$SPLINESEGS
 70
     8
  9
$ATTDIA
 70
     0
  9
$ATTREQ
 70
     1
  9
$HANDLING
 70
     1
  9
$HANDSEED
  5
2FE
  9
$SURFTAB1
 70
     6
  9
$SURFTAB2
 70
     6
  9
$SURFTYPE
 70
     6
  9
$SURFU
 70
     6
  9
$SURFV
 70
     6
  9
$UCSNAME
  2

  9
$UCSORG
 10
0.0
 20
0.0
 30
0.0
  9
$UCSXDIR
 10
1.0
 20
0.0
 30
0.0
  9
$UCSYDIR
 10
0.0
 20
1.0
 30
0.0
  9
$PUCSNAME
  2

  9
$PUCSORG
 10
0.0
 20
0.0
 30
0.0
  9
$PUCSXDIR
 10
1.0
 20
0.0
 30
0.0
  9
$PUCSYDIR
 10
0.0
 20
1.0
 30
0.0
  9
$USERI1
 70
     0
  9
$USERI2
 70
     0
  9
$USERI3
 70
     0
  9
$USERI4
 70
     0
  9
$USERI5
 70
     0
  9
$USERR1
 40
0.0
  9
$USERR2
 40
0.0
  9
$USERR3
 40
0.0
  9
$USERR4
 40
0.0
  9
$USERR5
 40
0.0
  9
$WORLDVIEW
 70
     1
  9
$SHADEDGE
 70
     3
  9
$SHADEDIF
 70
    70
  9
$TILEMODE
 70
     1
  9
$MAXACTVP
 70
    64
  9
$PLIMCHECK
 70
     0
  9
$PEXTMIN
 10
1.0000000000E+20
 20
1.0000000000E+20
 30
1.0000000000E+20
  9
$PEXTMAX
 10
-1.0000000000E+20
 20
-1.0000000000E+20
 30
-1.0000000000E+20
  9
$PLIMMIN
 10
0.0
 20
0.0
  9
$PLIMMAX
 10
420.0
 20
297.0
  9
$UNITMODE
 70
     0
  9
$VISRETAIN
 70
     1
  9
$PLINEGEN
 70
     0
  9
$PSLTSCALE
 70
     1
  0
ENDSEC
  0
SECTION
  2
TABLES
  0
TABLE
  2
VPORT
 70
     1
  0
VPORT
  2
*ACTIVE
 70
     0
 10
0.0
 20
0.0
 11
1.0
 21
1.0
 12
210.0
 22
148.5
 13
0.0
 23
0.0
 14
10.0
 24
10.0
 15
10.0
 25
10.0
 16
0.0
 26
0.0
 36
1.0
 17
0.0
 27
0.0
 37
0.0
 40
297.0
 41
1.4141414141
 42
50.0
 43
0.0
 44
0.0
 50
0.0
 51
0.0
 71
     0
 72
  2000
 73
     1
 74
     3
 75
     0
 76
     0
 77
     0
 78
     0
  0
ENDTAB
  0
TABLE
  2
LTYPE
 70
     6
  0
LTYPE
  2
CONTINUOUS
 70
     0
  3
Solid line
 72
    65
 73
     0
 40
0.0
  0
LTYPE
  2
HIDDEN
 70
     0
  3
Hidden __ __ __ __ __ __ __ __ __ __ __ __ __ __
 72
    65
 73
     2
 40
1.905
 49
1.27
 49
-0.635
  0
LTYPE
  2
PHANTOM
 70
     0
  3
Phantom ______  __  __  ______  __  __  ______
 72
    65
 73
     6
 40
12.7
 49
6.35
 49
-1.27
 49
1.27
 49
-1.27
 49
1.27
 49
-1.27
  0
LTYPE
  2
CENTER
 70
     0
  3
Center ____ _ ____ _ ____ _ ____ _ ____ _ ____
 72
    65
 73
     4
 40
10.16
 49
6.35
 49
-1.27
 49
1.27
 49
-1.27
  0
LTYPE
  2
CENTERX2
 70
     0
  3
Center (2x) ________  __  ________  __  _____
 72
    65
 73
     4
 40
20.32
 49
12.7
 49
-2.54
 49
2.54
 49
-2.54
  0
LTYPE
  2
DOT2
 70
     0
  3
Dot (.5x) ........................................
 72
    65
 73
     2
 40
0.635
 49
0.0
 49
-0.635
  0
ENDTAB
  0
TABLE
  2
LAYER
 70
     2
  0
LAYER
  2
0
 70
     0
 62
     7
  6
CONTINUOUS
  0
LAYER
  2
FORMAT
 70
     0
 62
     7
  6
CONTINUOUS
  0
ENDTAB
  0
TABLE
  2
STYLE
 70
     1
  0
STYLE
  2
STANDARD
 70
     0
 40
0.0
 41
1.0
 50
0.0
 71
     0
 42
3.5
  3
txt
  4

  0
ENDTAB
  0
TABLE
  2
VIEW
 70
     0
  0
ENDTAB
  0
TABLE
  2
UCS
 70
     0
  0
ENDTAB
  0
TABLE
  2
APPID
 70
     1
  0
APPID
  2
ACAD
 70
     0
  0
ENDTAB
  0
TABLE
  2
DIMSTYLE
 70
     1
  0
DIMSTYLE
  2
ISO-25
 70
     0
  3

  4

  5

  6

  7

 40
1.0
 41
2.5
 42
0.625
 43
3.75
 44
1.25
 45
0.0
 46
0.0
 47
0.0
 48
0.0
140
2.5
141
2.5
142
0.0
143
0.0393700787
144
1.0
145
0.0
146
1.0
147
0.625
 71
     0
 72
     0
 73
     0
 74
     0
 75
     0
 76
     0
 77
     1
 78
     8
170
     0
171
     3
172
     1
173
     0
174
     0
175
     0
176
     0
177
     0
178
     0
  0
ENDTAB
  0
ENDSEC
  0
SECTION
  2
BLOCKS
  0
BLOCK
  8
0
  2
$MODEL_SPACE
 70
     0
 10
0.0
 20
0.0
 30
0.0
  3
$MODEL_SPACE
  1

  0
ENDBLK
  5
21
  8
0
  0
BLOCK
 67
     1
  8
0
  2
$PAPER_SPACE
 70
     0
 10
0.0
 20
0.0
 30
0.0
  3
$PAPER_SPACE
  1

  0
ENDBLK
  5
1D
 67
     1
  8
0
  0
ENDSEC
  0
SECTION
  2
ENTITIES
  0
POLYLINE
  5
45
  8
0
  6
CONTINUOUS
 62
     7
 66
     1
 10
0.0
 20
0.0
 30
0.0
  0
VERTEX
  5
25F
  8
0
  6
CONTINUOUS
 62
     7
 10
240.2588530239
 20
251.6173451518
 30
0.0
  0
VERTEX
  5
260
  8
0
  6
CONTINUOUS
 62
     7
 10
240.2532948908
 20
251.6163795565
 30
0.0
  0
VERTEX
  5
261
  8
0
  6
CONTINUOUS
 62
     7
 10
240.2522398886
 20
251.6161888216
 30
0.0
  0
SEQEND
  5
2FD
  8
0
  6
CONTINUOUS
 62
     7
  0
POLYLINE
  5
46
  8
0
  6
CONTINUOUS
 62
     7
 66
     1
 10
0.0
 20
0.0
 30
0.0
  0
VERTEX
  5
262
  8
0
  6
CONTINUOUS
 62
     7
 10
166.4661451039
 20
251.6160994147
 30
0.0
  0
VERTEX
  5
263
  8
0
  6
CONTINUOUS
 62
     7
 10
166.4651526865
 20
251.6162841891
 30
0.0
  0
VERTEX
  5
264
  8
0
  6
CONTINUOUS
 62
     7
 10
166.4542360958
 20
251.6181676958
 30
0.0
  0
SEQEND
  5
2FC
  8
0
  6
CONTINUOUS
 62
     7
  0
LINE
  5
47
  8
0
  6
CONTINUOUS
 62
     7
 10
166.4658947644
 20
251.6161590193
 30
0.0
 11
166.4585157093
 21
251.6174703215
 31
0.0
  0
ARC
  5
48
  8
0
  6
CONTINUOUS
 62
     7
 10
149.2752859183
 20
165.7750800756
 30
0.0
 40
82.1660788902166
 50
78.4982753699
 51
78.6264649151
  0
LINE
  5
49
  8
0
  6
CONTINUOUS
 62
     7
 10
165.4733403382
 20
246.3287025069
 30
0.0
 11
165.4778077063
 21
246.3278143977
 31
0.0
  0
LINE
  5
4A
  8
0
  6
CONTINUOUS
 62
     7
 10
241.1765589175
 20
246.3149755572
 30
0.0
 11
241.2332012114
 21
246.3264017676
 31
0.0
  0
POLYLINE
  5
4B
  8
0
  6
CONTINUOUS
 62
     7
 66
     1
 10
0.0
 20
0.0
 30
0.0
  0
VERTEX
  5
265
  8
0
  6
CONTINUOUS
 62
     7
 10
360.2588518319
 20
251.6173451518
 30
0.0
  0
VERTEX
  5
266
  8
0
  6
CONTINUOUS
 62
     7
 10
360.253296679
 20
251.6163795565
 30
0.0
  0
VERTEX
  5
267
  8
0
  6
CONTINUOUS
 62
     7
 10
360.2522357163
 20
251.6161888216
 30
0.0
  0
SEQEND
  5
2FB
  8
0
  6
CONTINUOUS
 62
     7
  0
POLYLINE
  5
4C
  8
0
  6
CONTINUOUS
 62
     7
 66
     1
 10
0.0
 20
0.0
 30
0.0
  0
VERTEX
  5
268
  8
0
  6
CONTINUOUS
 62
     7
 10
286.4661439118
 20
251.6160994147
 30
0.0
  0
VERTEX
  5
269
  8
0
  6
CONTINUOUS
 62
     7
 10
286.4651544747
 20
251.6162841891
 30
0.0
  0
VERTEX
  5
26A
  8
0
  6
CONTINUOUS
 62
     7
 10
286.4542349038
 20
251.6181676958
 30
0.0
  0
SEQEND
  5
2FA
  8
0
  6
CONTINUOUS
 62
     7
  0
LINE
  5
4D
  8
0
  6
CONTINUOUS
 62
     7
 10
286.4658935723
 20
251.6161590193
 30
0.0
 11
286.4585145173
 21
251.6174703215
 31
0.0
  0
LINE
  5
4E
  8
0
  6
CONTINUOUS
 62
     7
 10
361.1765607056
 20
246.3149755572
 30
0.0
 11
361.2331970391
 21
246.3264017676
 31
0.0
  0
ARC
  5
4F
  8
0
  6
CONTINUOUS
 62
     7
 10
269.4242435153
 20
166.5126498922
 30
0.0
 40
81.41361843969645
 50
78.4974998086
 51
78.6268720826
  0
LINE
  5
50
  8
0
  6
CONTINUOUS
 62
     7
 10
285.4733391461
 20
246.3287025069
 30
0.0
 11
285.4778094944
 21
246.3278143977
 31
0.0
  0
POLYLINE
  5
51
  8
0
  6
CONTINUOUS
 62
     7
 66
     1
 10
0.0
 20
0.0
 30
0.0
  0
VERTEX
  5
26B
  8
0
  6
CONTINUOUS
 62
     7
 10
120.258854216
 20
251.6173451518
 30
0.0
  0
VERTEX
  5
26C
  8
0
  6
CONTINUOUS
 62
     7
 10
120.2532931027
 20
251.6163795565
 30
0.0
  0
VERTEX
  5
26D
  8
0
  6
CONTINUOUS
 62
     7
 10
120.2522381005
 20
251.6161888216
 30
0.0
  0
SEQEND
  5
2F9
  8
0
  6
CONTINUOUS
 62
     7
  0
POLYLINE
  5
52
  8
0
  6
CONTINUOUS
 62
     7
 66
     1
 10
0.0
 20
0.0
 30
0.0
  0
VERTEX
  5
26E
  8
0
  6
CONTINUOUS
 62
     7
 10
46.466146296
 20
251.6160994147
 30
0.0
  0
VERTEX
  5
26F
  8
0
  6
CONTINUOUS
 62
     7
 10
46.4651568589
 20
251.6162841891
 30
0.0
  0
VERTEX
  5
270
  8
0
  6
CONTINUOUS
 62
     7
 10
46.4542372879
 20
251.6181676958
 30
0.0
  0
SEQEND
  5
2F8
  8
0
  6
CONTINUOUS
 62
     7
  0
LINE
  5
53
  8
0
  6
CONTINUOUS
 62
     7
 10
46.4658959565
 20
251.6161590193
 30
0.0
 11
46.4585169014
 21
251.6174703215
 31
0.0
  0
ARC
  5
54
  8
0
  6
CONTINUOUS
 62
     7
 10
29.4359477181
 20
166.5678643155
 30
0.0
 40
81.35717947615822
 50
78.4978212654
 51
78.6272874017
  0
LINE
  5
55
  8
0
  6
CONTINUOUS
 62
     7
 10
45.4733355698
 20
246.3287025069
 30
0.0
 11
45.4778059182
 21
246.3278143977
 31
0.0
  0
LINE
  5
56
  8
0
  6
CONTINUOUS
 62
     7
 10
121.1765630898
 20
246.3149755572
 30
0.0
 11
121.2332053837
 21
246.3264017676
 31
0.0
  0
ARC
  5
57
  8
0
  6
CONTINUOUS
 62
     7
 10
203.3590929327
 20
431.1761968798
 30
0.0
 40
183.3095434037166
 50
277.7930306306
 51
281.588802422
  0
ARC
  5
58
  8
0
  6
CONTINUOUS
 62
     7
 10
240.7277867065
 20
248.9691416263
 30
0.0
 40
2.68999999999999
 50
12.4186815058
 51
100.0467259554
  0
ARC
  5
59
  8
0
  6
CONTINUOUS
 62
     7
 10
203.3721052014
 20
431.1001484613
 30
0.0
 40
188.6124332347715
 50
277.7922471931
 51
281.5895468731
  0
ARC
  5
5A
  8
0
  6
CONTINUOUS
 62
     7
 10
240.7277867065
 20
248.9691416263
 30
0.0
 40
2.690000000000026
 50
281.5900201068
 51
12.4186815058
  0
ARC
  5
5B
  8
0
  6
CONTINUOUS
 62
     7
 10
203.3780779224
 20
431.2881779706
 30
0.0
 40
188.8030819042662
 50
258.4124944315
 51
262.2058309307
  0
ARC
  5
5C
  8
0
  6
CONTINUOUS
 62
     7
 10
165.9902734407
 20
248.9691416263
 30
0.0
 40
2.690000000000009
 50
167.5813184942
 51
258.4099798932
  0
ARC
  5
5D
  8
0
  6
CONTINUOUS
 62
     7
 10
165.9902734407
 20
248.9691416263
 30
0.0
 40
2.690000000000002
 50
80.0567778886
 51
167.5813184942
  0
ARC
  5
5E
  8
0
  6
CONTINUOUS
 62
     7
 10
203.3784735435
 20
431.290908742
 30
0.0
 40
183.4258408269935
 50
258.4125298297
 51
262.2057911876
  0
ARC
  5
5F
  8
0
  6
CONTINUOUS
 62
     7
 10
203.3590300736
 20
431.1766497803
 30
0.0
 40
183.3100000000001
 50
262.2069690737
 51
277.7930309263
  0
ARC
  5
60
  8
0
  6
CONTINUOUS
 62
     7
 10
203.3590300736
 20
431.1766497803
 30
0.0
 40
188.6900000000001
 50
262.2069690737
 51
277.7930309263
  0
LINE
  5
61
  8
0
  6
CONTINUOUS
 62
     7
 10
240.0590314326
 20
245.8286374186
 30
0.0
 11
241.0590304789
 21
245.8286374186
 31
0.0
  0
LINE
  5
62
  8
0
  6
CONTINUOUS
 62
     7
 10
241.0590304789
 20
246.2996154402
 30
0.0
 11
241.0590304789
 21
245.8286374186
 31
0.0
  0
LINE
  5
63
  8
0
  6
CONTINUOUS
 62
     7
 10
240.0590314326
 20
246.0900872324
 30
0.0
 11
240.0590314326
 21
245.8286374186
 31
0.0
  0
LINE
  5
64
  8
0
  6
CONTINUOUS
 62
     7
 10
241.0590304789
 20
245.8286374186
 30
0.0
 11
241.0590304789
 21
241.3616924857
 31
0.0
  0
LINE
  5
65
  8
0
  6
CONTINUOUS
 62
     7
 10
240.0590314326
 20
245.8286374186
 30
0.0
 11
240.0590314326
 21
241.3616924857
 31
0.0
  0
LINE
  5
66
  8
0
  6
CONTINUOUS
 62
     7
 10
166.6590287146
 20
245.8286374186
 30
0.0
 11
165.6590296683
 21
245.8286374186
 31
0.0
  0
LINE
  5
67
  8
0
  6
CONTINUOUS
 62
     7
 10
165.6590296683
 20
245.8286374186
 30
0.0
 11
165.6590296683
 21
241.3616924857
 31
0.0
  0
LINE
  5
68
  8
0
  6
CONTINUOUS
 62
     7
 10
166.6590287146
 20
245.8286374186
 30
0.0
 11
166.6590287146
 21
241.3616924857
 31
0.0
  0
LINE
  5
69
  8
0
  6
CONTINUOUS
 62
     7
 10
165.6590296683
 20
246.2996154402
 30
0.0
 11
165.6590296683
 21
245.8286374186
 31
0.0
  0
LINE
  5
6A
  8
0
  6
CONTINUOUS
 62
     7
 10
166.6590287146
 20
246.0901110743
 30
0.0
 11
166.6590287146
 21
245.8286374186
 31
0.0
  0
LINE
  5
6B
  8
0
  6
CONTINUOUS
 62
     7
 10
166.5307148156
 20
251.6042917345
 30
0.0
 11
166.5346368012
 21
251.6034870718
 31
0.0
  0
LINE
  5
6C
  8
0
  6
CONTINUOUS
 62
     7
 10
240.1831134018
 20
251.6034215067
 30
0.0
 11
240.1873453316
 21
251.6042917345
 31
0.0
  0
LINE
  5
6D
  8
0
  6
CONTINUOUS
 62
     7
 10
165.6590296683
 20
241.3616924857
 30
0.0
 11
165.6590296683
 21
240.5081539725
 31
0.0
  0
LINE
  5
6E
  8
0
  6
CONTINUOUS
 62
     7
 10
166.6590287146
 20
241.3616924857
 30
0.0
 11
166.6590287146
 21
240.5081539725
 31
0.0
  0
LINE
  5
6F
  8
0
  6
CONTINUOUS
 62
     7
 10
241.0590304789
 20
241.3616924857
 30
0.0
 11
241.0590304789
 21
240.5081539725
 31
0.0
  0
LINE
  5
70
  8
0
  6
CONTINUOUS
 62
     7
 10
240.0590314326
 20
241.3616924857
 30
0.0
 11
240.0590314326
 21
240.5081539725
 31
0.0
  0
LINE
  5
71
  8
0
  6
CONTINUOUS
 62
     7
 10
241.0590304789
 20
240.5081539725
 30
0.0
 11
241.0590304789
 21
232.6537221049
 31
0.0
  0
LINE
  5
72
  8
0
  6
CONTINUOUS
 62
     7
 10
240.0590314326
 20
240.5081539725
 30
0.0
 11
240.0590314326
 21
232.6537221049
 31
0.0
  0
LINE
  5
73
  8
0
  6
CONTINUOUS
 62
     7
 10
165.6590296683
 20
240.5081539725
 30
0.0
 11
165.6590296683
 21
232.6537221049
 31
0.0
  0
LINE
  5
74
  8
0
  6
CONTINUOUS
 62
     7
 10
166.6590287146
 20
240.5081539725
 30
0.0
 11
166.6590287146
 21
232.6537221049
 31
0.0
  0
LINE
  5
75
  8
0
  6
CONTINUOUS
 62
     7
 10
166.6590287146
 20
229.8886387919
 30
0.0
 11
165.6590296683
 21
229.8886387919
 31
0.0
  0
LINE
  5
76
  8
0
  6
CONTINUOUS
 62
     7
 10
165.6590296683
 20
231.8886368845
 30
0.0
 11
165.6590296683
 21
229.8886387919
 31
0.0
  0
LINE
  5
77
  8
0
  6
CONTINUOUS
 62
     7
 10
166.6590287146
 20
231.8886368845
 30
0.0
 11
166.6590287146
 21
229.8886387919
 31
0.0
  0
LINE
  5
78
  8
0
  6
CONTINUOUS
 62
     7
 10
240.0590314326
 20
229.8886387919
 30
0.0
 11
241.0590304789
 21
229.8886387919
 31
0.0
  0
LINE
  5
79
  8
0
  6
CONTINUOUS
 62
     7
 10
241.0590304789
 20
231.8886368845
 30
0.0
 11
241.0590304789
 21
229.8886387919
 31
0.0
  0
LINE
  5
7A
  8
0
  6
CONTINUOUS
 62
     7
 10
240.0590314326
 20
231.8886368845
 30
0.0
 11
240.0590314326
 21
229.8886387919
 31
0.0
  0
LINE
  5
7B
  8
0
  6
CONTINUOUS
 62
     7
 10
165.6590296683
 20
232.6537221049
 30
0.0
 11
165.6590296683
 21
231.8886368845
 31
0.0
  0
LINE
  5
7C
  8
0
  6
CONTINUOUS
 62
     7
 10
166.6590287146
 20
232.6537221049
 30
0.0
 11
166.6590287146
 21
231.8886368845
 31
0.0
  0
LINE
  5
7D
  8
0
  6
CONTINUOUS
 62
     7
 10
241.0590304789
 20
232.6537221049
 30
0.0
 11
241.0590304789
 21
231.8886368845
 31
0.0
  0
LINE
  5
7E
  8
0
  6
CONTINUOUS
 62
     7
 10
240.0590314326
 20
232.6537221049
 30
0.0
 11
240.0590314326
 21
231.8886368845
 31
0.0
  0
LINE
  5
7F
  8
0
  6
CONTINUOUS
 62
     7
 10
170.8590312657
 20
233.6886375521
 30
0.0
 11
166.6590287146
 21
233.6886375521
 31
0.0
  0
LINE
  5
80
  8
0
  6
CONTINUOUS
 62
     7
 10
170.8590312657
 20
233.6886375521
 30
0.0
 11
170.8590312657
 21
232.6886385058
 31
0.0
  0
LINE
  5
81
  8
0
  6
CONTINUOUS
 62
     7
 10
170.8590312657
 20
225.688639221
 30
0.0
 11
170.8590312657
 21
232.6886385058
 31
0.0
  0
ARC
  5
82
  8
0
  6
CONTINUOUS
 62
     7
 10
162.8590300736
 20
225.6886385058
 30
0.0
 40
2.000000000000028
 50
180.0
 51
270.0
  0
LINE
  5
83
  8
0
  6
CONTINUOUS
 62
     7
 10
160.8590288815
 20
225.688639221
 30
0.0
 11
160.8590288815
 21
232.6886385058
 31
0.0
  0
ARC
  5
84
  8
0
  6
CONTINUOUS
 62
     7
 10
168.8590300736
 20
225.6886385058
 30
0.0
 40
2.000000000000028
 50
270.0
 51
0.0
  0
LINE
  5
85
  8
0
  6
CONTINUOUS
 62
     7
 10
168.8590301928
 20
223.6886411284
 30
0.0
 11
162.8590299544
 21
223.6886411284
 31
0.0
  0
CIRCLE
  5
86
  8
0
  6
CONTINUOUS
 62
     7
 10
165.8590300736
 20
227.0886385058
 30
0.0
 40
1.0
  0
LINE
  5
87
  8
0
  6
CONTINUOUS
 62
     7
 10
245.8590312657
 20
225.688639221
 30
0.0
 11
245.8590312657
 21
232.6886385058
 31
0.0
  0
ARC
  5
88
  8
0
  6
CONTINUOUS
 62
     7
 10
243.8590300736
 20
225.6886385058
 30
0.0
 40
2.000000000000028
 50
270.0
 51
0.0
  0
LINE
  5
89
  8
0
  6
CONTINUOUS
 62
     7
 10
243.8590301928
 20
223.6886411284
 30
0.0
 11
237.8590299544
 21
223.6886411284
 31
0.0
  0
ARC
  5
8A
  8
0
  6
CONTINUOUS
 62
     7
 10
237.8590300736
 20
225.6886385058
 30
0.0
 40
2.000000000000028
 50
180.0
 51
270.0
  0
LINE
  5
8B
  8
0
  6
CONTINUOUS
 62
     7
 10
235.8590288815
 20
232.6886385058
 30
0.0
 11
235.8590288815
 21
225.688639221
 31
0.0
  0
CIRCLE
  5
8C
  8
0
  6
CONTINUOUS
 62
     7
 10
240.8590300736
 20
227.0886385058
 30
0.0
 40
1.0
  0
LINE
  5
8D
  8
0
  6
CONTINUOUS
 62
     7
 10
165.6590296683
 20
233.6886375521
 30
0.0
 11
160.8590288815
 21
233.6886375521
 31
0.0
  0
LINE
  5
8E
  8
0
  6
CONTINUOUS
 62
     7
 10
160.8590288815
 20
232.6886385058
 30
0.0
 11
160.8590288815
 21
233.6886375521
 31
0.0
  0
LINE
  5
8F
  8
0
  6
CONTINUOUS
 62
     7
 10
240.0590314326
 20
233.6886375521
 30
0.0
 11
235.8590288815
 21
233.6886375521
 31
0.0
  0
LINE
  5
90
  8
0
  6
CONTINUOUS
 62
     7
 10
235.8590288815
 20
232.6886385058
 30
0.0
 11
235.8590288815
 21
233.6886375521
 31
0.0
  0
LINE
  5
91
  8
0
  6
CONTINUOUS
 62
     7
 10
245.8590312657
 20
233.6886375521
 30
0.0
 11
241.0590304789
 21
233.6886375521
 31
0.0
  0
LINE
  5
92
  8
0
  6
CONTINUOUS
 62
     7
 10
245.8590312657
 20
232.6886385058
 30
0.0
 11
245.8590312657
 21
233.6886375521
 31
0.0
  0
ARC
  5
93
  8
0
  6
CONTINUOUS
 62
     7
 10
323.3595240285
 20
431.1736835961
 30
0.0
 40
183.3069945137199
 50
277.7930028174
 51
281.5888278678
  0
ARC
  5
94
  8
0
  6
CONTINUOUS
 62
     7
 10
360.7277867065
 20
248.9691416263
 30
0.0
 40
2.690000000000018
 50
12.4186815058
 51
100.0467259554
  0
ARC
  5
95
  8
0
  6
CONTINUOUS
 62
     7
 10
323.3727547805
 20
431.0963738717
 30
0.0
 40
188.608604862493
 50
277.792205894
 51
281.5895835726
  0
ARC
  5
96
  8
0
  6
CONTINUOUS
 62
     7
 10
360.7277867065
 20
248.9691416263
 30
0.0
 40
2.690000000000026
 50
281.5900201068
 51
12.4186815058
  0
ARC
  5
97
  8
0
  6
CONTINUOUS
 62
     7
 10
285.9902734407
 20
248.9691416263
 30
0.0
 40
2.689999999999996
 50
80.0567778886
 51
167.5813184942
  0
ARC
  5
98
  8
0
  6
CONTINUOUS
 62
     7
 10
323.3785621123
 20
431.2914525069
 30
0.0
 40
183.4263915392142
 50
258.4125364803
 51
262.2057869043
  0
ARC
  5
99
  8
0
  6
CONTINUOUS
 62
     7
 10
323.3783527697
 20
431.2898306966
 30
0.0
 40
188.8047563926122
 50
258.4125131129
 51
262.2058168491
  0
ARC
  5
9A
  8
0
  6
CONTINUOUS
 62
     7
 10
285.9902734407
 20
248.9691416263
 30
0.0
 40
2.690000000000015
 50
167.5813184942
 51
258.4099798932
  0
ARC
  5
9B
  8
0
  6
CONTINUOUS
 62
     7
 10
323.3590300736
 20
431.1766497803
 30
0.0
 40
188.6900000000001
 50
262.2069690737
 51
277.7930309263
  0
ARC
  5
9C
  8
0
  6
CONTINUOUS
 62
     7
 10
323.3590300736
 20
431.1766497803
 30
0.0
 40
183.3100000000001
 50
262.2069690737
 51
277.7930309263
  0
LINE
  5
9D
  8
0
  6
CONTINUOUS
 62
     7
 10
286.6590305027
 20
245.8286374186
 30
0.0
 11
285.6590314564
 21
245.8286374186
 31
0.0
  0
LINE
  5
9E
  8
0
  6
CONTINUOUS
 62
     7
 10
286.6590305027
 20
245.8286374186
 30
0.0
 11
286.6590305027
 21
241.3616924857
 31
0.0
  0
LINE
  5
9F
  8
0
  6
CONTINUOUS
 62
     7
 10
285.6590314564
 20
245.8286374186
 30
0.0
 11
285.6590314564
 21
241.3616924857
 31
0.0
  0
LINE
  5
A0
  8
0
  6
CONTINUOUS
 62
     7
 10
360.0590332207
 20
245.8286374186
 30
0.0
 11
361.059032267
 21
245.8286374186
 31
0.0
  0
LINE
  5
A1
  8
0
  6
CONTINUOUS
 62
     7
 10
361.059032267
 20
246.2996154402
 30
0.0
 11
361.059032267
 21
245.8286374186
 31
0.0
  0
LINE
  5
A2
  8
0
  6
CONTINUOUS
 62
     7
 10
360.0590332207
 20
246.0900872324
 30
0.0
 11
360.0590332207
 21
245.8286374186
 31
0.0
  0
LINE
  5
A3
  8
0
  6
CONTINUOUS
 62
     7
 10
286.6590305027
 20
246.0901110743
 30
0.0
 11
286.6590305027
 21
245.8286374186
 31
0.0
  0
LINE
  5
A4
  8
0
  6
CONTINUOUS
 62
     7
 10
285.6590314564
 20
246.2996154402
 30
0.0
 11
285.6590314564
 21
245.8286374186
 31
0.0
  0
LINE
  5
A5
  8
0
  6
CONTINUOUS
 62
     7
 10
361.059032267
 20
245.8286374186
 30
0.0
 11
361.059032267
 21
241.3616924857
 31
0.0
  0
LINE
  5
A6
  8
0
  6
CONTINUOUS
 62
     7
 10
360.0590332207
 20
245.8286374186
 30
0.0
 11
360.0590332207
 21
241.3616924857
 31
0.0
  0
LINE
  5
A7
  8
0
  6
CONTINUOUS
 62
     7
 10
286.5307136235
 20
251.6042917345
 30
0.0
 11
286.5346356091
 21
251.6034870718
 31
0.0
  0
LINE
  5
A8
  8
0
  6
CONTINUOUS
 62
     7
 10
360.1831181702
 20
251.6034215067
 30
0.0
 11
360.1873501
 21
251.6042917345
 31
0.0
  0
LINE
  5
A9
  8
0
  6
CONTINUOUS
 62
     7
 10
286.6590305027
 20
241.3616924857
 30
0.0
 11
286.6590305027
 21
240.5081539725
 31
0.0
  0
LINE
  5
AA
  8
0
  6
CONTINUOUS
 62
     7
 10
285.6590314564
 20
241.3616924857
 30
0.0
 11
285.6590314564
 21
240.5081539725
 31
0.0
  0
LINE
  5
AB
  8
0
  6
CONTINUOUS
 62
     7
 10
361.059032267
 20
241.3616924857
 30
0.0
 11
361.059032267
 21
240.5081539725
 31
0.0
  0
LINE
  5
AC
  8
0
  6
CONTINUOUS
 62
     7
 10
360.0590332207
 20
241.3616924857
 30
0.0
 11
360.0590332207
 21
240.5081539725
 31
0.0
  0
LINE
  5
AD
  8
0
  6
CONTINUOUS
 62
     7
 10
286.6590305027
 20
240.5081539725
 30
0.0
 11
286.6590305027
 21
232.6537221049
 31
0.0
  0
LINE
  5
AE
  8
0
  6
CONTINUOUS
 62
     7
 10
285.6590314564
 20
240.5081539725
 30
0.0
 11
285.6590314564
 21
232.6537221049
 31
0.0
  0
LINE
  5
AF
  8
0
  6
CONTINUOUS
 62
     7
 10
361.059032267
 20
240.5081539725
 30
0.0
 11
361.059032267
 21
232.6537221049
 31
0.0
  0
LINE
  5
B0
  8
0
  6
CONTINUOUS
 62
     7
 10
360.0590332207
 20
240.5081539725
 30
0.0
 11
360.0590332207
 21
232.6537221049
 31
0.0
  0
LINE
  5
B1
  8
0
  6
CONTINUOUS
 62
     7
 10
361.059032267
 20
232.6537221049
 30
0.0
 11
361.059032267
 21
231.8886368845
 31
0.0
  0
LINE
  5
B2
  8
0
  6
CONTINUOUS
 62
     7
 10
360.0590332207
 20
232.6537221049
 30
0.0
 11
360.0590332207
 21
231.8886368845
 31
0.0
  0
LINE
  5
B3
  8
0
  6
CONTINUOUS
 62
     7
 10
286.6590305027
 20
229.8886387919
 30
0.0
 11
285.6590314564
 21
229.8886387919
 31
0.0
  0
LINE
  5
B4
  8
0
  6
CONTINUOUS
 62
     7
 10
286.6590305027
 20
231.8886368845
 30
0.0
 11
286.6590305027
 21
229.8886387919
 31
0.0
  0
LINE
  5
B5
  8
0
  6
CONTINUOUS
 62
     7
 10
285.6590314564
 20
231.8886368845
 30
0.0
 11
285.6590314564
 21
229.8886387919
 31
0.0
  0
LINE
  5
B6
  8
0
  6
CONTINUOUS
 62
     7
 10
286.6590305027
 20
232.6537221049
 30
0.0
 11
286.6590305027
 21
231.8886368845
 31
0.0
  0
LINE
  5
B7
  8
0
  6
CONTINUOUS
 62
     7
 10
285.6590314564
 20
232.6537221049
 30
0.0
 11
285.6590314564
 21
231.8886368845
 31
0.0
  0
LINE
  5
B8
  8
0
  6
CONTINUOUS
 62
     7
 10
360.0590332207
 20
229.8886387919
 30
0.0
 11
361.059032267
 21
229.8886387919
 31
0.0
  0
LINE
  5
B9
  8
0
  6
CONTINUOUS
 62
     7
 10
361.059032267
 20
231.8886368845
 30
0.0
 11
361.059032267
 21
229.8886387919
 31
0.0
  0
LINE
  5
BA
  8
0
  6
CONTINUOUS
 62
     7
 10
360.0590332207
 20
231.8886368845
 30
0.0
 11
360.0590332207
 21
229.8886387919
 31
0.0
  0
LINE
  5
BB
  8
0
  6
CONTINUOUS
 62
     7
 10
290.8590300736
 20
233.6886375521
 30
0.0
 11
286.6590305027
 21
233.6886375521
 31
0.0
  0
LINE
  5
BC
  8
0
  6
CONTINUOUS
 62
     7
 10
290.8590300736
 20
233.6886375521
 30
0.0
 11
290.8590300736
 21
232.6886385058
 31
0.0
  0
LINE
  5
BD
  8
0
  6
CONTINUOUS
 62
     7
 10
360.0590332207
 20
233.6886375521
 30
0.0
 11
355.8590276894
 21
233.6886375521
 31
0.0
  0
LINE
  5
BE
  8
0
  6
CONTINUOUS
 62
     7
 10
355.8590276894
 20
232.6886385058
 30
0.0
 11
355.8590276894
 21
233.6886375521
 31
0.0
  0
LINE
  5
BF
  8
0
  6
CONTINUOUS
 62
     7
 10
280.8590276894
 20
232.6886385058
 30
0.0
 11
280.8590276894
 21
233.6886375521
 31
0.0
  0
LINE
  5
C0
  8
0
  6
CONTINUOUS
 62
     7
 10
285.6590314564
 20
233.6886375521
 30
0.0
 11
280.8590276894
 21
233.6886375521
 31
0.0
  0
LINE
  5
C1
  8
0
  6
CONTINUOUS
 62
     7
 10
365.8590300736
 20
232.6886385058
 30
0.0
 11
365.8590300736
 21
233.6886375521
 31
0.0
  0
LINE
  5
C2
  8
0
  6
CONTINUOUS
 62
     7
 10
365.8590300736
 20
233.6886375521
 30
0.0
 11
361.059032267
 21
233.6886375521
 31
0.0
  0
LINE
  5
C3
  8
0
  6
CONTINUOUS
 62
     7
 10
290.8590300736
 20
225.688639221
 30
0.0
 11
290.8590300736
 21
232.6886385058
 31
0.0
  0
ARC
  5
C4
  8
0
  6
CONTINUOUS
 62
     7
 10
282.8590300736
 20
225.6886385058
 30
0.0
 40
2.000000000000028
 50
180.0
 51
270.0
  0
ARC
  5
C5
  8
0
  6
CONTINUOUS
 62
     7
 10
288.8590300736
 20
225.6886385058
 30
0.0
 40
2.000000000000028
 50
270.0
 51
0.0
  0
LINE
  5
C6
  8
0
  6
CONTINUOUS
 62
     7
 10
280.8590276894
 20
225.688639221
 30
0.0
 11
280.8590276894
 21
232.6886385058
 31
0.0
  0
CIRCLE
  5
C7
  8
0
  6
CONTINUOUS
 62
     7
 10
285.8590300736
 20
227.0886385058
 30
0.0
 40
1.0
  0
LINE
  5
C8
  8
0
  6
CONTINUOUS
 62
     7
 10
288.8590319809
 20
223.6886411284
 30
0.0
 11
282.8590317425
 21
223.6886411284
 31
0.0
  0
LINE
  5
C9
  8
0
  6
CONTINUOUS
 62
     7
 10
365.8590300736
 20
225.688639221
 30
0.0
 11
365.8590300736
 21
232.6886385058
 31
0.0
  0
CIRCLE
  5
CA
  8
0
  6
CONTINUOUS
 62
     7
 10
360.8590300736
 20
227.0886385058
 30
0.0
 40
1.0
  0
ARC
  5
CB
  8
0
  6
CONTINUOUS
 62
     7
 10
357.8590300736
 20
225.6886385058
 30
0.0
 40
2.000000000000028
 50
180.0
 51
270.0
  0
ARC
  5
CC
  8
0
  6
CONTINUOUS
 62
     7
 10
363.8590300736
 20
225.6886385058
 30
0.0
 40
2.000000000000028
 50
270.0
 51
0.0
  0
LINE
  5
CD
  8
0
  6
CONTINUOUS
 62
     7
 10
355.8590276894
 20
232.6886385058
 30
0.0
 11
355.8590276894
 21
225.688639221
 31
0.0
  0
LINE
  5
CE
  8
0
  6
CONTINUOUS
 62
     7
 10
363.8590319809
 20
223.6886411284
 30
0.0
 11
357.8590257821
 21
223.6886411284
 31
0.0
  0
ARC
  5
CF
  8
0
  6
CONTINUOUS
 62
     7
 10
83.3588538357
 20
431.1776220935
 30
0.0
 40
183.3109878346453
 50
277.7930441774
 51
281.5887865078
  0
ARC
  5
D0
  8
0
  6
CONTINUOUS
 62
     7
 10
120.7277867065
 20
248.9691416263
 30
0.0
 40
2.690000000000003
 50
12.4186815058
 51
100.0467259554
  0
ARC
  5
D1
  8
0
  6
CONTINUOUS
 62
     7
 10
83.3720478367
 20
431.100527586
 30
0.0
 40
188.6128163938721
 50
277.7922483053
 51
281.5895411613
  0
ARC
  5
D2
  8
0
  6
CONTINUOUS
 62
     7
 10
120.7277867065
 20
248.9691416263
 30
0.0
 40
2.690000000000029
 50
281.5900201068
 51
12.4186815058
  0
ARC
  5
D3
  8
0
  6
CONTINUOUS
 62
     7
 10
45.9902734407
 20
248.9691416263
 30
0.0
 40
2.690000000000009
 50
80.0567778886
 51
167.5813184942
  0
ARC
  5
D4
  8
0
  6
CONTINUOUS
 62
     7
 10
83.3784557195
 20
431.2908155225
 30
0.0
 40
183.425745687654
 50
258.4125297998
 51
262.2057935849
  0
ARC
  5
D5
  8
0
  6
CONTINUOUS
 62
     7
 10
83.3789262883
 20
431.2932826416
 30
0.0
 40
188.8082539016389
 50
258.4125519674
 51
262.2057871943
  0
ARC
  5
D6
  8
0
  6
CONTINUOUS
 62
     7
 10
45.9902734407
 20
248.9691416263
 30
0.0
 40
2.69000000000001
 50
167.5813184942
 51
258.4099798932
  0
ARC
  5
D7
  8
0
  6
CONTINUOUS
 62
     7
 10
83.3590300736
 20
431.1766497803
 30
0.0
 40
188.6900000000001
 50
262.2069690737
 51
277.7930309263
  0
ARC
  5
D8
  8
0
  6
CONTINUOUS
 62
     7
 10
83.3590300736
 20
431.1766497803
 30
0.0
 40
183.3100000000001
 50
262.2069690737
 51
277.7930309263
  0
LINE
  5
D9
  8
0
  6
CONTINUOUS
 62
     7
 10
46.6590269265
 20
245.8286374186
 30
0.0
 11
45.6590278801
 21
245.8286374186
 31
0.0
  0
LINE
  5
DA
  8
0
  6
CONTINUOUS
 62
     7
 10
46.6590269265
 20
245.8286374186
 30
0.0
 11
46.6590269265
 21
241.3616924857
 31
0.0
  0
LINE
  5
DB
  8
0
  6
CONTINUOUS
 62
     7
 10
45.6590278801
 20
245.8286374186
 30
0.0
 11
45.6590278801
 21
241.3616924857
 31
0.0
  0
LINE
  5
DC
  8
0
  6
CONTINUOUS
 62
     7
 10
120.0590296444
 20
245.8286374186
 30
0.0
 11
121.0590286908
 21
245.8286374186
 31
0.0
  0
LINE
  5
DD
  8
0
  6
CONTINUOUS
 62
     7
 10
121.0590286908
 20
246.2996154402
 30
0.0
 11
121.0590286908
 21
245.8286374186
 31
0.0
  0
LINE
  5
DE
  8
0
  6
CONTINUOUS
 62
     7
 10
120.0590296444
 20
246.0900872324
 30
0.0
 11
120.0590296444
 21
245.8286374186
 31
0.0
  0
LINE
  5
DF
  8
0
  6
CONTINUOUS
 62
     7
 10
46.6590269265
 20
246.0901110743
 30
0.0
 11
46.6590269265
 21
245.8286374186
 31
0.0
  0
LINE
  5
E0
  8
0
  6
CONTINUOUS
 62
     7
 10
45.6590278801
 20
246.2996154402
 30
0.0
 11
45.6590278801
 21
245.8286374186
 31
0.0
  0
LINE
  5
E1
  8
0
  6
CONTINUOUS
 62
     7
 10
121.0590286908
 20
245.8286374186
 30
0.0
 11
121.0590286908
 21
241.3616924857
 31
0.0
  0
LINE
  5
E2
  8
0
  6
CONTINUOUS
 62
     7
 10
120.0590296444
 20
245.8286374186
 30
0.0
 11
120.0590296444
 21
241.3616924857
 31
0.0
  0
LINE
  5
E3
  8
0
  6
CONTINUOUS
 62
     7
 10
46.5307100472
 20
251.6042917345
 30
0.0
 11
46.5346320328
 21
251.6034870718
 31
0.0
  0
LINE
  5
E4
  8
0
  6
CONTINUOUS
 62
     7
 10
120.1831145939
 20
251.6034215067
 30
0.0
 11
120.1873465237
 21
251.6042917345
 31
0.0
  0
LINE
  5
E5
  8
0
  6
CONTINUOUS
 62
     7
 10
121.0590286908
 20
241.3616924857
 30
0.0
 11
121.0590286908
 21
240.5081539725
 31
0.0
  0
LINE
  5
E6
  8
0
  6
CONTINUOUS
 62
     7
 10
120.0590296444
 20
241.3616924857
 30
0.0
 11
120.0590296444
 21
240.5081539725
 31
0.0
  0
LINE
  5
E7
  8
0
  6
CONTINUOUS
 62
     7
 10
46.6590269265
 20
241.3616924857
 30
0.0
 11
46.6590269265
 21
240.5081539725
 31
0.0
  0
LINE
  5
E8
  8
0
  6
CONTINUOUS
 62
     7
 10
45.6590278801
 20
241.3616924857
 30
0.0
 11
45.6590278801
 21
240.5081539725
 31
0.0
  0
LINE
  5
E9
  8
0
  6
CONTINUOUS
 62
     7
 10
121.0590286908
 20
240.5081539725
 30
0.0
 11
121.0590286908
 21
232.6537221049
 31
0.0
  0
LINE
  5
EA
  8
0
  6
CONTINUOUS
 62
     7
 10
120.0590296444
 20
240.5081539725
 30
0.0
 11
120.0590296444
 21
232.6537221049
 31
0.0
  0
LINE
  5
EB
  8
0
  6
CONTINUOUS
 62
     7
 10
46.6590269265
 20
240.5081539725
 30
0.0
 11
46.6590269265
 21
232.6537221049
 31
0.0
  0
LINE
  5
EC
  8
0
  6
CONTINUOUS
 62
     7
 10
45.6590278801
 20
240.5081539725
 30
0.0
 11
45.6590278801
 21
232.6537221049
 31
0.0
  0
LINE
  5
ED
  8
0
  6
CONTINUOUS
 62
     7
 10
121.0590286908
 20
232.6537221049
 30
0.0
 11
121.0590286908
 21
231.8886368845
 31
0.0
  0
LINE
  5
EE
  8
0
  6
CONTINUOUS
 62
     7
 10
120.0590296444
 20
232.6537221049
 30
0.0
 11
120.0590296444
 21
231.8886368845
 31
0.0
  0
LINE
  5
EF
  8
0
  6
CONTINUOUS
 62
     7
 10
46.6590269265
 20
232.6537221049
 30
0.0
 11
46.6590269265
 21
231.8886368845
 31
0.0
  0
LINE
  5
F0
  8
0
  6
CONTINUOUS
 62
     7
 10
45.6590278801
 20
232.6537221049
 30
0.0
 11
45.6590278801
 21
231.8886368845
 31
0.0
  0
LINE
  5
F1
  8
0
  6
CONTINUOUS
 62
     7
 10
46.6590269265
 20
229.8886387919
 30
0.0
 11
45.6590278801
 21
229.8886387919
 31
0.0
  0
LINE
  5
F2
  8
0
  6
CONTINUOUS
 62
     7
 10
46.6590269265
 20
231.8886368845
 30
0.0
 11
46.6590269265
 21
229.8886387919
 31
0.0
  0
LINE
  5
F3
  8
0
  6
CONTINUOUS
 62
     7
 10
45.6590278801
 20
231.8886368845
 30
0.0
 11
45.6590278801
 21
229.8886387919
 31
0.0
  0
LINE
  5
F4
  8
0
  6
CONTINUOUS
 62
     7
 10
120.0590296444
 20
229.8886387919
 30
0.0
 11
121.0590286908
 21
229.8886387919
 31
0.0
  0
LINE
  5
F5
  8
0
  6
CONTINUOUS
 62
     7
 10
121.0590286908
 20
231.8886368845
 30
0.0
 11
121.0590286908
 21
229.8886387919
 31
0.0
  0
LINE
  5
F6
  8
0
  6
CONTINUOUS
 62
     7
 10
120.0590296444
 20
231.8886368845
 30
0.0
 11
120.0590296444
 21
229.8886387919
 31
0.0
  0
LINE
  5
F7
  8
0
  6
CONTINUOUS
 62
     7
 10
125.8590324578
 20
232.6886385058
 30
0.0
 11
125.8590324578
 21
233.6886375521
 31
0.0
  0
LINE
  5
F8
  8
0
  6
CONTINUOUS
 62
     7
 10
125.8590324578
 20
233.6886375521
 30
0.0
 11
121.0590286908
 21
233.6886375521
 31
0.0
  0
LINE
  5
F9
  8
0
  6
CONTINUOUS
 62
     7
 10
40.8590300736
 20
232.6886385058
 30
0.0
 11
40.8590300736
 21
233.6886375521
 31
0.0
  0
LINE
  5
FA
  8
0
  6
CONTINUOUS
 62
     7
 10
45.6590278801
 20
233.6886375521
 30
0.0
 11
40.8590300736
 21
233.6886375521
 31
0.0
  0
LINE
  5
FB
  8
0
  6
CONTINUOUS
 62
     7
 10
120.0590296444
 20
233.6886375521
 30
0.0
 11
115.8590300736
 21
233.6886375521
 31
0.0
  0
LINE
  5
FC
  8
0
  6
CONTINUOUS
 62
     7
 10
115.8590300736
 20
232.6886385058
 30
0.0
 11
115.8590300736
 21
233.6886375521
 31
0.0
  0
LINE
  5
FD
  8
0
  6
CONTINUOUS
 62
     7
 10
125.8590324578
 20
225.688639221
 30
0.0
 11
125.8590324578
 21
232.6886385058
 31
0.0
  0
ARC
  5
FE
  8
0
  6
CONTINUOUS
 62
     7
 10
123.8590300736
 20
225.6886385058
 30
0.0
 40
2.000000000000028
 50
270.0
 51
0.0
  0
LINE
  5
FF
  8
0
  6
CONTINUOUS
 62
     7
 10
123.8590284047
 20
223.6886411284
 30
0.0
 11
117.8590281662
 21
223.6886411284
 31
0.0
  0
ARC
  5
100
  8
0
  6
CONTINUOUS
 62
     7
 10
117.8590300736
 20
225.6886385058
 30
0.0
 40
2.000000000000028
 50
180.0
 51
270.0
  0
LINE
  5
101
  8
0
  6
CONTINUOUS
 62
     7
 10
115.8590300736
 20
232.6886385058
 30
0.0
 11
115.8590300736
 21
225.688639221
 31
0.0
  0
CIRCLE
  5
102
  8
0
  6
CONTINUOUS
 62
     7
 10
120.8590300736
 20
227.0886385058
 30
0.0
 40
1.000000000000014
  0
ARC
  5
103
  8
0
  6
CONTINUOUS
 62
     7
 10
42.8590300736
 20
225.6886385058
 30
0.0
 40
2.000000000000028
 50
180.0
 51
270.0
  0
CIRCLE
  5
104
  8
0
  6
CONTINUOUS
 62
     7
 10
45.8590300736
 20
227.0886385058
 30
0.0
 40
1.0
  0
LINE
  5
105
  8
0
  6
CONTINUOUS
 62
     7
 10
40.8590300736
 20
225.688639221
 30
0.0
 11
40.8590300736
 21
232.6886385058
 31
0.0
  0
LINE
  5
106
  8
0
  6
CONTINUOUS
 62
     7
 10
48.8590343651
 20
223.6886411284
 30
0.0
 11
42.8590281662
 21
223.6886411284
 31
0.0
  0
ARC
  5
107
  8
0
  6
CONTINUOUS
 62
     7
 10
48.8590300736
 20
225.6886385058
 30
0.0
 40
2.000000000000028
 50
270.0
 51
0.0
  0
LINE
  5
108
  8
0
  6
CONTINUOUS
 62
     7
 10
50.8590324578
 20
225.688639221
 30
0.0
 11
50.8590324578
 21
232.6886385058
 31
0.0
  0
LINE
  5
109
  8
0
  6
CONTINUOUS
 62
     7
 10
50.8590324578
 20
233.6886375521
 30
0.0
 11
46.6590269265
 21
233.6886375521
 31
0.0
  0
LINE
  5
10A
  8
0
  6
CONTINUOUS
 62
     7
 10
50.8590324578
 20
233.6886375521
 30
0.0
 11
50.8590324578
 21
232.6886385058
 31
0.0
  0
LINE
  5
10B
  8
0
  6
CONTINUOUS
 62
     7
 10
71.7733128724
 20
158.8886385162
 30
0.0
 11
75.53195793
 21
158.8886385162
 31
0.0
  0
LINE
  5
10C
  8
0
  6
CONTINUOUS
 62
     7
 10
75.53195793
 20
157.6886385058
 30
0.0
 11
71.7733128724
 21
157.6886385058
 31
0.0
  0
LINE
  5
10D
  8
0
  6
CONTINUOUS
 62
     7
 10
64.9447425064
 20
158.8886385162
 30
0.0
 11
71.7733128724
 21
158.8886385162
 31
0.0
  0
LINE
  5
10E
  8
0
  6
CONTINUOUS
 62
     7
 10
64.9447425064
 20
157.6886385058
 30
0.0
 11
71.7733128724
 21
157.6886385058
 31
0.0
  0
LINE
  5
10F
  8
0
  6
CONTINUOUS
 62
     7
 10
61.1860974488
 20
158.8886385162
 30
0.0
 11
64.9447425064
 21
158.8886385162
 31
0.0
  0
LINE
  5
110
  8
0
  6
CONTINUOUS
 62
     7
 10
64.9447425064
 20
157.6886385058
 30
0.0
 11
61.1860974488
 21
157.6886385058
 31
0.0
  0
LINE
  5
111
  8
0
  6
CONTINUOUS
 62
     7
 10
331.1861022171
 20
158.8886385162
 30
0.0
 11
334.9447472748
 21
158.8886385162
 31
0.0
  0
LINE
  5
112
  8
0
  6
CONTINUOUS
 62
     7
 10
334.9447472748
 20
157.6886385058
 30
0.0
 11
331.1861022171
 21
157.6886385058
 31
0.0
  0
LINE
  5
113
  8
0
  6
CONTINUOUS
 62
     7
 10
341.7733176407
 20
158.8886385162
 30
0.0
 11
345.5319626984
 21
158.8886385162
 31
0.0
  0
LINE
  5
114
  8
0
  6
CONTINUOUS
 62
     7
 10
345.5319626984
 20
157.6886385058
 30
0.0
 11
341.7733176407
 21
157.6886385058
 31
0.0
  0
LINE
  5
115
  8
0
  6
CONTINUOUS
 62
     7
 10
334.9447472748
 20
158.8886385162
 30
0.0
 11
341.7733176407
 21
158.8886385162
 31
0.0
  0
LINE
  5
116
  8
0
  6
CONTINUOUS
 62
     7
 10
334.9447472748
 20
157.6886385058
 30
0.0
 11
341.7733176407
 21
157.6886385058
 31
0.0
  0
LINE
  5
117
  8
0
  6
CONTINUOUS
 62
     7
 10
80.3590281662
 20
157.6886385058
 30
0.0
 11
80.3590281662
 21
158.8886385162
 31
0.0
  0
LINE
  5
118
  8
0
  6
CONTINUOUS
 62
     7
 10
80.3590281662
 20
158.8886385162
 30
0.0
 11
75.53195793
 21
158.8886385162
 31
0.0
  0
LINE
  5
119
  8
0
  6
CONTINUOUS
 62
     7
 10
75.53195793
 20
157.6886385058
 30
0.0
 11
80.3590281662
 21
157.6886385058
 31
0.0
  0
LINE
  5
11A
  8
0
  6
CONTINUOUS
 62
     7
 10
56.3590272126
 20
157.6886385058
 30
0.0
 11
56.3590272126
 21
158.8886385162
 31
0.0
  0
LINE
  5
11B
  8
0
  6
CONTINUOUS
 62
     7
 10
61.1860974488
 20
158.8886385162
 30
0.0
 11
56.3590272126
 21
158.8886385162
 31
0.0
  0
LINE
  5
11C
  8
0
  6
CONTINUOUS
 62
     7
 10
56.3590272126
 20
157.6886385058
 30
0.0
 11
61.1860974488
 21
157.6886385058
 31
0.0
  0
LINE
  5
11D
  8
0
  6
CONTINUOUS
 62
     7
 10
350.3590329346
 20
157.6886385058
 30
0.0
 11
350.3590329346
 21
158.8886385162
 31
0.0
  0
LINE
  5
11E
  8
0
  6
CONTINUOUS
 62
     7
 10
350.3590329346
 20
158.8886385162
 30
0.0
 11
345.5319626984
 21
158.8886385162
 31
0.0
  0
LINE
  5
11F
  8
0
  6
CONTINUOUS
 62
     7
 10
345.5319626984
 20
157.6886385058
 30
0.0
 11
350.3590329346
 21
157.6886385058
 31
0.0
  0
LINE
  5
120
  8
0
  6
CONTINUOUS
 62
     7
 10
326.3590319809
 20
157.6886385058
 30
0.0
 11
326.3590319809
 21
158.8886385162
 31
0.0
  0
LINE
  5
121
  8
0
  6
CONTINUOUS
 62
     7
 10
331.1861022171
 20
158.8886385162
 30
0.0
 11
326.3590319809
 21
158.8886385162
 31
0.0
  0
LINE
  5
122
  8
0
  6
CONTINUOUS
 62
     7
 10
326.3590319809
 20
157.6886385058
 30
0.0
 11
331.1861022171
 21
157.6886385058
 31
0.0
  0
LINE
  5
123
  8
0
  6
CONTINUOUS
 62
     7
 10
39.7590263543
 20
223.8886385535
 30
0.0
 11
39.7590263543
 21
231.8886368845
 31
0.0
  0
LINE
  5
124
  8
0
  6
CONTINUOUS
 62
     7
 10
39.7590263543
 20
223.2886403178
 30
0.0
 11
39.7590263543
 21
223.8886385535
 31
0.0
  0
ARC
  5
125
  8
0
  6
CONTINUOUS
 62
     7
 10
40.1590300736
 20
223.2886385058
 30
0.0
 40
0.4000000000000057
 50
180.0
 51
270.0
  0
POLYLINE
  5
126
  8
0
  6
CONTINUOUS
 62
     7
 66
     1
 10
0.0
 20
0.0
 30
0.0
  0
VERTEX
  5
271
  8
0
  6
CONTINUOUS
 62
     7
 10
63.3590324578
 20
222.8886395071
 30
0.0
  0
VERTEX
  5
272
  8
0
  6
CONTINUOUS
 62
     7
 10
63.3782489952
 20
222.9078560446
 30
0.0
  0
VERTEX
  5
273
  8
0
  6
CONTINUOUS
 62
     7
 10
63.4351475891
 20
222.964760599
 30
0.0
  0
VERTEX
  5
274
  8
0
  6
CONTINUOUS
 62
     7
 10
63.5275586304
 20
223.0571716402
 30
0.0
  0
VERTEX
  5
275
  8
0
  6
CONTINUOUS
 62
     7
 10
63.6519177613
 20
223.1815307711
 30
0.0
  0
VERTEX
  5
276
  8
0
  6
CONTINUOUS
 62
     7
 10
63.8034566101
 20
223.33306962
 30
0.0
  0
VERTEX
  5
277
  8
0
  6
CONTINUOUS
 62
     7
 10
63.9763458428
 20
223.5059528922
 30
0.0
  0
VERTEX
  5
278
  8
0
  6
CONTINUOUS
 62
     7
 10
64.1639455017
 20
223.6935465907
 30
0.0
  0
VERTEX
  5
279
  8
0
  6
CONTINUOUS
 62
     7
 10
64.3590315041
 20
223.8886385535
 30
0.0
  0
SEQEND
  5
2F7
  8
0
  6
CONTINUOUS
 62
     7
  0
LINE
  5
127
  8
0
  6
CONTINUOUS
 62
     7
 10
63.3590324578
 20
222.8886395071
 30
0.0
 11
40.1590331253
 21
222.8886395071
 31
0.0
  0
LINE
  5
128
  8
0
  6
CONTINUOUS
 62
     7
 10
366.9590337929
 20
223.8886385535
 30
0.0
 11
366.9590337929
 21
223.2886403178
 31
0.0
  0
ARC
  5
129
  8
0
  6
CONTINUOUS
 62
     7
 10
366.5590300736
 20
223.2886385058
 30
0.0
 40
0.4000000000000341
 50
270.0
 51
0.0
  0
ARC
  5
12A
  8
0
  6
CONTINUOUS
 62
     7
 10
366.5590300736
 20
232.4886385058
 30
0.0
 40
0.4000000000000341
 50
0.0
 51
90.0
  0
LINE
  5
12B
  8
0
  6
CONTINUOUS
 62
     7
 10
366.9590337929
 20
232.4886410807
 30
0.0
 11
366.9590337929
 21
231.8886368845
 31
0.0
  0
POLYLINE
  5
12C
  8
0
  6
CONTINUOUS
 62
     7
 66
     1
 10
0.0
 20
0.0
 30
0.0
  0
VERTEX
  5
27A
  8
0
  6
CONTINUOUS
 62
     7
 10
343.3590276894
 20
222.8886395071
 30
0.0
  0
VERTEX
  5
27B
  8
0
  6
CONTINUOUS
 62
     7
 10
343.3398111519
 20
222.9078560446
 30
0.0
  0
VERTEX
  5
27C
  8
0
  6
CONTINUOUS
 62
     7
 10
343.282912558
 20
222.964760599
 30
0.0
  0
VERTEX
  5
27D
  8
0
  6
CONTINUOUS
 62
     7
 10
343.1905015168
 20
223.0571716402
 30
0.0
  0
VERTEX
  5
27E
  8
0
  6
CONTINUOUS
 62
     7
 10
343.0661423859
 20
223.1815307711
 30
0.0
  0
VERTEX
  5
27F
  8
0
  6
CONTINUOUS
 62
     7
 10
342.914603537
 20
223.33306962
 30
0.0
  0
VERTEX
  5
280
  8
0
  6
CONTINUOUS
 62
     7
 10
342.7417143044
 20
223.5059528922
 30
0.0
  0
VERTEX
  5
281
  8
0
  6
CONTINUOUS
 62
     7
 10
342.5541146454
 20
223.6935465907
 30
0.0
  0
VERTEX
  5
282
  8
0
  6
CONTINUOUS
 62
     7
 10
342.3590286431
 20
223.8886385535
 30
0.0
  0
SEQEND
  5
2F6
  8
0
  6
CONTINUOUS
 62
     7
  0
LINE
  5
12D
  8
0
  6
CONTINUOUS
 62
     7
 10
366.5590270218
 20
222.8886395071
 30
0.0
 11
343.3590276894
 21
222.8886395071
 31
0.0
  0
LINE
  5
12E
  8
0
  6
CONTINUOUS
 62
     7
 10
343.3590276894
 20
222.8886395071
 30
0.0
 11
343.3590276894
 21
158.8886385162
 31
0.0
  0
LINE
  5
12F
  8
0
  6
CONTINUOUS
 62
     7
 10
366.9590337929
 20
231.8886368845
 30
0.0
 11
366.9590337929
 21
223.8886385535
 31
0.0
  0
LINE
  5
130
  8
0
  6
CONTINUOUS
 62
     7
 10
39.7590263543
 20
231.8886368845
 30
0.0
 11
39.7590263543
 21
232.4886410807
 31
0.0
  0
ARC
  5
131
  8
0
  6
CONTINUOUS
 62
     7
 10
40.1590300736
 20
232.4886385058
 30
0.0
 40
0.4000000000000057
 50
90.0
 51
180.0
  0
POLYLINE
  5
132
  8
0
  6
CONTINUOUS
 62
     7
 66
     1
 10
0.0
 20
0.0
 30
0.0
  0
VERTEX
  5
283
  8
0
  6
CONTINUOUS
 62
     7
 10
72.3590357956
 20
223.8886385535
 30
0.0
  0
VERTEX
  5
284
  8
0
  6
CONTINUOUS
 62
     7
 10
72.554121798
 20
223.6935465907
 30
0.0
  0
VERTEX
  5
285
  8
0
  6
CONTINUOUS
 62
     7
 10
72.741709536
 20
223.5059528922
 30
0.0
  0
VERTEX
  5
286
  8
0
  6
CONTINUOUS
 62
     7
 10
72.9145987687
 20
223.33306962
 30
0.0
  0
VERTEX
  5
287
  8
0
  6
CONTINUOUS
 62
     7
 10
73.0661376175
 20
223.1815307711
 30
0.0
  0
VERTEX
  5
288
  8
0
  6
CONTINUOUS
 62
     7
 10
73.1904967484
 20
223.0571716402
 30
0.0
  0
VERTEX
  5
289
  8
0
  6
CONTINUOUS
 62
     7
 10
73.2829077896
 20
222.964760599
 30
0.0
  0
VERTEX
  5
28A
  8
0
  6
CONTINUOUS
 62
     7
 10
73.3398183045
 20
222.9078560446
 30
0.0
  0
VERTEX
  5
28B
  8
0
  6
CONTINUOUS
 62
     7
 10
73.359034842
 20
222.8886395071
 30
0.0
  0
SEQEND
  5
2F5
  8
0
  6
CONTINUOUS
 62
     7
  0
LINE
  5
133
  8
0
  6
CONTINUOUS
 62
     7
 10
73.359034842
 20
222.8886395071
 30
0.0
 11
73.359034842
 21
158.8886385162
 31
0.0
  0
LINE
  5
134
  8
0
  6
CONTINUOUS
 62
     7
 10
40.1590331253
 20
232.8886359309
 30
0.0
 11
40.8590300736
 21
232.8886359309
 31
0.0
  0
LINE
  5
135
  8
0
  6
CONTINUOUS
 62
     7
 10
50.8590324578
 20
232.8886359309
 30
0.0
 11
115.8590300736
 21
232.8886359309
 31
0.0
  0
LINE
  5
136
  8
0
  6
CONTINUOUS
 62
     7
 10
125.8590324578
 20
232.8886359309
 30
0.0
 11
160.8590288815
 21
232.8886359309
 31
0.0
  0
LINE
  5
137
  8
0
  6
CONTINUOUS
 62
     7
 10
170.8590312657
 20
232.8886359309
 30
0.0
 11
235.8590288815
 21
232.8886359309
 31
0.0
  0
LINE
  5
138
  8
0
  6
CONTINUOUS
 62
     7
 10
245.8590312657
 20
232.8886359309
 30
0.0
 11
280.8590276894
 21
232.8886359309
 31
0.0
  0
LINE
  5
139
  8
0
  6
CONTINUOUS
 62
     7
 10
290.8590300736
 20
232.8886359309
 30
0.0
 11
355.8590276894
 21
232.8886359309
 31
0.0
  0
LINE
  5
13A
  8
0
  6
CONTINUOUS
 62
     7
 10
365.8590300736
 20
232.8886359309
 30
0.0
 11
366.5590270218
 21
232.8886359309
 31
0.0
  0
POLYLINE
  5
13B
  8
0
  6
CONTINUOUS
 62
     7
 66
     1
 10
0.0
 20
0.0
 30
0.0
  0
VERTEX
  5
28C
  8
0
  6
CONTINUOUS
 62
     7
 10
334.3590243515
 20
223.8886385535
 30
0.0
  0
VERTEX
  5
28D
  8
0
  6
CONTINUOUS
 62
     7
 10
334.1639383492
 20
223.6935465907
 30
0.0
  0
VERTEX
  5
28E
  8
0
  6
CONTINUOUS
 62
     7
 10
333.9763506112
 20
223.5059528922
 30
0.0
  0
VERTEX
  5
28F
  8
0
  6
CONTINUOUS
 62
     7
 10
333.8034613785
 20
223.33306962
 30
0.0
  0
VERTEX
  5
290
  8
0
  6
CONTINUOUS
 62
     7
 10
333.6519225296
 20
223.1815307711
 30
0.0
  0
VERTEX
  5
291
  8
0
  6
CONTINUOUS
 62
     7
 10
333.5275633988
 20
223.0571716402
 30
0.0
  0
VERTEX
  5
292
  8
0
  6
CONTINUOUS
 62
     7
 10
333.4351523575
 20
222.964760599
 30
0.0
  0
VERTEX
  5
293
  8
0
  6
CONTINUOUS
 62
     7
 10
333.3782418427
 20
222.9078560446
 30
0.0
  0
VERTEX
  5
294
  8
0
  6
CONTINUOUS
 62
     7
 10
333.3590253052
 20
222.8886395071
 30
0.0
  0
SEQEND
  5
2F4
  8
0
  6
CONTINUOUS
 62
     7
  0
LINE
  5
13C
  8
0
  6
CONTINUOUS
 62
     7
 10
333.3590253052
 20
222.8886395071
 30
0.0
 11
73.359034842
 21
222.8886395071
 31
0.0
  0
LINE
  5
13D
  8
0
  6
CONTINUOUS
 62
     7
 10
333.3590253052
 20
158.8886385162
 30
0.0
 11
333.3590253052
 21
222.8886395071
 31
0.0
  0
LINE
  5
13E
  8
0
  6
CONTINUOUS
 62
     7
 10
63.3590324578
 20
158.8886385162
 30
0.0
 11
63.3590324578
 21
222.8886395071
 31
0.0
  0
ARC
  5
13F
  8
0
  6
CONTINUOUS
 62
     7
 10
228.5426901025
 20
40.848378503
 30
0.0
 40
14.8682559073178
 50
270.8245009774
 51
0.4742439197
  0
ARC
  5
140
  8
0
  6
CONTINUOUS
 62
     7
 10
178.1745818543
 20
40.8449085038
 30
0.0
 40
14.86657772581385
 50
179.5129030109
 51
269.3234303013
  0
ARC
  5
141
  8
0
  6
CONTINUOUS
 62
     7
 10
228.5315353478
 20
81.0598636717
 30
0.0
 40
14.87761379013475
 50
359.6598601843
 51
32.699089261
  0
ARC
  5
142
  8
0
  6
CONTINUOUS
 62
     7
 10
178.2785627145
 20
81.0273136618
 30
0.0
 40
14.9753492401968
 50
147.3882171823
 51
180.2161070771
  0
ARC
  5
143
  8
0
  6
CONTINUOUS
 62
     7
 10
178.1027096659
 20
81.2644991503
 30
0.0
 40
14.69880721282065
 50
90.699217633
 51
141.1138418288
  0
ARC
  5
144
  8
0
  6
CONTINUOUS
 62
     7
 10
228.6183941492
 20
81.2878449988
 30
0.0
 40
14.67823162505251
 50
38.7741745702
 51
89.7632189336
  0
LINE
  5
145
  8
0
  6
CONTINUOUS
 62
     7
 10
163.300274199
 20
80.971503605
 30
0.0
 11
163.300274199
 21
40.9715030089
 31
0.0
  0
LINE
  5
146
  8
0
  6
CONTINUOUS
 62
     7
 10
243.4177859482
 20
40.9715030089
 30
0.0
 11
243.4177859482
 21
80.971503605
 31
0.0
  0
ARC
  5
147
  8
0
  6
CONTINUOUS
 62
     7
 10
348.5426869509
 20
40.8483803335
 30
0.0
 40
14.8682578515579
 50
270.8245313927
 51
0.4742368036
  0
ARC
  5
148
  8
0
  6
CONTINUOUS
 62
     7
 10
298.1745835722
 20
40.8449113553
 30
0.0
 40
14.86658061143149
 50
179.5129140953
 51
269.3234192169
  0
ARC
  5
149
  8
0
  6
CONTINUOUS
 62
     7
 10
348.5314819169
 20
81.0598439233
 30
0.0
 40
14.87766591083167
 50
359.6599374309
 51
32.6990507799
  0
ARC
  5
14A
  8
0
  6
CONTINUOUS
 62
     7
 10
298.2785954558
 20
81.027299179
 30
0.0
 40
14.97538311868299
 50
147.3882343326
 51
180.2160511768
  0
ARC
  5
14B
  8
0
  6
CONTINUOUS
 62
     7
 10
298.102704364
 20
81.264513943
 30
0.0
 40
14.69879240743526
 50
90.6992139336
 51
141.1138693626
  0
ARC
  5
14C
  8
0
  6
CONTINUOUS
 62
     7
 10
348.6183894942
 20
81.2878253798
 30
0.0
 40
14.67825125822231
 50
38.7742112389
 51
89.7632057327
  0
LINE
  5
14D
  8
0
  6
CONTINUOUS
 62
     7
 10
283.3002730069
 20
80.971503605
 30
0.0
 11
283.3002730069
 21
40.9715030089
 31
0.0
  0
LINE
  5
14E
  8
0
  6
CONTINUOUS
 62
     7
 10
363.4177907166
 20
40.9715030089
 30
0.0
 11
363.4177907166
 21
80.971503605
 31
0.0
  0
ARC
  5
14F
  8
0
  6
CONTINUOUS
 62
     7
 10
108.5426894999
 20
40.8483802574
 30
0.0
 40
14.86825768737822
 50
270.8245077952
 51
0.4742371019
  0
ARC
  5
150
  8
0
  6
CONTINUOUS
 62
     7
 10
58.1745834646
 20
40.8449089136
 30
0.0
 40
14.86657814047842
 50
179.5129046037
 51
269.3234287085
  0
ARC
  5
151
  8
0
  6
CONTINUOUS
 62
     7
 10
108.531484301
 20
81.0598439233
 30
0.0
 40
14.87766591083196
 50
359.6599374309
 51
32.6990507799
  0
ARC
  5
152
  8
0
  6
CONTINUOUS
 62
     7
 10
58.2784627306
 20
81.0273476775
 30
0.0
 40
14.97524819321581
 50
147.3881243277
 51
180.2162386816
  0
ARC
  5
153
  8
0
  6
CONTINUOUS
 62
     7
 10
58.1027149679
 20
81.2644843576
 30
0.0
 40
14.69882201824256
 50
90.6992213323
 51
141.113814295
  0
ARC
  5
154
  8
0
  6
CONTINUOUS
 62
     7
 10
108.61839087
 20
81.2878357211
 30
0.0
 40
14.67824092118789
 50
38.7741918739
 51
89.7632016299
  0
LINE
  5
155
  8
0
  6
CONTINUOUS
 62
     7
 10
43.3002694306
 20
80.971503605
 30
0.0
 11
43.3002694306
 21
40.9715030089
 31
0.0
  0
LINE
  5
156
  8
0
  6
CONTINUOUS
 62
     7
 10
123.4177871403
 20
40.9715030089
 30
0.0
 11
123.4177871403
 21
80.971503605
 31
0.0
  0
POLYLINE
  5
157
  8
0
  6
CONTINUOUS
 62
     7
 66
     1
 10
0.0
 20
0.0
 30
0.0
  0
VERTEX
  5
295
  8
0
  6
CONTINUOUS
 62
     7
 10
166.6590287146
 20
87.6147363082
 30
0.0
  0
VERTEX
  5
296
  8
0
  6
CONTINUOUS
 62
     7
 10
166.1234213766
 20
86.9105029598
 30
0.0
  0
VERTEX
  5
297
  8
0
  6
CONTINUOUS
 62
     7
 10
165.6590296683
 20
86.1453134313
 30
0.0
  0
SEQEND
  5
2F3
  8
0
  6
CONTINUOUS
 62
     7
  0
LINE
  5
158
  8
0
  6
CONTINUOUS
 62
     7
 10
178.0148102698
 20
95.9661651149
 30
0.0
 11
178.1383468565
 21
95.971504201
 31
0.0
  0
ARC
  5
159
  8
0
  6
CONTINUOUS
 62
     7
 10
178.4986069255
 20
81.065340439
 30
0.0
 40
10.07562233077793
 50
100.5230987956
 51
180.5336178852
  0
ARC
  5
15A
  8
0
  6
CONTINUOUS
 62
     7
 10
228.2194591681
 20
40.8776657063
 30
0.0
 40
10.07561638898617
 50
280.5230706788
 51
0.5336208642
  0
LINE
  5
15B
  8
0
  6
CONTINUOUS
 62
     7
 10
228.6909564194
 20
25.9778890506
 30
0.0
 11
228.5797132906
 21
25.9715053931
 31
0.0
  0
POLYLINE
  5
15C
  8
0
  6
CONTINUOUS
 62
     7
 66
     1
 10
0.0
 20
0.0
 30
0.0
  0
VERTEX
  5
298
  8
0
  6
CONTINUOUS
 62
     7
 10
240.0590314326
 20
87.6147363082
 30
0.0
  0
VERTEX
  5
299
  8
0
  6
CONTINUOUS
 62
     7
 10
240.5946387705
 20
86.9105029598
 30
0.0
  0
VERTEX
  5
29A
  8
0
  6
CONTINUOUS
 62
     7
 10
241.0590304789
 20
86.1453134313
 30
0.0
  0
SEQEND
  5
2F2
  8
0
  6
CONTINUOUS
 62
     7
  0
ARC
  5
15D
  8
0
  6
CONTINUOUS
 62
     7
 10
228.2371885077
 20
81.0799455437
 30
0.0
 40
10.05803467908726
 50
359.3822465328
 51
79.5610367863
  0
LINE
  5
15E
  8
0
  6
CONTINUOUS
 62
     7
 10
178.1383468565
 20
25.9715053931
 30
0.0
 11
178.0452116188
 21
25.9767565623
 31
0.0
  0
ARC
  5
15F
  8
0
  6
CONTINUOUS
 62
     7
 10
178.4808648409
 20
40.8630598934
 30
0.0
 40
10.05802789364276
 50
179.3822394123
 51
259.5610690447
  0
LINE
  5
160
  8
0
  6
CONTINUOUS
 62
     7
 10
168.4234215674
 20
80.971503605
 30
0.0
 11
168.4234215674
 21
40.9715030089
 31
0.0
  0
LINE
  5
161
  8
0
  6
CONTINUOUS
 62
     7
 10
238.2946385798
 20
40.9715030089
 30
0.0
 11
238.2946385798
 21
80.971503605
 31
0.0
  0
LINE
  5
162
  8
0
  6
CONTINUOUS
 62
     7
 10
240.0590314326
 20
89.9835917845
 30
0.0
 11
241.0590304789
 21
89.9835917845
 31
0.0
  0
LINE
  5
163
  8
0
  6
CONTINUOUS
 62
     7
 10
241.0590304789
 20
113.8320211068
 30
0.0
 11
241.0590304789
 21
89.9835917845
 31
0.0
  0
LINE
  5
164
  8
0
  6
CONTINUOUS
 62
     7
 10
240.0590314326
 20
113.8320211068
 30
0.0
 11
240.0590314326
 21
89.9835917845
 31
0.0
  0
LINE
  5
165
  8
0
  6
CONTINUOUS
 62
     7
 10
166.6590287146
 20
89.9835917845
 30
0.0
 11
165.6590296683
 21
89.9835917845
 31
0.0
  0
LINE
  5
166
  8
0
  6
CONTINUOUS
 62
     7
 10
165.6590296683
 20
113.8320211068
 30
0.0
 11
165.6590296683
 21
89.9835917845
 31
0.0
  0
LINE
  5
167
  8
0
  6
CONTINUOUS
 62
     7
 10
166.6590287146
 20
113.8320211068
 30
0.0
 11
166.6590287146
 21
89.9835917845
 31
0.0
  0
LINE
  5
168
  8
0
  6
CONTINUOUS
 62
     7
 10
165.6590296683
 20
89.9835917845
 30
0.0
 11
165.6590296683
 21
86.1453134313
 31
0.0
  0
LINE
  5
169
  8
0
  6
CONTINUOUS
 62
     7
 10
166.6590287146
 20
89.9835917845
 30
0.0
 11
166.6590287146
 21
87.6147363082
 31
0.0
  0
LINE
  5
16A
  8
0
  6
CONTINUOUS
 62
     7
 10
241.0590304789
 20
89.9835917845
 30
0.0
 11
241.0590304789
 21
86.1453134313
 31
0.0
  0
LINE
  5
16B
  8
0
  6
CONTINUOUS
 62
     7
 10
240.0590314326
 20
89.9835917845
 30
0.0
 11
240.0590314326
 21
87.6147363082
 31
0.0
  0
LINE
  5
16C
  8
0
  6
CONTINUOUS
 62
     7
 10
176.6584767756
 20
30.9715065852
 30
0.0
 11
230.0595833716
 21
30.9715065852
 31
0.0
  0
LINE
  5
16D
  8
0
  6
CONTINUOUS
 62
     7
 10
176.6584767756
 20
90.971504499
 30
0.0
 11
230.0595833716
 21
90.971504499
 31
0.0
  0
LINE
  5
16E
  8
0
  6
CONTINUOUS
 62
     7
 10
178.1383468565
 20
95.971504201
 30
0.0
 11
228.5797132906
 21
95.971504201
 31
0.0
  0
LINE
  5
16F
  8
0
  6
CONTINUOUS
 62
     7
 10
228.5797132906
 20
25.9715053931
 30
0.0
 11
178.1383468565
 21
25.9715053931
 31
0.0
  0
LINE
  5
170
  8
0
  6
CONTINUOUS
 62
     7
 10
240.0590314326
 20
115.6715046361
 30
0.0
 11
241.0590304789
 21
115.6715046361
 31
0.0
  0
LINE
  5
171
  8
0
  6
CONTINUOUS
 62
     7
 10
241.0590304789
 20
115.6715046361
 30
0.0
 11
241.0590304789
 21
113.8320211068
 31
0.0
  0
LINE
  5
172
  8
0
  6
CONTINUOUS
 62
     7
 10
240.0590314326
 20
115.6715046361
 30
0.0
 11
240.0590314326
 21
113.8320211068
 31
0.0
  0
LINE
  5
173
  8
0
  6
CONTINUOUS
 62
     7
 10
166.6590287146
 20
115.6715046361
 30
0.0
 11
165.6590296683
 21
115.6715046361
 31
0.0
  0
LINE
  5
174
  8
0
  6
CONTINUOUS
 62
     7
 10
165.6590296683
 20
115.6715046361
 30
0.0
 11
165.6590296683
 21
113.8320211068
 31
0.0
  0
LINE
  5
175
  8
0
  6
CONTINUOUS
 62
     7
 10
166.6590287146
 20
115.6715046361
 30
0.0
 11
166.6590287146
 21
113.8320211068
 31
0.0
  0
LINE
  5
176
  8
0
  6
CONTINUOUS
 62
     7
 10
170.8590312657
 20
102.0715042695
 30
0.0
 11
170.8590312657
 21
111.8715043858
 31
0.0
  0
LINE
  5
177
  8
0
  6
CONTINUOUS
 62
     7
 10
235.8590288815
 20
102.0715042695
 30
0.0
 11
235.8590288815
 21
111.8715043858
 31
0.0
  0
LINE
  5
178
  8
0
  6
CONTINUOUS
 62
     7
 10
170.8590312657
 20
112.8715041772
 30
0.0
 11
166.6590287146
 21
112.8715041772
 31
0.0
  0
LINE
  5
179
  8
0
  6
CONTINUOUS
 62
     7
 10
170.8590312657
 20
112.8715041772
 30
0.0
 11
170.8590312657
 21
111.8715043858
 31
0.0
  0
LINE
  5
17A
  8
0
  6
CONTINUOUS
 62
     7
 10
240.0590314326
 20
112.8715041772
 30
0.0
 11
235.8590288815
 21
112.8715041772
 31
0.0
  0
LINE
  5
17B
  8
0
  6
CONTINUOUS
 62
     7
 10
235.8590288815
 20
111.8715043858
 30
0.0
 11
235.8590288815
 21
112.8715041772
 31
0.0
  0
LINE
  5
17C
  8
0
  6
CONTINUOUS
 62
     7
 10
170.8590312657
 20
101.0715044782
 30
0.0
 11
166.6590287146
 21
101.0715044782
 31
0.0
  0
LINE
  5
17D
  8
0
  6
CONTINUOUS
 62
     7
 10
170.8590312657
 20
102.0715042695
 30
0.0
 11
170.8590312657
 21
101.0715044782
 31
0.0
  0
LINE
  5
17E
  8
0
  6
CONTINUOUS
 62
     7
 10
240.0590314326
 20
101.0715044782
 30
0.0
 11
235.8590288815
 21
101.0715044782
 31
0.0
  0
LINE
  5
17F
  8
0
  6
CONTINUOUS
 62
     7
 10
235.8590288815
 20
101.0715044782
 30
0.0
 11
235.8590288815
 21
102.0715042695
 31
0.0
  0
LINE
  5
180
  8
0
  6
CONTINUOUS
 62
     7
 10
245.8590312657
 20
111.8715043858
 30
0.0
 11
245.8590312657
 21
112.8715041772
 31
0.0
  0
LINE
  5
181
  8
0
  6
CONTINUOUS
 62
     7
 10
245.8590312657
 20
112.8715041772
 30
0.0
 11
241.0590304789
 21
112.8715041772
 31
0.0
  0
LINE
  5
182
  8
0
  6
CONTINUOUS
 62
     7
 10
245.8590312657
 20
102.0715042695
 30
0.0
 11
245.8590312657
 21
111.8715043858
 31
0.0
  0
LINE
  5
183
  8
0
  6
CONTINUOUS
 62
     7
 10
160.8590288815
 20
102.0715042695
 30
0.0
 11
160.8590288815
 21
111.8715043858
 31
0.0
  0
LINE
  5
184
  8
0
  6
CONTINUOUS
 62
     7
 10
165.6590296683
 20
112.8715041772
 30
0.0
 11
160.8590288815
 21
112.8715041772
 31
0.0
  0
LINE
  5
185
  8
0
  6
CONTINUOUS
 62
     7
 10
160.8590288815
 20
111.8715043858
 30
0.0
 11
160.8590288815
 21
112.8715041772
 31
0.0
  0
LINE
  5
186
  8
0
  6
CONTINUOUS
 62
     7
 10
245.8590312657
 20
101.0715044782
 30
0.0
 11
241.0590304789
 21
101.0715044782
 31
0.0
  0
LINE
  5
187
  8
0
  6
CONTINUOUS
 62
     7
 10
245.8590312657
 20
101.0715044782
 30
0.0
 11
245.8590312657
 21
102.0715042695
 31
0.0
  0
LINE
  5
188
  8
0
  6
CONTINUOUS
 62
     7
 10
165.6590296683
 20
101.0715044782
 30
0.0
 11
160.8590288815
 21
101.0715044782
 31
0.0
  0
LINE
  5
189
  8
0
  6
CONTINUOUS
 62
     7
 10
160.8590288815
 20
101.0715044782
 30
0.0
 11
160.8590288815
 21
102.0715042695
 31
0.0
  0
POLYLINE
  5
18A
  8
0
  6
CONTINUOUS
 62
     7
 66
     1
 10
0.0
 20
0.0
 30
0.0
  0
VERTEX
  5
29B
  8
0
  6
CONTINUOUS
 62
     7
 10
286.6590305027
 20
87.6147363082
 30
0.0
  0
VERTEX
  5
29C
  8
0
  6
CONTINUOUS
 62
     7
 10
286.1234231648
 20
86.9105029598
 30
0.0
  0
VERTEX
  5
29D
  8
0
  6
CONTINUOUS
 62
     7
 10
285.6590314564
 20
86.1453134313
 30
0.0
  0
SEQEND
  5
2F1
  8
0
  6
CONTINUOUS
 62
     7
  0
LINE
  5
18B
  8
0
  6
CONTINUOUS
 62
     7
 10
298.0148120579
 20
95.9661651149
 30
0.0
 11
298.1383486447
 21
95.971504201
 31
0.0
  0
ARC
  5
18C
  8
0
  6
CONTINUOUS
 62
     7
 10
298.4986010134
 20
81.0653467803
 30
0.0
 40
10.07561468985367
 50
100.5230623293
 51
180.5336543515
  0
ARC
  5
18D
  8
0
  6
CONTINUOUS
 62
     7
 10
348.2194505069
 20
40.8776754082
 30
0.0
 40
10.07562674746247
 50
280.5230856997
 51
0.533565143
  0
LINE
  5
18E
  8
0
  6
CONTINUOUS
 62
     7
 10
348.6909611878
 20
25.9778890506
 30
0.0
 11
348.5797150788
 21
25.9715053931
 31
0.0
  0
POLYLINE
  5
18F
  8
0
  6
CONTINUOUS
 62
     7
 66
     1
 10
0.0
 20
0.0
 30
0.0
  0
VERTEX
  5
29E
  8
0
  6
CONTINUOUS
 62
     7
 10
360.0590332207
 20
87.6147363082
 30
0.0
  0
VERTEX
  5
29F
  8
0
  6
CONTINUOUS
 62
     7
 10
360.5946405587
 20
86.9105029598
 30
0.0
  0
VERTEX
  5
2A0
  8
0
  6
CONTINUOUS
 62
     7
 10
361.059032267
 20
86.1453134313
 30
0.0
  0
SEQEND
  5
2F0
  8
0
  6
CONTINUOUS
 62
     7
  0
ARC
  5
190
  8
0
  6
CONTINUOUS
 62
     7
 10
348.237182516
 20
81.0799380507
 30
0.0
 40
10.05804237770571
 50
359.3822896921
 51
79.5610343275
  0
LINE
  5
191
  8
0
  6
CONTINUOUS
 62
     7
 10
298.1383486447
 20
25.9715053931
 30
0.0
 11
298.0452104268
 21
25.9767565623
 31
0.0
  0
ARC
  5
192
  8
0
  6
CONTINUOUS
 62
     7
 10
298.4808643408
 20
40.863058009
 30
0.0
 40
10.05802562587863
 50
179.3822285381
 51
259.5610799189
  0
LINE
  5
193
  8
0
  6
CONTINUOUS
 62
     7
 10
288.4234233555
 20
80.971503605
 30
0.0
 11
288.4234233555
 21
40.9715030089
 31
0.0
  0
LINE
  5
194
  8
0
  6
CONTINUOUS
 62
     7
 10
358.2946403679
 20
40.9715030089
 30
0.0
 11
358.2946403679
 21
80.971503605
 31
0.0
  0
LINE
  5
195
  8
0
  6
CONTINUOUS
 62
     7
 10
286.6590305027
 20
89.9835917845
 30
0.0
 11
285.6590314564
 21
89.9835917845
 31
0.0
  0
LINE
  5
196
  8
0
  6
CONTINUOUS
 62
     7
 10
285.6590314564
 20
113.8320211068
 30
0.0
 11
285.6590314564
 21
89.9835917845
 31
0.0
  0
LINE
  5
197
  8
0
  6
CONTINUOUS
 62
     7
 10
286.6590305027
 20
113.8320211068
 30
0.0
 11
286.6590305027
 21
89.9835917845
 31
0.0
  0
LINE
  5
198
  8
0
  6
CONTINUOUS
 62
     7
 10
360.0590332207
 20
89.9835917845
 30
0.0
 11
361.059032267
 21
89.9835917845
 31
0.0
  0
LINE
  5
199
  8
0
  6
CONTINUOUS
 62
     7
 10
360.0590332207
 20
113.8320211068
 30
0.0
 11
360.0590332207
 21
89.9835917845
 31
0.0
  0
LINE
  5
19A
  8
0
  6
CONTINUOUS
 62
     7
 10
361.059032267
 20
113.8320211068
 30
0.0
 11
361.059032267
 21
89.9835917845
 31
0.0
  0
LINE
  5
19B
  8
0
  6
CONTINUOUS
 62
     7
 10
285.6590314564
 20
89.9835917845
 30
0.0
 11
285.6590314564
 21
86.1453134313
 31
0.0
  0
LINE
  5
19C
  8
0
  6
CONTINUOUS
 62
     7
 10
286.6590305027
 20
89.9835917845
 30
0.0
 11
286.6590305027
 21
87.6147363082
 31
0.0
  0
LINE
  5
19D
  8
0
  6
CONTINUOUS
 62
     7
 10
360.0590332207
 20
89.9835917845
 30
0.0
 11
360.0590332207
 21
87.6147363082
 31
0.0
  0
LINE
  5
19E
  8
0
  6
CONTINUOUS
 62
     7
 10
361.059032267
 20
89.9835917845
 30
0.0
 11
361.059032267
 21
86.1453134313
 31
0.0
  0
LINE
  5
19F
  8
0
  6
CONTINUOUS
 62
     7
 10
296.6584785637
 20
30.9715065852
 30
0.0
 11
350.0595791993
 21
30.9715065852
 31
0.0
  0
LINE
  5
1A0
  8
0
  6
CONTINUOUS
 62
     7
 10
296.6584785637
 20
90.971504499
 30
0.0
 11
350.0595791993
 21
90.971504499
 31
0.0
  0
LINE
  5
1A1
  8
0
  6
CONTINUOUS
 62
     7
 10
298.1383486447
 20
95.971504201
 30
0.0
 11
348.5797150788
 21
95.971504201
 31
0.0
  0
LINE
  5
1A2
  8
0
  6
CONTINUOUS
 62
     7
 10
348.5797150788
 20
25.9715053931
 30
0.0
 11
298.1383486447
 21
25.9715053931
 31
0.0
  0
LINE
  5
1A3
  8
0
  6
CONTINUOUS
 62
     7
 10
286.6590305027
 20
115.6715046361
 30
0.0
 11
285.6590314564
 21
115.6715046361
 31
0.0
  0
LINE
  5
1A4
  8
0
  6
CONTINUOUS
 62
     7
 10
285.6590314564
 20
115.6715046361
 30
0.0
 11
285.6590314564
 21
113.8320211068
 31
0.0
  0
LINE
  5
1A5
  8
0
  6
CONTINUOUS
 62
     7
 10
286.6590305027
 20
115.6715046361
 30
0.0
 11
286.6590305027
 21
113.8320211068
 31
0.0
  0
LINE
  5
1A6
  8
0
  6
CONTINUOUS
 62
     7
 10
360.0590332207
 20
115.6715046361
 30
0.0
 11
361.059032267
 21
115.6715046361
 31
0.0
  0
LINE
  5
1A7
  8
0
  6
CONTINUOUS
 62
     7
 10
360.0590332207
 20
115.6715046361
 30
0.0
 11
360.0590332207
 21
113.8320211068
 31
0.0
  0
LINE
  5
1A8
  8
0
  6
CONTINUOUS
 62
     7
 10
361.059032267
 20
115.6715046361
 30
0.0
 11
361.059032267
 21
113.8320211068
 31
0.0
  0
LINE
  5
1A9
  8
0
  6
CONTINUOUS
 62
     7
 10
355.8590276894
 20
102.0715042695
 30
0.0
 11
355.8590276894
 21
111.8715043858
 31
0.0
  0
LINE
  5
1AA
  8
0
  6
CONTINUOUS
 62
     7
 10
290.8590300736
 20
102.0715042695
 30
0.0
 11
290.8590300736
 21
111.8715043858
 31
0.0
  0
LINE
  5
1AB
  8
0
  6
CONTINUOUS
 62
     7
 10
360.0590332207
 20
112.8715041772
 30
0.0
 11
355.8590276894
 21
112.8715041772
 31
0.0
  0
LINE
  5
1AC
  8
0
  6
CONTINUOUS
 62
     7
 10
355.8590276894
 20
111.8715043858
 30
0.0
 11
355.8590276894
 21
112.8715041772
 31
0.0
  0
LINE
  5
1AD
  8
0
  6
CONTINUOUS
 62
     7
 10
290.8590300736
 20
112.8715041772
 30
0.0
 11
286.6590305027
 21
112.8715041772
 31
0.0
  0
LINE
  5
1AE
  8
0
  6
CONTINUOUS
 62
     7
 10
290.8590300736
 20
112.8715041772
 30
0.0
 11
290.8590300736
 21
111.8715043858
 31
0.0
  0
LINE
  5
1AF
  8
0
  6
CONTINUOUS
 62
     7
 10
360.0590332207
 20
101.0715044782
 30
0.0
 11
355.8590276894
 21
101.0715044782
 31
0.0
  0
LINE
  5
1B0
  8
0
  6
CONTINUOUS
 62
     7
 10
355.8590276894
 20
101.0715044782
 30
0.0
 11
355.8590276894
 21
102.0715042695
 31
0.0
  0
LINE
  5
1B1
  8
0
  6
CONTINUOUS
 62
     7
 10
290.8590300736
 20
101.0715044782
 30
0.0
 11
286.6590305027
 21
101.0715044782
 31
0.0
  0
LINE
  5
1B2
  8
0
  6
CONTINUOUS
 62
     7
 10
290.8590300736
 20
102.0715042695
 30
0.0
 11
290.8590300736
 21
101.0715044782
 31
0.0
  0
LINE
  5
1B3
  8
0
  6
CONTINUOUS
 62
     7
 10
365.8590300736
 20
102.0715042695
 30
0.0
 11
365.8590300736
 21
111.8715043858
 31
0.0
  0
LINE
  5
1B4
  8
0
  6
CONTINUOUS
 62
     7
 10
285.6590314564
 20
112.8715041772
 30
0.0
 11
280.8590276894
 21
112.8715041772
 31
0.0
  0
LINE
  5
1B5
  8
0
  6
CONTINUOUS
 62
     7
 10
280.8590276894
 20
111.8715043858
 30
0.0
 11
280.8590276894
 21
112.8715041772
 31
0.0
  0
LINE
  5
1B6
  8
0
  6
CONTINUOUS
 62
     7
 10
365.8590300736
 20
112.8715041772
 30
0.0
 11
361.059032267
 21
112.8715041772
 31
0.0
  0
LINE
  5
1B7
  8
0
  6
CONTINUOUS
 62
     7
 10
365.8590300736
 20
111.8715043858
 30
0.0
 11
365.8590300736
 21
112.8715041772
 31
0.0
  0
LINE
  5
1B8
  8
0
  6
CONTINUOUS
 62
     7
 10
280.8590276894
 20
102.0715042695
 30
0.0
 11
280.8590276894
 21
111.8715043858
 31
0.0
  0
LINE
  5
1B9
  8
0
  6
CONTINUOUS
 62
     7
 10
285.6590314564
 20
101.0715044782
 30
0.0
 11
280.8590276894
 21
101.0715044782
 31
0.0
  0
LINE
  5
1BA
  8
0
  6
CONTINUOUS
 62
     7
 10
280.8590276894
 20
101.0715044782
 30
0.0
 11
280.8590276894
 21
102.0715042695
 31
0.0
  0
LINE
  5
1BB
  8
0
  6
CONTINUOUS
 62
     7
 10
365.8590300736
 20
101.0715044782
 30
0.0
 11
361.059032267
 21
101.0715044782
 31
0.0
  0
LINE
  5
1BC
  8
0
  6
CONTINUOUS
 62
     7
 10
365.8590300736
 20
101.0715044782
 30
0.0
 11
365.8590300736
 21
102.0715042695
 31
0.0
  0
POLYLINE
  5
1BD
  8
0
  6
CONTINUOUS
 62
     7
 66
     1
 10
0.0
 20
0.0
 30
0.0
  0
VERTEX
  5
2A1
  8
0
  6
CONTINUOUS
 62
     7
 10
46.6590269265
 20
87.6147363082
 30
0.0
  0
VERTEX
  5
2A2
  8
0
  6
CONTINUOUS
 62
     7
 10
46.1234195885
 20
86.9105029598
 30
0.0
  0
VERTEX
  5
2A3
  8
0
  6
CONTINUOUS
 62
     7
 10
45.6590278801
 20
86.1453134313
 30
0.0
  0
SEQEND
  5
2EF
  8
0
  6
CONTINUOUS
 62
     7
  0
LINE
  5
1BE
  8
0
  6
CONTINUOUS
 62
     7
 10
58.0148084816
 20
95.9661651149
 30
0.0
 11
58.1383450684
 21
95.971504201
 31
0.0
  0
ARC
  5
1BF
  8
0
  6
CONTINUOUS
 62
     7
 10
58.4986155866
 20
81.0653307372
 30
0.0
 40
10.07563268922877
 50
100.5231138163
 51
180.5335621641
  0
LINE
  5
1C0
  8
0
  6
CONTINUOUS
 62
     7
 10
108.6909576115
 20
25.9778890506
 30
0.0
 11
108.5797115025
 21
25.9715053931
 31
0.0
  0
ARC
  5
1C1
  8
0
  6
CONTINUOUS
 62
     7
 10
108.2194650802
 20
40.8776593651
 30
0.0
 40
10.07560874805424
 50
280.5230342125
 51
0.5336573306
  0
POLYLINE
  5
1C2
  8
0
  6
CONTINUOUS
 62
     7
 66
     1
 10
0.0
 20
0.0
 30
0.0
  0
VERTEX
  5
2A4
  8
0
  6
CONTINUOUS
 62
     7
 10
120.0590296444
 20
87.6147363082
 30
0.0
  0
VERTEX
  5
2A5
  8
0
  6
CONTINUOUS
 62
     7
 10
120.5946369824
 20
86.9105029598
 30
0.0
  0
VERTEX
  5
2A6
  8
0
  6
CONTINUOUS
 62
     7
 10
121.0590286908
 20
86.1453134313
 30
0.0
  0
SEQEND
  5
2EE
  8
0
  6
CONTINUOUS
 62
     7
  0
ARC
  5
1C3
  8
0
  6
CONTINUOUS
 62
     7
 10
108.2371890078
 20
81.0799474281
 30
0.0
 40
10.05803241131261
 50
359.3822356586
 51
79.5610476606
  0
LINE
  5
1C4
  8
0
  6
CONTINUOUS
 62
     7
 10
58.1383450684
 20
25.9715053931
 30
0.0
 11
58.0452068505
 21
25.9767565623
 31
0.0
  0
ARC
  5
1C5
  8
0
  6
CONTINUOUS
 62
     7
 10
58.4808708326
 20
40.8630673864
 30
0.0
 40
10.05803559228841
 50
179.3822825717
 51
259.5610665857
  0
LINE
  5
1C6
  8
0
  6
CONTINUOUS
 62
     7
 10
48.4234197792
 20
80.971503605
 30
0.0
 11
48.4234197792
 21
40.9715030089
 31
0.0
  0
LINE
  5
1C7
  8
0
  6
CONTINUOUS
 62
     7
 10
118.2946367916
 20
40.9715030089
 30
0.0
 11
118.2946367916
 21
80.971503605
 31
0.0
  0
LINE
  5
1C8
  8
0
  6
CONTINUOUS
 62
     7
 10
46.6590269265
 20
89.9835917845
 30
0.0
 11
45.6590278801
 21
89.9835917845
 31
0.0
  0
LINE
  5
1C9
  8
0
  6
CONTINUOUS
 62
     7
 10
45.6590278801
 20
113.8320211068
 30
0.0
 11
45.6590278801
 21
89.9835917845
 31
0.0
  0
LINE
  5
1CA
  8
0
  6
CONTINUOUS
 62
     7
 10
46.6590269265
 20
113.8320211068
 30
0.0
 11
46.6590269265
 21
89.9835917845
 31
0.0
  0
LINE
  5
1CB
  8
0
  6
CONTINUOUS
 62
     7
 10
120.0590296444
 20
89.9835917845
 30
0.0
 11
121.0590286908
 21
89.9835917845
 31
0.0
  0
LINE
  5
1CC
  8
0
  6
CONTINUOUS
 62
     7
 10
121.0590286908
 20
113.8320211068
 30
0.0
 11
121.0590286908
 21
89.9835917845
 31
0.0
  0
LINE
  5
1CD
  8
0
  6
CONTINUOUS
 62
     7
 10
120.0590296444
 20
113.8320211068
 30
0.0
 11
120.0590296444
 21
89.9835917845
 31
0.0
  0
LINE
  5
1CE
  8
0
  6
CONTINUOUS
 62
     7
 10
121.0590286908
 20
89.9835917845
 30
0.0
 11
121.0590286908
 21
86.1453134313
 31
0.0
  0
LINE
  5
1CF
  8
0
  6
CONTINUOUS
 62
     7
 10
120.0590296444
 20
89.9835917845
 30
0.0
 11
120.0590296444
 21
87.6147363082
 31
0.0
  0
LINE
  5
1D0
  8
0
  6
CONTINUOUS
 62
     7
 10
45.6590278801
 20
89.9835917845
 30
0.0
 11
45.6590278801
 21
86.1453134313
 31
0.0
  0
LINE
  5
1D1
  8
0
  6
CONTINUOUS
 62
     7
 10
46.6590269265
 20
89.9835917845
 30
0.0
 11
46.6590269265
 21
87.6147363082
 31
0.0
  0
LINE
  5
1D2
  8
0
  6
CONTINUOUS
 62
     7
 10
56.6584809479
 20
30.9715065852
 30
0.0
 11
110.0595815834
 21
30.9715065852
 31
0.0
  0
LINE
  5
1D3
  8
0
  6
CONTINUOUS
 62
     7
 10
56.6584809479
 20
90.971504499
 30
0.0
 11
110.0595815834
 21
90.971504499
 31
0.0
  0
LINE
  5
1D4
  8
0
  6
CONTINUOUS
 62
     7
 10
58.1383450684
 20
95.971504201
 30
0.0
 11
108.5797115025
 21
95.971504201
 31
0.0
  0
LINE
  5
1D5
  8
0
  6
CONTINUOUS
 62
     7
 10
108.5797115025
 20
25.9715053931
 30
0.0
 11
58.1383450684
 21
25.9715053931
 31
0.0
  0
LINE
  5
1D6
  8
0
  6
CONTINUOUS
 62
     7
 10
120.0590296444
 20
115.6715046361
 30
0.0
 11
121.0590286908
 21
115.6715046361
 31
0.0
  0
LINE
  5
1D7
  8
0
  6
CONTINUOUS
 62
     7
 10
121.0590286908
 20
115.6715046361
 30
0.0
 11
121.0590286908
 21
113.8320211068
 31
0.0
  0
LINE
  5
1D8
  8
0
  6
CONTINUOUS
 62
     7
 10
120.0590296444
 20
115.6715046361
 30
0.0
 11
120.0590296444
 21
113.8320211068
 31
0.0
  0
LINE
  5
1D9
  8
0
  6
CONTINUOUS
 62
     7
 10
46.6590269265
 20
115.6715046361
 30
0.0
 11
45.6590278801
 21
115.6715046361
 31
0.0
  0
LINE
  5
1DA
  8
0
  6
CONTINUOUS
 62
     7
 10
45.6590278801
 20
115.6715046361
 30
0.0
 11
45.6590278801
 21
113.8320211068
 31
0.0
  0
LINE
  5
1DB
  8
0
  6
CONTINUOUS
 62
     7
 10
46.6590269265
 20
115.6715046361
 30
0.0
 11
46.6590269265
 21
113.8320211068
 31
0.0
  0
LINE
  5
1DC
  8
0
  6
CONTINUOUS
 62
     7
 10
50.8590324578
 20
102.0715042695
 30
0.0
 11
50.8590324578
 21
111.8715043858
 31
0.0
  0
LINE
  5
1DD
  8
0
  6
CONTINUOUS
 62
     7
 10
115.8590300736
 20
102.0715042695
 30
0.0
 11
115.8590300736
 21
111.8715043858
 31
0.0
  0
LINE
  5
1DE
  8
0
  6
CONTINUOUS
 62
     7
 10
120.0590296444
 20
112.8715041772
 30
0.0
 11
115.8590300736
 21
112.8715041772
 31
0.0
  0
LINE
  5
1DF
  8
0
  6
CONTINUOUS
 62
     7
 10
115.8590300736
 20
111.8715043858
 30
0.0
 11
115.8590300736
 21
112.8715041772
 31
0.0
  0
LINE
  5
1E0
  8
0
  6
CONTINUOUS
 62
     7
 10
50.8590324578
 20
112.8715041772
 30
0.0
 11
46.6590269265
 21
112.8715041772
 31
0.0
  0
LINE
  5
1E1
  8
0
  6
CONTINUOUS
 62
     7
 10
50.8590324578
 20
112.8715041772
 30
0.0
 11
50.8590324578
 21
111.8715043858
 31
0.0
  0
LINE
  5
1E2
  8
0
  6
CONTINUOUS
 62
     7
 10
120.0590296444
 20
101.0715044782
 30
0.0
 11
115.8590300736
 21
101.0715044782
 31
0.0
  0
LINE
  5
1E3
  8
0
  6
CONTINUOUS
 62
     7
 10
115.8590300736
 20
101.0715044782
 30
0.0
 11
115.8590300736
 21
102.0715042695
 31
0.0
  0
LINE
  5
1E4
  8
0
  6
CONTINUOUS
 62
     7
 10
50.8590324578
 20
101.0715044782
 30
0.0
 11
46.6590269265
 21
101.0715044782
 31
0.0
  0
LINE
  5
1E5
  8
0
  6
CONTINUOUS
 62
     7
 10
50.8590324578
 20
102.0715042695
 30
0.0
 11
50.8590324578
 21
101.0715044782
 31
0.0
  0
LINE
  5
1E6
  8
0
  6
CONTINUOUS
 62
     7
 10
125.8590324578
 20
111.8715043858
 30
0.0
 11
125.8590324578
 21
112.8715041772
 31
0.0
  0
LINE
  5
1E7
  8
0
  6
CONTINUOUS
 62
     7
 10
125.8590324578
 20
112.8715041772
 30
0.0
 11
121.0590286908
 21
112.8715041772
 31
0.0
  0
LINE
  5
1E8
  8
0
  6
CONTINUOUS
 62
     7
 10
125.8590324578
 20
102.0715042695
 30
0.0
 11
125.8590324578
 21
111.8715043858
 31
0.0
  0
LINE
  5
1E9
  8
0
  6
CONTINUOUS
 62
     7
 10
40.8590300736
 20
102.0715042695
 30
0.0
 11
40.8590300736
 21
111.8715043858
 31
0.0
  0
LINE
  5
1EA
  8
0
  6
CONTINUOUS
 62
     7
 10
45.6590278801
 20
112.8715041772
 30
0.0
 11
40.8590300736
 21
112.8715041772
 31
0.0
  0
LINE
  5
1EB
  8
0
  6
CONTINUOUS
 62
     7
 10
40.8590300736
 20
111.8715043858
 30
0.0
 11
40.8590300736
 21
112.8715041772
 31
0.0
  0
LINE
  5
1EC
  8
0
  6
CONTINUOUS
 62
     7
 10
45.6590278801
 20
101.0715044782
 30
0.0
 11
40.8590300736
 21
101.0715044782
 31
0.0
  0
LINE
  5
1ED
  8
0
  6
CONTINUOUS
 62
     7
 10
40.8590300736
 20
101.0715044782
 30
0.0
 11
40.8590300736
 21
102.0715042695
 31
0.0
  0
LINE
  5
1EE
  8
0
  6
CONTINUOUS
 62
     7
 10
125.8590324578
 20
101.0715044782
 30
0.0
 11
121.0590286908
 21
101.0715044782
 31
0.0
  0
LINE
  5
1EF
  8
0
  6
CONTINUOUS
 62
     7
 10
125.8590324578
 20
101.0715044782
 30
0.0
 11
125.8590324578
 21
102.0715042695
 31
0.0
  0
LINE
  5
1F0
  8
0
  6
CONTINUOUS
 62
     7
 10
40.1590331253
 20
112.0715044186
 30
0.0
 11
40.8590300736
 21
112.0715044186
 31
0.0
  0
LINE
  5
1F1
  8
0
  6
CONTINUOUS
 62
     7
 10
50.8590324578
 20
112.0715044186
 30
0.0
 11
115.8590300736
 21
112.0715044186
 31
0.0
  0
LINE
  5
1F2
  8
0
  6
CONTINUOUS
 62
     7
 10
125.8590324578
 20
112.0715044186
 30
0.0
 11
160.8590288815
 21
112.0715044186
 31
0.0
  0
LINE
  5
1F3
  8
0
  6
CONTINUOUS
 62
     7
 10
170.8590312657
 20
112.0715044186
 30
0.0
 11
235.8590288815
 21
112.0715044186
 31
0.0
  0
LINE
  5
1F4
  8
0
  6
CONTINUOUS
 62
     7
 10
245.8590312657
 20
112.0715044186
 30
0.0
 11
280.8590276894
 21
112.0715044186
 31
0.0
  0
LINE
  5
1F5
  8
0
  6
CONTINUOUS
 62
     7
 10
290.8590300736
 20
112.0715044186
 30
0.0
 11
355.8590276894
 21
112.0715044186
 31
0.0
  0
LINE
  5
1F6
  8
0
  6
CONTINUOUS
 62
     7
 10
365.8590300736
 20
112.0715044186
 30
0.0
 11
366.5590270218
 21
112.0715044186
 31
0.0
  0
LINE
  5
1F7
  8
0
  6
CONTINUOUS
 62
     7
 10
39.7590263543
 20
111.0715042546
 30
0.0
 11
39.7590263543
 21
111.671504353
 31
0.0
  0
ARC
  5
1F8
  8
0
  6
CONTINUOUS
 62
     7
 10
40.1590300736
 20
111.6715043441
 30
0.0
 40
0.3999999999999915
 50
90.0
 51
180.0
  0
LINE
  5
1F9
  8
0
  6
CONTINUOUS
 62
     7
 10
366.9590337929
 20
111.671504353
 30
0.0
 11
366.9590337929
 21
111.0715042546
 31
0.0
  0
ARC
  5
1FA
  8
0
  6
CONTINUOUS
 62
     7
 10
366.5590300736
 20
111.6715043441
 30
0.0
 40
0.4000000000000341
 50
0.0
 51
90.0
  0
LINE
  5
1FB
  8
0
  6
CONTINUOUS
 62
     7
 10
366.9590337929
 20
111.0715042546
 30
0.0
 11
366.9590337929
 21
103.0715044335
 31
0.0
  0
LINE
  5
1FC
  8
0
  6
CONTINUOUS
 62
     7
 10
39.7590263543
 20
103.0715044335
 30
0.0
 11
39.7590263543
 21
111.0715042546
 31
0.0
  0
LINE
  5
1FD
  8
0
  6
CONTINUOUS
 62
     7
 10
366.5590270218
 20
102.0715042695
 30
0.0
 11
365.8590300736
 21
102.0715042695
 31
0.0
  0
LINE
  5
1FE
  8
0
  6
CONTINUOUS
 62
     7
 10
355.8590276894
 20
102.0715042695
 30
0.0
 11
290.8590300736
 21
102.0715042695
 31
0.0
  0
LINE
  5
1FF
  8
0
  6
CONTINUOUS
 62
     7
 10
280.8590276894
 20
102.0715042695
 30
0.0
 11
245.8590312657
 21
102.0715042695
 31
0.0
  0
LINE
  5
200
  8
0
  6
CONTINUOUS
 62
     7
 10
235.8590288815
 20
102.0715042695
 30
0.0
 11
170.8590312657
 21
102.0715042695
 31
0.0
  0
LINE
  5
201
  8
0
  6
CONTINUOUS
 62
     7
 10
160.8590288815
 20
102.0715042695
 30
0.0
 11
125.8590324578
 21
102.0715042695
 31
0.0
  0
LINE
  5
202
  8
0
  6
CONTINUOUS
 62
     7
 10
115.8590300736
 20
102.0715042695
 30
0.0
 11
50.8590324578
 21
102.0715042695
 31
0.0
  0
LINE
  5
203
  8
0
  6
CONTINUOUS
 62
     7
 10
40.8590300736
 20
102.0715042695
 30
0.0
 11
40.1590331253
 21
102.0715042695
 31
0.0
  0
LINE
  5
204
  8
0
  6
CONTINUOUS
 62
     7
 10
366.9590337929
 20
103.0715044335
 30
0.0
 11
366.9590337929
 21
102.4715043351
 31
0.0
  0
ARC
  5
205
  8
0
  6
CONTINUOUS
 62
     7
 10
366.5590300736
 20
102.4715043441
 30
0.0
 40
0.4000000000000341
 50
270.0
 51
0.0
  0
ARC
  5
206
  8
0
  6
CONTINUOUS
 62
     7
 10
40.1590300736
 20
102.4715043441
 30
0.0
 40
0.4000000000000057
 50
180.0
 51
270.0
  0
LINE
  5
207
  8
0
  6
CONTINUOUS
 62
     7
 10
39.7590263543
 20
102.4715043351
 30
0.0
 11
39.7590263543
 21
103.0715044335
 31
0.0
  0
ARC
  5
208
  8
0
  6
CONTINUOUS
 62
     7
 10
346.3590300736
 20
115.0715043441
 30
0.0
 40
4.0
 50
0.0
 51
90.0
  0
LINE
  5
209
  8
0
  6
CONTINUOUS
 62
     7
 10
350.3590329346
 20
113.0715042099
 30
0.0
 11
350.3590329346
 21
115.0715041652
 31
0.0
  0
LINE
  5
20A
  8
0
  6
CONTINUOUS
 62
     7
 10
350.3590329346
 20
113.0715042099
 30
0.0
 11
350.3527744469
 21
112.0715044186
 31
0.0
  0
ARC
  5
20B
  8
0
  6
CONTINUOUS
 62
     7
 10
270.3590300736
 20
113.0715043441
 30
0.0
 40
80.00000000000003
 50
347.6577971128
 51
352.0967922665
  0
ARC
  5
20C
  8
0
  6
CONTINUOUS
 62
     7
 10
406.3590300736
 20
113.0715043441
 30
0.0
 40
80.00000000000003
 50
187.9032077335
 51
192.3422028872
  0
LINE
  5
20D
  8
0
  6
CONTINUOUS
 62
     7
 10
326.3652785477
 20
112.0715044186
 30
0.0
 11
326.3590319809
 21
113.0715042099
 31
0.0
  0
LINE
  5
20E
  8
0
  6
CONTINUOUS
 62
     7
 10
326.3590319809
 20
115.0715041652
 30
0.0
 11
326.3590319809
 21
113.0715042099
 31
0.0
  0
ARC
  5
20F
  8
0
  6
CONTINUOUS
 62
     7
 10
330.3590300736
 20
115.0715043441
 30
0.0
 40
4.0
 50
90.0
 51
180.0
  0
LINE
  5
210
  8
0
  6
CONTINUOUS
 62
     7
 10
346.3590248284
 20
119.0715040758
 30
0.0
 11
330.3590281662
 21
119.0715040758
 31
0.0
  0
CIRCLE
  5
211
  8
0
  6
CONTINUOUS
 62
     7
 10
346.3590300736
 20
115.0715043441
 30
0.0
 40
1.500000000000028
  0
CIRCLE
  5
212
  8
0
  6
CONTINUOUS
 62
     7
 10
330.3590300736
 20
115.0715043441
 30
0.0
 40
1.500000000000028
  0
ARC
  5
213
  8
0
  6
CONTINUOUS
 62
     7
 10
136.3590300736
 20
113.0715043441
 30
0.0
 40
80.00000000000003
 50
187.9032077335
 51
192.3422028872
  0
LINE
  5
214
  8
0
  6
CONTINUOUS
 62
     7
 10
56.3652857003
 20
112.0715044186
 30
0.0
 11
56.3590272126
 21
113.0715042099
 31
0.0
  0
LINE
  5
215
  8
0
  6
CONTINUOUS
 62
     7
 10
56.3590272126
 20
115.0715041652
 30
0.0
 11
56.3590272126
 21
113.0715042099
 31
0.0
  0
ARC
  5
216
  8
0
  6
CONTINUOUS
 62
     7
 10
60.3590300736
 20
115.0715043441
 30
0.0
 40
4.000000000000007
 50
90.0
 51
180.0
  0
LINE
  5
217
  8
0
  6
CONTINUOUS
 62
     7
 10
76.3590319809
 20
119.0715040758
 30
0.0
 11
60.3590353188
 21
119.0715040758
 31
0.0
  0
ARC
  5
218
  8
0
  6
CONTINUOUS
 62
     7
 10
76.3590300736
 20
115.0715043441
 30
0.0
 40
4.000000000000014
 50
0.0
 51
90.0
  0
LINE
  5
219
  8
0
  6
CONTINUOUS
 62
     7
 10
80.3590281662
 20
113.0715042099
 30
0.0
 11
80.3590281662
 21
115.0715041652
 31
0.0
  0
LINE
  5
21A
  8
0
  6
CONTINUOUS
 62
     7
 10
80.3590281662
 20
113.0715042099
 30
0.0
 11
80.3527815995
 21
112.0715044186
 31
0.0
  0
ARC
  5
21B
  8
0
  6
CONTINUOUS
 62
     7
 10
0.3590300736
 20
113.0715043441
 30
0.0
 40
80.0
 50
347.6577971128
 51
352.0967922665
  0
CIRCLE
  5
21C
  8
0
  6
CONTINUOUS
 62
     7
 10
60.3590300736
 20
115.0715043441
 30
0.0
 40
1.500000000000014
  0
CIRCLE
  5
21D
  8
0
  6
CONTINUOUS
 62
     7
 10
76.3590300736
 20
115.0715043441
 30
0.0
 40
1.5
  0
POLYLINE
  5
21E
  8
0
  6
CONTINUOUS
 62
     7
 66
     1
 10
0.0
 20
0.0
 30
0.0
  0
VERTEX
  5
2A7
  8
0
  6
CONTINUOUS
 62
     7
 10
554.7527215394
 20
246.8973904227
 30
0.0
  0
VERTEX
  5
2A8
  8
0
  6
CONTINUOUS
 62
     7
 10
554.7473690423
 20
247.1667378519
 30
0.0
  0
VERTEX
  5
2A9
  8
0
  6
CONTINUOUS
 62
     7
 10
554.6801707658
 20
247.5736408804
 30
0.0
  0
VERTEX
  5
2AA
  8
0
  6
CONTINUOUS
 62
     7
 10
554.562588683
 20
247.9524462794
 30
0.0
  0
VERTEX
  5
2AB
  8
0
  6
CONTINUOUS
 62
     7
 10
554.4034860047
 20
248.2984452818
 30
0.0
  0
VERTEX
  5
2AC
  8
0
  6
CONTINUOUS
 62
     7
 10
554.211731902
 20
248.6090748881
 30
0.0
  0
VERTEX
  5
2AD
  8
0
  6
CONTINUOUS
 62
     7
 10
553.9952597531
 20
248.8844066237
 30
0.0
  0
VERTEX
  5
2AE
  8
0
  6
CONTINUOUS
 62
     7
 10
553.75935649
 20
249.1275697325
 30
0.0
  0
VERTEX
  5
2AF
  8
0
  6
CONTINUOUS
 62
     7
 10
553.5047850522
 20
249.3444591139
 30
0.0
  0
VERTEX
  5
2B0
  8
0
  6
CONTINUOUS
 62
     7
 10
553.2256445798
 20
249.5433300112
 30
0.0
  0
VERTEX
  5
2B1
  8
0
  6
CONTINUOUS
 62
     7
 10
552.9037139329
 20
249.7356503581
 30
0.0
  0
VERTEX
  5
2B2
  8
0
  6
CONTINUOUS
 62
     7
 10
552.5182804974
 20
249.9281495188
 30
0.0
  0
VERTEX
  5
2B3
  8
0
  6
CONTINUOUS
 62
     7
 10
552.0066342267
 20
250.1395075892
 30
0.0
  0
VERTEX
  5
2B4
  8
0
  6
CONTINUOUS
 62
     7
 10
551.432146779
 20
250.3360658263
 30
0.0
  0
VERTEX
  5
2B5
  8
0
  6
CONTINUOUS
 62
     7
 10
550.857194415
 20
250.5030005549
 30
0.0
  0
VERTEX
  5
2B6
  8
0
  6
CONTINUOUS
 62
     7
 10
550.2016565713
 20
250.6670683001
 30
0.0
  0
VERTEX
  5
2B7
  8
0
  6
CONTINUOUS
 62
     7
 10
549.5274982365
 20
250.8135407542
 30
0.0
  0
VERTEX
  5
2B8
  8
0
  6
CONTINUOUS
 62
     7
 10
548.8272032651
 20
250.9467034911
 30
0.0
  0
VERTEX
  5
2B9
  8
0
  6
CONTINUOUS
 62
     7
 10
548.1148681554
 20
251.0653644179
 30
0.0
  0
VERTEX
  5
2BA
  8
0
  6
CONTINUOUS
 62
     7
 10
547.3514339837
 20
251.176676092
 30
0.0
  0
VERTEX
  5
2BB
  8
0
  6
CONTINUOUS
 62
     7
 10
546.5548059853
 20
251.2778072928
 30
0.0
  0
VERTEX
  5
2BC
  8
0
  6
CONTINUOUS
 62
     7
 10
545.7285783204
 20
251.3683229063
 30
0.0
  0
VERTEX
  5
2BD
  8
0
  6
CONTINUOUS
 62
     7
 10
544.8776385697
 20
251.4475792025
 30
0.0
  0
VERTEX
  5
2BE
  8
0
  6
CONTINUOUS
 62
     7
 10
544.0077326211
 20
251.5148609255
 30
0.0
  0
VERTEX
  5
2BF
  8
0
  6
CONTINUOUS
 62
     7
 10
543.1249937924
 20
251.569482622
 30
0.0
  0
VERTEX
  5
2C0
  8
0
  6
CONTINUOUS
 62
     7
 10
542.2360739621
 20
251.6108601664
 30
0.0
  0
VERTEX
  5
2C1
  8
0
  6
CONTINUOUS
 62
     7
 10
541.3394949349
 20
251.6392617796
 30
0.0
  0
VERTEX
  5
2C2
  8
0
  6
CONTINUOUS
 62
     7
 10
540.4242238912
 20
251.6550331686
 30
0.0
  0
VERTEX
  5
2C3
  8
0
  6
CONTINUOUS
 62
     7
 10
539.7597095879
 20
251.6570001219
 30
0.0
  0
SEQEND
  5
2ED
  8
0
  6
CONTINUOUS
 62
     7
  0
ARC
  5
21F
  8
0
  6
CONTINUOUS
 62
     7
 10
499.4610393426
 20
196.5041583614
 30
0.0
 40
55.15425742300592
 50
89.689920985
 51
97.9477118465
  0
LINE
  5
220
  8
0
  6
CONTINUOUS
 62
     7
 10
539.7596380624
 20
251.6591399287
 30
0.0
 11
499.7596374663
 21
251.6591399287
 31
0.0
  0
POLYLINE
  5
221
  8
0
  6
CONTINUOUS
 62
     7
 66
     1
 10
0.0
 20
0.0
 30
0.0
  0
VERTEX
  5
2C4
  8
0
  6
CONTINUOUS
 62
     7
 10
539.7595069322
 20
246.277591524
 30
0.0
  0
VERTEX
  5
2C5
  8
0
  6
CONTINUOUS
 62
     7
 10
540.4874286565
 20
246.2740033244
 30
0.0
  0
VERTEX
  5
2C6
  8
0
  6
CONTINUOUS
 62
     7
 10
541.3280985268
 20
246.2578087424
 30
0.0
  0
VERTEX
  5
2C7
  8
0
  6
CONTINUOUS
 62
     7
 10
542.1573839101
 20
246.2296813105
 30
0.0
  0
VERTEX
  5
2C8
  8
0
  6
CONTINUOUS
 62
     7
 10
542.9693004998
 20
246.1898475264
 30
0.0
  0
VERTEX
  5
2C9
  8
0
  6
CONTINUOUS
 62
     7
 10
543.7583348664
 20
246.1390524481
 30
0.0
  0
VERTEX
  5
2CA
  8
0
  6
CONTINUOUS
 62
     7
 10
544.5315799626
 20
246.0774510477
 30
0.0
  0
VERTEX
  5
2CB
  8
0
  6
CONTINUOUS
 62
     7
 10
545.2838919076
 20
246.0057347392
 30
0.0
  0
VERTEX
  5
2CC
  8
0
  6
CONTINUOUS
 62
     7
 10
546.0063300046
 20
245.9251075362
 30
0.0
  0
VERTEX
  5
2CD
  8
0
  6
CONTINUOUS
 62
     7
 10
546.6887495431
 20
245.8372085665
 30
0.0
  0
VERTEX
  5
2CE
  8
0
  6
CONTINUOUS
 62
     7
 10
547.3227164658
 20
245.7438498114
 30
0.0
  0
VERTEX
  5
2CF
  8
0
  6
CONTINUOUS
 62
     7
 10
547.9004225644
 20
245.647099552
 30
0.0
  0
VERTEX
  5
2D0
  8
0
  6
CONTINUOUS
 62
     7
 10
548.4190843018
 20
245.5487816904
 30
0.0
  0
VERTEX
  5
2D1
  8
0
  6
CONTINUOUS
 62
     7
 10
548.8964817437
 20
245.4467921828
 30
0.0
  0
VERTEX
  5
2D2
  8
0
  6
CONTINUOUS
 62
     7
 10
549.311467162
 20
245.3466921423
 30
0.0
  0
VERTEX
  5
2D3
  8
0
  6
CONTINUOUS
 62
     7
 10
549.6609649571
 20
245.2512591456
 30
0.0
  0
VERTEX
  5
2D4
  8
0
  6
CONTINUOUS
 62
     7
 10
549.9396047505
 20
245.1647310828
 30
0.0
  0
VERTEX
  5
2D5
  8
0
  6
CONTINUOUS
 62
     7
 10
550.1236281308
 20
245.0997858618
 30
0.0
  0
VERTEX
  5
2D6
  8
0
  6
CONTINUOUS
 62
     7
 10
550.2451739224
 20
245.0511961554
 30
0.0
  0
VERTEX
  5
2D7
  8
0
  6
CONTINUOUS
 62
     7
 10
550.308253518
 20
245.022574005
 30
0.0
  0
VERTEX
  5
2D8
  8
0
  6
CONTINUOUS
 62
     7
 10
550.3161034497
 20
245.0186699007
 30
0.0
  0
SEQEND
  5
2EC
  8
0
  6
CONTINUOUS
 62
     7
  0
LINE
  5
222
  8
0
  6
CONTINUOUS
 62
     7
 10
510.7596359166
 20
246.2791412447
 30
0.0
 11
539.7596380624
 21
246.2791412447
 31
0.0
  0
LINE
  5
223
  8
0
  6
CONTINUOUS
 62
     7
 10
510.7596359166
 20
246.176651058
 30
0.0
 11
543.1743285569
 21
246.176651058
 31
0.0
  0
ARC
  5
224
  8
0
  6
CONTINUOUS
 62
     7
 10
552.0696367272
 20
245.1766497803
 30
0.0
 40
2.690000000000055
 50
180.0
 51
270.0
  0
ARC
  5
225
  8
0
  6
CONTINUOUS
 62
     7
 10
552.0696367272
 20
245.1766497803
 30
0.0
 40
2.690000000000055
 50
270.0
 51
0.0
  0
ARC
  5
226
  8
0
  6
CONTINUOUS
 62
     7
 10
478.6596367272
 20
232.6886385058
 30
0.0
 40
0.2000000000000455
 50
0.0
 51
90.0
  0
LINE
  5
227
  8
0
  6
CONTINUOUS
 62
     7
 10
478.6596368017
 20
232.8886359309
 30
0.0
 11
477.6596366378
 21
232.8886359309
 31
0.0
  0
LINE
  5
228
  8
0
  6
CONTINUOUS
 62
     7
 10
469.6596368166
 20
232.8886359309
 30
0.0
 11
468.8596366855
 21
232.8886359309
 31
0.0
  0
ARC
  5
229
  8
0
  6
CONTINUOUS
 62
     7
 10
468.8596367272
 20
232.6886385058
 30
0.0
 40
0.2000000000000455
 50
90.0
 51
180.0
  0
LINE
  5
22A
  8
0
  6
CONTINUOUS
 62
     7
 10
467.8596368941
 20
232.6886385058
 30
0.0
 11
467.8596368941
 21
225.688639221
 31
0.0
  0
ARC
  5
22B
  8
0
  6
CONTINUOUS
 62
     7
 10
468.8596367272
 20
232.6886385058
 30
0.0
 40
1.0
 50
90.0
 51
180.0
  0
ARC
  5
22C
  8
0
  6
CONTINUOUS
 62
     7
 10
478.6596367272
 20
232.6886385058
 30
0.0
 40
1.0
 50
0.0
 51
90.0
  0
LINE
  5
22D
  8
0
  6
CONTINUOUS
 62
     7
 10
479.6596365931
 20
225.688639221
 30
0.0
 11
479.6596365931
 21
232.6886385058
 31
0.0
  0
LINE
  5
22E
  8
0
  6
CONTINUOUS
 62
     7
 10
478.8596368345
 20
225.688639221
 30
0.0
 11
478.8596368345
 21
232.6886385058
 31
0.0
  0
LINE
  5
22F
  8
0
  6
CONTINUOUS
 62
     7
 10
468.6596366527
 20
232.6886385058
 30
0.0
 11
468.6596366527
 21
231.8886368845
 31
0.0
  0
LINE
  5
230
  8
0
  6
CONTINUOUS
 62
     7
 10
478.6596368017
 20
233.6886375521
 30
0.0
 11
468.8596366855
 21
233.6886375521
 31
0.0
  0
LINE
  5
231
  8
0
  6
CONTINUOUS
 62
     7
 10
468.6596366527
 20
223.6886411284
 30
0.0
 11
467.8596368941
 21
223.6886411284
 31
0.0
  0
LINE
  5
232
  8
0
  6
CONTINUOUS
 62
     7
 10
467.8596368941
 20
223.6886411284
 30
0.0
 11
467.8596368941
 21
225.688639221
 31
0.0
  0
LINE
  5
233
  8
0
  6
CONTINUOUS
 62
     7
 10
468.6596366527
 20
223.8886385535
 30
0.0
 11
468.6596366527
 21
223.6886411284
 31
0.0
  0
LINE
  5
234
  8
0
  6
CONTINUOUS
 62
     7
 10
479.6596365931
 20
225.688639221
 30
0.0
 11
479.6596365931
 21
223.6886411284
 31
0.0
  0
LINE
  5
235
  8
0
  6
CONTINUOUS
 62
     7
 10
479.6596365931
 20
223.6886411284
 30
0.0
 11
478.8596368345
 21
223.6886411284
 31
0.0
  0
LINE
  5
236
  8
0
  6
CONTINUOUS
 62
     7
 10
478.8596368345
 20
223.6886411284
 30
0.0
 11
478.8596368345
 21
225.688639221
 31
0.0
  0
POLYLINE
  5
237
  8
0
  6
CONTINUOUS
 62
     7
 66
     1
 10
0.0
 20
0.0
 30
0.0
  0
VERTEX
  5
2D9
  8
0
  6
CONTINUOUS
 62
     7
 10
491.7105427894
 20
249.0807324027
 30
0.0
  0
VERTEX
  5
2DA
  8
0
  6
CONTINUOUS
 62
     7
 10
491.8805099043
 20
249.4452028845
 30
0.0
  0
VERTEX
  5
2DB
  8
0
  6
CONTINUOUS
 62
     7
 10
492.128034583
 20
249.7834413622
 30
0.0
  0
VERTEX
  5
2DC
  8
0
  6
CONTINUOUS
 62
     7
 10
492.520045391
 20
250.1564651106
 30
0.0
  0
VERTEX
  5
2DD
  8
0
  6
CONTINUOUS
 62
     7
 10
492.9776615414
 20
250.4722505186
 30
0.0
  0
VERTEX
  5
2DE
  8
0
  6
CONTINUOUS
 62
     7
 10
493.751656166
 20
250.8508651827
 30
0.0
  0
VERTEX
  5
2DF
  8
0
  6
CONTINUOUS
 62
     7
 10
494.58582764
 20
251.1286407088
 30
0.0
  0
SEQEND
  5
2EB
  8
0
  6
CONTINUOUS
 62
     7
  0
POLYLINE
  5
238
  8
0
  6
CONTINUOUS
 62
     7
 66
     1
 10
0.0
 20
0.0
 30
0.0
  0
VERTEX
  5
2E0
  8
0
  6
CONTINUOUS
 62
     7
 10
497.4930963429
 20
246.2912111853
 30
0.0
  0
VERTEX
  5
2E1
  8
0
  6
CONTINUOUS
 62
     7
 10
495.4617044839
 20
246.347978649
 30
0.0
  0
VERTEX
  5
2E2
  8
0
  6
CONTINUOUS
 62
     7
 10
494.3708485874
 20
246.4761107539
 30
0.0
  0
VERTEX
  5
2E3
  8
0
  6
CONTINUOUS
 62
     7
 10
493.3108798179
 20
246.7493563269
 30
0.0
  0
VERTEX
  5
2E4
  8
0
  6
CONTINUOUS
 62
     7
 10
492.6196089896
 20
247.0730274294
 30
0.0
  0
VERTEX
  5
2E5
  8
0
  6
CONTINUOUS
 62
     7
 10
492.3039025577
 20
247.2944586848
 30
0.0
  0
VERTEX
  5
2E6
  8
0
  6
CONTINUOUS
 62
     7
 10
492.0270643147
 20
247.5618689631
 30
0.0
  0
VERTEX
  5
2E7
  8
0
  6
CONTINUOUS
 62
     7
 10
491.7380592736
 20
248.0242817973
 30
0.0
  0
VERTEX
  5
2E8
  8
0
  6
CONTINUOUS
 62
     7
 10
491.6264004024
 20
248.5613077258
 30
0.0
  0
VERTEX
  5
2E9
  8
0
  6
CONTINUOUS
 62
     7
 10
491.7105427894
 20
249.0807324027
 30
0.0
  0
SEQEND
  5
2EA
  8
0
  6
CONTINUOUS
 62
     7
  0
LINE
  5
239
  8
0
  6
CONTINUOUS
 62
     7
 10
499.7596374663
 20
246.2996154402
 30
0.0
 11
497.4930963429
 21
246.2912111853
 31
0.0
  0
LINE
  5
23A
  8
0
  6
CONTINUOUS
 62
     7
 10
510.7596359166
 20
246.2996154402
 30
0.0
 11
499.7596374663
 21
246.2996154402
 31
0.0
  0
ARC
  5
23B
  8
0
  6
CONTINUOUS
 62
     7
 10
471.365618485
 20
359.1781481065
 30
0.0
 40
120.0
 50
280.9468409701
 51
289.1646231125
  0
LINE
  5
23C
  8
0
  6
CONTINUOUS
 62
     7
 10
494.1533974322
 20
241.3616924857
 30
0.0
 11
489.7404513272
 21
240.5081539725
 31
0.0
  0
ARC
  5
23D
  8
0
  6
CONTINUOUS
 62
     7
 10
491.2596367272
 20
232.6537209574
 30
0.0
 40
8.000000000000025
 50
100.9468409701
 51
180.0
  0
LINE
  5
23E
  8
0
  6
CONTINUOUS
 62
     7
 10
483.2596368107
 20
232.6537221049
 30
0.0
 11
483.2596368107
 21
231.8886368845
 31
0.0
  0
ARC
  5
23F
  8
0
  6
CONTINUOUS
 62
     7
 10
481.2596367272
 20
231.8886385058
 30
0.0
 40
2.0
 50
270.0
 51
0.0
  0
LINE
  5
240
  8
0
  6
CONTINUOUS
 62
     7
 10
481.2596364828
 20
229.8886387919
 30
0.0
 11
479.6596365931
 21
229.8886387919
 31
0.0
  0
LINE
  5
241
  8
0
  6
CONTINUOUS
 62
     7
 10
467.8596368941
 20
229.8886387919
 30
0.0
 11
467.059636763
 21
229.8886387919
 31
0.0
  0
LINE
  5
242
  8
0
  6
CONTINUOUS
 62
     7
 10
465.0596364352
 20
231.8886368845
 30
0.0
 11
465.0596364352
 21
234.4496636961
 31
0.0
  0
ARC
  5
243
  8
0
  6
CONTINUOUS
 62
     7
 10
473.0596367272
 20
234.4496629562
 30
0.0
 40
7.999999999999988
 50
140.3596923241
 51
180.0
  0
ARC
  5
244
  8
0
  6
CONTINUOUS
 62
     7
 10
491.5411876867
 20
219.1384816126
 30
0.0
 40
32.00000000000005
 50
91.4211498515
 51
140.3596923241
  0
LINE
  5
245
  8
0
  6
CONTINUOUS
 62
     7
 10
490.7475492867
 20
251.1286407088
 30
0.0
 11
494.58582764
 21
251.1286407088
 31
0.0
  0
LINE
  5
246
  8
0
  6
CONTINUOUS
 62
     7
 10
510.7596359166
 20
246.2996154402
 30
0.0
 11
510.7596359166
 21
245.8286374186
 31
0.0
  0
ARC
  5
247
  8
0
  6
CONTINUOUS
 62
     7
 10
467.0596367272
 20
231.8886385058
 30
0.0
 40
2.0
 50
180.0
 51
270.0
  0
LINE
  5
248
  8
0
  6
CONTINUOUS
 62
     7
 10
549.3796369943
 20
245.2932983015
 30
0.0
 11
549.3796369943
 21
245.1766520117
 31
0.0
  0
LINE
  5
249
  8
0
  6
CONTINUOUS
 62
     7
 10
554.7596356782
 20
245.1766520117
 30
0.0
 11
554.7596356782
 21
246.894481716
 31
0.0
  0
LINE
  5
24A
  8
0
  6
CONTINUOUS
 62
     7
 10
554.7596356782
 20
246.894481716
 30
0.0
 11
554.7591946038
 21
246.9427376364
 31
0.0
  0
ARC
  5
24B
  8
0
  6
CONTINUOUS
 62
     7
 10
469.6596367272
 20
231.8886385058
 30
0.0
 40
1.0
 50
90.0
 51
180.0
  0
LINE
  5
24C
  8
0
  6
CONTINUOUS
 62
     7
 10
468.6596366527
 20
223.8886385535
 30
0.0
 11
468.6596366527
 21
231.8886368845
 31
0.0
  0
ARC
  5
24D
  8
0
  6
CONTINUOUS
 62
     7
 10
469.6596367272
 20
223.8886385058
 30
0.0
 40
1.0
 50
180.0
 51
270.0
  0
LINE
  5
24E
  8
0
  6
CONTINUOUS
 62
     7
 10
477.6596366378
 20
222.8886395071
 30
0.0
 11
469.6596368166
 21
222.8886395071
 31
0.0
  0
LINE
  5
24F
  8
0
  6
CONTINUOUS
 62
     7
 10
469.6596368166
 20
232.8886359309
 30
0.0
 11
477.6596366378
 21
232.8886359309
 31
0.0
  0
ARC
  5
250
  8
0
  6
CONTINUOUS
 62
     7
 10
477.6596367272
 20
231.8886385058
 30
0.0
 40
1.0
 50
0.0
 51
90.0
  0
ARC
  5
251
  8
0
  6
CONTINUOUS
 62
     7
 10
477.6596367272
 20
223.8886385058
 30
0.0
 40
1.0
 50
270.0
 51
0.0
  0
LINE
  5
252
  8
0
  6
CONTINUOUS
 62
     7
 10
478.6596368017
 20
231.8886368845
 30
0.0
 11
478.6596368017
 21
223.8886385535
 31
0.0
  0
LINE
  5
253
  8
0
  6
CONTINUOUS
 62
     7
 10
461.6596369954
 20
157.6886385058
 30
0.0
 11
461.6596369954
 21
158.8886385162
 31
0.0
  0
LINE
  5
254
  8
0
  6
CONTINUOUS
 62
     7
 10
465.659636906
 20
157.6886385058
 30
0.0
 11
461.6596369954
 21
157.6886385058
 31
0.0
  0
LINE
  5
255
  8
0
  6
CONTINUOUS
 62
     7
 10
461.6596369954
 20
158.8886385162
 30
0.0
 11
465.659636906
 21
158.8886385162
 31
0.0
  0
LINE
  5
256
  8
0
  6
CONTINUOUS
 62
     7
 10
465.659636906
 20
157.6886385058
 30
0.0
 11
467.6596368613
 21
157.6886385058
 31
0.0
  0
LINE
  5
257
  8
0
  6
CONTINUOUS
 62
     7
 10
465.659636906
 20
158.8886385162
 30
0.0
 11
467.6596368613
 21
158.8886385162
 31
0.0
  0
LINE
  5
258
  8
0
  6
CONTINUOUS
 62
     7
 10
467.6596368613
 20
157.6886385058
 30
0.0
 11
495.0280583414
 21
157.6886385058
 31
0.0
  0
LINE
  5
259
  8
0
  6
CONTINUOUS
 62
     7
 10
495.0280583414
 20
158.8886385162
 30
0.0
 11
467.6596368613
 21
158.8886385162
 31
0.0
  0
LINE
  5
25A
  8
0
  6
CONTINUOUS
 62
     7
 10
497.6596361908
 20
158.8886385162
 30
0.0
 11
497.6596361908
 21
157.6886385058
 31
0.0
  0
LINE
  5
25B
  8
0
  6
CONTINUOUS
 62
     7
 10
497.6596361908
 20
157.6886385058
 30
0.0
 11
495.0280583414
 21
157.6886385058
 31
0.0
  0
LINE
  5
25C
  8
0
  6
CONTINUOUS
 62
     7
 10
495.0280583414
 20
158.8886385162
 30
0.0
 11
497.6596361908
 21
158.8886385162
 31
0.0
  0
LINE
  5
25D
  8
0
  6
CONTINUOUS
 62
     7
 10
468.6596366527
 20
158.8886385162
 30
0.0
 11
468.6596366527
 21
223.6886411284
 31
0.0
  0
LINE
  5
25E
  8
0
  6
CONTINUOUS
 62
     7
 10
478.6596368017
 20
223.8886385535
 30
0.0
 11
478.6596368017
 21
158.8886385162
 31
0.0
  0
ENDSEC
  0
EOF
