  0
SECTION
  2
HEADER
  9
$ACADVER
  1
AC1009
  9
$DWGCODEPAGE
  3
ansi_1252
  9
$INSBASE
 10
0.0
 20
0.0
 30
0.0
  9
$EXTMIN
 10
0.0
 20
0.0
 30
0.0
  9
$EXTMAX
 10
420.0
 20
297.0
 30
0.0
  9
$LIMMIN
 10
0.0
 20
0.0
  9
$LIMMAX
 10
420.0
 20
297.0
  9
$ORTHOMODE
 70
     0
  9
$REGENMODE
 70
     1
  9
$FILLMODE
 70
     1
  9
$QTEXTMODE
 70
     0
  9
$MIRRTEXT
 70
     1
  9
$DRAGMODE
 70
     2
  9
$LTSCALE
 40
1.0
  9
$OSMODE
 70
    37
  9
$ATTMODE
 70
     1
  9
$TEXTSIZE
 40
3.5
  9
$TRACEWID
 40
1.0
  9
$TEXTSTYLE
  7
STANDARD
  9
$CLAYER
  8
0
  9
$CELTYPE
  6
BYLAYER
  9
$CECOLOR
 62
   256
  9
$DIMSCALE
 40
1.0
  9
$DIMASZ
 40
4.0
  9
$DIMEXO
 40
0.0
  9
$DIMDLI
 40
3.75
  9
$DIMRND
 40
0.0
  9
$DIMDLE
 40
0.0
  9
$DIMEXE
 40
2.0
  9
$DIMTP
 40
0.0
  9
$DIMTM
 40
0.0
  9
$DIMTXT
 40
3.5
  9
$DIMCEN
 40
2.5
  9
$DIMTSZ
 40
0.0
  9
$DIMTOL
 70
     0
  9
$DIMLIM
 70
     0
  9
$DIMTIH
 70
     1
  9
$DIMTOH
 70
     1
  9
$DIMSE1
 70
     0
  9
$DIMSE2
 70
     0
  9
$DIMTAD
 70
     1
  9
$DIMZIN
 70
     0
  9
$DIMBLK
  1

  9
$DIMASO
 70
     1
  9
$DIMSHO
 70
     1
  9
$DIMPOST
  1

  9
$DIMAPOST
  1

  9
$DIMALT
 70
     0
  9
$DIMALTD
 70
     3
  9
$DIMALTF
 40
0.0393700787
  9
$DIMLFAC
 40
5.0
  9
$DIMTOFL
 70
     1
  9
$DIMTVP
 40
0.0
  9
$DIMTIX
 70
     0
  9
$DIMSOXD
 70
     0
  9
$DIMSAH
 70
     0
  9
$DIMBLK1
  1

  9
$DIMBLK2
  1

  9
$DIMSTYLE
  2
ISO-25
  9
$DIMCLRD
 70
     0
  9
$DIMCLRE
 70
     0
  9
$DIMCLRT
 70
     0
  9
$DIMTFAC
 40
1.0
  9
$DIMGAP
 40
1.524
  9
$LUNITS
 70
     2
  9
$LUPREC
 70
     2
  9
$SKETCHINC
 40
1.0
  9
$FILLETRAD
 40
10.0
  9
$AUNITS
 70
     0
  9
$AUPREC
 70
     2
  9
$MENU
  1
.
  9
$ELEVATION
 40
0.0
  9
$PELEVATION
 40
0.0
  9
$THICKNESS
 40
0.0
  9
$LIMCHECK
 70
     0
  9
$CHAMFERA
 40
10.0
  9
$CHAMFERB
 40
10.0
  9
$SKPOLY
 70
     0
  9
$TDCREATE
 40
2457802.539537905
  9
$TDUPDATE
 40
2457802.539538148
  9
$TDINDWG
 40
0.0000000116
  9
$TDUSRTIMER
 40
0.0000000116
  9
$USRTIMER
 70
     1
  9
$ANGBASE
 50
0.0
  9
$ANGDIR
 70
     0
  9
$PDMODE
 70
     0
  9
$PDSIZE
 40
-1.0
  9
$PLINEWID
 40
0.0
  9
$COORDS
 70
     1
  9
$SPLFRAME
 70
     0
  9
$SPLINETYPE
 70
     6
  9
$SPLINESEGS
 70
     8
  9
$ATTDIA
 70
     0
  9
$ATTREQ
 70
     1
  9
$HANDLING
 70
     1
  9
$HANDSEED
  5
71C
  9
$SURFTAB1
 70
     6
  9
$SURFTAB2
 70
     6
  9
$SURFTYPE
 70
     6
  9
$SURFU
 70
     6
  9
$SURFV
 70
     6
  9
$UCSNAME
  2

  9
$UCSORG
 10
0.0
 20
0.0
 30
0.0
  9
$UCSXDIR
 10
1.0
 20
0.0
 30
0.0
  9
$UCSYDIR
 10
0.0
 20
1.0
 30
0.0
  9
$PUCSNAME
  2

  9
$PUCSORG
 10
0.0
 20
0.0
 30
0.0
  9
$PUCSXDIR
 10
1.0
 20
0.0
 30
0.0
  9
$PUCSYDIR
 10
0.0
 20
1.0
 30
0.0
  9
$USERI1
 70
     0
  9
$USERI2
 70
     0
  9
$USERI3
 70
     0
  9
$USERI4
 70
     0
  9
$USERI5
 70
     0
  9
$USERR1
 40
0.0
  9
$USERR2
 40
0.0
  9
$USERR3
 40
0.0
  9
$USERR4
 40
0.0
  9
$USERR5
 40
0.0
  9
$WORLDVIEW
 70
     1
  9
$SHADEDGE
 70
     3
  9
$SHADEDIF
 70
    70
  9
$TILEMODE
 70
     1
  9
$MAXACTVP
 70
    64
  9
$PLIMCHECK
 70
     0
  9
$PEXTMIN
 10
1.0000000000E+20
 20
1.0000000000E+20
 30
1.0000000000E+20
  9
$PEXTMAX
 10
-1.0000000000E+20
 20
-1.0000000000E+20
 30
-1.0000000000E+20
  9
$PLIMMIN
 10
0.0
 20
0.0
  9
$PLIMMAX
 10
420.0
 20
297.0
  9
$UNITMODE
 70
     0
  9
$VISRETAIN
 70
     1
  9
$PLINEGEN
 70
     0
  9
$PSLTSCALE
 70
     1
  0
ENDSEC
  0
SECTION
  2
TABLES
  0
TABLE
  2
VPORT
 70
     1
  0
VPORT
  2
*ACTIVE
 70
     0
 10
0.0
 20
0.0
 11
1.0
 21
1.0
 12
210.0
 22
148.5
 13
0.0
 23
0.0
 14
10.0
 24
10.0
 15
10.0
 25
10.0
 16
0.0
 26
0.0
 36
1.0
 17
0.0
 27
0.0
 37
0.0
 40
297.0
 41
1.4141414141
 42
50.0
 43
0.0
 44
0.0
 50
0.0
 51
0.0
 71
     0
 72
  2000
 73
     1
 74
     3
 75
     0
 76
     0
 77
     0
 78
     0
  0
ENDTAB
  0
TABLE
  2
LTYPE
 70
     6
  0
LTYPE
  2
CONTINUOUS
 70
     0
  3
Solid line
 72
    65
 73
     0
 40
0.0
  0
LTYPE
  2
HIDDEN
 70
     0
  3
Hidden __ __ __ __ __ __ __ __ __ __ __ __ __ __
 72
    65
 73
     2
 40
1.905
 49
1.27
 49
-0.635
  0
LTYPE
  2
PHANTOM
 70
     0
  3
Phantom ______  __  __  ______  __  __  ______
 72
    65
 73
     6
 40
12.7
 49
6.35
 49
-1.27
 49
1.27
 49
-1.27
 49
1.27
 49
-1.27
  0
LTYPE
  2
CENTER
 70
     0
  3
Center ____ _ ____ _ ____ _ ____ _ ____ _ ____
 72
    65
 73
     4
 40
10.16
 49
6.35
 49
-1.27
 49
1.27
 49
-1.27
  0
LTYPE
  2
CENTERX2
 70
     0
  3
Center (2x) ________  __  ________  __  _____
 72
    65
 73
     4
 40
20.32
 49
12.7
 49
-2.54
 49
2.54
 49
-2.54
  0
LTYPE
  2
DOT2
 70
     0
  3
Dot (.5x) ........................................
 72
    65
 73
     2
 40
0.635
 49
0.0
 49
-0.635
  0
ENDTAB
  0
TABLE
  2
LAYER
 70
     2
  0
LAYER
  2
0
 70
     0
 62
     7
  6
CONTINUOUS
  0
LAYER
  2
FORMAT
 70
     0
 62
     7
  6
CONTINUOUS
  0
ENDTAB
  0
TABLE
  2
STYLE
 70
     1
  0
STYLE
  2
STANDARD
 70
     0
 40
0.0
 41
1.0
 50
0.0
 71
     0
 42
3.5
  3
txt
  4

  0
ENDTAB
  0
TABLE
  2
VIEW
 70
     0
  0
ENDTAB
  0
TABLE
  2
UCS
 70
     0
  0
ENDTAB
  0
TABLE
  2
APPID
 70
     1
  0
APPID
  2
ACAD
 70
     0
  0
ENDTAB
  0
TABLE
  2
DIMSTYLE
 70
     1
  0
DIMSTYLE
  2
ISO-25
 70
     0
  3

  4

  5

  6

  7

 40
1.0
 41
2.5
 42
0.625
 43
3.75
 44
1.25
 45
0.0
 46
0.0
 47
0.0
 48
0.0
140
2.5
141
2.5
142
0.0
143
0.0393700787
144
1.0
145
0.0
146
1.0
147
0.625
 71
     0
 72
     0
 73
     0
 74
     0
 75
     0
 76
     0
 77
     1
 78
     8
170
     0
171
     3
172
     1
173
     0
174
     0
175
     0
176
     0
177
     0
178
     0
  0
ENDTAB
  0
ENDSEC
  0
SECTION
  2
BLOCKS
  0
BLOCK
  8
0
  2
$MODEL_SPACE
 70
     0
 10
0.0
 20
0.0
 30
0.0
  3
$MODEL_SPACE
  1

  0
ENDBLK
  5
21
  8
0
  0
BLOCK
 67
     1
  8
0
  2
$PAPER_SPACE
 70
     0
 10
0.0
 20
0.0
 30
0.0
  3
$PAPER_SPACE
  1

  0
ENDBLK
  5
1D
 67
     1
  8
0
  0
ENDSEC
  0
SECTION
  2
ENTITIES
  0
LINE
  5
45
  8
0
  6
CONTINUOUS
 62
     7
 10
20.7109622427
 20
145.8678768069
 30
0.0
 11
20.7109622427
 21
162.4678776652
 31
0.0
  0
LINE
  5
46
  8
0
  6
CONTINUOUS
 62
     7
 10
15.31096024
 20
162.4678776652
 30
0.0
 11
15.31096024
 21
145.8678768069
 31
0.0
  0
LINE
  5
47
  8
0
  6
CONTINUOUS
 62
     7
 10
15.31096024
 20
177.467875281
 30
0.0
 11
15.31096024
 21
162.4678776652
 31
0.0
  0
LINE
  5
48
  8
0
  6
CONTINUOUS
 62
     7
 10
20.7109622427
 20
162.4678776652
 30
0.0
 11
20.7109622427
 21
177.467875281
 31
0.0
  0
LINE
  5
49
  8
0
  6
CONTINUOUS
 62
     7
 10
15.31096024
 20
145.8678768069
 30
0.0
 11
15.31096024
 21
130.867879191
 31
0.0
  0
LINE
  5
4A
  8
0
  6
CONTINUOUS
 62
     7
 10
20.7109622427
 20
130.867879191
 30
0.0
 11
20.7109622427
 21
145.8678768069
 31
0.0
  0
LINE
  5
4B
  8
0
  6
CONTINUOUS
 62
     7
 10
135.3109599792
 20
177.467875281
 30
0.0
 11
135.3109599792
 21
162.4678776652
 31
0.0
  0
LINE
  5
4C
  8
0
  6
CONTINUOUS
 62
     7
 10
140.7109601193
 20
162.4678776652
 30
0.0
 11
140.7109601193
 21
177.467875281
 31
0.0
  0
LINE
  5
4D
  8
0
  6
CONTINUOUS
 62
     7
 10
140.7109601193
 20
145.8678768069
 30
0.0
 11
140.7109601193
 21
162.4678776652
 31
0.0
  0
LINE
  5
4E
  8
0
  6
CONTINUOUS
 62
     7
 10
135.3109599792
 20
162.4678776652
 30
0.0
 11
135.3109599792
 21
145.8678768069
 31
0.0
  0
LINE
  5
4F
  8
0
  6
CONTINUOUS
 62
     7
 10
135.3109599792
 20
145.8678768069
 30
0.0
 11
135.3109599792
 21
130.867879191
 31
0.0
  0
LINE
  5
50
  8
0
  6
CONTINUOUS
 62
     7
 10
140.7109601193
 20
130.867879191
 30
0.0
 11
140.7109601193
 21
145.8678768069
 31
0.0
  0
LINE
  5
51
  8
0
  6
CONTINUOUS
 62
     7
 10
260.7109598585
 20
145.8678768069
 30
0.0
 11
260.7109598585
 21
162.4678776652
 31
0.0
  0
LINE
  5
52
  8
0
  6
CONTINUOUS
 62
     7
 10
255.3109578558
 20
162.4678776652
 30
0.0
 11
255.3109578558
 21
145.8678768069
 31
0.0
  0
LINE
  5
53
  8
0
  6
CONTINUOUS
 62
     7
 10
255.3109578558
 20
177.467875281
 30
0.0
 11
255.3109578558
 21
162.4678776652
 31
0.0
  0
LINE
  5
54
  8
0
  6
CONTINUOUS
 62
     7
 10
260.7109598585
 20
162.4678776652
 30
0.0
 11
260.7109598585
 21
177.467875281
 31
0.0
  0
LINE
  5
55
  8
0
  6
CONTINUOUS
 62
     7
 10
255.3109578558
 20
145.8678768069
 30
0.0
 11
255.3109578558
 21
130.867879191
 31
0.0
  0
LINE
  5
56
  8
0
  6
CONTINUOUS
 62
     7
 10
260.7109598585
 20
130.867879191
 30
0.0
 11
260.7109598585
 21
145.8678768069
 31
0.0
  0
ARC
  5
57
  8
0
  6
CONTINUOUS
 62
     7
 10
102.9617935845
 20
192.801839366
 30
0.0
 40
15.10054150829809
 50
271.1941136686
 51
0.2074254998
  0
ARC
  5
58
  8
0
  6
CONTINUOUS
 62
     7
 10
53.0580786287
 20
192.7979978237
 30
0.0
 40
15.09766857322427
 50
179.7787705677
 51
268.8139347625
  0
LINE
  5
59
  8
0
  6
CONTINUOUS
 62
     7
 10
37.9522017904
 20
232.5586007029
 30
0.0
 11
37.9522017904
 21
192.8567574412
 31
0.0
  0
LINE
  5
5A
  8
0
  6
CONTINUOUS
 62
     7
 10
118.0697165199
 20
192.8567574412
 30
0.0
 11
118.0697165199
 21
232.5586007029
 31
0.0
  0
POLYLINE
  5
5B
  8
0
  6
CONTINUOUS
 62
     7
 66
     1
 10
0.0
 20
0.0
 30
0.0
  0
VERTEX
  5
354
  8
0
  6
CONTINUOUS
 62
     7
 10
52.7454189726
 20
177.6960537821
 30
0.0
  0
VERTEX
  5
355
  8
0
  6
CONTINUOUS
 62
     7
 10
54.5372240015
 20
177.6672408968
 30
0.0
  0
VERTEX
  5
356
  8
0
  6
CONTINUOUS
 62
     7
 10
57.9477958151
 20
177.6183531672
 30
0.0
  0
VERTEX
  5
357
  8
0
  6
CONTINUOUS
 62
     7
 10
61.3651625582
 20
177.5771186739
 30
0.0
  0
VERTEX
  5
358
  8
0
  6
CONTINUOUS
 62
     7
 10
64.7881261774
 20
177.5435731798
 30
0.0
  0
VERTEX
  5
359
  8
0
  6
CONTINUOUS
 62
     7
 10
68.2155422636
 20
177.5177286059
 30
0.0
  0
VERTEX
  5
35A
  8
0
  6
CONTINUOUS
 62
     7
 10
71.6462485262
 20
177.499584952
 30
0.0
  0
VERTEX
  5
35B
  8
0
  6
CONTINUOUS
 62
     7
 10
75.079100556
 20
177.4891422182
 30
0.0
  0
VERTEX
  5
35C
  8
0
  6
CONTINUOUS
 62
     7
 10
78.5129360624
 20
177.4864123255
 30
0.0
  0
VERTEX
  5
35D
  8
0
  6
CONTINUOUS
 62
     7
 10
81.9465987154
 20
177.4913952738
 30
0.0
  0
VERTEX
  5
35E
  8
0
  6
CONTINUOUS
 62
     7
 10
85.3789262243
 20
177.5040910632
 30
0.0
  0
VERTEX
  5
35F
  8
0
  6
CONTINUOUS
 62
     7
 10
88.80877418
 20
177.5244877726
 30
0.0
  0
VERTEX
  5
360
  8
0
  6
CONTINUOUS
 62
     7
 10
92.234980292
 20
177.5525854021
 30
0.0
  0
VERTEX
  5
361
  8
0
  6
CONTINUOUS
 62
     7
 10
95.6563941904
 20
177.5883839518
 30
0.0
  0
VERTEX
  5
362
  8
0
  6
CONTINUOUS
 62
     7
 10
99.0718565651
 20
177.6318476588
 30
0.0
  0
VERTEX
  5
363
  8
0
  6
CONTINUOUS
 62
     7
 10
102.301081247
 20
177.6801035792
 30
0.0
  0
VERTEX
  5
364
  8
0
  6
CONTINUOUS
 62
     7
 10
103.276502318
 20
177.6960537821
 30
0.0
  0
SEQEND
  5
71B
  8
0
  6
CONTINUOUS
 62
     7
  0
ARC
  5
5C
  8
0
  6
CONTINUOUS
 62
     7
 10
52.4707071424
 20
232.9563676172
 30
0.0
 40
14.25376704277383
 50
88.5351640956
 51
113.3276889279
  0
ARC
  5
5D
  8
0
  6
CONTINUOUS
 62
     7
 10
103.5498141483
 20
232.9190064549
 30
0.0
 40
14.29230839019054
 50
66.7644782449
 51
91.4553543428
  0
POLYLINE
  5
5E
  8
0
  6
CONTINUOUS
 62
     7
 66
     1
 10
0.0
 20
0.0
 30
0.0
  0
VERTEX
  5
365
  8
0
  6
CONTINUOUS
 62
     7
 10
44.1345445582
 20
244.5592091471
 30
0.0
  0
VERTEX
  5
366
  8
0
  6
CONTINUOUS
 62
     7
 10
44.0891556212
 20
244.5293829829
 30
0.0
  0
VERTEX
  5
367
  8
0
  6
CONTINUOUS
 62
     7
 10
43.7573723265
 20
244.2784593493
 30
0.0
  0
SEQEND
  5
71A
  8
0
  6
CONTINUOUS
 62
     7
  0
ARC
  5
5F
  8
0
  6
CONTINUOUS
 62
     7
 10
52.5174209373
 20
232.6557720021
 30
0.0
 40
14.55833199556979
 50
128.466586022
 51
180.3828525126
  0
ARC
  5
60
  8
0
  6
CONTINUOUS
 62
     7
 10
103.4819768483
 20
232.6510422441
 30
0.0
 40
14.57975902578256
 50
359.6361570838
 51
54.8680401908
  0
POLYLINE
  5
61
  8
0
  6
CONTINUOUS
 62
     7
 66
     1
 10
0.0
 20
0.0
 30
0.0
  0
VERTEX
  5
368
  8
0
  6
CONTINUOUS
 62
     7
 10
103.1867824265
 20
247.2136423975
 30
0.0
  0
VERTEX
  5
369
  8
0
  6
CONTINUOUS
 62
     7
 10
101.4014415213
 20
247.1849368006
 30
0.0
  0
VERTEX
  5
36A
  8
0
  6
CONTINUOUS
 62
     7
 10
98.0032287308
 20
247.136215964
 30
0.0
  0
VERTEX
  5
36B
  8
0
  6
CONTINUOUS
 62
     7
 10
94.5981345841
 20
247.0951364428
 30
0.0
  0
VERTEX
  5
36C
  8
0
  6
CONTINUOUS
 62
     7
 10
91.1873541542
 20
247.061710158
 30
0.0
  0
VERTEX
  5
36D
  8
0
  6
CONTINUOUS
 62
     7
 10
87.7720527121
 20
247.0359490305
 30
0.0
  0
VERTEX
  5
36E
  8
0
  6
CONTINUOUS
 62
     7
 10
84.3534044691
 20
247.0178649813
 30
0.0
  0
VERTEX
  5
36F
  8
0
  6
CONTINUOUS
 62
     7
 10
80.9325806566
 20
247.0074580103
 30
0.0
  0
VERTEX
  5
370
  8
0
  6
CONTINUOUS
 62
     7
 10
77.5107495257
 20
247.0047400385
 30
0.0
  0
VERTEX
  5
371
  8
0
  6
CONTINUOUS
 62
     7
 10
74.0890793272
 20
247.0097110659
 30
0.0
  0
VERTEX
  5
372
  8
0
  6
CONTINUOUS
 62
     7
 10
70.6687561937
 20
247.0223591715
 30
0.0
  0
VERTEX
  5
373
  8
0
  6
CONTINUOUS
 62
     7
 10
67.2509424158
 20
247.0426843554
 30
0.0
  0
VERTEX
  5
374
  8
0
  6
CONTINUOUS
 62
     7
 10
63.8368122049
 20
247.0706866175
 30
0.0
  0
VERTEX
  5
375
  8
0
  6
CONTINUOUS
 62
     7
 10
60.4275338122
 20
247.1063540369
 30
0.0
  0
VERTEX
  5
376
  8
0
  6
CONTINUOUS
 62
     7
 10
57.0242814489
 20
247.1496746928
 30
0.0
  0
VERTEX
  5
377
  8
0
  6
CONTINUOUS
 62
     7
 10
53.8067571589
 20
247.1977517992
 30
0.0
  0
VERTEX
  5
378
  8
0
  6
CONTINUOUS
 62
     7
 10
52.8351358839
 20
247.2136423975
 30
0.0
  0
SEQEND
  5
719
  8
0
  6
CONTINUOUS
 62
     7
  0
ARC
  5
62
  8
0
  6
CONTINUOUS
 62
     7
 10
222.9617976449
 20
192.8018312703
 30
0.0
 40
15.10053330490873
 50
271.1940943835
 51
0.20745633
  0
ARC
  5
63
  8
0
  6
CONTINUOUS
 62
     7
 10
173.0580880689
 20
192.798012652
 30
0.0
 40
15.09768361845966
 50
179.7788270622
 51
268.8138955865
  0
LINE
  5
64
  8
0
  6
CONTINUOUS
 62
     7
 10
157.9522035786
 20
232.5586007029
 30
0.0
 11
157.9522035786
 21
192.8567574412
 31
0.0
  0
LINE
  5
65
  8
0
  6
CONTINUOUS
 62
     7
 10
238.0697183081
 20
192.8567574412
 30
0.0
 11
238.0697183081
 21
232.5586007029
 31
0.0
  0
POLYLINE
  5
66
  8
0
  6
CONTINUOUS
 62
     7
 66
     1
 10
0.0
 20
0.0
 30
0.0
  0
VERTEX
  5
379
  8
0
  6
CONTINUOUS
 62
     7
 10
172.7454177805
 20
177.6960537821
 30
0.0
  0
VERTEX
  5
37A
  8
0
  6
CONTINUOUS
 62
     7
 10
174.5372257897
 20
177.6672408968
 30
0.0
  0
VERTEX
  5
37B
  8
0
  6
CONTINUOUS
 62
     7
 10
177.9477976032
 20
177.6183531672
 30
0.0
  0
VERTEX
  5
37C
  8
0
  6
CONTINUOUS
 62
     7
 10
181.3651613661
 20
177.5771186739
 30
0.0
  0
VERTEX
  5
37D
  8
0
  6
CONTINUOUS
 62
     7
 10
184.7881249853
 20
177.5435731798
 30
0.0
  0
VERTEX
  5
37E
  8
0
  6
CONTINUOUS
 62
     7
 10
188.2155410715
 20
177.5177286059
 30
0.0
  0
VERTEX
  5
37F
  8
0
  6
CONTINUOUS
 62
     7
 10
191.6462473341
 20
177.499584952
 30
0.0
  0
VERTEX
  5
380
  8
0
  6
CONTINUOUS
 62
     7
 10
195.0790993639
 20
177.4891422182
 30
0.0
  0
VERTEX
  5
381
  8
0
  6
CONTINUOUS
 62
     7
 10
198.5129348704
 20
177.4864123255
 30
0.0
  0
VERTEX
  5
382
  8
0
  6
CONTINUOUS
 62
     7
 10
201.9465975233
 20
177.4913952738
 30
0.0
  0
VERTEX
  5
383
  8
0
  6
CONTINUOUS
 62
     7
 10
205.3789309927
 20
177.5040910632
 30
0.0
  0
VERTEX
  5
384
  8
0
  6
CONTINUOUS
 62
     7
 10
208.808772988
 20
177.5244877726
 30
0.0
  0
VERTEX
  5
385
  8
0
  6
CONTINUOUS
 62
     7
 10
212.2349790999
 20
177.5525854021
 30
0.0
  0
VERTEX
  5
386
  8
0
  6
CONTINUOUS
 62
     7
 10
215.6563929983
 20
177.5883839518
 30
0.0
  0
VERTEX
  5
387
  8
0
  6
CONTINUOUS
 62
     7
 10
219.0718583532
 20
177.6318476588
 30
0.0
  0
VERTEX
  5
388
  8
0
  6
CONTINUOUS
 62
     7
 10
222.3010830351
 20
177.6801035792
 30
0.0
  0
VERTEX
  5
389
  8
0
  6
CONTINUOUS
 62
     7
 10
223.2765011259
 20
177.6960537821
 30
0.0
  0
SEQEND
  5
718
  8
0
  6
CONTINUOUS
 62
     7
  0
ARC
  5
67
  8
0
  6
CONTINUOUS
 62
     7
 10
172.4706991879
 20
232.9564026303
 30
0.0
 40
14.25373221399417
 50
88.5351333239
 51
113.3277196996
  0
ARC
  5
68
  8
0
  6
CONTINUOUS
 62
     7
 10
223.5498143847
 20
232.9189983892
 30
0.0
 40
14.29231641385403
 50
66.7644852849
 51
91.4553473028
  0
POLYLINE
  5
69
  8
0
  6
CONTINUOUS
 62
     7
 66
     1
 10
0.0
 20
0.0
 30
0.0
  0
VERTEX
  5
38A
  8
0
  6
CONTINUOUS
 62
     7
 10
164.1345433661
 20
244.5592091471
 30
0.0
  0
VERTEX
  5
38B
  8
0
  6
CONTINUOUS
 62
     7
 10
164.0891544291
 20
244.5293829829
 30
0.0
  0
VERTEX
  5
38C
  8
0
  6
CONTINUOUS
 62
     7
 10
163.7573711344
 20
244.2784593493
 30
0.0
  0
SEQEND
  5
717
  8
0
  6
CONTINUOUS
 62
     7
  0
ARC
  5
6A
  8
0
  6
CONTINUOUS
 62
     7
 10
172.5174088214
 20
232.6557805435
 30
0.0
 40
14.55831665883447
 50
128.4665640879
 51
180.382886532
  0
ARC
  5
6B
  8
0
  6
CONTINUOUS
 62
     7
 10
223.4819798645
 20
232.6510369069
 30
0.0
 40
14.57975925395779
 50
359.636178064
 51
54.8680753639
  0
POLYLINE
  5
6C
  8
0
  6
CONTINUOUS
 62
     7
 66
     1
 10
0.0
 20
0.0
 30
0.0
  0
VERTEX
  5
38D
  8
0
  6
CONTINUOUS
 62
     7
 10
223.1867842146
 20
247.2136423975
 30
0.0
  0
VERTEX
  5
38E
  8
0
  6
CONTINUOUS
 62
     7
 10
221.4014403292
 20
247.1849368006
 30
0.0
  0
VERTEX
  5
38F
  8
0
  6
CONTINUOUS
 62
     7
 10
218.0032305189
 20
247.136215964
 30
0.0
  0
VERTEX
  5
390
  8
0
  6
CONTINUOUS
 62
     7
 10
214.5981363722
 20
247.0951364428
 30
0.0
  0
VERTEX
  5
391
  8
0
  6
CONTINUOUS
 62
     7
 10
211.1873559424
 20
247.061710158
 30
0.0
  0
VERTEX
  5
392
  8
0
  6
CONTINUOUS
 62
     7
 10
207.7720574804
 20
247.0359490305
 30
0.0
  0
VERTEX
  5
393
  8
0
  6
CONTINUOUS
 62
     7
 10
204.3534092375
 20
247.0178649813
 30
0.0
  0
VERTEX
  5
394
  8
0
  6
CONTINUOUS
 62
     7
 10
200.9325794645
 20
247.0074580103
 30
0.0
  0
VERTEX
  5
395
  8
0
  6
CONTINUOUS
 62
     7
 10
197.5107483336
 20
247.0047400385
 30
0.0
  0
VERTEX
  5
396
  8
0
  6
CONTINUOUS
 62
     7
 10
194.0890840956
 20
247.0097110659
 30
0.0
  0
VERTEX
  5
397
  8
0
  6
CONTINUOUS
 62
     7
 10
190.6687550017
 20
247.0223591715
 30
0.0
  0
VERTEX
  5
398
  8
0
  6
CONTINUOUS
 62
     7
 10
187.250944204
 20
247.0426843554
 30
0.0
  0
VERTEX
  5
399
  8
0
  6
CONTINUOUS
 62
     7
 10
183.8368110129
 20
247.0706866175
 30
0.0
  0
VERTEX
  5
39A
  8
0
  6
CONTINUOUS
 62
     7
 10
180.4275356003
 20
247.1063540369
 30
0.0
  0
VERTEX
  5
39B
  8
0
  6
CONTINUOUS
 62
     7
 10
177.0242802569
 20
247.1496746928
 30
0.0
  0
VERTEX
  5
39C
  8
0
  6
CONTINUOUS
 62
     7
 10
173.806758947
 20
247.1977517992
 30
0.0
  0
VERTEX
  5
39D
  8
0
  6
CONTINUOUS
 62
     7
 10
172.8351376721
 20
247.2136423975
 30
0.0
  0
SEQEND
  5
716
  8
0
  6
CONTINUOUS
 62
     7
  0
POLYLINE
  5
6D
  8
0
  6
CONTINUOUS
 62
     7
 66
     1
 10
0.0
 20
0.0
 30
0.0
  0
VERTEX
  5
39E
  8
0
  6
CONTINUOUS
 62
     7
 10
114.9107835957
 20
155.3965852648
 30
0.0
  0
VERTEX
  5
39F
  8
0
  6
CONTINUOUS
 62
     7
 10
114.9052239724
 20
155.3956196696
 30
0.0
  0
VERTEX
  5
3A0
  8
0
  6
CONTINUOUS
 62
     7
 10
114.9041689702
 20
155.3954289347
 30
0.0
  0
SEQEND
  5
715
  8
0
  6
CONTINUOUS
 62
     7
  0
POLYLINE
  5
6E
  8
0
  6
CONTINUOUS
 62
     7
 66
     1
 10
0.0
 20
0.0
 30
0.0
  0
VERTEX
  5
3A1
  8
0
  6
CONTINUOUS
 62
     7
 10
41.1180786558
 20
155.3953395277
 30
0.0
  0
VERTEX
  5
3A2
  8
0
  6
CONTINUOUS
 62
     7
 10
41.1170832583
 20
155.3955243021
 30
0.0
  0
VERTEX
  5
3A3
  8
0
  6
CONTINUOUS
 62
     7
 10
41.1061636873
 20
155.3974078089
 30
0.0
  0
SEQEND
  5
714
  8
0
  6
CONTINUOUS
 62
     7
  0
LINE
  5
6F
  8
0
  6
CONTINUOUS
 62
     7
 10
41.1178283163
 20
155.3953991324
 30
0.0
 11
41.1104492613
 21
155.3967104346
 31
0.0
  0
ARC
  5
70
  8
0
  6
CONTINUOUS
 62
     7
 10
24.0761723061
 20
70.2918900408
 30
0.0
 40
81.41361840341565
 50
78.4974998085
 51
78.6268720826
  0
LINE
  5
71
  8
0
  6
CONTINUOUS
 62
     7
 10
40.1252738901
 20
150.1079426199
 30
0.0
 11
40.129738278
 21
150.1070545107
 31
0.0
  0
LINE
  5
72
  8
0
  6
CONTINUOUS
 62
     7
 10
115.8284894892
 20
150.0942156702
 30
0.0
 11
115.8851317831
 21
150.1056418806
 31
0.0
  0
POLYLINE
  5
73
  8
0
  6
CONTINUOUS
 62
     7
 66
     1
 10
0.0
 20
0.0
 30
0.0
  0
VERTEX
  5
3A4
  8
0
  6
CONTINUOUS
 62
     7
 10
234.9107853838
 20
155.3965852648
 30
0.0
  0
VERTEX
  5
3A5
  8
0
  6
CONTINUOUS
 62
     7
 10
234.9052242705
 20
155.3956196696
 30
0.0
  0
VERTEX
  5
3A6
  8
0
  6
CONTINUOUS
 62
     7
 10
234.9041692682
 20
155.3954289347
 30
0.0
  0
SEQEND
  5
713
  8
0
  6
CONTINUOUS
 62
     7
  0
POLYLINE
  5
74
  8
0
  6
CONTINUOUS
 62
     7
 66
     1
 10
0.0
 20
0.0
 30
0.0
  0
VERTEX
  5
3A7
  8
0
  6
CONTINUOUS
 62
     7
 10
161.1180759736
 20
155.3953395277
 30
0.0
  0
VERTEX
  5
3A8
  8
0
  6
CONTINUOUS
 62
     7
 10
161.1170835563
 20
155.3955243021
 30
0.0
  0
VERTEX
  5
3A9
  8
0
  6
CONTINUOUS
 62
     7
 10
161.1061654755
 20
155.3974078089
 30
0.0
  0
SEQEND
  5
712
  8
0
  6
CONTINUOUS
 62
     7
  0
LINE
  5
75
  8
0
  6
CONTINUOUS
 62
     7
 10
161.1178256341
 20
155.3953991324
 30
0.0
 11
161.1104465791
 21
155.3967104346
 31
0.0
  0
ARC
  5
76
  8
0
  6
CONTINUOUS
 62
     7
 10
144.0054262291
 20
69.9408926778
 30
0.0
 40
81.77167422044116
 50
78.4979662251
 51
78.6267740599
  0
LINE
  5
77
  8
0
  6
CONTINUOUS
 62
     7
 10
160.1252712079
 20
150.1079426199
 30
0.0
 11
160.1297370859
 21
150.1070545107
 31
0.0
  0
LINE
  5
78
  8
0
  6
CONTINUOUS
 62
     7
 10
235.8284882971
 20
150.0942156702
 30
0.0
 11
235.885130591
 21
150.1056418806
 31
0.0
  0
ARC
  5
79
  8
0
  6
CONTINUOUS
 62
     7
 10
18.0109600493
 20
177.4678786188
 30
0.0
 40
2.699999999999992
 50
0.0
 51
180.0
  0
ARC
  5
7A
  8
0
  6
CONTINUOUS
 62
     7
 10
18.0109600493
 20
130.8678786188
 30
0.0
 40
2.699999999999992
 50
180.0
 51
0.0
  0
ARC
  5
7B
  8
0
  6
CONTINUOUS
 62
     7
 10
22.0109600493
 20
129.6678786188
 30
0.0
 40
2.000000000000014
 50
270.0
 51
0.0
  0
LINE
  5
7C
  8
0
  6
CONTINUOUS
 62
     7
 10
22.0109633871
 20
127.6678786665
 30
0.0
 11
14.0109590956
 21
127.6678786665
 31
0.0
  0
ARC
  5
7D
  8
0
  6
CONTINUOUS
 62
     7
 10
14.0109600493
 20
129.6678786188
 30
0.0
 40
2.000000000000014
 50
180.0
 51
270.0
  0
LINE
  5
7E
  8
0
  6
CONTINUOUS
 62
     7
 10
12.0109610029
 20
136.2678811938
 30
0.0
 11
12.0109610029
 21
129.6678767592
 31
0.0
  0
LINE
  5
7F
  8
0
  6
CONTINUOUS
 62
     7
 10
24.0109614798
 20
136.2678811938
 30
0.0
 11
24.0109614798
 21
129.6678767592
 31
0.0
  0
LINE
  5
80
  8
0
  6
CONTINUOUS
 62
     7
 10
12.0109610029
 20
137.4678776652
 30
0.0
 11
15.31096024
 21
137.4678776652
 31
0.0
  0
LINE
  5
81
  8
0
  6
CONTINUOUS
 62
     7
 10
20.7109622427
 20
137.4678776652
 30
0.0
 11
24.0109614798
 21
137.4678776652
 31
0.0
  0
LINE
  5
82
  8
0
  6
CONTINUOUS
 62
     7
 10
24.0109614798
 20
137.4678776652
 30
0.0
 11
24.0109614798
 21
136.2678811938
 31
0.0
  0
LINE
  5
83
  8
0
  6
CONTINUOUS
 62
     7
 10
12.0109610029
 20
136.2678811938
 30
0.0
 11
12.0109610029
 21
137.4678776652
 31
0.0
  0
ARC
  5
84
  8
0
  6
CONTINUOUS
 62
     7
 10
138.0109600493
 20
177.4678786188
 30
0.0
 40
2.700000000000017
 50
0.0
 51
180.0
  0
ARC
  5
85
  8
0
  6
CONTINUOUS
 62
     7
 10
138.0109600493
 20
130.8678786188
 30
0.0
 40
2.700000000000017
 50
180.0
 51
0.0
  0
ARC
  5
86
  8
0
  6
CONTINUOUS
 62
     7
 10
142.0109600493
 20
129.6678786188
 30
0.0
 40
2.000000000000014
 50
270.0
 51
0.0
  0
LINE
  5
87
  8
0
  6
CONTINUOUS
 62
     7
 10
142.0109599599
 20
127.6678786665
 30
0.0
 11
134.0109601387
 21
127.6678786665
 31
0.0
  0
ARC
  5
88
  8
0
  6
CONTINUOUS
 62
     7
 10
134.0109600493
 20
129.6678786188
 30
0.0
 40
2.000000000000014
 50
180.0
 51
270.0
  0
LINE
  5
89
  8
0
  6
CONTINUOUS
 62
     7
 10
132.0109601834
 20
136.2678811938
 30
0.0
 11
132.0109601834
 21
129.6678767592
 31
0.0
  0
LINE
  5
8A
  8
0
  6
CONTINUOUS
 62
     7
 10
144.0109599152
 20
136.2678811938
 30
0.0
 11
144.0109599152
 21
129.6678767592
 31
0.0
  0
LINE
  5
8B
  8
0
  6
CONTINUOUS
 62
     7
 10
132.0109601834
 20
137.4678776652
 30
0.0
 11
135.3109599792
 21
137.4678776652
 31
0.0
  0
LINE
  5
8C
  8
0
  6
CONTINUOUS
 62
     7
 10
140.7109601193
 20
137.4678776652
 30
0.0
 11
144.0109599152
 21
137.4678776652
 31
0.0
  0
LINE
  5
8D
  8
0
  6
CONTINUOUS
 62
     7
 10
132.0109601834
 20
136.2678811938
 30
0.0
 11
132.0109601834
 21
137.4678776652
 31
0.0
  0
LINE
  5
8E
  8
0
  6
CONTINUOUS
 62
     7
 10
144.0109599152
 20
137.4678776652
 30
0.0
 11
144.0109599152
 21
136.2678811938
 31
0.0
  0
ARC
  5
8F
  8
0
  6
CONTINUOUS
 62
     7
 10
258.0109600493
 20
177.4678786188
 30
0.0
 40
2.699999999999989
 50
0.0
 51
180.0
  0
ARC
  5
90
  8
0
  6
CONTINUOUS
 62
     7
 10
258.0109600493
 20
130.8678786188
 30
0.0
 40
2.699999999999989
 50
180.0
 51
0.0
  0
ARC
  5
91
  8
0
  6
CONTINUOUS
 62
     7
 10
262.0109600493
 20
129.6678786188
 30
0.0
 40
2.000000000000014
 50
270.0
 51
0.0
  0
LINE
  5
92
  8
0
  6
CONTINUOUS
 62
     7
 10
262.0109610029
 20
127.6678786665
 30
0.0
 11
254.0109567114
 21
127.6678786665
 31
0.0
  0
ARC
  5
93
  8
0
  6
CONTINUOUS
 62
     7
 10
254.0109600493
 20
129.6678786188
 30
0.0
 40
2.000000000000014
 50
180.0
 51
270.0
  0
LINE
  5
94
  8
0
  6
CONTINUOUS
 62
     7
 10
252.0109586187
 20
136.2678811938
 30
0.0
 11
252.0109586187
 21
129.6678767592
 31
0.0
  0
LINE
  5
95
  8
0
  6
CONTINUOUS
 62
     7
 10
264.0109590956
 20
136.2678811938
 30
0.0
 11
264.0109590956
 21
129.6678767592
 31
0.0
  0
LINE
  5
96
  8
0
  6
CONTINUOUS
 62
     7
 10
252.0109586187
 20
136.2678811938
 30
0.0
 11
252.0109586187
 21
137.4678776652
 31
0.0
  0
LINE
  5
97
  8
0
  6
CONTINUOUS
 62
     7
 10
252.0109586187
 20
137.4678776652
 30
0.0
 11
255.3109578558
 21
137.4678776652
 31
0.0
  0
LINE
  5
98
  8
0
  6
CONTINUOUS
 62
     7
 10
260.7109598585
 20
137.4678776652
 30
0.0
 11
264.0109590956
 21
137.4678776652
 31
0.0
  0
LINE
  5
99
  8
0
  6
CONTINUOUS
 62
     7
 10
264.0109590956
 20
137.4678776652
 30
0.0
 11
264.0109590956
 21
136.2678811938
 31
0.0
  0
POLYLINE
  5
9A
  8
0
  6
CONTINUOUS
 62
     7
 66
     1
 10
0.0
 20
0.0
 30
0.0
  0
VERTEX
  5
3AA
  8
0
  6
CONTINUOUS
 62
     7
 10
103.0447356173
 20
182.8448937327
 30
0.0
  0
VERTEX
  5
3AB
  8
0
  6
CONTINUOUS
 62
     7
 10
103.885256476
 20
182.8665659815
 30
0.0
  0
VERTEX
  5
3AC
  8
0
  6
CONTINUOUS
 62
     7
 10
104.7115139433
 20
182.9009340197
 30
0.0
  0
SEQEND
  5
711
  8
0
  6
CONTINUOUS
 62
     7
  0
ARC
  5
9B
  8
0
  6
CONTINUOUS
 62
     7
 10
102.6870411468
 20
192.9588090176
 30
0.0
 40
10.25959743735742
 50
281.3805628125
 51
0.2107921984
  0
ARC
  5
9C
  8
0
  6
CONTINUOUS
 62
     7
 10
53.9697774429
 20
237.1821546758
 30
0.0
 40
54.34632614283925
 50
267.1951819377
 51
268.9534806573
  0
ARC
  5
9D
  8
0
  6
CONTINUOUS
 62
     7
 10
53.322311537
 20
192.948556733
 30
0.0
 40
10.24707180890117
 50
179.7316247056
 51
258.6770202835
  0
POLYLINE
  5
9E
  8
0
  6
CONTINUOUS
 62
     7
 66
     1
 10
0.0
 20
0.0
 30
0.0
  0
VERTEX
  5
3AD
  8
0
  6
CONTINUOUS
 62
     7
 10
51.3104073473
 20
182.9009340197
 30
0.0
  0
VERTEX
  5
3AE
  8
0
  6
CONTINUOUS
 62
     7
 10
55.103366799
 20
182.8381822497
 30
0.0
  0
VERTEX
  5
3AF
  8
0
  6
CONTINUOUS
 62
     7
 10
58.9061967798
 20
182.7850387484
 30
0.0
  0
VERTEX
  5
3B0
  8
0
  6
CONTINUOUS
 62
     7
 10
62.7172641226
 20
182.7415273577
 30
0.0
  0
VERTEX
  5
3B1
  8
0
  6
CONTINUOUS
 62
     7
 10
66.5349177786
 20
182.7076599985
 30
0.0
  0
VERTEX
  5
3B2
  8
0
  6
CONTINUOUS
 62
     7
 10
70.3575186201
 20
182.6834605128
 30
0.0
  0
VERTEX
  5
3B3
  8
0
  6
CONTINUOUS
 62
     7
 10
74.1834155985
 20
182.6689408213
 30
0.0
  0
VERTEX
  5
3B4
  8
0
  6
CONTINUOUS
 62
     7
 10
78.0109576651
 20
182.6641009241
 30
0.0
  0
VERTEX
  5
3B5
  8
0
  6
CONTINUOUS
 62
     7
 10
81.8385056921
 20
182.6689408213
 30
0.0
  0
VERTEX
  5
3B6
  8
0
  6
CONTINUOUS
 62
     7
 10
85.6644026705
 20
182.6834605128
 30
0.0
  0
VERTEX
  5
3B7
  8
0
  6
CONTINUOUS
 62
     7
 10
89.487003512
 20
182.7076599985
 30
0.0
  0
VERTEX
  5
3B8
  8
0
  6
CONTINUOUS
 62
     7
 10
93.304657168
 20
182.7415273577
 30
0.0
  0
VERTEX
  5
3B9
  8
0
  6
CONTINUOUS
 62
     7
 10
97.1157215305
 20
182.7850387484
 30
0.0
  0
VERTEX
  5
3BA
  8
0
  6
CONTINUOUS
 62
     7
 10
100.9185515114
 20
182.8381822497
 30
0.0
  0
VERTEX
  5
3BB
  8
0
  6
CONTINUOUS
 62
     7
 10
104.7115139433
 20
182.9009340197
 30
0.0
  0
SEQEND
  5
710
  8
0
  6
CONTINUOUS
 62
     7
  0
LINE
  5
9F
  8
0
  6
CONTINUOUS
 62
     7
 10
43.0753521391
 20
232.6984093577
 30
0.0
 11
43.0753521391
 21
192.996554175
 31
0.0
  0
ARC
  5
A0
  8
0
  6
CONTINUOUS
 62
     7
 10
52.8585096167
 20
232.7933386106
 30
0.0
 40
9.783618031955799
 50
99.1044135448
 51
180.5559426864
  0
POLYLINE
  5
A1
  8
0
  6
CONTINUOUS
 62
     7
 66
     1
 10
0.0
 20
0.0
 30
0.0
  0
VERTEX
  5
3BC
  8
0
  6
CONTINUOUS
 62
     7
 10
51.3104073473
 20
242.4536989123
 30
0.0
  0
VERTEX
  5
3BD
  8
0
  6
CONTINUOUS
 62
     7
 10
55.103366799
 20
242.3909471423
 30
0.0
  0
VERTEX
  5
3BE
  8
0
  6
CONTINUOUS
 62
     7
 10
58.9061967798
 20
242.337803641
 30
0.0
  0
VERTEX
  5
3BF
  8
0
  6
CONTINUOUS
 62
     7
 10
62.7172641226
 20
242.2942922503
 30
0.0
  0
VERTEX
  5
3C0
  8
0
  6
CONTINUOUS
 62
     7
 10
66.5349177786
 20
242.2604368121
 30
0.0
  0
VERTEX
  5
3C1
  8
0
  6
CONTINUOUS
 62
     7
 10
70.3575186201
 20
242.2362373263
 30
0.0
  0
VERTEX
  5
3C2
  8
0
  6
CONTINUOUS
 62
     7
 10
74.1834155985
 20
242.2217057139
 30
0.0
  0
VERTEX
  5
3C3
  8
0
  6
CONTINUOUS
 62
     7
 10
78.0109576651
 20
242.2168658167
 30
0.0
  0
VERTEX
  5
3C4
  8
0
  6
CONTINUOUS
 62
     7
 10
81.8385056921
 20
242.2217057139
 30
0.0
  0
VERTEX
  5
3C5
  8
0
  6
CONTINUOUS
 62
     7
 10
85.6644026705
 20
242.2362373263
 30
0.0
  0
VERTEX
  5
3C6
  8
0
  6
CONTINUOUS
 62
     7
 10
89.487003512
 20
242.2604368121
 30
0.0
  0
VERTEX
  5
3C7
  8
0
  6
CONTINUOUS
 62
     7
 10
93.304657168
 20
242.2942922503
 30
0.0
  0
VERTEX
  5
3C8
  8
0
  6
CONTINUOUS
 62
     7
 10
97.1157215305
 20
242.337803641
 30
0.0
  0
VERTEX
  5
3C9
  8
0
  6
CONTINUOUS
 62
     7
 10
100.9185515114
 20
242.3909471423
 30
0.0
  0
VERTEX
  5
3CA
  8
0
  6
CONTINUOUS
 62
     7
 10
104.7115139433
 20
242.4536989123
 30
0.0
  0
SEQEND
  5
70F
  8
0
  6
CONTINUOUS
 62
     7
  0
ARC
  5
A2
  8
0
  6
CONTINUOUS
 62
     7
 10
103.1748466414
 20
232.8029915879
 30
0.0
 40
9.772282141696753
 50
359.3868131615
 51
80.9528306073
  0
LINE
  5
A3
  8
0
  6
CONTINUOUS
 62
     7
 10
112.9465691515
 20
192.996554175
 30
0.0
 11
112.9465691515
 21
232.6984093577
 31
0.0
  0
POLYLINE
  5
A4
  8
0
  6
CONTINUOUS
 62
     7
 66
     1
 10
0.0
 20
0.0
 30
0.0
  0
VERTEX
  5
3CB
  8
0
  6
CONTINUOUS
 62
     7
 10
52.9771856733
 20
182.8448937327
 30
0.0
  0
VERTEX
  5
3CC
  8
0
  6
CONTINUOUS
 62
     7
 10
56.8099550673
 20
182.785944739
 30
0.0
  0
VERTEX
  5
3CD
  8
0
  6
CONTINUOUS
 62
     7
 10
60.6520108648
 20
182.7367709071
 30
0.0
  0
VERTEX
  5
3CE
  8
0
  6
CONTINUOUS
 62
     7
 10
64.5016662546
 20
182.6974079996
 30
0.0
  0
VERTEX
  5
3CF
  8
0
  6
CONTINUOUS
 62
     7
 10
68.3572403856
 20
182.6678798586
 30
0.0
  0
VERTEX
  5
3D0
  8
0
  6
CONTINUOUS
 62
     7
 10
72.2170345255
 20
182.6481745631
 30
0.0
  0
VERTEX
  5
3D1
  8
0
  6
CONTINUOUS
 62
     7
 10
76.0793678232
 20
182.6383278757
 30
0.0
  0
VERTEX
  5
3D2
  8
0
  6
CONTINUOUS
 62
     7
 10
79.9425475069
 20
182.6383278757
 30
0.0
  0
VERTEX
  5
3D3
  8
0
  6
CONTINUOUS
 62
     7
 10
83.8048867651
 20
182.6481745631
 30
0.0
  0
VERTEX
  5
3D4
  8
0
  6
CONTINUOUS
 62
     7
 10
87.664680905
 20
182.6678798586
 30
0.0
  0
VERTEX
  5
3D5
  8
0
  6
CONTINUOUS
 62
     7
 10
91.5202520558
 20
182.6974079996
 30
0.0
  0
VERTEX
  5
3D6
  8
0
  6
CONTINUOUS
 62
     7
 10
95.3699104258
 20
182.7367709071
 30
0.0
  0
VERTEX
  5
3D7
  8
0
  6
CONTINUOUS
 62
     7
 10
99.2119632431
 20
182.785944739
 30
0.0
  0
VERTEX
  5
3D8
  8
0
  6
CONTINUOUS
 62
     7
 10
103.0447356173
 20
182.8448937327
 30
0.0
  0
SEQEND
  5
70E
  8
0
  6
CONTINUOUS
 62
     7
  0
ARC
  5
A5
  8
0
  6
CONTINUOUS
 62
     7
 10
51.0465459506
 20
235.3193151684
 30
0.0
 40
11.5305057087025
 50
111.5477753418
 51
126.7244895617
  0
ARC
  5
A6
  8
0
  6
CONTINUOUS
 62
     7
 10
104.5902960393
 20
234.5497494793
 30
0.0
 40
12.38089171755897
 50
54.0747620571
 51
68.1456013588
  0
POLYLINE
  5
A7
  8
0
  6
CONTINUOUS
 62
     7
 66
     1
 10
0.0
 20
0.0
 30
0.0
  0
VERTEX
  5
3D9
  8
0
  6
CONTINUOUS
 62
     7
 10
223.0447344252
 20
182.8448937327
 30
0.0
  0
VERTEX
  5
3DA
  8
0
  6
CONTINUOUS
 62
     7
 10
223.8852552839
 20
182.8665659815
 30
0.0
  0
VERTEX
  5
3DB
  8
0
  6
CONTINUOUS
 62
     7
 10
224.7115127512
 20
182.9009340197
 30
0.0
  0
SEQEND
  5
70D
  8
0
  6
CONTINUOUS
 62
     7
  0
ARC
  5
A8
  8
0
  6
CONTINUOUS
 62
     7
 10
222.6870348052
 20
192.958813218
 30
0.0
 40
10.25960257132043
 50
281.3805863759
 51
0.210768635
  0
ARC
  5
A9
  8
0
  6
CONTINUOUS
 62
     7
 10
173.9698110472
 20
237.1831896077
 30
0.0
 40
54.34736153763427
 50
267.1951986881
 51
268.953463907
  0
ARC
  5
AA
  8
0
  6
CONTINUOUS
 62
     7
 10
173.3223127776
 20
192.9485587173
 30
0.0
 40
10.24707423228387
 50
179.7316358646
 51
258.6770091245
  0
POLYLINE
  5
AB
  8
0
  6
CONTINUOUS
 62
     7
 66
     1
 10
0.0
 20
0.0
 30
0.0
  0
VERTEX
  5
3DC
  8
0
  6
CONTINUOUS
 62
     7
 10
171.3104061552
 20
182.9009340197
 30
0.0
  0
VERTEX
  5
3DD
  8
0
  6
CONTINUOUS
 62
     7
 10
175.1033685871
 20
182.8381822497
 30
0.0
  0
VERTEX
  5
3DE
  8
0
  6
CONTINUOUS
 62
     7
 10
178.906198568
 20
182.7850387484
 30
0.0
  0
VERTEX
  5
3DF
  8
0
  6
CONTINUOUS
 62
     7
 10
182.7172629305
 20
182.7415273577
 30
0.0
  0
VERTEX
  5
3E0
  8
0
  6
CONTINUOUS
 62
     7
 10
186.5349165865
 20
182.7076599985
 30
0.0
  0
VERTEX
  5
3E1
  8
0
  6
CONTINUOUS
 62
     7
 10
190.357517428
 20
182.6834605128
 30
0.0
  0
VERTEX
  5
3E2
  8
0
  6
CONTINUOUS
 62
     7
 10
194.1834144064
 20
182.6689408213
 30
0.0
  0
VERTEX
  5
3E3
  8
0
  6
CONTINUOUS
 62
     7
 10
198.0109624334
 20
182.6641009241
 30
0.0
  0
VERTEX
  5
3E4
  8
0
  6
CONTINUOUS
 62
     7
 10
201.8385045
 20
182.6689408213
 30
0.0
  0
VERTEX
  5
3E5
  8
0
  6
CONTINUOUS
 62
     7
 10
205.6644014784
 20
182.6834605128
 30
0.0
  0
VERTEX
  5
3E6
  8
0
  6
CONTINUOUS
 62
     7
 10
209.4870023199
 20
182.7076599985
 30
0.0
  0
VERTEX
  5
3E7
  8
0
  6
CONTINUOUS
 62
     7
 10
213.3046559759
 20
182.7415273577
 30
0.0
  0
VERTEX
  5
3E8
  8
0
  6
CONTINUOUS
 62
     7
 10
217.1157233187
 20
182.7850387484
 30
0.0
  0
VERTEX
  5
3E9
  8
0
  6
CONTINUOUS
 62
     7
 10
220.9185532995
 20
182.8381822497
 30
0.0
  0
VERTEX
  5
3EA
  8
0
  6
CONTINUOUS
 62
     7
 10
224.7115127512
 20
182.9009340197
 30
0.0
  0
SEQEND
  5
70C
  8
0
  6
CONTINUOUS
 62
     7
  0
LINE
  5
AC
  8
0
  6
CONTINUOUS
 62
     7
 10
163.075350947
 20
232.6984093577
 30
0.0
 11
163.075350947
 21
192.996554175
 31
0.0
  0
ARC
  5
AD
  8
0
  6
CONTINUOUS
 62
     7
 10
172.8585036783
 20
232.7933426172
 30
0.0
 40
9.783613324751947
 50
99.1043898121
 51
180.5559664191
  0
POLYLINE
  5
AE
  8
0
  6
CONTINUOUS
 62
     7
 66
     1
 10
0.0
 20
0.0
 30
0.0
  0
VERTEX
  5
3EB
  8
0
  6
CONTINUOUS
 62
     7
 10
171.3104061552
 20
242.4536989123
 30
0.0
  0
VERTEX
  5
3EC
  8
0
  6
CONTINUOUS
 62
     7
 10
175.1033685871
 20
242.3909471423
 30
0.0
  0
VERTEX
  5
3ED
  8
0
  6
CONTINUOUS
 62
     7
 10
178.906198568
 20
242.337803641
 30
0.0
  0
VERTEX
  5
3EE
  8
0
  6
CONTINUOUS
 62
     7
 10
182.7172629305
 20
242.2942922503
 30
0.0
  0
VERTEX
  5
3EF
  8
0
  6
CONTINUOUS
 62
     7
 10
186.5349165865
 20
242.2604368121
 30
0.0
  0
VERTEX
  5
3F0
  8
0
  6
CONTINUOUS
 62
     7
 10
190.357517428
 20
242.2362373263
 30
0.0
  0
VERTEX
  5
3F1
  8
0
  6
CONTINUOUS
 62
     7
 10
194.1834144064
 20
242.2217057139
 30
0.0
  0
VERTEX
  5
3F2
  8
0
  6
CONTINUOUS
 62
     7
 10
198.0109624334
 20
242.2168658167
 30
0.0
  0
VERTEX
  5
3F3
  8
0
  6
CONTINUOUS
 62
     7
 10
201.8385045
 20
242.2217057139
 30
0.0
  0
VERTEX
  5
3F4
  8
0
  6
CONTINUOUS
 62
     7
 10
205.6644014784
 20
242.2362373263
 30
0.0
  0
VERTEX
  5
3F5
  8
0
  6
CONTINUOUS
 62
     7
 10
209.4870023199
 20
242.2604368121
 30
0.0
  0
VERTEX
  5
3F6
  8
0
  6
CONTINUOUS
 62
     7
 10
213.3046559759
 20
242.2942922503
 30
0.0
  0
VERTEX
  5
3F7
  8
0
  6
CONTINUOUS
 62
     7
 10
217.1157233187
 20
242.337803641
 30
0.0
  0
VERTEX
  5
3F8
  8
0
  6
CONTINUOUS
 62
     7
 10
220.9185532995
 20
242.3909471423
 30
0.0
  0
VERTEX
  5
3F9
  8
0
  6
CONTINUOUS
 62
     7
 10
224.7115127512
 20
242.4536989123
 30
0.0
  0
SEQEND
  5
70B
  8
0
  6
CONTINUOUS
 62
     7
  0
ARC
  5
AF
  8
0
  6
CONTINUOUS
 62
     7
 10
223.1748475686
 20
232.8029933769
 30
0.0
 40
9.77228004168543
 50
359.3868025399
 51
80.9528412289
  0
LINE
  5
B0
  8
0
  6
CONTINUOUS
 62
     7
 10
232.9465679594
 20
192.996554175
 30
0.0
 11
232.9465679594
 21
232.6984093577
 31
0.0
  0
POLYLINE
  5
B1
  8
0
  6
CONTINUOUS
 62
     7
 66
     1
 10
0.0
 20
0.0
 30
0.0
  0
VERTEX
  5
3FA
  8
0
  6
CONTINUOUS
 62
     7
 10
172.9771844813
 20
182.8448937327
 30
0.0
  0
VERTEX
  5
3FB
  8
0
  6
CONTINUOUS
 62
     7
 10
176.8099568554
 20
182.785944739
 30
0.0
  0
VERTEX
  5
3FC
  8
0
  6
CONTINUOUS
 62
     7
 10
180.6520096728
 20
182.7367709071
 30
0.0
  0
VERTEX
  5
3FD
  8
0
  6
CONTINUOUS
 62
     7
 10
184.5016680428
 20
182.6974079996
 30
0.0
  0
VERTEX
  5
3FE
  8
0
  6
CONTINUOUS
 62
     7
 10
188.3572391935
 20
182.6678798586
 30
0.0
  0
VERTEX
  5
3FF
  8
0
  6
CONTINUOUS
 62
     7
 10
192.2170333334
 20
182.6481745631
 30
0.0
  0
VERTEX
  5
400
  8
0
  6
CONTINUOUS
 62
     7
 10
196.0793725916
 20
182.6383278757
 30
0.0
  0
VERTEX
  5
401
  8
0
  6
CONTINUOUS
 62
     7
 10
199.9425522753
 20
182.6383278757
 30
0.0
  0
VERTEX
  5
402
  8
0
  6
CONTINUOUS
 62
     7
 10
203.804885573
 20
182.6481745631
 30
0.0
  0
VERTEX
  5
403
  8
0
  6
CONTINUOUS
 62
     7
 10
207.6646797129
 20
182.6678798586
 30
0.0
  0
VERTEX
  5
404
  8
0
  6
CONTINUOUS
 62
     7
 10
211.5202538439
 20
182.6974079996
 30
0.0
  0
VERTEX
  5
405
  8
0
  6
CONTINUOUS
 62
     7
 10
215.3699092337
 20
182.7367709071
 30
0.0
  0
VERTEX
  5
406
  8
0
  6
CONTINUOUS
 62
     7
 10
219.2119650313
 20
182.785944739
 30
0.0
  0
VERTEX
  5
407
  8
0
  6
CONTINUOUS
 62
     7
 10
223.0447344252
 20
182.8448937327
 30
0.0
  0
SEQEND
  5
70A
  8
0
  6
CONTINUOUS
 62
     7
  0
ARC
  5
B2
  8
0
  6
CONTINUOUS
 62
     7
 10
171.0463753538
 20
235.3196244239
 30
0.0
 40
11.53015475365674
 50
111.5475430072
 51
126.7247218963
  0
ARC
  5
B3
  8
0
  6
CONTINUOUS
 62
     7
 10
224.5901871353
 20
234.5495488766
 30
0.0
 40
12.3811191085465
 50
54.0748919226
 51
68.1454714933
  0
LINE
  5
B4
  8
0
  6
CONTINUOUS
 62
     7
 10
96.0109613606
 20
136.2678811938
 30
0.0
 11
96.0109613606
 21
129.4678793341
 31
0.0
  0
ARC
  5
B5
  8
0
  6
CONTINUOUS
 62
     7
 10
93.0109600493
 20
129.4678786188
 30
0.0
 40
3.0
 50
270.0
 51
0.0
  0
LINE
  5
B6
  8
0
  6
CONTINUOUS
 62
     7
 10
93.0109612414
 20
126.4678762347
 30
0.0
 11
63.0109600493
 21
126.4678762347
 31
0.0
  0
ARC
  5
B7
  8
0
  6
CONTINUOUS
 62
     7
 10
63.0109600493
 20
129.4678786188
 30
0.0
 40
3.0
 50
180.0
 51
270.0
  0
LINE
  5
B8
  8
0
  6
CONTINUOUS
 62
     7
 10
60.0109629103
 20
136.2678811938
 30
0.0
 11
60.0109629103
 21
129.4678793341
 31
0.0
  0
CIRCLE
  5
B9
  8
0
  6
CONTINUOUS
 62
     7
 10
63.0109600493
 20
130.6678786188
 30
0.0
 40
1.100000000000023
  0
CIRCLE
  5
BA
  8
0
  6
CONTINUOUS
 62
     7
 10
93.0109600493
 20
130.6678786188
 30
0.0
 40
1.099999999999994
  0
LINE
  5
BB
  8
0
  6
CONTINUOUS
 62
     7
 10
96.0109613606
 20
137.2678802401
 30
0.0
 11
60.0109629103
 21
137.2678802401
 31
0.0
  0
LINE
  5
BC
  8
0
  6
CONTINUOUS
 62
     7
 10
60.0109629103
 20
137.2678802401
 30
0.0
 11
60.0109629103
 21
136.2678811938
 31
0.0
  0
LINE
  5
BD
  8
0
  6
CONTINUOUS
 62
     7
 10
96.0109613606
 20
137.2678802401
 30
0.0
 11
96.0109613606
 21
136.2678811938
 31
0.0
  0
LINE
  5
BE
  8
0
  6
CONTINUOUS
 62
     7
 10
75.0109605261
 20
143.2126388937
 30
0.0
 11
75.0109605261
 21
137.2678802401
 31
0.0
  0
LINE
  5
BF
  8
0
  6
CONTINUOUS
 62
     7
 10
81.0109607645
 20
143.2126388937
 30
0.0
 11
81.0109607645
 21
137.2678802401
 31
0.0
  0
LINE
  5
C0
  8
0
  6
CONTINUOUS
 62
     7
 10
81.0109607645
 20
146.2897406012
 30
0.0
 11
81.0109607645
 21
143.2126388937
 31
0.0
  0
LINE
  5
C1
  8
0
  6
CONTINUOUS
 62
     7
 10
75.0109605261
 20
146.2897406012
 30
0.0
 11
75.0109605261
 21
143.2126388937
 31
0.0
  0
LINE
  5
C2
  8
0
  6
CONTINUOUS
 62
     7
 10
81.0109607645
 20
167.6397607714
 30
0.0
 11
81.0109607645
 21
151.6704426199
 31
0.0
  0
LINE
  5
C3
  8
0
  6
CONTINUOUS
 62
     7
 10
75.0109605261
 20
167.6397607714
 30
0.0
 11
75.0109605261
 21
151.6704426199
 31
0.0
  0
LINE
  5
C4
  8
0
  6
CONTINUOUS
 62
     7
 10
81.0109607645
 20
171.4038298518
 30
0.0
 11
81.0109607645
 21
167.6397607714
 31
0.0
  0
LINE
  5
C5
  8
0
  6
CONTINUOUS
 62
     7
 10
75.0109605261
 20
171.4038298518
 30
0.0
 11
75.0109605261
 21
167.6397607714
 31
0.0
  0
LINE
  5
C6
  8
0
  6
CONTINUOUS
 62
     7
 10
75.0109605261
 20
171.4038298518
 30
0.0
 11
75.0109605261
 21
177.489344874
 31
0.0
  0
LINE
  5
C7
  8
0
  6
CONTINUOUS
 62
     7
 10
81.0109607645
 20
171.4038298518
 30
0.0
 11
81.0109607645
 21
177.4900362879
 31
0.0
  0
LINE
  5
C8
  8
0
  6
CONTINUOUS
 62
     7
 10
216.0109571882
 20
136.2678811938
 30
0.0
 11
216.0109571882
 21
129.4678793341
 31
0.0
  0
ARC
  5
C9
  8
0
  6
CONTINUOUS
 62
     7
 10
213.0109600493
 20
129.4678786188
 30
0.0
 40
3.0
 50
270.0
 51
0.0
  0
LINE
  5
CA
  8
0
  6
CONTINUOUS
 62
     7
 10
213.0109600493
 20
126.4678762347
 30
0.0
 11
183.0109588572
 21
126.4678762347
 31
0.0
  0
ARC
  5
CB
  8
0
  6
CONTINUOUS
 62
     7
 10
183.0109600493
 20
129.4678786188
 30
0.0
 40
3.0
 50
180.0
 51
270.0
  0
LINE
  5
CC
  8
0
  6
CONTINUOUS
 62
     7
 10
180.010958738
 20
136.2678811938
 30
0.0
 11
180.010958738
 21
129.4678793341
 31
0.0
  0
CIRCLE
  5
CD
  8
0
  6
CONTINUOUS
 62
     7
 10
183.0109600493
 20
130.6678786188
 30
0.0
 40
1.100000000000023
  0
CIRCLE
  5
CE
  8
0
  6
CONTINUOUS
 62
     7
 10
213.0109600493
 20
130.6678786188
 30
0.0
 40
1.099999999999994
  0
LINE
  5
CF
  8
0
  6
CONTINUOUS
 62
     7
 10
216.0109571882
 20
137.2678802401
 30
0.0
 11
180.010958738
 21
137.2678802401
 31
0.0
  0
LINE
  5
D0
  8
0
  6
CONTINUOUS
 62
     7
 10
180.010958738
 20
137.2678802401
 30
0.0
 11
180.010958738
 21
136.2678811938
 31
0.0
  0
LINE
  5
D1
  8
0
  6
CONTINUOUS
 62
     7
 10
216.0109571882
 20
137.2678802401
 30
0.0
 11
216.0109571882
 21
136.2678811938
 31
0.0
  0
LINE
  5
D2
  8
0
  6
CONTINUOUS
 62
     7
 10
195.010959334
 20
143.2126388937
 30
0.0
 11
195.010959334
 21
137.2678802401
 31
0.0
  0
LINE
  5
D3
  8
0
  6
CONTINUOUS
 62
     7
 10
201.0109595724
 20
143.2126388937
 30
0.0
 11
201.0109595724
 21
137.2678802401
 31
0.0
  0
LINE
  5
D4
  8
0
  6
CONTINUOUS
 62
     7
 10
195.010959334
 20
146.2897406012
 30
0.0
 11
195.010959334
 21
143.2126388937
 31
0.0
  0
LINE
  5
D5
  8
0
  6
CONTINUOUS
 62
     7
 10
201.0109595724
 20
146.2897406012
 30
0.0
 11
201.0109595724
 21
143.2126388937
 31
0.0
  0
LINE
  5
D6
  8
0
  6
CONTINUOUS
 62
     7
 10
195.010959334
 20
167.6397607714
 30
0.0
 11
195.010959334
 21
151.6704426199
 31
0.0
  0
LINE
  5
D7
  8
0
  6
CONTINUOUS
 62
     7
 10
201.0109595724
 20
167.6397607714
 30
0.0
 11
201.0109595724
 21
151.6704426199
 31
0.0
  0
LINE
  5
D8
  8
0
  6
CONTINUOUS
 62
     7
 10
195.010959334
 20
171.4038298518
 30
0.0
 11
195.010959334
 21
167.6397607714
 31
0.0
  0
LINE
  5
D9
  8
0
  6
CONTINUOUS
 62
     7
 10
201.0109595724
 20
171.4038298518
 30
0.0
 11
201.0109595724
 21
167.6397607714
 31
0.0
  0
LINE
  5
DA
  8
0
  6
CONTINUOUS
 62
     7
 10
195.010959334
 20
171.4038298518
 30
0.0
 11
195.010959334
 21
177.489344874
 31
0.0
  0
LINE
  5
DB
  8
0
  6
CONTINUOUS
 62
     7
 10
201.0109595724
 20
171.4038298518
 30
0.0
 11
201.0109595724
 21
177.4900362879
 31
0.0
  0
ARC
  5
DC
  8
0
  6
CONTINUOUS
 62
     7
 10
78.0108921417
 20
334.9562243526
 30
0.0
 40
183.3103411017822
 50
277.7930374791
 51
281.5887932061
  0
ARC
  5
DD
  8
0
  6
CONTINUOUS
 62
     7
 10
115.3797166821
 20
152.7483817393
 30
0.0
 40
2.690000000000022
 50
12.4186815058
 51
100.0467259555
  0
ARC
  5
DE
  8
0
  6
CONTINUOUS
 62
     7
 10
78.0239547294
 20
334.8798993786
 30
0.0
 40
188.6129499063006
 50
277.7922496498
 51
281.5895398168
  0
ARC
  5
DF
  8
0
  6
CONTINUOUS
 62
     7
 10
115.3797166821
 20
152.7483817393
 30
0.0
 40
2.690000000000002
 50
281.5900201068
 51
12.4186815058
  0
ARC
  5
E0
  8
0
  6
CONTINUOUS
 62
     7
 10
40.6422034164
 20
152.7483817393
 30
0.0
 40
2.689999999999987
 50
80.0567778886
 51
167.5813184942
  0
ARC
  5
E1
  8
0
  6
CONTINUOUS
 62
     7
 10
78.0310604074
 20
335.0740276104
 30
0.0
 40
183.4297729541027
 50
258.4125714562
 51
262.2057519284
  0
ARC
  5
E2
  8
0
  6
CONTINUOUS
 62
     7
 10
78.0304153348
 20
335.0698542186
 30
0.0
 40
188.8055507068964
 50
258.4125210951
 51
262.2058088669
  0
ARC
  5
E3
  8
0
  6
CONTINUOUS
 62
     7
 10
40.6422034164
 20
152.7483817393
 30
0.0
 40
2.690000000000015
 50
167.5813184942
 51
258.4099798932
  0
ARC
  5
E4
  8
0
  6
CONTINUOUS
 62
     7
 10
78.0109600493
 20
334.9558898934
 30
0.0
 40
183.31
 50
262.2069690737
 51
277.7930309263
  0
ARC
  5
E5
  8
0
  6
CONTINUOUS
 62
     7
 10
78.0109600493
 20
334.9558898934
 30
0.0
 40
188.69
 50
262.2069690737
 51
277.7930309263
  0
LINE
  5
E6
  8
0
  6
CONTINUOUS
 62
     7
 10
41.3109592863
 20
149.6078775317
 30
0.0
 11
40.31096024
 21
149.6078775317
 31
0.0
  0
LINE
  5
E7
  8
0
  6
CONTINUOUS
 62
     7
 10
41.3109592863
 20
149.6078775317
 30
0.0
 11
41.3109592863
 21
145.1409325987
 31
0.0
  0
LINE
  5
E8
  8
0
  6
CONTINUOUS
 62
     7
 10
40.31096024
 20
149.6078775317
 30
0.0
 11
40.31096024
 21
145.1409325987
 31
0.0
  0
LINE
  5
E9
  8
0
  6
CONTINUOUS
 62
     7
 10
41.3109592863
 20
149.8693511874
 30
0.0
 11
41.3109592863
 21
149.6078775317
 31
0.0
  0
LINE
  5
EA
  8
0
  6
CONTINUOUS
 62
     7
 10
40.31096024
 20
150.0788555533
 30
0.0
 11
40.31096024
 21
149.6078775317
 31
0.0
  0
LINE
  5
EB
  8
0
  6
CONTINUOUS
 62
     7
 10
114.7109605142
 20
149.6078775317
 30
0.0
 11
115.7109595605
 21
149.6078775317
 31
0.0
  0
LINE
  5
EC
  8
0
  6
CONTINUOUS
 62
     7
 10
114.7109605142
 20
149.6078775317
 30
0.0
 11
114.7109605142
 21
145.1409325987
 31
0.0
  0
LINE
  5
ED
  8
0
  6
CONTINUOUS
 62
     7
 10
115.7109595605
 20
149.6078775317
 30
0.0
 11
115.7109595605
 21
145.1409325987
 31
0.0
  0
LINE
  5
EE
  8
0
  6
CONTINUOUS
 62
     7
 10
114.7109605142
 20
149.8693273455
 30
0.0
 11
114.7109605142
 21
149.6078775317
 31
0.0
  0
LINE
  5
EF
  8
0
  6
CONTINUOUS
 62
     7
 10
115.7109595605
 20
150.0788555533
 30
0.0
 11
115.7109595605
 21
149.6078775317
 31
0.0
  0
LINE
  5
F0
  8
0
  6
CONTINUOUS
 62
     7
 10
41.182642407
 20
155.3835318476
 30
0.0
 11
41.1865643927
 21
155.3827271849
 31
0.0
  0
LINE
  5
F1
  8
0
  6
CONTINUOUS
 62
     7
 10
114.8350424834
 20
155.3826616198
 30
0.0
 11
114.8392759033
 21
155.3835318476
 31
0.0
  0
LINE
  5
F2
  8
0
  6
CONTINUOUS
 62
     7
 10
114.7109605142
 20
145.1409325987
 30
0.0
 11
114.7109605142
 21
144.2873940855
 31
0.0
  0
LINE
  5
F3
  8
0
  6
CONTINUOUS
 62
     7
 10
115.7109595605
 20
145.1409325987
 30
0.0
 11
115.7109595605
 21
144.2873940855
 31
0.0
  0
LINE
  5
F4
  8
0
  6
CONTINUOUS
 62
     7
 10
40.31096024
 20
145.1409325987
 30
0.0
 11
40.31096024
 21
144.2873940855
 31
0.0
  0
LINE
  5
F5
  8
0
  6
CONTINUOUS
 62
     7
 10
41.3109592863
 20
145.1409325987
 30
0.0
 11
41.3109592863
 21
144.2873940855
 31
0.0
  0
LINE
  5
F6
  8
0
  6
CONTINUOUS
 62
     7
 10
114.7109605142
 20
144.2873940855
 30
0.0
 11
114.7109605142
 21
136.4329622179
 31
0.0
  0
LINE
  5
F7
  8
0
  6
CONTINUOUS
 62
     7
 10
115.7109595605
 20
144.2873940855
 30
0.0
 11
115.7109595605
 21
136.4329622179
 31
0.0
  0
LINE
  5
F8
  8
0
  6
CONTINUOUS
 62
     7
 10
40.31096024
 20
144.2873940855
 30
0.0
 11
40.31096024
 21
136.4329622179
 31
0.0
  0
LINE
  5
F9
  8
0
  6
CONTINUOUS
 62
     7
 10
41.3109592863
 20
144.2873940855
 30
0.0
 11
41.3109592863
 21
136.4329622179
 31
0.0
  0
LINE
  5
FA
  8
0
  6
CONTINUOUS
 62
     7
 10
114.7109605142
 20
133.6678789049
 30
0.0
 11
115.7109595605
 21
133.6678789049
 31
0.0
  0
LINE
  5
FB
  8
0
  6
CONTINUOUS
 62
     7
 10
114.7109605142
 20
135.6678769976
 30
0.0
 11
114.7109605142
 21
133.6678789049
 31
0.0
  0
LINE
  5
FC
  8
0
  6
CONTINUOUS
 62
     7
 10
115.7109595605
 20
135.6678769976
 30
0.0
 11
115.7109595605
 21
133.6678789049
 31
0.0
  0
LINE
  5
FD
  8
0
  6
CONTINUOUS
 62
     7
 10
41.3109592863
 20
133.6678789049
 30
0.0
 11
40.31096024
 21
133.6678789049
 31
0.0
  0
LINE
  5
FE
  8
0
  6
CONTINUOUS
 62
     7
 10
40.31096024
 20
135.6678769976
 30
0.0
 11
40.31096024
 21
133.6678789049
 31
0.0
  0
LINE
  5
FF
  8
0
  6
CONTINUOUS
 62
     7
 10
41.3109592863
 20
135.6678769976
 30
0.0
 11
41.3109592863
 21
133.6678789049
 31
0.0
  0
LINE
  5
100
  8
0
  6
CONTINUOUS
 62
     7
 10
40.31096024
 20
136.4329622179
 30
0.0
 11
40.31096024
 21
135.6678769976
 31
0.0
  0
LINE
  5
101
  8
0
  6
CONTINUOUS
 62
     7
 10
41.3109592863
 20
136.4329622179
 30
0.0
 11
41.3109592863
 21
135.6678769976
 31
0.0
  0
LINE
  5
102
  8
0
  6
CONTINUOUS
 62
     7
 10
114.7109605142
 20
136.4329622179
 30
0.0
 11
114.7109605142
 21
135.6678769976
 31
0.0
  0
LINE
  5
103
  8
0
  6
CONTINUOUS
 62
     7
 10
115.7109595605
 20
136.4329622179
 30
0.0
 11
115.7109595605
 21
135.6678769976
 31
0.0
  0
LINE
  5
104
  8
0
  6
CONTINUOUS
 62
     7
 10
45.5109588572
 20
137.4678776652
 30
0.0
 11
41.3109592863
 21
137.4678776652
 31
0.0
  0
LINE
  5
105
  8
0
  6
CONTINUOUS
 62
     7
 10
45.5109588572
 20
137.4678776652
 30
0.0
 11
45.5109588572
 21
136.4678786188
 31
0.0
  0
LINE
  5
106
  8
0
  6
CONTINUOUS
 62
     7
 10
35.5109624334
 20
136.4678786188
 30
0.0
 11
35.5109624334
 21
137.4678776652
 31
0.0
  0
LINE
  5
107
  8
0
  6
CONTINUOUS
 62
     7
 10
40.31096024
 20
137.4678776652
 30
0.0
 11
35.5109624334
 21
137.4678776652
 31
0.0
  0
LINE
  5
108
  8
0
  6
CONTINUOUS
 62
     7
 10
114.7109605142
 20
137.4678776652
 30
0.0
 11
110.5109594532
 21
137.4678776652
 31
0.0
  0
LINE
  5
109
  8
0
  6
CONTINUOUS
 62
     7
 10
110.5109594532
 20
136.4678786188
 30
0.0
 11
110.5109594532
 21
137.4678776652
 31
0.0
  0
LINE
  5
10A
  8
0
  6
CONTINUOUS
 62
     7
 10
118.5109607645
 20
127.4678812414
 30
0.0
 11
112.5109605261
 21
127.4678812414
 31
0.0
  0
LINE
  5
10B
  8
0
  6
CONTINUOUS
 62
     7
 10
110.5109594532
 20
136.4678786188
 30
0.0
 11
110.5109594532
 21
129.4678793341
 31
0.0
  0
CIRCLE
  5
10C
  8
0
  6
CONTINUOUS
 62
     7
 10
115.5109600493
 20
130.8678786188
 30
0.0
 40
1.0
  0
LINE
  5
10D
  8
0
  6
CONTINUOUS
 62
     7
 10
120.5109603473
 20
129.4678793341
 30
0.0
 11
120.5109603473
 21
136.4678786188
 31
0.0
  0
ARC
  5
10E
  8
0
  6
CONTINUOUS
 62
     7
 10
112.5109600493
 20
129.4678786188
 30
0.0
 40
2.0
 50
180.0
 51
270.0
  0
ARC
  5
10F
  8
0
  6
CONTINUOUS
 62
     7
 10
118.5109600493
 20
129.4678786188
 30
0.0
 40
2.0
 50
270.0
 51
0.0
  0
LINE
  5
110
  8
0
  6
CONTINUOUS
 62
     7
 10
120.5109603473
 20
137.4678776652
 30
0.0
 11
115.7109595605
 21
137.4678776652
 31
0.0
  0
LINE
  5
111
  8
0
  6
CONTINUOUS
 62
     7
 10
120.5109603473
 20
136.4678786188
 30
0.0
 11
120.5109603473
 21
137.4678776652
 31
0.0
  0
LINE
  5
112
  8
0
  6
CONTINUOUS
 62
     7
 10
43.5109607645
 20
127.4678812414
 30
0.0
 11
37.5109605261
 21
127.4678812414
 31
0.0
  0
CIRCLE
  5
113
  8
0
  6
CONTINUOUS
 62
     7
 10
40.5109600493
 20
130.8678786188
 30
0.0
 40
1.000000000000014
  0
ARC
  5
114
  8
0
  6
CONTINUOUS
 62
     7
 10
37.5109600493
 20
129.4678786188
 30
0.0
 40
2.000000000000007
 50
180.0
 51
270.0
  0
ARC
  5
115
  8
0
  6
CONTINUOUS
 62
     7
 10
43.5109600493
 20
129.4678786188
 30
0.0
 40
2.0
 50
270.0
 51
0.0
  0
LINE
  5
116
  8
0
  6
CONTINUOUS
 62
     7
 10
45.5109588572
 20
129.4678793341
 30
0.0
 11
45.5109588572
 21
136.4678786188
 31
0.0
  0
LINE
  5
117
  8
0
  6
CONTINUOUS
 62
     7
 10
35.5109624334
 20
129.4678793341
 30
0.0
 11
35.5109624334
 21
136.4678786188
 31
0.0
  0
ARC
  5
118
  8
0
  6
CONTINUOUS
 62
     7
 10
198.0107850035
 20
334.9568622066
 30
0.0
 40
183.3109878346437
 50
277.7930441774
 51
281.5887865078
  0
ARC
  5
119
  8
0
  6
CONTINUOUS
 62
     7
 10
235.3797166821
 20
152.7483817393
 30
0.0
 40
2.690000000000022
 50
12.4186815058
 51
100.0467259555
  0
ARC
  5
11A
  8
0
  6
CONTINUOUS
 62
     7
 10
198.0234039183
 20
334.8831353136
 30
0.0
 40
188.6162308835828
 50
277.7922826888
 51
281.5895067778
  0
ARC
  5
11B
  8
0
  6
CONTINUOUS
 62
     7
 10
235.3797166821
 20
152.7483817393
 30
0.0
 40
2.690000000000002
 50
281.5900201068
 51
12.4186815058
  0
ARC
  5
11C
  8
0
  6
CONTINUOUS
 62
     7
 10
160.6422034164
 20
152.7483817393
 30
0.0
 40
2.689999999999983
 50
80.0567778886
 51
167.5813184942
  0
ARC
  5
11D
  8
0
  6
CONTINUOUS
 62
     7
 10
198.0303981459
 20
335.0701121541
 30
0.0
 40
183.4258036151342
 50
258.4125294448
 51
262.2057915725
  0
ARC
  5
11E
  8
0
  6
CONTINUOUS
 62
     7
 10
198.0302078469
 20
335.0686287228
 30
0.0
 40
188.8043081517395
 50
258.4125086084
 51
262.2058213536
  0
ARC
  5
11F
  8
0
  6
CONTINUOUS
 62
     7
 10
160.6422034164
 20
152.7483817393
 30
0.0
 40
2.690000000000008
 50
167.5813184942
 51
258.4099798932
  0
ARC
  5
120
  8
0
  6
CONTINUOUS
 62
     7
 10
198.0109600493
 20
334.9558898934
 30
0.0
 40
183.31
 50
262.2069690737
 51
277.7930309263
  0
ARC
  5
121
  8
0
  6
CONTINUOUS
 62
     7
 10
198.0109600493
 20
334.9558898934
 30
0.0
 40
188.69
 50
262.2069690737
 51
277.7930309263
  0
LINE
  5
122
  8
0
  6
CONTINUOUS
 62
     7
 10
234.7109608122
 20
149.6078775317
 30
0.0
 11
235.7109598585
 21
149.6078775317
 31
0.0
  0
LINE
  5
123
  8
0
  6
CONTINUOUS
 62
     7
 10
234.7109608122
 20
149.8693273455
 30
0.0
 11
234.7109608122
 21
149.6078775317
 31
0.0
  0
LINE
  5
124
  8
0
  6
CONTINUOUS
 62
     7
 10
235.7109598585
 20
150.0788555533
 30
0.0
 11
235.7109598585
 21
149.6078775317
 31
0.0
  0
LINE
  5
125
  8
0
  6
CONTINUOUS
 62
     7
 10
161.3109595843
 20
149.6078775317
 30
0.0
 11
160.310960538
 21
149.6078775317
 31
0.0
  0
LINE
  5
126
  8
0
  6
CONTINUOUS
 62
     7
 10
160.310960538
 20
149.6078775317
 30
0.0
 11
160.310960538
 21
145.1409325987
 31
0.0
  0
LINE
  5
127
  8
0
  6
CONTINUOUS
 62
     7
 10
161.3109595843
 20
149.6078775317
 30
0.0
 11
161.3109595843
 21
145.1409325987
 31
0.0
  0
LINE
  5
128
  8
0
  6
CONTINUOUS
 62
     7
 10
160.310960538
 20
150.0788555533
 30
0.0
 11
160.310960538
 21
149.6078775317
 31
0.0
  0
LINE
  5
129
  8
0
  6
CONTINUOUS
 62
     7
 10
161.3109595843
 20
149.8693511874
 30
0.0
 11
161.3109595843
 21
149.6078775317
 31
0.0
  0
LINE
  5
12A
  8
0
  6
CONTINUOUS
 62
     7
 10
234.7109608122
 20
149.6078775317
 30
0.0
 11
234.7109608122
 21
145.1409325987
 31
0.0
  0
LINE
  5
12B
  8
0
  6
CONTINUOUS
 62
     7
 10
235.7109598585
 20
149.6078775317
 30
0.0
 11
235.7109598585
 21
145.1409325987
 31
0.0
  0
LINE
  5
12C
  8
0
  6
CONTINUOUS
 62
     7
 10
161.1826441952
 20
155.3835318476
 30
0.0
 11
161.1865661808
 21
155.3827271849
 31
0.0
  0
LINE
  5
12D
  8
0
  6
CONTINUOUS
 62
     7
 10
234.8350457617
 20
155.3826616198
 30
0.0
 11
234.8392776915
 21
155.3835318476
 31
0.0
  0
LINE
  5
12E
  8
0
  6
CONTINUOUS
 62
     7
 10
160.310960538
 20
145.1409325987
 30
0.0
 11
160.310960538
 21
144.2873940855
 31
0.0
  0
LINE
  5
12F
  8
0
  6
CONTINUOUS
 62
     7
 10
161.3109595843
 20
145.1409325987
 30
0.0
 11
161.3109595843
 21
144.2873940855
 31
0.0
  0
LINE
  5
130
  8
0
  6
CONTINUOUS
 62
     7
 10
234.7109608122
 20
145.1409325987
 30
0.0
 11
234.7109608122
 21
144.2873940855
 31
0.0
  0
LINE
  5
131
  8
0
  6
CONTINUOUS
 62
     7
 10
235.7109598585
 20
145.1409325987
 30
0.0
 11
235.7109598585
 21
144.2873940855
 31
0.0
  0
LINE
  5
132
  8
0
  6
CONTINUOUS
 62
     7
 10
234.7109608122
 20
144.2873940855
 30
0.0
 11
234.7109608122
 21
136.4329622179
 31
0.0
  0
LINE
  5
133
  8
0
  6
CONTINUOUS
 62
     7
 10
235.7109598585
 20
144.2873940855
 30
0.0
 11
235.7109598585
 21
136.4329622179
 31
0.0
  0
LINE
  5
134
  8
0
  6
CONTINUOUS
 62
     7
 10
160.310960538
 20
144.2873940855
 30
0.0
 11
160.310960538
 21
136.4329622179
 31
0.0
  0
LINE
  5
135
  8
0
  6
CONTINUOUS
 62
     7
 10
161.3109595843
 20
144.2873940855
 30
0.0
 11
161.3109595843
 21
136.4329622179
 31
0.0
  0
LINE
  5
136
  8
0
  6
CONTINUOUS
 62
     7
 10
234.7109608122
 20
133.6678789049
 30
0.0
 11
235.7109598585
 21
133.6678789049
 31
0.0
  0
LINE
  5
137
  8
0
  6
CONTINUOUS
 62
     7
 10
234.7109608122
 20
135.6678769976
 30
0.0
 11
234.7109608122
 21
133.6678789049
 31
0.0
  0
LINE
  5
138
  8
0
  6
CONTINUOUS
 62
     7
 10
235.7109598585
 20
135.6678769976
 30
0.0
 11
235.7109598585
 21
133.6678789049
 31
0.0
  0
LINE
  5
139
  8
0
  6
CONTINUOUS
 62
     7
 10
161.3109595843
 20
133.6678789049
 30
0.0
 11
160.310960538
 21
133.6678789049
 31
0.0
  0
LINE
  5
13A
  8
0
  6
CONTINUOUS
 62
     7
 10
160.310960538
 20
135.6678769976
 30
0.0
 11
160.310960538
 21
133.6678789049
 31
0.0
  0
LINE
  5
13B
  8
0
  6
CONTINUOUS
 62
     7
 10
161.3109595843
 20
135.6678769976
 30
0.0
 11
161.3109595843
 21
133.6678789049
 31
0.0
  0
LINE
  5
13C
  8
0
  6
CONTINUOUS
 62
     7
 10
234.7109608122
 20
136.4329622179
 30
0.0
 11
234.7109608122
 21
135.6678769976
 31
0.0
  0
LINE
  5
13D
  8
0
  6
CONTINUOUS
 62
     7
 10
235.7109598585
 20
136.4329622179
 30
0.0
 11
235.7109598585
 21
135.6678769976
 31
0.0
  0
LINE
  5
13E
  8
0
  6
CONTINUOUS
 62
     7
 10
160.310960538
 20
136.4329622179
 30
0.0
 11
160.310960538
 21
135.6678769976
 31
0.0
  0
LINE
  5
13F
  8
0
  6
CONTINUOUS
 62
     7
 10
161.3109595843
 20
136.4329622179
 30
0.0
 11
161.3109595843
 21
135.6678769976
 31
0.0
  0
LINE
  5
140
  8
0
  6
CONTINUOUS
 62
     7
 10
234.7109608122
 20
137.4678776652
 30
0.0
 11
230.5109612414
 21
137.4678776652
 31
0.0
  0
LINE
  5
141
  8
0
  6
CONTINUOUS
 62
     7
 10
230.5109612414
 20
136.4678786188
 30
0.0
 11
230.5109612414
 21
137.4678776652
 31
0.0
  0
LINE
  5
142
  8
0
  6
CONTINUOUS
 62
     7
 10
165.5109606453
 20
129.4678793341
 30
0.0
 11
165.5109606453
 21
136.4678786188
 31
0.0
  0
ARC
  5
143
  8
0
  6
CONTINUOUS
 62
     7
 10
157.5109600493
 20
129.4678786188
 30
0.0
 40
2.000000000000057
 50
180.0
 51
270.0
  0
LINE
  5
144
  8
0
  6
CONTINUOUS
 62
     7
 10
155.5109597512
 20
129.4678793341
 30
0.0
 11
155.5109597512
 21
136.4678786188
 31
0.0
  0
CIRCLE
  5
145
  8
0
  6
CONTINUOUS
 62
     7
 10
160.5109600493
 20
130.8678786188
 30
0.0
 40
1.0
  0
LINE
  5
146
  8
0
  6
CONTINUOUS
 62
     7
 10
163.5109595724
 20
127.4678812414
 30
0.0
 11
157.510959334
 21
127.4678812414
 31
0.0
  0
ARC
  5
147
  8
0
  6
CONTINUOUS
 62
     7
 10
163.5109600493
 20
129.4678786188
 30
0.0
 40
2.0
 50
270.0
 51
0.0
  0
LINE
  5
148
  8
0
  6
CONTINUOUS
 62
     7
 10
240.5109576651
 20
136.4678786188
 30
0.0
 11
240.5109576651
 21
137.4678776652
 31
0.0
  0
LINE
  5
149
  8
0
  6
CONTINUOUS
 62
     7
 10
240.5109576651
 20
137.4678776652
 30
0.0
 11
235.7109598585
 21
137.4678776652
 31
0.0
  0
LINE
  5
14A
  8
0
  6
CONTINUOUS
 62
     7
 10
155.5109597512
 20
136.4678786188
 30
0.0
 11
155.5109597512
 21
137.4678776652
 31
0.0
  0
LINE
  5
14B
  8
0
  6
CONTINUOUS
 62
     7
 10
160.310960538
 20
137.4678776652
 30
0.0
 11
155.5109597512
 21
137.4678776652
 31
0.0
  0
LINE
  5
14C
  8
0
  6
CONTINUOUS
 62
     7
 10
165.5109606453
 20
137.4678776652
 30
0.0
 11
161.3109595843
 21
137.4678776652
 31
0.0
  0
LINE
  5
14D
  8
0
  6
CONTINUOUS
 62
     7
 10
165.5109606453
 20
137.4678776652
 30
0.0
 11
165.5109606453
 21
136.4678786188
 31
0.0
  0
LINE
  5
14E
  8
0
  6
CONTINUOUS
 62
     7
 10
240.5109576651
 20
129.4678793341
 30
0.0
 11
240.5109576651
 21
136.4678786188
 31
0.0
  0
LINE
  5
14F
  8
0
  6
CONTINUOUS
 62
     7
 10
230.5109612414
 20
136.4678786188
 30
0.0
 11
230.5109612414
 21
129.4678793341
 31
0.0
  0
CIRCLE
  5
150
  8
0
  6
CONTINUOUS
 62
     7
 10
235.5109600493
 20
130.8678786188
 30
0.0
 40
1.0
  0
ARC
  5
151
  8
0
  6
CONTINUOUS
 62
     7
 10
232.5109600493
 20
129.4678786188
 30
0.0
 40
2.0
 50
180.0
 51
270.0
  0
LINE
  5
152
  8
0
  6
CONTINUOUS
 62
     7
 10
238.5109595724
 20
127.4678812414
 30
0.0
 11
232.510959334
 21
127.4678812414
 31
0.0
  0
ARC
  5
153
  8
0
  6
CONTINUOUS
 62
     7
 10
238.5109600493
 20
129.4678786188
 30
0.0
 40
2.0
 50
270.0
 51
0.0
  0
LINE
  5
154
  8
0
  6
CONTINUOUS
 62
     7
 10
55.8380298086
 20
62.6678786293
 30
0.0
 11
59.5966748663
 21
62.6678786293
 31
0.0
  0
LINE
  5
155
  8
0
  6
CONTINUOUS
 62
     7
 10
59.5966748663
 20
61.4678786188
 30
0.0
 11
55.8380298086
 21
61.4678786188
 31
0.0
  0
LINE
  5
156
  8
0
  6
CONTINUOUS
 62
     7
 10
66.4252452322
 20
62.6678786293
 30
0.0
 11
70.1838902899
 21
62.6678786293
 31
0.0
  0
LINE
  5
157
  8
0
  6
CONTINUOUS
 62
     7
 10
70.1838902899
 20
61.4678786188
 30
0.0
 11
66.4252452322
 21
61.4678786188
 31
0.0
  0
LINE
  5
158
  8
0
  6
CONTINUOUS
 62
     7
 10
59.5966748663
 20
62.6678786293
 30
0.0
 11
66.4252452322
 21
62.6678786293
 31
0.0
  0
LINE
  5
159
  8
0
  6
CONTINUOUS
 62
     7
 10
59.5966748663
 20
61.4678786188
 30
0.0
 11
66.4252452322
 21
61.4678786188
 31
0.0
  0
LINE
  5
15A
  8
0
  6
CONTINUOUS
 62
     7
 10
205.8380298086
 20
62.6678786293
 30
0.0
 11
209.5966748663
 21
62.6678786293
 31
0.0
  0
LINE
  5
15B
  8
0
  6
CONTINUOUS
 62
     7
 10
209.5966748663
 20
61.4678786188
 30
0.0
 11
205.8380298086
 21
61.4678786188
 31
0.0
  0
LINE
  5
15C
  8
0
  6
CONTINUOUS
 62
     7
 10
209.5966748663
 20
62.6678786293
 30
0.0
 11
216.4252452322
 21
62.6678786293
 31
0.0
  0
LINE
  5
15D
  8
0
  6
CONTINUOUS
 62
     7
 10
209.5966748663
 20
61.4678786188
 30
0.0
 11
216.4252452322
 21
61.4678786188
 31
0.0
  0
LINE
  5
15E
  8
0
  6
CONTINUOUS
 62
     7
 10
216.4252452322
 20
62.6678786293
 30
0.0
 11
220.1838902899
 21
62.6678786293
 31
0.0
  0
LINE
  5
15F
  8
0
  6
CONTINUOUS
 62
     7
 10
220.1838902899
 20
61.4678786188
 30
0.0
 11
216.4252452322
 21
61.4678786188
 31
0.0
  0
LINE
  5
160
  8
0
  6
CONTINUOUS
 62
     7
 10
51.0109595724
 20
61.4678786188
 30
0.0
 11
51.0109595724
 21
62.6678786293
 31
0.0
  0
LINE
  5
161
  8
0
  6
CONTINUOUS
 62
     7
 10
55.8380298086
 20
62.6678786293
 30
0.0
 11
51.0109595724
 21
62.6678786293
 31
0.0
  0
LINE
  5
162
  8
0
  6
CONTINUOUS
 62
     7
 10
51.0109595724
 20
61.4678786188
 30
0.0
 11
55.8380298086
 21
61.4678786188
 31
0.0
  0
LINE
  5
163
  8
0
  6
CONTINUOUS
 62
     7
 10
75.0109605261
 20
61.4678786188
 30
0.0
 11
75.0109605261
 21
62.6678786293
 31
0.0
  0
LINE
  5
164
  8
0
  6
CONTINUOUS
 62
     7
 10
75.0109605261
 20
62.6678786293
 30
0.0
 11
70.1838902899
 21
62.6678786293
 31
0.0
  0
LINE
  5
165
  8
0
  6
CONTINUOUS
 62
     7
 10
70.1838902899
 20
61.4678786188
 30
0.0
 11
75.0109605261
 21
61.4678786188
 31
0.0
  0
LINE
  5
166
  8
0
  6
CONTINUOUS
 62
     7
 10
201.0109595724
 20
61.4678786188
 30
0.0
 11
201.0109595724
 21
62.6678786293
 31
0.0
  0
LINE
  5
167
  8
0
  6
CONTINUOUS
 62
     7
 10
205.8380298086
 20
62.6678786293
 30
0.0
 11
201.0109595724
 21
62.6678786293
 31
0.0
  0
LINE
  5
168
  8
0
  6
CONTINUOUS
 62
     7
 10
201.0109595724
 20
61.4678786188
 30
0.0
 11
205.8380298086
 21
61.4678786188
 31
0.0
  0
LINE
  5
169
  8
0
  6
CONTINUOUS
 62
     7
 10
225.0109605261
 20
61.4678786188
 30
0.0
 11
225.0109605261
 21
62.6678786293
 31
0.0
  0
LINE
  5
16A
  8
0
  6
CONTINUOUS
 62
     7
 10
225.0109605261
 20
62.6678786293
 30
0.0
 11
220.1838902899
 21
62.6678786293
 31
0.0
  0
LINE
  5
16B
  8
0
  6
CONTINUOUS
 62
     7
 10
220.1838902899
 20
61.4678786188
 30
0.0
 11
225.0109605261
 21
61.4678786188
 31
0.0
  0
LINE
  5
16C
  8
0
  6
CONTINUOUS
 62
     7
 10
58.0109588572
 20
62.6678786293
 30
0.0
 11
58.0109588572
 21
126.6678796202
 31
0.0
  0
POLYLINE
  5
16D
  8
0
  6
CONTINUOUS
 62
     7
 66
     1
 10
0.0
 20
0.0
 30
0.0
  0
VERTEX
  5
408
  8
0
  6
CONTINUOUS
 62
     7
 10
58.0109588572
 20
126.6678796202
 30
0.0
  0
VERTEX
  5
409
  8
0
  6
CONTINUOUS
 62
     7
 10
58.0301753946
 20
126.6870961577
 30
0.0
  0
VERTEX
  5
40A
  8
0
  6
CONTINUOUS
 62
     7
 10
58.087079949
 20
126.744000712
 30
0.0
  0
VERTEX
  5
40B
  8
0
  6
CONTINUOUS
 62
     7
 10
58.1794909903
 20
126.8364117533
 30
0.0
  0
VERTEX
  5
40C
  8
0
  6
CONTINUOUS
 62
     7
 10
58.3038560816
 20
126.9607708842
 30
0.0
  0
VERTEX
  5
40D
  8
0
  6
CONTINUOUS
 62
     7
 10
58.45538897
 20
127.112309733
 30
0.0
  0
VERTEX
  5
40E
  8
0
  6
CONTINUOUS
 62
     7
 10
58.6282782026
 20
127.2851930052
 30
0.0
  0
VERTEX
  5
40F
  8
0
  6
CONTINUOUS
 62
     7
 10
58.8158719011
 20
127.4727867037
 30
0.0
  0
VERTEX
  5
410
  8
0
  6
CONTINUOUS
 62
     7
 10
59.0109579035
 20
127.6678786665
 30
0.0
  0
SEQEND
  5
709
  8
0
  6
CONTINUOUS
 62
     7
  0
LINE
  5
16E
  8
0
  6
CONTINUOUS
 62
     7
 10
181.9339267679
 20
126.6678796202
 30
0.0
 11
94.0879933306
 21
126.6678796202
 31
0.0
  0
ARC
  5
16F
  8
0
  6
CONTINUOUS
 62
     7
 10
266.4109600493
 20
136.2678786188
 30
0.0
 40
0.4000000000000341
 50
0.0
 51
90.0
  0
LINE
  5
170
  8
0
  6
CONTINUOUS
 62
     7
 10
266.8109588095
 20
136.2678811938
 30
0.0
 11
266.8109588095
 21
135.6678769976
 31
0.0
  0
LINE
  5
171
  8
0
  6
CONTINUOUS
 62
     7
 10
266.8109588095
 20
135.6678769976
 30
0.0
 11
266.8109588095
 21
127.6678786665
 31
0.0
  0
POLYLINE
  5
172
  8
0
  6
CONTINUOUS
 62
     7
 66
     1
 10
0.0
 20
0.0
 30
0.0
  0
VERTEX
  5
411
  8
0
  6
CONTINUOUS
 62
     7
 10
218.0109612414
 20
126.6678796202
 30
0.0
  0
VERTEX
  5
412
  8
0
  6
CONTINUOUS
 62
     7
 10
217.9917447039
 20
126.6870961577
 30
0.0
  0
VERTEX
  5
413
  8
0
  6
CONTINUOUS
 62
     7
 10
217.9348401495
 20
126.744000712
 30
0.0
  0
VERTEX
  5
414
  8
0
  6
CONTINUOUS
 62
     7
 10
217.8424291083
 20
126.8364117533
 30
0.0
  0
VERTEX
  5
415
  8
0
  6
CONTINUOUS
 62
     7
 10
217.7180640169
 20
126.9607708842
 30
0.0
  0
VERTEX
  5
416
  8
0
  6
CONTINUOUS
 62
     7
 10
217.5665311285
 20
127.112309733
 30
0.0
  0
VERTEX
  5
417
  8
0
  6
CONTINUOUS
 62
     7
 10
217.3936418959
 20
127.2851930052
 30
0.0
  0
VERTEX
  5
418
  8
0
  6
CONTINUOUS
 62
     7
 10
217.2060481974
 20
127.4727867037
 30
0.0
  0
VERTEX
  5
419
  8
0
  6
CONTINUOUS
 62
     7
 10
217.010962195
 20
127.6678786665
 30
0.0
  0
SEQEND
  5
708
  8
0
  6
CONTINUOUS
 62
     7
  0
LINE
  5
173
  8
0
  6
CONTINUOUS
 62
     7
 10
266.4109639593
 20
126.6678796202
 30
0.0
 11
218.0109612414
 21
126.6678796202
 31
0.0
  0
LINE
  5
174
  8
0
  6
CONTINUOUS
 62
     7
 10
58.0109588572
 20
126.6678796202
 30
0.0
 11
9.6109561392
 21
126.6678796202
 31
0.0
  0
LINE
  5
175
  8
0
  6
CONTINUOUS
 62
     7
 10
218.0109612414
 20
126.6678796202
 30
0.0
 11
218.0109612414
 21
62.6678786293
 31
0.0
  0
LINE
  5
176
  8
0
  6
CONTINUOUS
 62
     7
 10
9.6109561392
 20
136.6678760439
 30
0.0
 11
12.0109610029
 21
136.6678760439
 31
0.0
  0
LINE
  5
177
  8
0
  6
CONTINUOUS
 62
     7
 10
24.0109614798
 20
136.6678760439
 30
0.0
 11
35.5109624334
 21
136.6678760439
 31
0.0
  0
LINE
  5
178
  8
0
  6
CONTINUOUS
 62
     7
 10
45.5109588572
 20
136.6678760439
 30
0.0
 11
60.0109629103
 21
136.6678760439
 31
0.0
  0
LINE
  5
179
  8
0
  6
CONTINUOUS
 62
     7
 10
96.0109613606
 20
136.6678760439
 30
0.0
 11
110.5109594532
 21
136.6678760439
 31
0.0
  0
LINE
  5
17A
  8
0
  6
CONTINUOUS
 62
     7
 10
120.5109603473
 20
136.6678760439
 30
0.0
 11
132.0109601834
 21
136.6678760439
 31
0.0
  0
LINE
  5
17B
  8
0
  6
CONTINUOUS
 62
     7
 10
144.0109599152
 20
136.6678760439
 30
0.0
 11
155.5109597512
 21
136.6678760439
 31
0.0
  0
LINE
  5
17C
  8
0
  6
CONTINUOUS
 62
     7
 10
165.5109606453
 20
136.6678760439
 30
0.0
 11
180.010958738
 21
136.6678760439
 31
0.0
  0
LINE
  5
17D
  8
0
  6
CONTINUOUS
 62
     7
 10
216.0109571882
 20
136.6678760439
 30
0.0
 11
230.5109612414
 21
136.6678760439
 31
0.0
  0
LINE
  5
17E
  8
0
  6
CONTINUOUS
 62
     7
 10
240.5109576651
 20
136.6678760439
 30
0.0
 11
252.0109586187
 21
136.6678760439
 31
0.0
  0
LINE
  5
17F
  8
0
  6
CONTINUOUS
 62
     7
 10
264.0109590956
 20
136.6678760439
 30
0.0
 11
266.4109639593
 21
136.6678760439
 31
0.0
  0
LINE
  5
180
  8
0
  6
CONTINUOUS
 62
     7
 10
9.210961289
 20
127.6678786665
 30
0.0
 11
9.210961289
 21
135.6678769976
 31
0.0
  0
LINE
  5
181
  8
0
  6
CONTINUOUS
 62
     7
 10
208.0109588572
 20
62.6678786293
 30
0.0
 11
208.0109588572
 21
126.4678762347
 31
0.0
  0
LINE
  5
182
  8
0
  6
CONTINUOUS
 62
     7
 10
68.0109612414
 20
126.4678762347
 30
0.0
 11
68.0109612414
 21
62.6678786293
 31
0.0
  0
LINE
  5
183
  8
0
  6
CONTINUOUS
 62
     7
 10
266.8109588095
 20
127.6678786665
 30
0.0
 11
266.8109588095
 21
127.0678804308
 31
0.0
  0
ARC
  5
184
  8
0
  6
CONTINUOUS
 62
     7
 10
266.4109600493
 20
127.0678786188
 30
0.0
 40
0.4000000000000057
 50
270.0
 51
0.0
  0
LINE
  5
185
  8
0
  6
CONTINUOUS
 62
     7
 10
9.210961289
 20
127.0678804308
 30
0.0
 11
9.210961289
 21
127.6678786665
 31
0.0
  0
ARC
  5
186
  8
0
  6
CONTINUOUS
 62
     7
 10
9.6109600493
 20
127.0678786188
 30
0.0
 40
0.4000000000000057
 50
180.0
 51
270.0
  0
LINE
  5
187
  8
0
  6
CONTINUOUS
 62
     7
 10
9.210961289
 20
135.6678769976
 30
0.0
 11
9.210961289
 21
136.2678811938
 31
0.0
  0
ARC
  5
188
  8
0
  6
CONTINUOUS
 62
     7
 10
9.6109600493
 20
136.2678786188
 30
0.0
 40
0.4000000000000057
 50
90.0
 51
180.0
  0
ARC
  5
189
  8
0
  6
CONTINUOUS
 62
     7
 10
345.8599163464
 20
162.4678786188
 30
0.0
 40
12.30000000000001
 50
90.0
 51
180.0
  0
ARC
  5
18A
  8
0
  6
CONTINUOUS
 62
     7
 10
345.8599163464
 20
162.4678786188
 30
0.0
 40
17.69999999999999
 50
90.0
 51
180.0
  0
LINE
  5
18B
  8
0
  6
CONTINUOUS
 62
     7
 10
333.5599162629
 20
137.4678776652
 30
0.0
 11
333.5599162629
 21
162.4678776652
 31
0.0
  0
LINE
  5
18C
  8
0
  6
CONTINUOUS
 62
     7
 10
328.1599163091
 20
162.4678776652
 30
0.0
 11
328.1599163091
 21
137.4678776652
 31
0.0
  0
LINE
  5
18D
  8
0
  6
CONTINUOUS
 62
     7
 10
336.859916245
 20
128.1678781897
 30
0.0
 11
365.8599161556
 21
128.1678781897
 31
0.0
  0
LINE
  5
18E
  8
0
  6
CONTINUOUS
 62
     7
 10
365.8599161556
 20
133.5678801924
 30
0.0
 11
336.859916245
 21
133.5678801924
 31
0.0
  0
LINE
  5
18F
  8
0
  6
CONTINUOUS
 62
     7
 10
365.8599161556
 20
180.1678822428
 30
0.0
 11
345.8599158576
 21
180.1678822428
 31
0.0
  0
LINE
  5
190
  8
0
  6
CONTINUOUS
 62
     7
 10
345.8599158576
 20
174.7678802401
 30
0.0
 11
365.8599161556
 21
174.7678802401
 31
0.0
  0
ARC
  5
191
  8
0
  6
CONTINUOUS
 62
     7
 10
365.8599163464
 20
145.8678786188
 30
0.0
 40
12.30000000000001
 50
270.0
 51
0.0
  0
ARC
  5
192
  8
0
  6
CONTINUOUS
 62
     7
 10
365.8599163464
 20
145.8678786188
 30
0.0
 40
17.70000000000005
 50
270.0
 51
0.0
  0
ARC
  5
193
  8
0
  6
CONTINUOUS
 62
     7
 10
365.8599163464
 20
162.4678786188
 30
0.0
 40
12.30000000000001
 50
360.0
 51
90.0
  0
ARC
  5
194
  8
0
  6
CONTINUOUS
 62
     7
 10
365.8599163464
 20
162.4678786188
 30
0.0
 40
17.70000000000005
 50
360.0
 51
90.0
  0
LINE
  5
195
  8
0
  6
CONTINUOUS
 62
     7
 10
383.5599147728
 20
145.8678768069
 30
0.0
 11
383.5599147728
 21
162.4678776652
 31
0.0
  0
LINE
  5
196
  8
0
  6
CONTINUOUS
 62
     7
 10
378.1599157503
 20
162.4678776652
 30
0.0
 11
378.1599157503
 21
145.8678768069
 31
0.0
  0
POLYLINE
  5
197
  8
0
  6
CONTINUOUS
 62
     7
 66
     1
 10
0.0
 20
0.0
 30
0.0
  0
VERTEX
  5
41A
  8
0
  6
CONTINUOUS
 62
     7
 10
317.2960602692
 20
232.8863547236
 30
0.0
  0
VERTEX
  5
41B
  8
0
  6
CONTINUOUS
 62
     7
 10
317.2019594362
 20
233.6263106257
 30
0.0
  0
VERTEX
  5
41C
  8
0
  6
CONTINUOUS
 62
     7
 10
317.0731493285
 20
234.5348999888
 30
0.0
  0
VERTEX
  5
41D
  8
0
  6
CONTINUOUS
 62
     7
 10
316.9319250634
 20
235.4361818224
 30
0.0
  0
VERTEX
  5
41E
  8
0
  6
CONTINUOUS
 62
     7
 10
316.7791062048
 20
236.3243267924
 30
0.0
  0
VERTEX
  5
41F
  8
0
  6
CONTINUOUS
 62
     7
 10
316.6175597361
 20
237.1851489931
 30
0.0
  0
VERTEX
  5
420
  8
0
  6
CONTINUOUS
 62
     7
 10
316.4464631131
 20
238.0260513216
 30
0.0
  0
VERTEX
  5
421
  8
0
  6
CONTINUOUS
 62
     7
 10
316.2663259557
 20
238.8456151873
 30
0.0
  0
VERTEX
  5
422
  8
0
  6
CONTINUOUS
 62
     7
 10
316.0781123689
 20
239.6400258929
 30
0.0
  0
VERTEX
  5
423
  8
0
  6
CONTINUOUS
 62
     7
 10
315.8827447346
 20
240.4056713969
 30
0.0
  0
VERTEX
  5
424
  8
0
  6
CONTINUOUS
 62
     7
 10
315.6810172847
 20
241.1393211275
 30
0.0
  0
VERTEX
  5
425
  8
0
  6
CONTINUOUS
 62
     7
 10
315.4734575203
 20
241.8384001643
 30
0.0
  0
VERTEX
  5
426
  8
0
  6
CONTINUOUS
 62
     7
 10
315.2603157809
 20
242.500726977
 30
0.0
  0
VERTEX
  5
427
  8
0
  6
CONTINUOUS
 62
     7
 10
315.0444948128
 20
243.1171105296
 30
0.0
  0
VERTEX
  5
428
  8
0
  6
CONTINUOUS
 62
     7
 10
314.8209773949
 20
243.7004015833
 30
0.0
  0
VERTEX
  5
429
  8
0
  6
CONTINUOUS
 62
     7
 10
314.5839580348
 20
244.2592189699
 30
0.0
  0
VERTEX
  5
42A
  8
0
  6
CONTINUOUS
 62
     7
 10
314.324202483
 20
244.8018119723
 30
0.0
  0
VERTEX
  5
42B
  8
0
  6
CONTINUOUS
 62
     7
 10
314.0170806101
 20
245.3502223879
 30
0.0
  0
VERTEX
  5
42C
  8
0
  6
CONTINUOUS
 62
     7
 10
313.7653180411
 20
245.7272336871
 30
0.0
  0
VERTEX
  5
42D
  8
0
  6
CONTINUOUS
 62
     7
 10
313.5118090561
 20
246.0463211924
 30
0.0
  0
VERTEX
  5
42E
  8
0
  6
CONTINUOUS
 62
     7
 10
313.2631965926
 20
246.307639876
 30
0.0
  0
VERTEX
  5
42F
  8
0
  6
CONTINUOUS
 62
     7
 10
312.9944839528
 20
246.5413020045
 30
0.0
  0
VERTEX
  5
430
  8
0
  6
CONTINUOUS
 62
     7
 10
312.6999580315
 20
246.74810628
 30
0.0
  0
VERTEX
  5
431
  8
0
  6
CONTINUOUS
 62
     7
 10
312.3751976541
 20
246.9254300982
 30
0.0
  0
VERTEX
  5
432
  8
0
  6
CONTINUOUS
 62
     7
 10
312.0204531601
 20
247.0666931063
 30
0.0
  0
VERTEX
  5
433
  8
0
  6
CONTINUOUS
 62
     7
 10
311.6405376246
 20
247.1640870959
 30
0.0
  0
VERTEX
  5
434
  8
0
  6
CONTINUOUS
 62
     7
 10
311.2434976747
 20
247.2109840304
 30
0.0
  0
VERTEX
  5
435
  8
0
  6
CONTINUOUS
 62
     7
 10
310.7950233868
 20
247.1988723666
 30
0.0
  0
VERTEX
  5
436
  8
0
  6
CONTINUOUS
 62
     7
 10
310.7420646599
 20
247.1892998606
 30
0.0
  0
SEQEND
  5
707
  8
0
  6
CONTINUOUS
 62
     7
  0
POLYLINE
  5
198
  8
0
  6
CONTINUOUS
 62
     7
 66
     1
 10
0.0
 20
0.0
 30
0.0
  0
VERTEX
  5
437
  8
0
  6
CONTINUOUS
 62
     7
 10
319.2733095041
 20
177.7229473978
 30
0.0
  0
VERTEX
  5
438
  8
0
  6
CONTINUOUS
 62
     7
 10
319.539996331
 20
177.7610824496
 30
0.0
  0
VERTEX
  5
439
  8
0
  6
CONTINUOUS
 62
     7
 10
319.9356780401
 20
177.8773711115
 30
0.0
  0
VERTEX
  5
43A
  8
0
  6
CONTINUOUS
 62
     7
 10
320.2973344377
 20
178.0402348429
 30
0.0
  0
VERTEX
  5
43B
  8
0
  6
CONTINUOUS
 62
     7
 10
320.621363168
 20
178.2403276354
 30
0.0
  0
VERTEX
  5
43C
  8
0
  6
CONTINUOUS
 62
     7
 10
320.9063054076
 20
178.4685061365
 30
0.0
  0
VERTEX
  5
43D
  8
0
  6
CONTINUOUS
 62
     7
 10
321.1532072177
 20
178.7169144541
 30
0.0
  0
VERTEX
  5
43E
  8
0
  6
CONTINUOUS
 62
     7
 10
321.3658043197
 20
178.98070077
 30
0.0
  0
VERTEX
  5
43F
  8
0
  6
CONTINUOUS
 62
     7
 10
321.5500571778
 20
179.2598054797
 30
0.0
  0
VERTEX
  5
440
  8
0
  6
CONTINUOUS
 62
     7
 10
321.7134245685
 20
179.561106959
 30
0.0
  0
VERTEX
  5
441
  8
0
  6
CONTINUOUS
 62
     7
 10
321.8650789013
 20
179.904072085
 30
0.0
  0
VERTEX
  5
442
  8
0
  6
CONTINUOUS
 62
     7
 10
322.0091686597
 20
180.3100870043
 30
0.0
  0
VERTEX
  5
443
  8
0
  6
CONTINUOUS
 62
     7
 10
322.1565970233
 20
180.8436797053
 30
0.0
  0
VERTEX
  5
444
  8
0
  6
CONTINUOUS
 62
     7
 10
322.2816788605
 20
181.4378426462
 30
0.0
  0
VERTEX
  5
445
  8
0
  6
CONTINUOUS
 62
     7
 10
322.377301847
 20
182.028858462
 30
0.0
  0
VERTEX
  5
446
  8
0
  6
CONTINUOUS
 62
     7
 10
322.4602528861
 20
182.6994941622
 30
0.0
  0
VERTEX
  5
447
  8
0
  6
CONTINUOUS
 62
     7
 10
322.523478513
 20
183.386485377
 30
0.0
  0
VERTEX
  5
448
  8
0
  6
CONTINUOUS
 62
     7
 10
322.5703009417
 20
184.0977833659
 30
0.0
  0
VERTEX
  5
449
  8
0
  6
CONTINUOUS
 62
     7
 10
322.6012662998
 20
184.819273749
 30
0.0
  0
VERTEX
  5
44A
  8
0
  6
CONTINUOUS
 62
     7
 10
322.6187103441
 20
185.5905816943
 30
0.0
  0
VERTEX
  5
44B
  8
0
  6
CONTINUOUS
 62
     7
 10
322.6220005205
 20
186.3935993105
 30
0.0
  0
VERTEX
  5
44C
  8
0
  6
CONTINUOUS
 62
     7
 10
322.611150985
 20
187.2247026354
 30
0.0
  0
VERTEX
  5
44D
  8
0
  6
CONTINUOUS
 62
     7
 10
322.586114054
 20
188.0789444834
 30
0.0
  0
VERTEX
  5
44E
  8
0
  6
CONTINUOUS
 62
     7
 10
322.5468785515
 20
188.9505789667
 30
0.0
  0
VERTEX
  5
44F
  8
0
  6
CONTINUOUS
 62
     7
 10
322.4935145131
 20
189.8333833605
 30
0.0
  0
VERTEX
  5
450
  8
0
  6
CONTINUOUS
 62
     7
 10
322.4262543967
 20
190.7207296282
 30
0.0
  0
VERTEX
  5
451
  8
0
  6
CONTINUOUS
 62
     7
 10
322.3451771787
 20
191.6140840441
 30
0.0
  0
VERTEX
  5
452
  8
0
  6
CONTINUOUS
 62
     7
 10
322.2492844811
 20
192.5244496256
 30
0.0
  0
VERTEX
  5
453
  8
0
  6
CONTINUOUS
 62
     7
 10
322.1702561727
 20
193.1842492014
 30
0.0
  0
SEQEND
  5
706
  8
0
  6
CONTINUOUS
 62
     7
  0
LINE
  5
199
  8
0
  6
CONTINUOUS
 62
     7
 10
322.1723713925
 20
193.1845829874
 30
0.0
 11
317.297598069
 21
232.8864381701
 31
0.0
  0
POLYLINE
  5
19A
  8
0
  6
CONTINUOUS
 62
     7
 66
     1
 10
0.0
 20
0.0
 30
0.0
  0
VERTEX
  5
454
  8
0
  6
CONTINUOUS
 62
     7
 10
316.8309190324
 20
192.5288722903
 30
0.0
  0
VERTEX
  5
455
  8
0
  6
CONTINUOUS
 62
     7
 10
316.9160702279
 20
191.8059394747
 30
0.0
  0
VERTEX
  5
456
  8
0
  6
CONTINUOUS
 62
     7
 10
317.0024462989
 20
190.9695670992
 30
0.0
  0
VERTEX
  5
457
  8
0
  6
CONTINUOUS
 62
     7
 10
317.0755946091
 20
190.1430294901
 30
0.0
  0
VERTEX
  5
458
  8
0
  6
CONTINUOUS
 62
     7
 10
317.1350055387
 20
189.3323109537
 30
0.0
  0
VERTEX
  5
459
  8
0
  6
CONTINUOUS
 62
     7
 10
317.1807491234
 20
188.542966643
 30
0.0
  0
VERTEX
  5
45A
  8
0
  6
CONTINUOUS
 62
     7
 10
317.2138371518
 20
187.7679751307
 30
0.0
  0
VERTEX
  5
45B
  8
0
  6
CONTINUOUS
 62
     7
 10
317.2343426397
 20
187.0125339419
 30
0.0
  0
VERTEX
  5
45C
  8
0
  6
CONTINUOUS
 62
     7
 10
317.2423594644
 20
186.2856552988
 30
0.0
  0
VERTEX
  5
45D
  8
0
  6
CONTINUOUS
 62
     7
 10
317.2382825067
 20
185.5976150423
 30
0.0
  0
VERTEX
  5
45E
  8
0
  6
CONTINUOUS
 62
     7
 10
317.2228776863
 20
184.9569843203
 30
0.0
  0
VERTEX
  5
45F
  8
0
  6
CONTINUOUS
 62
     7
 10
317.1972551396
 20
184.3717978388
 30
0.0
  0
VERTEX
  5
460
  8
0
  6
CONTINUOUS
 62
     7
 10
317.162881141
 20
183.8450239092
 30
0.0
  0
VERTEX
  5
461
  8
0
  6
CONTINUOUS
 62
     7
 10
317.1198301962
 20
183.3587453753
 30
0.0
  0
VERTEX
  5
462
  8
0
  6
CONTINUOUS
 62
     7
 10
317.0710482648
 20
182.9346583277
 30
0.0
  0
VERTEX
  5
463
  8
0
  6
CONTINUOUS
 62
     7
 10
317.0189240029
 20
182.5761363894
 30
0.0
  0
VERTEX
  5
464
  8
0
  6
CONTINUOUS
 62
     7
 10
316.9669949463
 20
182.2890327364
 30
0.0
  0
VERTEX
  5
465
  8
0
  6
CONTINUOUS
 62
     7
 10
316.9249617508
 20
182.0984647662
 30
0.0
  0
VERTEX
  5
466
  8
0
  6
CONTINUOUS
 62
     7
 10
316.8915473869
 20
181.9719002634
 30
0.0
  0
VERTEX
  5
467
  8
0
  6
CONTINUOUS
 62
     7
 10
316.8708258322
 20
181.9057987124
 30
0.0
  0
VERTEX
  5
468
  8
0
  6
CONTINUOUS
 62
     7
 10
316.8679052046
 20
181.8975375086
 30
0.0
  0
SEQEND
  5
705
  8
0
  6
CONTINUOUS
 62
     7
  0
POLYLINE
  5
19B
  8
0
  6
CONTINUOUS
 62
     7
 66
     1
 10
0.0
 20
0.0
 30
0.0
  0
VERTEX
  5
469
  8
0
  6
CONTINUOUS
 62
     7
 10
309.4181397012
 20
242.5575778872
 30
0.0
  0
VERTEX
  5
46A
  8
0
  6
CONTINUOUS
 62
     7
 10
309.4168641618
 20
242.5591752917
 30
0.0
  0
VERTEX
  5
46B
  8
0
  6
CONTINUOUS
 62
     7
 10
309.442211037
 20
242.519013682
 30
0.0
  0
VERTEX
  5
46C
  8
0
  6
CONTINUOUS
 62
     7
 10
309.4941549948
 20
242.4279497057
 30
0.0
  0
VERTEX
  5
46D
  8
0
  6
CONTINUOUS
 62
     7
 10
309.5711090615
 20
242.2790215403
 30
0.0
  0
VERTEX
  5
46E
  8
0
  6
CONTINUOUS
 62
     7
 10
309.6708917072
 20
242.0668766886
 30
0.0
  0
VERTEX
  5
46F
  8
0
  6
CONTINUOUS
 62
     7
 10
309.790552502
 20
241.7886779696
 30
0.0
  0
VERTEX
  5
470
  8
0
  6
CONTINUOUS
 62
     7
 10
309.9265315583
 20
241.444461146
 30
0.0
  0
VERTEX
  5
471
  8
0
  6
CONTINUOUS
 62
     7
 10
310.0749575546
 20
241.0368249804
 30
0.0
  0
VERTEX
  5
472
  8
0
  6
CONTINUOUS
 62
     7
 10
310.2319487384
 20
240.5704067141
 30
0.0
  0
VERTEX
  5
473
  8
0
  6
CONTINUOUS
 62
     7
 10
310.393955653
 20
240.0508091837
 30
0.0
  0
VERTEX
  5
474
  8
0
  6
CONTINUOUS
 62
     7
 10
310.5578907779
 20
239.4847796351
 30
0.0
  0
VERTEX
  5
475
  8
0
  6
CONTINUOUS
 62
     7
 10
310.7243456891
 20
238.8671324641
 30
0.0
  0
VERTEX
  5
476
  8
0
  6
CONTINUOUS
 62
     7
 10
310.8908631852
 20
238.2031605631
 30
0.0
  0
VERTEX
  5
477
  8
0
  6
CONTINUOUS
 62
     7
 10
311.0552304438
 20
237.4982521921
 30
0.0
  0
VERTEX
  5
478
  8
0
  6
CONTINUOUS
 62
     7
 10
311.2153806737
 20
236.7580578715
 30
0.0
  0
VERTEX
  5
479
  8
0
  6
CONTINUOUS
 62
     7
 10
311.3693990758
 20
235.9884307772
 30
0.0
  0
VERTEX
  5
47A
  8
0
  6
CONTINUOUS
 62
     7
 10
311.5155094316
 20
235.1955101878
 30
0.0
  0
VERTEX
  5
47B
  8
0
  6
CONTINUOUS
 62
     7
 10
311.6519787362
 20
234.3864009768
 30
0.0
  0
VERTEX
  5
47C
  8
0
  6
CONTINUOUS
 62
     7
 10
311.7775105884
 20
233.5685179621
 30
0.0
  0
VERTEX
  5
47D
  8
0
  6
CONTINUOUS
 62
     7
 10
311.8926250389
 20
232.7387617022
 30
0.0
  0
VERTEX
  5
47E
  8
0
  6
CONTINUOUS
 62
     7
 10
311.9557582787
 20
232.2305009753
 30
0.0
  0
SEQEND
  5
704
  8
0
  6
CONTINUOUS
 62
     7
  0
LINE
  5
19C
  8
0
  6
CONTINUOUS
 62
     7
 10
311.9576999
 20
232.2307751566
 30
0.0
 11
316.8324732235
 21
192.5289318949
 31
0.0
  0
LINE
  5
19D
  8
0
  6
CONTINUOUS
 62
     7
 10
311.4402973106
 20
235.6036827952
 30
0.0
 11
317.1468907049
 21
189.1271994501
 31
0.0
  0
ARC
  5
19E
  8
0
  6
CONTINUOUS
 62
     7
 10
309.3632138094
 20
244.314660271
 30
0.0
 40
2.689999999999995
 50
97.0
 51
165.4352045702
  0
ARC
  5
19F
  8
0
  6
CONTINUOUS
 62
     7
 10
309.3632138094
 20
244.314660271
 30
0.0
 40
2.690000000000038
 50
208.5742842993
 51
277.0
  0
ARC
  5
1A0
  8
0
  6
CONTINUOUS
 62
     7
 10
317.2384107802
 20
180.1763279519
 30
0.0
 40
2.690000000000055
 50
208.5742842993
 51
277.0
  0
ARC
  5
1A1
  8
0
  6
CONTINUOUS
 62
     7
 10
317.2384107802
 20
180.1763279519
 30
0.0
 40
2.689999999999995
 50
97.0
 51
165.4352045702
  0
LINE
  5
1A2
  8
0
  6
CONTINUOUS
 62
     7
 10
306.4597913077
 20
242.9506585986
 30
0.0
 11
307.0023604682
 21
243.0172727496
 31
0.0
  0
LINE
  5
1A3
  8
0
  6
CONTINUOUS
 62
     7
 10
306.7586221745
 20
245.002369681
 30
0.0
 11
306.2160530141
 21
244.9357436091
 31
0.0
  0
LINE
  5
1A4
  8
0
  6
CONTINUOUS
 62
     7
 10
314.3349879435
 20
178.8123176485
 30
0.0
 11
314.877558594
 21
178.8789437205
 31
0.0
  0
LINE
  5
1A5
  8
0
  6
CONTINUOUS
 62
     7
 10
314.6338188103
 20
180.864028731
 30
0.0
 11
314.0912496498
 21
180.79741458
 31
0.0
  0
POLYLINE
  5
1A6
  8
0
  6
CONTINUOUS
 62
     7
 66
     1
 10
0.0
 20
0.0
 30
0.0
  0
VERTEX
  5
47F
  8
0
  6
CONTINUOUS
 62
     7
 10
411.7530011585
 20
150.6766305357
 30
0.0
  0
VERTEX
  5
480
  8
0
  6
CONTINUOUS
 62
     7
 10
411.7476486614
 20
150.945977965
 30
0.0
  0
VERTEX
  5
481
  8
0
  6
CONTINUOUS
 62
     7
 10
411.6804503849
 20
151.3528809935
 30
0.0
  0
VERTEX
  5
482
  8
0
  6
CONTINUOUS
 62
     7
 10
411.5628683021
 20
151.7316863924
 30
0.0
  0
VERTEX
  5
483
  8
0
  6
CONTINUOUS
 62
     7
 10
411.4037656238
 20
152.0776853949
 30
0.0
  0
VERTEX
  5
484
  8
0
  6
CONTINUOUS
 62
     7
 10
411.2120115211
 20
152.3883150011
 30
0.0
  0
VERTEX
  5
485
  8
0
  6
CONTINUOUS
 62
     7
 10
410.9955393722
 20
152.6636467367
 30
0.0
  0
VERTEX
  5
486
  8
0
  6
CONTINUOUS
 62
     7
 10
410.7596361092
 20
152.9068098456
 30
0.0
  0
VERTEX
  5
487
  8
0
  6
CONTINUOUS
 62
     7
 10
410.5050646713
 20
153.123699227
 30
0.0
  0
VERTEX
  5
488
  8
0
  6
CONTINUOUS
 62
     7
 10
410.2259241989
 20
153.3225701243
 30
0.0
  0
VERTEX
  5
489
  8
0
  6
CONTINUOUS
 62
     7
 10
409.903993552
 20
153.5148904711
 30
0.0
  0
VERTEX
  5
48A
  8
0
  6
CONTINUOUS
 62
     7
 10
409.5185601166
 20
153.7073896319
 30
0.0
  0
VERTEX
  5
48B
  8
0
  6
CONTINUOUS
 62
     7
 10
409.0069138458
 20
153.9187477022
 30
0.0
  0
VERTEX
  5
48C
  8
0
  6
CONTINUOUS
 62
     7
 10
408.4324263981
 20
154.1153059393
 30
0.0
  0
VERTEX
  5
48D
  8
0
  6
CONTINUOUS
 62
     7
 10
407.8574740341
 20
154.2822406679
 30
0.0
  0
VERTEX
  5
48E
  8
0
  6
CONTINUOUS
 62
     7
 10
407.2019361904
 20
154.4463084132
 30
0.0
  0
VERTEX
  5
48F
  8
0
  6
CONTINUOUS
 62
     7
 10
406.5277778557
 20
154.5927808672
 30
0.0
  0
VERTEX
  5
490
  8
0
  6
CONTINUOUS
 62
     7
 10
405.8274828842
 20
154.7259436041
 30
0.0
  0
VERTEX
  5
491
  8
0
  6
CONTINUOUS
 62
     7
 10
405.1151477745
 20
154.8446045309
 30
0.0
  0
VERTEX
  5
492
  8
0
  6
CONTINUOUS
 62
     7
 10
404.3517136028
 20
154.9559162051
 30
0.0
  0
VERTEX
  5
493
  8
0
  6
CONTINUOUS
 62
     7
 10
403.5550856045
 20
155.0570474058
 30
0.0
  0
VERTEX
  5
494
  8
0
  6
CONTINUOUS
 62
     7
 10
402.7288579395
 20
155.1475630194
 30
0.0
  0
VERTEX
  5
495
  8
0
  6
CONTINUOUS
 62
     7
 10
401.8779181889
 20
155.2268193156
 30
0.0
  0
VERTEX
  5
496
  8
0
  6
CONTINUOUS
 62
     7
 10
401.0080122402
 20
155.2941010386
 30
0.0
  0
VERTEX
  5
497
  8
0
  6
CONTINUOUS
 62
     7
 10
400.1252734116
 20
155.3487227351
 30
0.0
  0
VERTEX
  5
498
  8
0
  6
CONTINUOUS
 62
     7
 10
399.2363535812
 20
155.3901002795
 30
0.0
  0
VERTEX
  5
499
  8
0
  6
CONTINUOUS
 62
     7
 10
398.3397745541
 20
155.4185018927
 30
0.0
  0
VERTEX
  5
49A
  8
0
  6
CONTINUOUS
 62
     7
 10
397.4245035103
 20
155.4342732817
 30
0.0
  0
VERTEX
  5
49B
  8
0
  6
CONTINUOUS
 62
     7
 10
396.7599892071
 20
155.436240235
 30
0.0
  0
SEQEND
  5
703
  8
0
  6
CONTINUOUS
 62
     7
  0
ARC
  5
1A7
  8
0
  6
CONTINUOUS
 62
     7
 10
356.4613189618
 20
100.2833984745
 30
0.0
 40
55.15425742299441
 50
89.689920985
 51
97.9477118465
  0
LINE
  5
1A8
  8
0
  6
CONTINUOUS
 62
     7
 10
396.7599176815
 20
155.4383800417
 30
0.0
 11
383.5599147728
 21
155.4383800417
 31
0.0
  0
LINE
  5
1A9
  8
0
  6
CONTINUOUS
 62
     7
 10
378.1599157503
 20
155.4383800417
 30
0.0
 11
356.7599170855
 21
155.4383800417
 31
0.0
  0
POLYLINE
  5
1AA
  8
0
  6
CONTINUOUS
 62
     7
 66
     1
 10
0.0
 20
0.0
 30
0.0
  0
VERTEX
  5
49C
  8
0
  6
CONTINUOUS
 62
     7
 10
396.7597865513
 20
150.056831637
 30
0.0
  0
VERTEX
  5
49D
  8
0
  6
CONTINUOUS
 62
     7
 10
397.4877082756
 20
150.0532434374
 30
0.0
  0
VERTEX
  5
49E
  8
0
  6
CONTINUOUS
 62
     7
 10
398.328378146
 20
150.0370488554
 30
0.0
  0
VERTEX
  5
49F
  8
0
  6
CONTINUOUS
 62
     7
 10
399.1576635292
 20
150.0089214236
 30
0.0
  0
VERTEX
  5
4A0
  8
0
  6
CONTINUOUS
 62
     7
 10
399.9695801189
 20
149.9690876395
 30
0.0
  0
VERTEX
  5
4A1
  8
0
  6
CONTINUOUS
 62
     7
 10
400.7586144855
 20
149.9182925612
 30
0.0
  0
VERTEX
  5
4A2
  8
0
  6
CONTINUOUS
 62
     7
 10
401.5318595818
 20
149.8566911608
 30
0.0
  0
VERTEX
  5
4A3
  8
0
  6
CONTINUOUS
 62
     7
 10
402.2841715267
 20
149.7849748522
 30
0.0
  0
VERTEX
  5
4A4
  8
0
  6
CONTINUOUS
 62
     7
 10
403.0066096237
 20
149.7043476492
 30
0.0
  0
VERTEX
  5
4A5
  8
0
  6
CONTINUOUS
 62
     7
 10
403.6890291622
 20
149.6164486796
 30
0.0
  0
VERTEX
  5
4A6
  8
0
  6
CONTINUOUS
 62
     7
 10
404.322996085
 20
149.5230899245
 30
0.0
  0
VERTEX
  5
4A7
  8
0
  6
CONTINUOUS
 62
     7
 10
404.9007021835
 20
149.4263396651
 30
0.0
  0
VERTEX
  5
4A8
  8
0
  6
CONTINUOUS
 62
     7
 10
405.419363921
 20
149.3280218035
 30
0.0
  0
VERTEX
  5
4A9
  8
0
  6
CONTINUOUS
 62
     7
 10
405.8967613628
 20
149.2260322958
 30
0.0
  0
VERTEX
  5
4AA
  8
0
  6
CONTINUOUS
 62
     7
 10
406.3117467812
 20
149.1259322554
 30
0.0
  0
VERTEX
  5
4AB
  8
0
  6
CONTINUOUS
 62
     7
 10
406.6612445763
 20
149.0304992586
 30
0.0
  0
VERTEX
  5
4AC
  8
0
  6
CONTINUOUS
 62
     7
 10
406.9398843697
 20
148.9439711958
 30
0.0
  0
VERTEX
  5
4AD
  8
0
  6
CONTINUOUS
 62
     7
 10
407.1239077499
 20
148.8790259749
 30
0.0
  0
VERTEX
  5
4AE
  8
0
  6
CONTINUOUS
 62
     7
 10
407.2454535416
 20
148.8304362685
 30
0.0
  0
VERTEX
  5
4AF
  8
0
  6
CONTINUOUS
 62
     7
 10
407.3085331371
 20
148.801814118
 30
0.0
  0
VERTEX
  5
4B0
  8
0
  6
CONTINUOUS
 62
     7
 10
407.3163830688
 20
148.7979100138
 30
0.0
  0
SEQEND
  5
702
  8
0
  6
CONTINUOUS
 62
     7
  0
LINE
  5
1AB
  8
0
  6
CONTINUOUS
 62
     7
 10
367.7599155357
 20
150.0583813578
 30
0.0
 11
378.1599157503
 21
150.0583813578
 31
0.0
  0
LINE
  5
1AC
  8
0
  6
CONTINUOUS
 62
     7
 10
383.5599147728
 20
150.0583813578
 30
0.0
 11
396.7599176815
 21
150.0583813578
 31
0.0
  0
LINE
  5
1AD
  8
0
  6
CONTINUOUS
 62
     7
 10
367.7599155357
 20
149.9558911711
 30
0.0
 11
378.1599157503
 21
149.9558911711
 31
0.0
  0
LINE
  5
1AE
  8
0
  6
CONTINUOUS
 62
     7
 10
383.5599147728
 20
149.9558911711
 30
0.0
 11
400.174608176
 21
149.9558911711
 31
0.0
  0
ARC
  5
1AF
  8
0
  6
CONTINUOUS
 62
     7
 10
409.0699163464
 20
148.9558898934
 30
0.0
 40
2.689999999999998
 50
180.0
 51
270.0
  0
ARC
  5
1B0
  8
0
  6
CONTINUOUS
 62
     7
 10
409.0699163464
 20
148.9558898934
 30
0.0
 40
2.690000000000026
 50
270.0
 51
0.0
  0
LINE
  5
1B1
  8
0
  6
CONTINUOUS
 62
     7
 10
325.6599162718
 20
127.6678786665
 30
0.0
 11
324.8599165132
 21
127.6678786665
 31
0.0
  0
LINE
  5
1B2
  8
0
  6
CONTINUOUS
 62
     7
 10
324.8599165132
 20
127.6678786665
 30
0.0
 11
324.8599165132
 21
129.6678767592
 31
0.0
  0
LINE
  5
1B3
  8
0
  6
CONTINUOUS
 62
     7
 10
336.0599164864
 20
136.2678811938
 30
0.0
 11
336.0599164864
 21
129.6678767592
 31
0.0
  0
ARC
  5
1B4
  8
0
  6
CONTINUOUS
 62
     7
 10
335.6599163464
 20
136.2678786188
 30
0.0
 40
0.4000000000000341
 50
0.0
 51
90.0
  0
LINE
  5
1B5
  8
0
  6
CONTINUOUS
 62
     7
 10
326.0599163374
 20
136.6678760439
 30
0.0
 11
326.6599164358
 21
136.6678760439
 31
0.0
  0
LINE
  5
1B6
  8
0
  6
CONTINUOUS
 62
     7
 10
334.6599162569
 20
136.6678760439
 30
0.0
 11
335.6599164209
 21
136.6678760439
 31
0.0
  0
ARC
  5
1B7
  8
0
  6
CONTINUOUS
 62
     7
 10
326.0599163464
 20
136.2678786188
 30
0.0
 40
0.4000000000000341
 50
90.0
 51
180.0
  0
LINE
  5
1B8
  8
0
  6
CONTINUOUS
 62
     7
 10
326.0599163374
 20
137.4678776652
 30
0.0
 11
335.6599164209
 21
137.4678776652
 31
0.0
  0
ARC
  5
1B9
  8
0
  6
CONTINUOUS
 62
     7
 10
335.6599163464
 20
136.2678786188
 30
0.0
 40
1.200000000000045
 50
0.0
 51
90.0
  0
LINE
  5
1BA
  8
0
  6
CONTINUOUS
 62
     7
 10
336.859916245
 20
136.2678811938
 30
0.0
 11
336.859916245
 21
129.6678767592
 31
0.0
  0
LINE
  5
1BB
  8
0
  6
CONTINUOUS
 62
     7
 10
324.8599165132
 20
129.6678767592
 30
0.0
 11
324.8599165132
 21
136.2678811938
 31
0.0
  0
LINE
  5
1BC
  8
0
  6
CONTINUOUS
 62
     7
 10
325.6599162718
 20
135.6678769976
 30
0.0
 11
325.6599162718
 21
136.2678811938
 31
0.0
  0
ARC
  5
1BD
  8
0
  6
CONTINUOUS
 62
     7
 10
326.0599163464
 20
136.2678786188
 30
0.0
 40
1.199999999999989
 50
90.0
 51
180.0
  0
LINE
  5
1BE
  8
0
  6
CONTINUOUS
 62
     7
 10
336.859916245
 20
127.6678786665
 30
0.0
 11
336.0599164864
 21
127.6678786665
 31
0.0
  0
LINE
  5
1BF
  8
0
  6
CONTINUOUS
 62
     7
 10
336.0599164864
 20
127.6678786665
 30
0.0
 11
336.0599164864
 21
129.6678767592
 31
0.0
  0
LINE
  5
1C0
  8
0
  6
CONTINUOUS
 62
     7
 10
336.859916245
 20
129.6678767592
 30
0.0
 11
336.859916245
 21
127.6678786665
 31
0.0
  0
POLYLINE
  5
1C1
  8
0
  6
CONTINUOUS
 62
     7
 66
     1
 10
0.0
 20
0.0
 30
0.0
  0
VERTEX
  5
4B1
  8
0
  6
CONTINUOUS
 62
     7
 10
310.7404136112
 20
247.1939609438
 30
0.0
  0
VERTEX
  5
4B2
  8
0
  6
CONTINUOUS
 62
     7
 10
310.2885716608
 20
247.1384809405
 30
0.0
  0
VERTEX
  5
4B3
  8
0
  6
CONTINUOUS
 62
     7
 10
309.9059545448
 20
247.0915005595
 30
0.0
  0
VERTEX
  5
4B4
  8
0
  6
CONTINUOUS
 62
     7
 10
309.5927082947
 20
247.0530436426
 30
0.0
  0
VERTEX
  5
4B5
  8
0
  6
CONTINUOUS
 62
     7
 10
309.3489476493
 20
247.02311019
 30
0.0
  0
VERTEX
  5
4B6
  8
0
  6
CONTINUOUS
 62
     7
 10
309.1747679761
 20
247.0017240435
 30
0.0
  0
VERTEX
  5
4B7
  8
0
  6
CONTINUOUS
 62
     7
 10
309.0702348402
 20
246.988885203
 30
0.0
  0
VERTEX
  5
4B8
  8
0
  6
CONTINUOUS
 62
     7
 10
309.0353854945
 20
246.9846055895
 30
0.0
  0
SEQEND
  5
701
  8
0
  6
CONTINUOUS
 62
     7
  0
ARC
  5
1C2
  8
0
  6
CONTINUOUS
 62
     7
 10
309.3872693287
 20
244.319998257
 30
0.0
 40
2.711877846172251
 50
165.6589414934
 51
187.0498969927
  0
POLYLINE
  5
1C3
  8
0
  6
CONTINUOUS
 62
     7
 66
     1
 10
0.0
 20
0.0
 30
0.0
  0
VERTEX
  5
4B9
  8
0
  6
CONTINUOUS
 62
     7
 10
309.6910425475
 20
241.6447089106
 30
0.0
  0
VERTEX
  5
4BA
  8
0
  6
CONTINUOUS
 62
     7
 10
309.7258918932
 20
241.6489885241
 30
0.0
  0
VERTEX
  5
4BB
  8
0
  6
CONTINUOUS
 62
     7
 10
309.8064356497
 20
241.6588828951
 30
0.0
  0
SEQEND
  5
700
  8
0
  6
CONTINUOUS
 62
     7
  0
POLYLINE
  5
1C4
  8
0
  6
CONTINUOUS
 62
     7
 66
     1
 10
0.0
 20
0.0
 30
0.0
  0
VERTEX
  5
4BC
  8
0
  6
CONTINUOUS
 62
     7
 10
307.0010253241
 20
243.0279062182
 30
0.0
  0
VERTEX
  5
4BD
  8
0
  6
CONTINUOUS
 62
     7
 10
307.0045732906
 20
243.0212901026
 30
0.0
  0
VERTEX
  5
4BE
  8
0
  6
CONTINUOUS
 62
     7
 10
306.967183297
 20
243.0927322298
 30
0.0
  0
VERTEX
  5
4BF
  8
0
  6
CONTINUOUS
 62
     7
 10
306.8930202177
 20
243.252436915
 30
0.0
  0
VERTEX
  5
4C0
  8
0
  6
CONTINUOUS
 62
     7
 10
306.8006687811
 20
243.502955237
 30
0.0
  0
VERTEX
  5
4C1
  8
0
  6
CONTINUOUS
 62
     7
 10
306.7218923023
 20
243.8189671427
 30
0.0
  0
VERTEX
  5
4C2
  8
0
  6
CONTINUOUS
 62
     7
 10
306.6958942464
 20
243.9871595293
 30
0.0
  0
SEQEND
  5
6FF
  8
0
  6
CONTINUOUS
 62
     7
  0
POLYLINE
  5
1C5
  8
0
  6
CONTINUOUS
 62
     7
 66
     1
 10
0.0
 20
0.0
 30
0.0
  0
VERTEX
  5
4C3
  8
0
  6
CONTINUOUS
 62
     7
 10
317.5662391832
 20
177.5063798815
 30
0.0
  0
VERTEX
  5
4C4
  8
0
  6
CONTINUOUS
 62
     7
 10
317.6010885289
 20
177.510659495
 30
0.0
  0
VERTEX
  5
4C5
  8
0
  6
CONTINUOUS
 62
     7
 10
317.7056231549
 20
177.5234983355
 30
0.0
  0
VERTEX
  5
4C6
  8
0
  6
CONTINUOUS
 62
     7
 10
317.8798028281
 20
177.544884482
 30
0.0
  0
VERTEX
  5
4C7
  8
0
  6
CONTINUOUS
 62
     7
 10
318.1235619834
 20
177.5748060137
 30
0.0
  0
VERTEX
  5
4C8
  8
0
  6
CONTINUOUS
 62
     7
 10
318.4368089786
 20
177.6132748514
 30
0.0
  0
VERTEX
  5
4C9
  8
0
  6
CONTINUOUS
 62
     7
 10
318.8194253495
 20
177.6602552325
 30
0.0
  0
VERTEX
  5
4CA
  8
0
  6
CONTINUOUS
 62
     7
 10
319.2712672999
 20
177.7157352358
 30
0.0
  0
SEQEND
  5
6FE
  8
0
  6
CONTINUOUS
 62
     7
  0
POLYLINE
  5
1C6
  8
0
  6
CONTINUOUS
 62
     7
 66
     1
 10
0.0
 20
0.0
 30
0.0
  0
VERTEX
  5
4CB
  8
0
  6
CONTINUOUS
 62
     7
 10
314.87622345
 20
178.8895771891
 30
0.0
  0
VERTEX
  5
4CC
  8
0
  6
CONTINUOUS
 62
     7
 10
314.8797699264
 20
178.8829491526
 30
0.0
  0
VERTEX
  5
4CD
  8
0
  6
CONTINUOUS
 62
     7
 10
314.8423799327
 20
178.9544032008
 30
0.0
  0
VERTEX
  5
4CE
  8
0
  6
CONTINUOUS
 62
     7
 10
314.7682183435
 20
179.114107886
 30
0.0
  0
VERTEX
  5
4CF
  8
0
  6
CONTINUOUS
 62
     7
 10
314.6758654168
 20
179.364626208
 30
0.0
  0
VERTEX
  5
4D0
  8
0
  6
CONTINUOUS
 62
     7
 10
314.597088938
 20
179.6806381136
 30
0.0
  0
VERTEX
  5
4D1
  8
0
  6
CONTINUOUS
 62
     7
 10
314.5710923722
 20
179.8488185793
 30
0.0
  0
SEQEND
  5
6FD
  8
0
  6
CONTINUOUS
 62
     7
  0
POLYLINE
  5
1C7
  8
0
  6
CONTINUOUS
 62
     7
 66
     1
 10
0.0
 20
0.0
 30
0.0
  0
VERTEX
  5
4D2
  8
0
  6
CONTINUOUS
 62
     7
 10
317.0272701433
 20
182.860605517
 30
0.0
  0
VERTEX
  5
4D3
  8
0
  6
CONTINUOUS
 62
     7
 10
316.9454314759
 20
182.8505561739
 30
0.0
  0
VERTEX
  5
4D4
  8
0
  6
CONTINUOUS
 62
     7
 10
316.9105821302
 20
182.8462765604
 30
0.0
  0
SEQEND
  5
6FC
  8
0
  6
CONTINUOUS
 62
     7
  0
ARC
  5
1C8
  8
0
  6
CONTINUOUS
 62
     7
 10
317.2635310236
 20
180.1816014142
 30
0.0
 40
2.712926520716893
 50
165.6631254353
 51
187.0459686315
  0
LINE
  5
1C9
  8
0
  6
CONTINUOUS
 62
     7
 10
319.2712672999
 20
177.7157352358
 30
0.0
 11
319.3191119483
 21
177.7220533282
 31
0.0
  0
LINE
  5
1CA
  8
0
  6
CONTINUOUS
 62
     7
 10
308.5003622821
 20
177.0984814555
 30
0.0
 11
300.1401239088
 21
245.1871560007
 31
0.0
  0
POLYLINE
  5
1CB
  8
0
  6
CONTINUOUS
 62
     7
 66
     1
 10
0.0
 20
0.0
 30
0.0
  0
VERTEX
  5
4D5
  8
0
  6
CONTINUOUS
 62
     7
 10
309.4929077676
 20
177.2203610331
 30
0.0
  0
VERTEX
  5
4D6
  8
0
  6
CONTINUOUS
 62
     7
 10
309.2992716482
 20
177.1965787798
 30
0.0
  0
VERTEX
  5
4D7
  8
0
  6
CONTINUOUS
 62
     7
 10
309.1130771687
 20
177.1737144381
 30
0.0
  0
VERTEX
  5
4D8
  8
0
  6
CONTINUOUS
 62
     7
 10
308.9414783767
 20
177.1526501566
 30
0.0
  0
VERTEX
  5
4D9
  8
0
  6
CONTINUOUS
 62
     7
 10
308.791072016
 20
177.1341846377
 30
0.0
  0
VERTEX
  5
4DA
  8
0
  6
CONTINUOUS
 62
     7
 10
308.6676367572
 20
177.119021216
 30
0.0
  0
VERTEX
  5
4DB
  8
0
  6
CONTINUOUS
 62
     7
 10
308.5759156397
 20
177.1077678591
 30
0.0
  0
VERTEX
  5
4DC
  8
0
  6
CONTINUOUS
 62
     7
 10
308.5194327882
 20
177.1008298785
 30
0.0
  0
VERTEX
  5
4DD
  8
0
  6
CONTINUOUS
 62
     7
 10
308.5003622821
 20
177.0984814555
 30
0.0
  0
SEQEND
  5
6FB
  8
0
  6
CONTINUOUS
 62
     7
  0
POLYLINE
  5
1CC
  8
0
  6
CONTINUOUS
 62
     7
 66
     1
 10
0.0
 20
0.0
 30
0.0
  0
VERTEX
  5
4DE
  8
0
  6
CONTINUOUS
 62
     7
 10
300.1401239088
 20
245.1871560007
 30
0.0
  0
VERTEX
  5
4DF
  8
0
  6
CONTINUOUS
 62
     7
 10
300.1591973951
 20
245.1894925028
 30
0.0
  0
VERTEX
  5
4E0
  8
0
  6
CONTINUOUS
 62
     7
 10
300.2156787565
 20
245.1964304835
 30
0.0
  0
VERTEX
  5
4E1
  8
0
  6
CONTINUOUS
 62
     7
 10
300.3073983839
 20
245.2076957613
 30
0.0
  0
VERTEX
  5
4E2
  8
0
  6
CONTINUOUS
 62
     7
 10
300.4308336428
 20
245.222847262
 30
0.0
  0
VERTEX
  5
4E3
  8
0
  6
CONTINUOUS
 62
     7
 10
300.5812429836
 20
245.241312781
 30
0.0
  0
VERTEX
  5
4E4
  8
0
  6
CONTINUOUS
 62
     7
 10
300.7528387955
 20
245.2623889834
 30
0.0
  0
VERTEX
  5
4E5
  8
0
  6
CONTINUOUS
 62
     7
 10
300.939034765
 20
245.2852414042
 30
0.0
  0
VERTEX
  5
4E6
  8
0
  6
CONTINUOUS
 62
     7
 10
301.1326723745
 20
245.3090236574
 30
0.0
  0
SEQEND
  5
6FA
  8
0
  6
CONTINUOUS
 62
     7
  0
LINE
  5
1CD
  8
0
  6
CONTINUOUS
 62
     7
 10
313.4630926898
 20
177.7078316599
 30
0.0
 11
309.4929077676
 21
177.2203610331
 31
0.0
  0
LINE
  5
1CE
  8
0
  6
CONTINUOUS
 62
     7
 10
305.1028543165
 20
245.7964942843
 30
0.0
 11
301.1326723745
 21
245.3090236574
 31
0.0
  0
LINE
  5
1CF
  8
0
  6
CONTINUOUS
 62
     7
 10
306.0954012921
 20
245.9183738619
 30
0.0
 11
314.4556381753
 21
177.8296993166
 31
0.0
  0
POLYLINE
  5
1D0
  8
0
  6
CONTINUOUS
 62
     7
 66
     1
 10
0.0
 20
0.0
 30
0.0
  0
VERTEX
  5
4E7
  8
0
  6
CONTINUOUS
 62
     7
 10
314.4556381753
 20
177.8296993166
 30
0.0
  0
VERTEX
  5
4E8
  8
0
  6
CONTINUOUS
 62
     7
 10
314.4365676692
 20
177.8273628146
 30
0.0
  0
VERTEX
  5
4E9
  8
0
  6
CONTINUOUS
 62
     7
 10
314.3800863078
 20
177.8204248339
 30
0.0
  0
VERTEX
  5
4EA
  8
0
  6
CONTINUOUS
 62
     7
 10
314.2883651903
 20
177.809159556
 30
0.0
  0
VERTEX
  5
4EB
  8
0
  6
CONTINUOUS
 62
     7
 10
314.1649284413
 20
177.7940080553
 30
0.0
  0
VERTEX
  5
4EC
  8
0
  6
CONTINUOUS
 62
     7
 10
314.0145220807
 20
177.7755425364
 30
0.0
  0
VERTEX
  5
4ED
  8
0
  6
CONTINUOUS
 62
     7
 10
313.8429232886
 20
177.754466334
 30
0.0
  0
VERTEX
  5
4EE
  8
0
  6
CONTINUOUS
 62
     7
 10
313.6567288092
 20
177.7316139132
 30
0.0
  0
VERTEX
  5
4EF
  8
0
  6
CONTINUOUS
 62
     7
 10
313.4630926898
 20
177.7078316599
 30
0.0
  0
SEQEND
  5
6F9
  8
0
  6
CONTINUOUS
 62
     7
  0
POLYLINE
  5
1D1
  8
0
  6
CONTINUOUS
 62
     7
 66
     1
 10
0.0
 20
0.0
 30
0.0
  0
VERTEX
  5
4F0
  8
0
  6
CONTINUOUS
 62
     7
 10
305.1028543165
 20
245.7964942843
 30
0.0
  0
VERTEX
  5
4F1
  8
0
  6
CONTINUOUS
 62
     7
 10
305.296491926
 20
245.8202765375
 30
0.0
  0
VERTEX
  5
4F2
  8
0
  6
CONTINUOUS
 62
     7
 10
305.4826878956
 20
245.8431408793
 30
0.0
  0
VERTEX
  5
4F3
  8
0
  6
CONTINUOUS
 62
     7
 10
305.6542837074
 20
245.8642051607
 30
0.0
  0
VERTEX
  5
4F4
  8
0
  6
CONTINUOUS
 62
     7
 10
305.8046915582
 20
245.8826706797
 30
0.0
  0
VERTEX
  5
4F5
  8
0
  6
CONTINUOUS
 62
     7
 10
305.9281283071
 20
245.8978341013
 30
0.0
  0
VERTEX
  5
4F6
  8
0
  6
CONTINUOUS
 62
     7
 10
306.0198494246
 20
245.9090874583
 30
0.0
  0
VERTEX
  5
4F7
  8
0
  6
CONTINUOUS
 62
     7
 10
306.076330786
 20
245.9160254389
 30
0.0
  0
VERTEX
  5
4F8
  8
0
  6
CONTINUOUS
 62
     7
 10
306.0954012921
 20
245.9183738619
 30
0.0
  0
SEQEND
  5
6F8
  8
0
  6
CONTINUOUS
 62
     7
  0
LINE
  5
1D2
  8
0
  6
CONTINUOUS
 62
     7
 10
325.6599162718
 20
126.4678762347
 30
0.0
 11
325.0599161735
 21
126.4678762347
 31
0.0
  0
LINE
  5
1D3
  8
0
  6
CONTINUOUS
 62
     7
 10
325.0599161735
 20
126.4678762347
 30
0.0
 11
325.0599161735
 21
127.4678812414
 31
0.0
  0
LINE
  5
1D4
  8
0
  6
CONTINUOUS
 62
     7
 10
336.6599162122
 20
127.4678812414
 30
0.0
 11
336.6599162122
 21
126.4678762347
 31
0.0
  0
LINE
  5
1D5
  8
0
  6
CONTINUOUS
 62
     7
 10
336.6599162122
 20
126.4678762347
 30
0.0
 11
336.0599164864
 21
126.4678762347
 31
0.0
  0
LINE
  5
1D6
  8
0
  6
CONTINUOUS
 62
     7
 10
336.0599164864
 20
126.4678762347
 30
0.0
 11
336.0599164864
 21
127.4678812414
 31
0.0
  0
LINE
  5
1D7
  8
0
  6
CONTINUOUS
 62
     7
 10
309.2743971398
 20
170.7944796473
 30
0.0
 11
308.5003622821
 21
177.0984814555
 31
0.0
  0
POLYLINE
  5
1D8
  8
0
  6
CONTINUOUS
 62
     7
 66
     1
 10
0.0
 20
0.0
 30
0.0
  0
VERTEX
  5
4F9
  8
0
  6
CONTINUOUS
 62
     7
 10
309.4929077676
 20
177.2203610331
 30
0.0
  0
VERTEX
  5
4FA
  8
0
  6
CONTINUOUS
 62
     7
 10
309.2992716482
 20
177.1965787798
 30
0.0
  0
VERTEX
  5
4FB
  8
0
  6
CONTINUOUS
 62
     7
 10
309.1130771687
 20
177.1737144381
 30
0.0
  0
VERTEX
  5
4FC
  8
0
  6
CONTINUOUS
 62
     7
 10
308.9414783767
 20
177.1526501566
 30
0.0
  0
VERTEX
  5
4FD
  8
0
  6
CONTINUOUS
 62
     7
 10
308.791072016
 20
177.1341846377
 30
0.0
  0
VERTEX
  5
4FE
  8
0
  6
CONTINUOUS
 62
     7
 10
308.6676367572
 20
177.119021216
 30
0.0
  0
VERTEX
  5
4FF
  8
0
  6
CONTINUOUS
 62
     7
 10
308.5759156397
 20
177.1077678591
 30
0.0
  0
VERTEX
  5
500
  8
0
  6
CONTINUOUS
 62
     7
 10
308.5194327882
 20
177.1008298785
 30
0.0
  0
VERTEX
  5
501
  8
0
  6
CONTINUOUS
 62
     7
 10
308.5003622821
 20
177.0984814555
 30
0.0
  0
SEQEND
  5
6F7
  8
0
  6
CONTINUOUS
 62
     7
  0
LINE
  5
1D9
  8
0
  6
CONTINUOUS
 62
     7
 10
324.0599163821
 20
126.4678762347
 30
0.0
 11
320.0599164715
 21
126.4678762347
 31
0.0
  0
ARC
  5
1DA
  8
0
  6
CONTINUOUS
 62
     7
 10
328.1327733295
 20
173.1099987717
 30
0.0
 40
18.99999999999999
 50
187.0
 51
203.0
  0
LINE
  5
1DB
  8
0
  6
CONTINUOUS
 62
     7
 10
310.6431805542
 20
165.6861112505
 30
0.0
 11
318.0264794281
 21
148.2921467215
 31
0.0
  0
LINE
  5
1DC
  8
0
  6
CONTINUOUS
 62
     7
 10
316.166209524
 20
168.0304930598
 30
0.0
 11
323.5495083979
 21
150.6365344912
 31
0.0
  0
LINE
  5
1DD
  8
0
  6
CONTINUOUS
 62
     7
 10
315.229673033
 20
171.5256975085
 30
0.0
 11
314.4556381753
 21
177.8296993166
 31
0.0
  0
POLYLINE
  5
1DE
  8
0
  6
CONTINUOUS
 62
     7
 66
     1
 10
0.0
 20
0.0
 30
0.0
  0
VERTEX
  5
502
  8
0
  6
CONTINUOUS
 62
     7
 10
314.4556381753
 20
177.8296993166
 30
0.0
  0
VERTEX
  5
503
  8
0
  6
CONTINUOUS
 62
     7
 10
314.4365676692
 20
177.8273628146
 30
0.0
  0
VERTEX
  5
504
  8
0
  6
CONTINUOUS
 62
     7
 10
314.3800863078
 20
177.8204248339
 30
0.0
  0
VERTEX
  5
505
  8
0
  6
CONTINUOUS
 62
     7
 10
314.2883651903
 20
177.809159556
 30
0.0
  0
VERTEX
  5
506
  8
0
  6
CONTINUOUS
 62
     7
 10
314.1649284413
 20
177.7940080553
 30
0.0
  0
VERTEX
  5
507
  8
0
  6
CONTINUOUS
 62
     7
 10
314.0145220807
 20
177.7755425364
 30
0.0
  0
VERTEX
  5
508
  8
0
  6
CONTINUOUS
 62
     7
 10
313.8429232886
 20
177.754466334
 30
0.0
  0
VERTEX
  5
509
  8
0
  6
CONTINUOUS
 62
     7
 10
313.6567288092
 20
177.7316139132
 30
0.0
  0
VERTEX
  5
50A
  8
0
  6
CONTINUOUS
 62
     7
 10
313.4630926898
 20
177.7078316599
 30
0.0
  0
SEQEND
  5
6F6
  8
0
  6
CONTINUOUS
 62
     7
  0
ARC
  5
1DF
  8
0
  6
CONTINUOUS
 62
     7
 10
328.1327733295
 20
173.1099987717
 30
0.0
 40
12.99999999999998
 50
187.0
 51
203.0
  0
ARC
  5
1E0
  8
0
  6
CONTINUOUS
 62
     7
 10
306.0599163464
 20
143.2126418281
 30
0.0
 40
13.00000000000007
 50
0.0
 51
23.0
  0
LINE
  5
1E1
  8
0
  6
CONTINUOUS
 62
     7
 10
319.0599166801
 20
143.2126388937
 30
0.0
 11
319.0599166801
 21
126.4678762347
 31
0.0
  0
LINE
  5
1E2
  8
0
  6
CONTINUOUS
 62
     7
 10
320.0599164715
 20
126.4678762347
 30
0.0
 11
319.0599166801
 21
126.4678762347
 31
0.0
  0
LINE
  5
1E3
  8
0
  6
CONTINUOUS
 62
     7
 10
325.0599161735
 20
126.4678762347
 30
0.0
 11
324.0599163821
 21
126.4678762347
 31
0.0
  0
ARC
  5
1E4
  8
0
  6
CONTINUOUS
 62
     7
 10
306.0599163464
 20
143.2126418281
 30
0.0
 40
19.00000000000008
 50
4.1945718162
 51
23.0
  0
ARC
  5
1E5
  8
0
  6
CONTINUOUS
 62
     7
 10
335.6599163464
 20
136.4678786188
 30
0.0
 40
0.2000000000000455
 50
0.0
 51
90.0
  0
ARC
  5
1E6
  8
0
  6
CONTINUOUS
 62
     7
 10
325.8599163464
 20
136.4678786188
 30
0.0
 40
1.0
 50
90.0
 51
180.0
  0
LINE
  5
1E7
  8
0
  6
CONTINUOUS
 62
     7
 10
335.8599164536
 20
129.4678793341
 30
0.0
 11
335.8599164536
 21
136.4678786188
 31
0.0
  0
LINE
  5
1E8
  8
0
  6
CONTINUOUS
 62
     7
 10
325.6599162718
 20
127.4678812414
 30
0.0
 11
324.8599165132
 21
127.4678812414
 31
0.0
  0
LINE
  5
1E9
  8
0
  6
CONTINUOUS
 62
     7
 10
324.8599165132
 20
127.4678812414
 30
0.0
 11
324.8599165132
 21
127.6678786665
 31
0.0
  0
LINE
  5
1EA
  8
0
  6
CONTINUOUS
 62
     7
 10
325.6599162718
 20
127.6678786665
 30
0.0
 11
325.6599162718
 21
127.4678812414
 31
0.0
  0
LINE
  5
1EB
  8
0
  6
CONTINUOUS
 62
     7
 10
336.6599162122
 20
127.4678812414
 30
0.0
 11
335.8599164536
 21
127.4678812414
 31
0.0
  0
LINE
  5
1EC
  8
0
  6
CONTINUOUS
 62
     7
 10
336.6599162122
 20
127.6678786665
 30
0.0
 11
336.6599162122
 21
127.4678812414
 31
0.0
  0
LINE
  5
1ED
  8
0
  6
CONTINUOUS
 62
     7
 10
335.8599164536
 20
127.4678812414
 30
0.0
 11
335.8599164536
 21
129.4678793341
 31
0.0
  0
POLYLINE
  5
1EE
  8
0
  6
CONTINUOUS
 62
     7
 66
     1
 10
0.0
 20
0.0
 30
0.0
  0
VERTEX
  5
50B
  8
0
  6
CONTINUOUS
 62
     7
 10
348.7108224085
 20
152.8599725157
 30
0.0
  0
VERTEX
  5
50C
  8
0
  6
CONTINUOUS
 62
     7
 10
348.8807895234
 20
153.2244429976
 30
0.0
  0
VERTEX
  5
50D
  8
0
  6
CONTINUOUS
 62
     7
 10
349.1283142021
 20
153.5626814753
 30
0.0
  0
VERTEX
  5
50E
  8
0
  6
CONTINUOUS
 62
     7
 10
349.5203250101
 20
153.9357052237
 30
0.0
  0
VERTEX
  5
50F
  8
0
  6
CONTINUOUS
 62
     7
 10
349.9779411605
 20
154.2514906317
 30
0.0
  0
VERTEX
  5
510
  8
0
  6
CONTINUOUS
 62
     7
 10
350.7519357851
 20
154.6301052958
 30
0.0
  0
VERTEX
  5
511
  8
0
  6
CONTINUOUS
 62
     7
 10
351.5861072591
 20
154.9078808218
 30
0.0
  0
SEQEND
  5
6F5
  8
0
  6
CONTINUOUS
 62
     7
  0
POLYLINE
  5
1EF
  8
0
  6
CONTINUOUS
 62
     7
 66
     1
 10
0.0
 20
0.0
 30
0.0
  0
VERTEX
  5
512
  8
0
  6
CONTINUOUS
 62
     7
 10
354.4933759621
 20
150.0704512984
 30
0.0
  0
VERTEX
  5
513
  8
0
  6
CONTINUOUS
 62
     7
 10
352.461984103
 20
150.127218762
 30
0.0
  0
VERTEX
  5
514
  8
0
  6
CONTINUOUS
 62
     7
 10
351.3711282065
 20
150.2553508669
 30
0.0
  0
VERTEX
  5
515
  8
0
  6
CONTINUOUS
 62
     7
 10
350.311159437
 20
150.52859644
 30
0.0
  0
VERTEX
  5
516
  8
0
  6
CONTINUOUS
 62
     7
 10
349.6198886087
 20
150.8522675425
 30
0.0
  0
VERTEX
  5
517
  8
0
  6
CONTINUOUS
 62
     7
 10
349.3041821769
 20
151.0736987978
 30
0.0
  0
VERTEX
  5
518
  8
0
  6
CONTINUOUS
 62
     7
 10
349.0273439339
 20
151.3411090762
 30
0.0
  0
VERTEX
  5
519
  8
0
  6
CONTINUOUS
 62
     7
 10
348.7383388927
 20
151.8035219103
 30
0.0
  0
VERTEX
  5
51A
  8
0
  6
CONTINUOUS
 62
     7
 10
348.6266800216
 20
152.3405478388
 30
0.0
  0
VERTEX
  5
51B
  8
0
  6
CONTINUOUS
 62
     7
 10
348.7108224085
 20
152.8599725157
 30
0.0
  0
SEQEND
  5
6F4
  8
0
  6
CONTINUOUS
 62
     7
  0
LINE
  5
1F0
  8
0
  6
CONTINUOUS
 62
     7
 10
356.7599170855
 20
150.0788555533
 30
0.0
 11
354.4933759621
 21
150.0704512984
 31
0.0
  0
LINE
  5
1F1
  8
0
  6
CONTINUOUS
 62
     7
 10
367.7599155357
 20
150.0788555533
 30
0.0
 11
356.7599170855
 21
150.0788555533
 31
0.0
  0
ARC
  5
1F2
  8
0
  6
CONTINUOUS
 62
     7
 10
328.3658981041
 20
262.9573882196
 30
0.0
 40
120.0
 50
280.9468409701
 51
289.1646231125
  0
LINE
  5
1F3
  8
0
  6
CONTINUOUS
 62
     7
 10
351.1536770513
 20
145.1409325987
 30
0.0
 11
346.7407309463
 21
144.2873940855
 31
0.0
  0
ARC
  5
1F4
  8
0
  6
CONTINUOUS
 62
     7
 10
348.2599163464
 20
136.4329610704
 30
0.0
 40
8.000000000000025
 50
100.9468409701
 51
180.0
  0
LINE
  5
1F5
  8
0
  6
CONTINUOUS
 62
     7
 10
340.2599164298
 20
136.4329622179
 30
0.0
 11
340.2599164298
 21
135.6678769976
 31
0.0
  0
ARC
  5
1F6
  8
0
  6
CONTINUOUS
 62
     7
 10
338.2599163464
 20
135.6678786188
 30
0.0
 40
2.0
 50
270.0
 51
0.0
  0
LINE
  5
1F7
  8
0
  6
CONTINUOUS
 62
     7
 10
338.259916102
 20
133.6678789049
 30
0.0
 11
336.859916245
 21
133.6678789049
 31
0.0
  0
LINE
  5
1F8
  8
0
  6
CONTINUOUS
 62
     7
 10
324.8599165132
 20
133.6678789049
 30
0.0
 11
324.0599163821
 21
133.6678789049
 31
0.0
  0
ARC
  5
1F9
  8
0
  6
CONTINUOUS
 62
     7
 10
324.0599163464
 20
135.6678786188
 30
0.0
 40
2.0
 50
180.0
 51
270.0
  0
LINE
  5
1FA
  8
0
  6
CONTINUOUS
 62
     7
 10
322.0599160543
 20
135.6678769976
 30
0.0
 11
322.0599160543
 21
138.2289038092
 31
0.0
  0
ARC
  5
1FB
  8
0
  6
CONTINUOUS
 62
     7
 10
330.0599163464
 20
138.2289030692
 30
0.0
 40
8.0
 50
140.3596923241
 51
180.0
  0
ARC
  5
1FC
  8
0
  6
CONTINUOUS
 62
     7
 10
348.5414673058
 20
122.9177217257
 30
0.0
 40
31.99999999999998
 50
129.5627908875
 51
140.3596923241
  0
ARC
  5
1FD
  8
0
  6
CONTINUOUS
 62
     7
 10
348.5414673058
 20
122.9177217257
 30
0.0
 40
32.0
 50
91.4211498515
 51
117.9157975373
  0
LINE
  5
1FE
  8
0
  6
CONTINUOUS
 62
     7
 10
347.7478289059
 20
154.9078808218
 30
0.0
 11
351.5861072591
 21
154.9078808218
 31
0.0
  0
LINE
  5
1FF
  8
0
  6
CONTINUOUS
 62
     7
 10
367.7599155357
 20
150.0788555533
 30
0.0
 11
367.7599155357
 21
149.6078775317
 31
0.0
  0
LINE
  5
200
  8
0
  6
CONTINUOUS
 62
     7
 10
406.3799166134
 20
149.0725384146
 30
0.0
 11
406.3799166134
 21
148.9558921248
 31
0.0
  0
LINE
  5
201
  8
0
  6
CONTINUOUS
 62
     7
 10
411.7599152973
 20
148.9558921248
 30
0.0
 11
411.7599152973
 21
150.6737218291
 31
0.0
  0
LINE
  5
202
  8
0
  6
CONTINUOUS
 62
     7
 10
411.7599152973
 20
150.6737218291
 30
0.0
 11
411.7594742229
 21
150.7219777495
 31
0.0
  0
LINE
  5
203
  8
0
  6
CONTINUOUS
 62
     7
 10
334.6599162569
 20
126.6678796202
 30
0.0
 11
326.6599164358
 21
126.6678796202
 31
0.0
  0
LINE
  5
204
  8
0
  6
CONTINUOUS
 62
     7
 10
325.6599162718
 20
127.6678786665
 30
0.0
 11
325.6599162718
 21
135.6678769976
 31
0.0
  0
ARC
  5
205
  8
0
  6
CONTINUOUS
 62
     7
 10
326.6599163464
 20
127.6678786188
 30
0.0
 40
1.0
 50
180.0
 51
270.0
  0
ARC
  5
206
  8
0
  6
CONTINUOUS
 62
     7
 10
326.6599163464
 20
135.6678786188
 30
0.0
 40
1.0
 50
90.0
 51
180.0
  0
LINE
  5
207
  8
0
  6
CONTINUOUS
 62
     7
 10
326.6599164358
 20
136.6678760439
 30
0.0
 11
334.6599162569
 21
136.6678760439
 31
0.0
  0
ARC
  5
208
  8
0
  6
CONTINUOUS
 62
     7
 10
334.6599163464
 20
135.6678786188
 30
0.0
 40
1.0
 50
0.0
 51
90.0
  0
LINE
  5
209
  8
0
  6
CONTINUOUS
 62
     7
 10
335.6599164209
 20
135.6678769976
 30
0.0
 11
335.6599164209
 21
127.6678786665
 31
0.0
  0
ARC
  5
20A
  8
0
  6
CONTINUOUS
 62
     7
 10
334.6599163464
 20
127.6678786188
 30
0.0
 40
1.0
 50
270.0
 51
0.0
  0
LINE
  5
20B
  8
0
  6
CONTINUOUS
 62
     7
 10
322.6599165252
 20
61.4678786188
 30
0.0
 11
318.6599166146
 21
61.4678786188
 31
0.0
  0
LINE
  5
20C
  8
0
  6
CONTINUOUS
 62
     7
 10
318.6599166146
 20
61.4678786188
 30
0.0
 11
318.6599166146
 21
62.6678786293
 31
0.0
  0
LINE
  5
20D
  8
0
  6
CONTINUOUS
 62
     7
 10
318.6599166146
 20
62.6678786293
 30
0.0
 11
322.6599165252
 21
62.6678786293
 31
0.0
  0
LINE
  5
20E
  8
0
  6
CONTINUOUS
 62
     7
 10
322.6599165252
 20
61.4678786188
 30
0.0
 11
324.6599164805
 21
61.4678786188
 31
0.0
  0
LINE
  5
20F
  8
0
  6
CONTINUOUS
 62
     7
 10
322.6599165252
 20
62.6678786293
 30
0.0
 11
324.6599164805
 21
62.6678786293
 31
0.0
  0
LINE
  5
210
  8
0
  6
CONTINUOUS
 62
     7
 10
324.6599164805
 20
61.4678786188
 30
0.0
 11
352.0283379605
 21
61.4678786188
 31
0.0
  0
LINE
  5
211
  8
0
  6
CONTINUOUS
 62
     7
 10
352.0283379605
 20
62.6678786293
 30
0.0
 11
324.6599164805
 21
62.6678786293
 31
0.0
  0
LINE
  5
212
  8
0
  6
CONTINUOUS
 62
     7
 10
354.6599158099
 20
62.6678786293
 30
0.0
 11
354.6599158099
 21
61.4678786188
 31
0.0
  0
LINE
  5
213
  8
0
  6
CONTINUOUS
 62
     7
 10
354.6599158099
 20
61.4678786188
 30
0.0
 11
352.0283379605
 21
61.4678786188
 31
0.0
  0
LINE
  5
214
  8
0
  6
CONTINUOUS
 62
     7
 10
352.0283379605
 20
62.6678786293
 30
0.0
 11
354.6599158099
 21
62.6678786293
 31
0.0
  0
LINE
  5
215
  8
0
  6
CONTINUOUS
 62
     7
 10
325.6599162718
 20
62.6678786293
 30
0.0
 11
325.6599162718
 21
127.4678812414
 31
0.0
  0
LINE
  5
216
  8
0
  6
CONTINUOUS
 62
     7
 10
335.6599164209
 20
127.6678786665
 30
0.0
 11
335.6599164209
 21
62.6678786293
 31
0.0
  0
LINE
  5
217
  8
0
  6
CONTINUOUS
 62
     7
 10
15.31096024
 20
-47.8509427066
 30
0.0
 11
15.31096024
 21
-62.8509422083
 31
0.0
  0
LINE
  5
218
  8
0
  6
CONTINUOUS
 62
     7
 10
20.7109622427
 20
-62.8509422083
 30
0.0
 11
20.7109622427
 21
-47.8509427066
 31
0.0
  0
LINE
  5
219
  8
0
  6
CONTINUOUS
 62
     7
 10
20.7109622427
 20
-82.8509425064
 30
0.0
 11
20.7109622427
 21
-62.8509422083
 31
0.0
  0
LINE
  5
21A
  8
0
  6
CONTINUOUS
 62
     7
 10
15.31096024
 20
-62.8509422083
 30
0.0
 11
15.31096024
 21
-82.8509425064
 31
0.0
  0
LINE
  5
21B
  8
0
  6
CONTINUOUS
 62
     7
 10
15.31096024
 20
-82.8509425064
 30
0.0
 11
15.31096024
 21
-97.8509401222
 31
0.0
  0
LINE
  5
21C
  8
0
  6
CONTINUOUS
 62
     7
 10
20.7109622427
 20
-97.8509401222
 30
0.0
 11
20.7109622427
 21
-82.8509425064
 31
0.0
  0
LINE
  5
21D
  8
0
  6
CONTINUOUS
 62
     7
 10
135.3109599792
 20
-47.8509427066
 30
0.0
 11
135.3109599792
 21
-62.8509422083
 31
0.0
  0
LINE
  5
21E
  8
0
  6
CONTINUOUS
 62
     7
 10
140.7109601193
 20
-62.8509422083
 30
0.0
 11
140.7109601193
 21
-47.8509427066
 31
0.0
  0
LINE
  5
21F
  8
0
  6
CONTINUOUS
 62
     7
 10
140.7109601193
 20
-82.8509425064
 30
0.0
 11
140.7109601193
 21
-62.8509422083
 31
0.0
  0
LINE
  5
220
  8
0
  6
CONTINUOUS
 62
     7
 10
135.3109599792
 20
-62.8509422083
 30
0.0
 11
135.3109599792
 21
-82.8509425064
 31
0.0
  0
LINE
  5
221
  8
0
  6
CONTINUOUS
 62
     7
 10
135.3109599792
 20
-82.8509425064
 30
0.0
 11
135.3109599792
 21
-97.8509401222
 31
0.0
  0
LINE
  5
222
  8
0
  6
CONTINUOUS
 62
     7
 10
140.7109601193
 20
-97.8509401222
 30
0.0
 11
140.7109601193
 21
-82.8509425064
 31
0.0
  0
LINE
  5
223
  8
0
  6
CONTINUOUS
 62
     7
 10
255.3109578558
 20
-47.8509427066
 30
0.0
 11
255.3109578558
 21
-62.8509422083
 31
0.0
  0
LINE
  5
224
  8
0
  6
CONTINUOUS
 62
     7
 10
260.7109598585
 20
-62.8509422083
 30
0.0
 11
260.7109598585
 21
-47.8509427066
 31
0.0
  0
LINE
  5
225
  8
0
  6
CONTINUOUS
 62
     7
 10
260.7109598585
 20
-82.8509425064
 30
0.0
 11
260.7109598585
 21
-62.8509422083
 31
0.0
  0
LINE
  5
226
  8
0
  6
CONTINUOUS
 62
     7
 10
255.3109578558
 20
-62.8509422083
 30
0.0
 11
255.3109578558
 21
-82.8509425064
 31
0.0
  0
LINE
  5
227
  8
0
  6
CONTINUOUS
 62
     7
 10
255.3109578558
 20
-82.8509425064
 30
0.0
 11
255.3109578558
 21
-97.8509401222
 31
0.0
  0
LINE
  5
228
  8
0
  6
CONTINUOUS
 62
     7
 10
260.7109598585
 20
-97.8509401222
 30
0.0
 11
260.7109598585
 21
-82.8509425064
 31
0.0
  0
POLYLINE
  5
229
  8
0
  6
CONTINUOUS
 62
     7
 66
     1
 10
0.0
 20
0.0
 30
0.0
  0
VERTEX
  5
51C
  8
0
  6
CONTINUOUS
 62
     7
 10
52.4281970926
 20
-25.3952299495
 30
0.0
  0
VERTEX
  5
51D
  8
0
  6
CONTINUOUS
 62
     7
 10
51.6320936152
 20
-25.5072047253
 30
0.0
  0
VERTEX
  5
51E
  8
0
  6
CONTINUOUS
 62
     7
 10
50.7254116007
 20
-25.6470014592
 30
0.0
  0
VERTEX
  5
51F
  8
0
  6
CONTINUOUS
 62
     7
 10
49.8281650015
 20
-25.7977848192
 30
0.0
  0
VERTEX
  5
520
  8
0
  6
CONTINUOUS
 62
     7
 10
48.9449910589
 20
-25.9589006443
 30
0.0
  0
VERTEX
  5
521
  8
0
  6
CONTINUOUS
 62
     7
 10
48.0904750296
 20
-26.1271585961
 30
0.0
  0
VERTEX
  5
522
  8
0
  6
CONTINUOUS
 62
     7
 10
47.2515336939
 20
-26.304440691
 30
0.0
  0
VERTEX
  5
523
  8
0
  6
CONTINUOUS
 62
     7
 10
46.4294604727
 20
-26.4902879734
 30
0.0
  0
VERTEX
  5
524
  8
0
  6
CONTINUOUS
 62
     7
 10
45.6303588816
 20
-26.6832431097
 30
0.0
  0
VERTEX
  5
525
  8
0
  6
CONTINUOUS
 62
     7
 10
44.8600761362
 20
-26.8818487664
 30
0.0
  0
VERTEX
  5
526
  8
0
  6
CONTINUOUS
 62
     7
 10
44.1238514849
 20
-27.0847608586
 30
0.0
  0
VERTEX
  5
527
  8
0
  6
CONTINUOUS
 62
     7
 10
43.4259108969
 20
-27.2909526964
 30
0.0
  0
VERTEX
  5
528
  8
0
  6
CONTINUOUS
 62
     7
 10
42.7717081972
 20
-27.4985944171
 30
0.0
  0
VERTEX
  5
529
  8
0
  6
CONTINUOUS
 62
     7
 10
42.1725265452
 20
-27.7031679888
 30
0.0
  0
VERTEX
  5
52A
  8
0
  6
CONTINUOUS
 62
     7
 10
41.5883235403
 20
-27.9191081663
 30
0.0
  0
VERTEX
  5
52B
  8
0
  6
CONTINUOUS
 62
     7
 10
41.0348884531
 20
-28.1431590457
 30
0.0
  0
VERTEX
  5
52C
  8
0
  6
CONTINUOUS
 62
     7
 10
40.5045680472
 20
-28.3822869201
 30
0.0
  0
VERTEX
  5
52D
  8
0
  6
CONTINUOUS
 62
     7
 10
39.9786166617
 20
-28.6543940444
 30
0.0
  0
VERTEX
  5
52E
  8
0
  6
CONTINUOUS
 62
     7
 10
39.5369104811
 20
-28.9252017875
 30
0.0
  0
VERTEX
  5
52F
  8
0
  6
CONTINUOUS
 62
     7
 10
39.2322830626
 20
-29.1472216387
 30
0.0
  0
VERTEX
  5
530
  8
0
  6
CONTINUOUS
 62
     7
 10
38.9727525183
 20
-29.3702532788
 30
0.0
  0
VERTEX
  5
531
  8
0
  6
CONTINUOUS
 62
     7
 10
38.7384406992
 20
-29.61036761
 30
0.0
  0
VERTEX
  5
532
  8
0
  6
CONTINUOUS
 62
     7
 10
38.5260037848
 20
-29.8751150508
 30
0.0
  0
VERTEX
  5
533
  8
0
  6
CONTINUOUS
 62
     7
 10
38.3363954493
 20
-30.1711504598
 30
0.0
  0
VERTEX
  5
534
  8
0
  6
CONTINUOUS
 62
     7
 10
38.1757728525
 20
-30.5007045408
 30
0.0
  0
VERTEX
  5
535
  8
0
  6
CONTINUOUS
 62
     7
 10
38.0529217192
 20
-30.8607896109
 30
0.0
  0
VERTEX
  5
536
  8
0
  6
CONTINUOUS
 62
     7
 10
37.9762820669
 20
-31.244190528
 30
0.0
  0
VERTEX
  5
537
  8
0
  6
CONTINUOUS
 62
     7
 10
37.9539064833
 20
-31.6101541062
 30
0.0
  0
SEQEND
  5
6F3
  8
0
  6
CONTINUOUS
 62
     7
  0
POLYLINE
  5
22A
  8
0
  6
CONTINUOUS
 62
     7
 66
     1
 10
0.0
 20
0.0
 30
0.0
  0
VERTEX
  5
538
  8
0
  6
CONTINUOUS
 62
     7
 10
118.0641360351
 20
-31.6229422827
 30
0.0
  0
VERTEX
  5
539
  8
0
  6
CONTINUOUS
 62
     7
 10
118.0677301952
 20
-31.5496822138
 30
0.0
  0
VERTEX
  5
53A
  8
0
  6
CONTINUOUS
 62
     7
 10
118.030539877
 20
-31.1508243223
 30
0.0
  0
VERTEX
  5
53B
  8
0
  6
CONTINUOUS
 62
     7
 10
117.9436094829
 20
-30.7764132758
 30
0.0
  0
VERTEX
  5
53C
  8
0
  6
CONTINUOUS
 62
     7
 10
117.8155071803
 20
-30.4316883226
 30
0.0
  0
VERTEX
  5
53D
  8
0
  6
CONTINUOUS
 62
     7
 10
117.6550842591
 20
-30.1198055287
 30
0.0
  0
VERTEX
  5
53E
  8
0
  6
CONTINUOUS
 62
     7
 10
117.4703858563
 20
-29.8410435458
 30
0.0
  0
VERTEX
  5
53F
  8
0
  6
CONTINUOUS
 62
     7
 10
117.2668270537
 20
-29.5921926637
 30
0.0
  0
VERTEX
  5
540
  8
0
  6
CONTINUOUS
 62
     7
 10
117.0452393361
 20
-29.3667470355
 30
0.0
  0
VERTEX
  5
541
  8
0
  6
CONTINUOUS
 62
     7
 10
116.8001122543
 20
-29.1555558582
 30
0.0
  0
VERTEX
  5
542
  8
0
  6
CONTINUOUS
 62
     7
 10
116.5138982006
 20
-28.9448564191
 30
0.0
  0
VERTEX
  5
543
  8
0
  6
CONTINUOUS
 62
     7
 10
116.1408997842
 20
-28.7106131454
 30
0.0
  0
VERTEX
  5
544
  8
0
  6
CONTINUOUS
 62
     7
 10
115.6610794135
 20
-28.453365459
 30
0.0
  0
VERTEX
  5
545
  8
0
  6
CONTINUOUS
 62
     7
 10
115.1297531792
 20
-28.2057707448
 30
0.0
  0
VERTEX
  5
546
  8
0
  6
CONTINUOUS
 62
     7
 10
114.5926169821
 20
-27.9821266671
 30
0.0
  0
VERTEX
  5
547
  8
0
  6
CONTINUOUS
 62
     7
 10
113.9744542309
 20
-27.748393013
 30
0.0
  0
VERTEX
  5
548
  8
0
  6
CONTINUOUS
 62
     7
 10
113.3362836906
 20
-27.5272359391
 30
0.0
  0
VERTEX
  5
549
  8
0
  6
CONTINUOUS
 62
     7
 10
112.6734219261
 20
-27.314764752
 30
0.0
  0
VERTEX
  5
54A
  8
0
  6
CONTINUOUS
 62
     7
 10
111.98628468
 20
-27.1098991175
 30
0.0
  0
VERTEX
  5
54B
  8
0
  6
CONTINUOUS
 62
     7
 10
111.2531982132
 20
-26.9058753987
 30
0.0
  0
VERTEX
  5
54C
  8
0
  6
CONTINUOUS
 62
     7
 10
110.486998386
 20
-26.7064963718
 30
0.0
  0
VERTEX
  5
54D
  8
0
  6
CONTINUOUS
 62
     7
 10
109.6901558109
 20
-26.5124758025
 30
0.0
  0
VERTEX
  5
54E
  8
0
  6
CONTINUOUS
 62
     7
 10
108.8658414551
 20
-26.3247643848
 30
0.0
  0
VERTEX
  5
54F
  8
0
  6
CONTINUOUS
 62
     7
 10
108.0177239844
 20
-26.1444469233
 30
0.0
  0
VERTEX
  5
550
  8
0
  6
CONTINUOUS
 62
     7
 10
107.1497402855
 20
-25.9726469655
 30
0.0
  0
VERTEX
  5
551
  8
0
  6
CONTINUOUS
 62
     7
 10
106.2660626837
 20
-25.8104910393
 30
0.0
  0
VERTEX
  5
552
  8
0
  6
CONTINUOUS
 62
     7
 10
105.3762636849
 20
-25.6598119874
 30
0.0
  0
VERTEX
  5
553
  8
0
  6
CONTINUOUS
 62
     7
 10
104.4747195908
 20
-25.5195533176
 30
0.0
  0
VERTEX
  5
554
  8
0
  6
CONTINUOUS
 62
     7
 10
103.5938076445
 20
-25.3944193263
 30
0.0
  0
SEQEND
  5
6F2
  8
0
  6
CONTINUOUS
 62
     7
  0
ARC
  5
22B
  8
0
  6
CONTINUOUS
 62
     7
 10
77.8885217311
 20
-212.486789797
 30
0.0
 40
188.8174624601696
 50
90.2489010012
 51
97.7494224801
  0
ARC
  5
22C
  8
0
  6
CONTINUOUS
 62
     7
 10
78.2178012491
 20
-211.5782678609
 30
0.0
 40
187.9058610397935
 50
82.2387238277
 51
89.7798292253
  0
POLYLINE
  5
22D
  8
0
  6
CONTINUOUS
 62
     7
 66
     1
 10
0.0
 20
0.0
 30
0.0
  0
VERTEX
  5
555
  8
0
  6
CONTINUOUS
 62
     7
 10
42.5470106074
 20
-33.3842297335
 30
0.0
  0
VERTEX
  5
556
  8
0
  6
CONTINUOUS
 62
     7
 10
42.5455383726
 20
-33.3853592415
 30
0.0
  0
VERTEX
  5
557
  8
0
  6
CONTINUOUS
 62
     7
 10
42.5859503218
 20
-33.3607559343
 30
0.0
  0
VERTEX
  5
558
  8
0
  6
CONTINUOUS
 62
     7
 10
42.6773898073
 20
-33.310281231
 30
0.0
  0
VERTEX
  5
559
  8
0
  6
CONTINUOUS
 62
     7
 10
42.8266100355
 20
-33.2353850146
 30
0.0
  0
VERTEX
  5
55A
  8
0
  6
CONTINUOUS
 62
     7
 10
43.0386654802
 20
-33.1380819221
 30
0.0
  0
VERTEX
  5
55B
  8
0
  6
CONTINUOUS
 62
     7
 10
43.3162025877
 20
-33.0210169096
 30
0.0
  0
VERTEX
  5
55C
  8
0
  6
CONTINUOUS
 62
     7
 10
43.65937633
 20
-32.8872864385
 30
0.0
  0
VERTEX
  5
55D
  8
0
  6
CONTINUOUS
 62
     7
 10
44.0662376352
 20
-32.7401568432
 30
0.0
  0
VERTEX
  5
55E
  8
0
  6
CONTINUOUS
 62
     7
 10
44.533329434
 20
-32.5828423043
 30
0.0
  0
VERTEX
  5
55F
  8
0
  6
CONTINUOUS
 62
     7
 10
45.0559608408
 20
-32.4184422632
 30
0.0
  0
VERTEX
  5
560
  8
0
  6
CONTINUOUS
 62
     7
 10
45.6312469908
 20
-32.2493930598
 30
0.0
  0
VERTEX
  5
561
  8
0
  6
CONTINUOUS
 62
     7
 10
46.2401620814
 20
-32.081828012
 30
0.0
  0
VERTEX
  5
562
  8
0
  6
CONTINUOUS
 62
     7
 10
46.9008020826
 20
-31.911205246
 30
0.0
  0
VERTEX
  5
563
  8
0
  6
CONTINUOUS
 62
     7
 10
47.6062766977
 20
-31.7402516742
 30
0.0
  0
VERTEX
  5
564
  8
0
  6
CONTINUOUS
 62
     7
 10
48.3492485949
 20
-31.5715526481
 30
0.0
  0
VERTEX
  5
565
  8
0
  6
CONTINUOUS
 62
     7
 10
49.1217069098
 20
-31.4076160331
 30
0.0
  0
VERTEX
  5
566
  8
0
  6
CONTINUOUS
 62
     7
 10
49.913816876
 20
-31.2510733743
 30
0.0
  0
VERTEX
  5
567
  8
0
  6
CONTINUOUS
 62
     7
 10
50.7170669504
 20
-31.1040063639
 30
0.0
  0
VERTEX
  5
568
  8
0
  6
CONTINUOUS
 62
     7
 10
51.5277139612
 20
-30.9671377082
 30
0.0
  0
VERTEX
  5
569
  8
0
  6
CONTINUOUS
 62
     7
 10
52.3567907282
 20
-30.8385421772
 30
0.0
  0
VERTEX
  5
56A
  8
0
  6
CONTINUOUS
 62
     7
 10
53.1526498266
 20
-30.725829794
 30
0.0
  0
SEQEND
  5
6F1
  8
0
  6
CONTINUOUS
 62
     7
  0
POLYLINE
  5
22E
  8
0
  6
CONTINUOUS
 62
     7
 66
     1
 10
0.0
 20
0.0
 30
0.0
  0
VERTEX
  5
56B
  8
0
  6
CONTINUOUS
 62
     7
 10
102.8693191477
 20
-30.7262038131
 30
0.0
  0
VERTEX
  5
56C
  8
0
  6
CONTINUOUS
 62
     7
 10
103.529279656
 20
-30.8182989498
 30
0.0
  0
VERTEX
  5
56D
  8
0
  6
CONTINUOUS
 62
     7
 10
104.366710014
 20
-30.9465189715
 30
0.0
  0
VERTEX
  5
56E
  8
0
  6
CONTINUOUS
 62
     7
 10
105.1958881088
 20
-31.0849433084
 30
0.0
  0
VERTEX
  5
56F
  8
0
  6
CONTINUOUS
 62
     7
 10
106.0103438564
 20
-31.2324692746
 30
0.0
  0
VERTEX
  5
570
  8
0
  6
CONTINUOUS
 62
     7
 10
106.7991606661
 20
-31.3866664906
 30
0.0
  0
VERTEX
  5
571
  8
0
  6
CONTINUOUS
 62
     7
 10
107.5673036047
 20
-31.547926857
 30
0.0
  0
VERTEX
  5
572
  8
0
  6
CONTINUOUS
 62
     7
 10
108.3109460541
 20
-31.715071692
 30
0.0
  0
VERTEX
  5
573
  8
0
  6
CONTINUOUS
 62
     7
 10
109.024079866
 20
-31.8863441487
 30
0.0
  0
VERTEX
  5
574
  8
0
  6
CONTINUOUS
 62
     7
 10
109.7006849714
 20
-32.0598130365
 30
0.0
  0
VERTEX
  5
575
  8
0
  6
CONTINUOUS
 62
     7
 10
110.3349767395
 20
-32.2334115644
 30
0.0
  0
VERTEX
  5
576
  8
0
  6
CONTINUOUS
 62
     7
 10
110.9213344523
 20
-32.4048985978
 30
0.0
  0
VERTEX
  5
577
  8
0
  6
CONTINUOUS
 62
     7
 10
111.4547274777
 20
-32.5719301839
 30
0.0
  0
VERTEX
  5
578
  8
0
  6
CONTINUOUS
 62
     7
 10
111.9340531298
 20
-32.7329715033
 30
0.0
  0
VERTEX
  5
579
  8
0
  6
CONTINUOUS
 62
     7
 10
112.3602203795
 20
-32.887074842
 30
0.0
  0
VERTEX
  5
57A
  8
0
  6
CONTINUOUS
 62
     7
 10
112.7259991833
 20
-33.0301602622
 30
0.0
  0
VERTEX
  5
57B
  8
0
  6
CONTINUOUS
 62
     7
 10
113.0246080228
 20
-33.1573923369
 30
0.0
  0
VERTEX
  5
57C
  8
0
  6
CONTINUOUS
 62
     7
 10
113.2288194963
 20
-33.2525004883
 30
0.0
  0
VERTEX
  5
57D
  8
0
  6
CONTINUOUS
 62
     7
 10
113.370192773
 20
-33.3246131678
 30
0.0
  0
VERTEX
  5
57E
  8
0
  6
CONTINUOUS
 62
     7
 10
113.4523816177
 20
-33.3708112379
 30
0.0
  0
VERTEX
  5
57F
  8
0
  6
CONTINUOUS
 62
     7
 10
113.4817994901
 20
-33.3890457888
 30
0.0
  0
VERTEX
  5
580
  8
0
  6
CONTINUOUS
 62
     7
 10
113.4796015688
 20
-33.387443914
 30
0.0
  0
SEQEND
  5
6F0
  8
0
  6
CONTINUOUS
 62
     7
  0
LINE
  5
22F
  8
0
  6
CONTINUOUS
 62
     7
 10
77.0109586187
 20
-23.3289485116
 30
0.0
 11
77.0109586187
 21
-23.6869205971
 31
0.0
  0
LINE
  5
230
  8
0
  6
CONTINUOUS
 62
     7
 10
79.0109626719
 20
-23.6869205971
 30
0.0
 11
79.0109626719
 21
-23.3289485116
 31
0.0
  0
ARC
  5
231
  8
0
  6
CONTINUOUS
 62
     7
 10
78.0109591552
 20
-213.7357161291
 30
0.0
 40
184.6914990019509
 50
82.2647832727
 51
97.7352167273
  0
LINE
  5
232
  8
0
  6
CONTINUOUS
 62
     7
 10
118.0697165199
 20
-36.4934486587
 30
0.0
 11
118.0697165199
 21
-31.6186745902
 31
0.0
  0
LINE
  5
233
  8
0
  6
CONTINUOUS
 62
     7
 10
37.9522017904
 20
-31.6186745902
 30
0.0
 11
37.9522017904
 21
-36.4934486587
 31
0.0
  0
POLYLINE
  5
234
  8
0
  6
CONTINUOUS
 62
     7
 66
     1
 10
0.0
 20
0.0
 30
0.0
  0
VERTEX
  5
581
  8
0
  6
CONTINUOUS
 62
     7
 10
102.8694979616
 20
-38.6002701958
 30
0.0
  0
VERTEX
  5
582
  8
0
  6
CONTINUOUS
 62
     7
 10
103.6461464831
 20
-38.7044755061
 30
0.0
  0
VERTEX
  5
583
  8
0
  6
CONTINUOUS
 62
     7
 10
104.5285753676
 20
-38.8192479749
 30
0.0
  0
VERTEX
  5
584
  8
0
  6
CONTINUOUS
 62
     7
 10
105.4005078741
 20
-38.9290486713
 30
0.0
  0
VERTEX
  5
585
  8
0
  6
CONTINUOUS
 62
     7
 10
106.2580011555
 20
-39.0333053906
 30
0.0
  0
VERTEX
  5
586
  8
0
  6
CONTINUOUS
 62
     7
 10
107.0938817927
 20
-39.130825295
 30
0.0
  0
VERTEX
  5
587
  8
0
  6
CONTINUOUS
 62
     7
 10
107.9153202244
 20
-39.2221411009
 30
0.0
  0
VERTEX
  5
588
  8
0
  6
CONTINUOUS
 62
     7
 10
108.7215058275
 20
-39.3067066808
 30
0.0
  0
VERTEX
  5
589
  8
0
  6
CONTINUOUS
 62
     7
 10
109.5060251423
 20
-39.3833113153
 30
0.0
  0
VERTEX
  5
58A
  8
0
  6
CONTINUOUS
 62
     7
 10
110.2628104159
 20
-39.4507845183
 30
0.0
  0
VERTEX
  5
58B
  8
0
  6
CONTINUOUS
 62
     7
 10
110.9865329929
 20
-39.508014663
 30
0.0
  0
VERTEX
  5
58C
  8
0
  6
CONTINUOUS
 62
     7
 10
111.6731188961
 20
-39.5539415319
 30
0.0
  0
VERTEX
  5
58D
  8
0
  6
CONTINUOUS
 62
     7
 10
112.3213074871
 20
-39.587576433
 30
0.0
  0
VERTEX
  5
58E
  8
0
  6
CONTINUOUS
 62
     7
 10
112.9393480488
 20
-39.6082063456
 30
0.0
  0
VERTEX
  5
58F
  8
0
  6
CONTINUOUS
 62
     7
 10
113.5323367783
 20
-39.614049836
 30
0.0
  0
VERTEX
  5
590
  8
0
  6
CONTINUOUS
 62
     7
 10
114.1088031002
 20
-39.6016401489
 30
0.0
  0
VERTEX
  5
591
  8
0
  6
CONTINUOUS
 62
     7
 10
114.6907485791
 20
-39.5628524263
 30
0.0
  0
VERTEX
  5
592
  8
0
  6
CONTINUOUS
 62
     7
 10
115.2534894415
 20
-39.4872558554
 30
0.0
  0
VERTEX
  5
593
  8
0
  6
CONTINUOUS
 62
     7
 10
115.6194202372
 20
-39.4086663862
 30
0.0
  0
VERTEX
  5
594
  8
0
  6
CONTINUOUS
 62
     7
 10
115.9570686289
 20
-39.3080395897
 30
0.0
  0
VERTEX
  5
595
  8
0
  6
CONTINUOUS
 62
     7
 10
116.2699661919
 20
-39.1842362721
 30
0.0
  0
VERTEX
  5
596
  8
0
  6
CONTINUOUS
 62
     7
 10
116.5717236467
 20
-39.0301120718
 30
0.0
  0
VERTEX
  5
597
  8
0
  6
CONTINUOUS
 62
     7
 10
116.8646819659
 20
-38.8393526216
 30
0.0
  0
VERTEX
  5
598
  8
0
  6
CONTINUOUS
 62
     7
 10
117.1451978155
 20
-38.6070077558
 30
0.0
  0
VERTEX
  5
599
  8
0
  6
CONTINUOUS
 62
     7
 10
117.404692597
 20
-38.331635042
 30
0.0
  0
VERTEX
  5
59A
  8
0
  6
CONTINUOUS
 62
     7
 10
117.6326654621
 20
-38.0158637901
 30
0.0
  0
VERTEX
  5
59B
  8
0
  6
CONTINUOUS
 62
     7
 10
117.8194291659
 20
-37.665557607
 30
0.0
  0
VERTEX
  5
59C
  8
0
  6
CONTINUOUS
 62
     7
 10
117.9692022272
 20
-37.2468595643
 30
0.0
  0
VERTEX
  5
59D
  8
0
  6
CONTINUOUS
 62
     7
 10
117.9950229593
 20
-37.1130001982
 30
0.0
  0
SEQEND
  5
6EF
  8
0
  6
CONTINUOUS
 62
     7
  0
POLYLINE
  5
235
  8
0
  6
CONTINUOUS
 62
     7
 66
     1
 10
0.0
 20
0.0
 30
0.0
  0
VERTEX
  5
59E
  8
0
  6
CONTINUOUS
 62
     7
 10
38.0217604109
 20
-37.1136737307
 30
0.0
  0
VERTEX
  5
59F
  8
0
  6
CONTINUOUS
 62
     7
 10
38.0227021643
 20
-37.120184048
 30
0.0
  0
VERTEX
  5
5A0
  8
0
  6
CONTINUOUS
 62
     7
 10
38.1455354162
 20
-37.5256006856
 30
0.0
  0
VERTEX
  5
5A1
  8
0
  6
CONTINUOUS
 62
     7
 10
38.3186988302
 20
-37.8945117135
 30
0.0
  0
VERTEX
  5
5A2
  8
0
  6
CONTINUOUS
 62
     7
 10
38.5322324701
 20
-38.2225719531
 30
0.0
  0
VERTEX
  5
5A3
  8
0
  6
CONTINUOUS
 62
     7
 10
38.7761823603
 20
-38.5075596412
 30
0.0
  0
VERTEX
  5
5A4
  8
0
  6
CONTINUOUS
 62
     7
 10
39.0408746668
 20
-38.7491588731
 30
0.0
  0
VERTEX
  5
5A5
  8
0
  6
CONTINUOUS
 62
     7
 10
39.3178634115
 20
-38.9492673119
 30
0.0
  0
VERTEX
  5
5A6
  8
0
  6
CONTINUOUS
 62
     7
 10
39.6016530462
 20
-39.1120937903
 30
0.0
  0
VERTEX
  5
5A7
  8
0
  6
CONTINUOUS
 62
     7
 10
39.8915998407
 20
-39.2435376783
 30
0.0
  0
VERTEX
  5
5A8
  8
0
  6
CONTINUOUS
 62
     7
 10
40.1948801943
 20
-39.3504214724
 30
0.0
  0
VERTEX
  5
5A9
  8
0
  6
CONTINUOUS
 62
     7
 10
40.5284039446
 20
-39.4386654039
 30
0.0
  0
VERTEX
  5
5AA
  8
0
  6
CONTINUOUS
 62
     7
 10
40.885578818
 20
-39.5064329048
 30
0.0
  0
VERTEX
  5
5AB
  8
0
  6
CONTINUOUS
 62
     7
 10
41.3511506983
 20
-39.5639141341
 30
0.0
  0
VERTEX
  5
5AC
  8
0
  6
CONTINUOUS
 62
     7
 10
42.0176259943
 20
-39.6046166559
 30
0.0
  0
VERTEX
  5
5AD
  8
0
  6
CONTINUOUS
 62
     7
 10
42.5909809538
 20
-39.6135282953
 30
0.0
  0
VERTEX
  5
5AE
  8
0
  6
CONTINUOUS
 62
     7
 10
43.1716196009
 20
-39.6056716581
 30
0.0
  0
VERTEX
  5
5AF
  8
0
  6
CONTINUOUS
 62
     7
 10
43.8294283816
 20
-39.5816837688
 30
0.0
  0
VERTEX
  5
5B0
  8
0
  6
CONTINUOUS
 62
     7
 10
44.5033542582
 20
-39.544433101
 30
0.0
  0
VERTEX
  5
5B1
  8
0
  6
CONTINUOUS
 62
     7
 10
45.2067069479
 20
-39.4953062077
 30
0.0
  0
VERTEX
  5
5B2
  8
0
  6
CONTINUOUS
 62
     7
 10
45.9417871901
 20
-39.4353715022
 30
0.0
  0
VERTEX
  5
5B3
  8
0
  6
CONTINUOUS
 62
     7
 10
46.7070571848
 20
-39.365508153
 30
0.0
  0
VERTEX
  5
5B4
  8
0
  6
CONTINUOUS
 62
     7
 10
47.5000910231
 20
-39.286549135
 30
0.0
  0
VERTEX
  5
5B5
  8
0
  6
CONTINUOUS
 62
     7
 10
48.3175687262
 20
-39.199351265
 30
0.0
  0
VERTEX
  5
5B6
  8
0
  6
CONTINUOUS
 62
     7
 10
49.1556577154
 20
-39.1047959466
 30
0.0
  0
VERTEX
  5
5B7
  8
0
  6
CONTINUOUS
 62
     7
 10
50.0102333494
 20
-39.0037832101
 30
0.0
  0
VERTEX
  5
5B8
  8
0
  6
CONTINUOUS
 62
     7
 10
50.875621266
 20
-38.8974224468
 30
0.0
  0
VERTEX
  5
5B9
  8
0
  6
CONTINUOUS
 62
     7
 10
51.7470948168
 20
-38.7866636057
 30
0.0
  0
VERTEX
  5
5BA
  8
0
  6
CONTINUOUS
 62
     7
 10
52.6266686388
 20
-38.6712675233
 30
0.0
  0
VERTEX
  5
5BB
  8
0
  6
CONTINUOUS
 62
     7
 10
53.1524829336
 20
-38.6001241644
 30
0.0
  0
SEQEND
  5
6EE
  8
0
  6
CONTINUOUS
 62
     7
  0
POLYLINE
  5
236
  8
0
  6
CONTINUOUS
 62
     7
 66
     1
 10
0.0
 20
0.0
 30
0.0
  0
VERTEX
  5
5BC
  8
0
  6
CONTINUOUS
 62
     7
 10
118.0085144707
 20
-37.0430668135
 30
0.0
  0
VERTEX
  5
5BD
  8
0
  6
CONTINUOUS
 62
     7
 10
118.0510096022
 20
-36.8227680464
 30
0.0
  0
VERTEX
  5
5BE
  8
0
  6
CONTINUOUS
 62
     7
 10
118.0650256344
 20
-36.4943024953
 30
0.0
  0
SEQEND
  5
6ED
  8
0
  6
CONTINUOUS
 62
     7
  0
POLYLINE
  5
237
  8
0
  6
CONTINUOUS
 62
     7
 66
     1
 10
0.0
 20
0.0
 30
0.0
  0
VERTEX
  5
5BF
  8
0
  6
CONTINUOUS
 62
     7
 10
37.9603557058
 20
-36.4870828827
 30
0.0
  0
VERTEX
  5
5C0
  8
0
  6
CONTINUOUS
 62
     7
 10
37.9599384733
 20
-36.6869312962
 30
0.0
  0
VERTEX
  5
5C1
  8
0
  6
CONTINUOUS
 62
     7
 10
38.0217604109
 20
-37.1136737307
 30
0.0
  0
SEQEND
  5
6EC
  8
0
  6
CONTINUOUS
 62
     7
  0
ARC
  5
238
  8
0
  6
CONTINUOUS
 62
     7
 10
78.0109591552
 20
-221.6108456992
 30
0.0
 40
184.6914318082511
 50
82.2647804412
 51
97.7352195588
  0
POLYLINE
  5
239
  8
0
  6
CONTINUOUS
 62
     7
 66
     1
 10
0.0
 20
0.0
 30
0.0
  0
VERTEX
  5
5C2
  8
0
  6
CONTINUOUS
 62
     7
 10
172.4281959005
 20
-25.3952299495
 30
0.0
  0
VERTEX
  5
5C3
  8
0
  6
CONTINUOUS
 62
     7
 10
171.6320924231
 20
-25.5072047253
 30
0.0
  0
VERTEX
  5
5C4
  8
0
  6
CONTINUOUS
 62
     7
 10
170.7254104086
 20
-25.6470014592
 30
0.0
  0
VERTEX
  5
5C5
  8
0
  6
CONTINUOUS
 62
     7
 10
169.8281638094
 20
-25.7977848192
 30
0.0
  0
VERTEX
  5
5C6
  8
0
  6
CONTINUOUS
 62
     7
 10
168.9449898668
 20
-25.9589006443
 30
0.0
  0
VERTEX
  5
5C7
  8
0
  6
CONTINUOUS
 62
     7
 10
168.0904768177
 20
-26.1271585961
 30
0.0
  0
VERTEX
  5
5C8
  8
0
  6
CONTINUOUS
 62
     7
 10
167.2515325018
 20
-26.304440691
 30
0.0
  0
VERTEX
  5
5C9
  8
0
  6
CONTINUOUS
 62
     7
 10
166.4294592806
 20
-26.4902879734
 30
0.0
  0
VERTEX
  5
5CA
  8
0
  6
CONTINUOUS
 62
     7
 10
165.6303576895
 20
-26.6832431097
 30
0.0
  0
VERTEX
  5
5CB
  8
0
  6
CONTINUOUS
 62
     7
 10
164.8600749441
 20
-26.8818487664
 30
0.0
  0
VERTEX
  5
5CC
  8
0
  6
CONTINUOUS
 62
     7
 10
164.123853273
 20
-27.0847608586
 30
0.0
  0
VERTEX
  5
5CD
  8
0
  6
CONTINUOUS
 62
     7
 10
163.4259097048
 20
-27.2909526964
 30
0.0
  0
VERTEX
  5
5CE
  8
0
  6
CONTINUOUS
 62
     7
 10
162.7717070051
 20
-27.4985944171
 30
0.0
  0
VERTEX
  5
5CF
  8
0
  6
CONTINUOUS
 62
     7
 10
162.1725253531
 20
-27.7031679888
 30
0.0
  0
VERTEX
  5
5D0
  8
0
  6
CONTINUOUS
 62
     7
 10
161.5883238383
 20
-27.9191081663
 30
0.0
  0
VERTEX
  5
5D1
  8
0
  6
CONTINUOUS
 62
     7
 10
161.034887261
 20
-28.1431590457
 30
0.0
  0
VERTEX
  5
5D2
  8
0
  6
CONTINUOUS
 62
     7
 10
160.5045668551
 20
-28.3822869201
 30
0.0
  0
VERTEX
  5
5D3
  8
0
  6
CONTINUOUS
 62
     7
 10
159.9786154696
 20
-28.6543940444
 30
0.0
  0
VERTEX
  5
5D4
  8
0
  6
CONTINUOUS
 62
     7
 10
159.5369077989
 20
-28.9252017875
 30
0.0
  0
VERTEX
  5
5D5
  8
0
  6
CONTINUOUS
 62
     7
 10
159.2322833606
 20
-29.1472216387
 30
0.0
  0
VERTEX
  5
5D6
  8
0
  6
CONTINUOUS
 62
     7
 10
158.9727543064
 20
-29.3702532788
 30
0.0
  0
VERTEX
  5
5D7
  8
0
  6
CONTINUOUS
 62
     7
 10
158.7384439775
 20
-29.61036761
 30
0.0
  0
VERTEX
  5
5D8
  8
0
  6
CONTINUOUS
 62
     7
 10
158.5260055729
 20
-29.8751150508
 30
0.0
  0
VERTEX
  5
5D9
  8
0
  6
CONTINUOUS
 62
     7
 10
158.3363972374
 20
-30.1711504598
 30
0.0
  0
VERTEX
  5
5DA
  8
0
  6
CONTINUOUS
 62
     7
 10
158.1757761308
 20
-30.5007045408
 30
0.0
  0
VERTEX
  5
5DB
  8
0
  6
CONTINUOUS
 62
     7
 10
158.0529249974
 20
-30.8607896109
 30
0.0
  0
VERTEX
  5
5DC
  8
0
  6
CONTINUOUS
 62
     7
 10
157.976282365
 20
-31.244190528
 30
0.0
  0
VERTEX
  5
5DD
  8
0
  6
CONTINUOUS
 62
     7
 10
157.9539052912
 20
-31.6101541062
 30
0.0
  0
SEQEND
  5
6EB
  8
0
  6
CONTINUOUS
 62
     7
  0
POLYLINE
  5
23A
  8
0
  6
CONTINUOUS
 62
     7
 66
     1
 10
0.0
 20
0.0
 30
0.0
  0
VERTEX
  5
5DE
  8
0
  6
CONTINUOUS
 62
     7
 10
238.0641393133
 20
-31.6229422827
 30
0.0
  0
VERTEX
  5
5DF
  8
0
  6
CONTINUOUS
 62
     7
 10
238.0677275129
 20
-31.5496822138
 30
0.0
  0
VERTEX
  5
5E0
  8
0
  6
CONTINUOUS
 62
     7
 10
238.0305342146
 20
-31.1508243223
 30
0.0
  0
VERTEX
  5
5E1
  8
0
  6
CONTINUOUS
 62
     7
 10
237.9436068007
 20
-30.7764132758
 30
0.0
  0
VERTEX
  5
5E2
  8
0
  6
CONTINUOUS
 62
     7
 10
237.8155044981
 20
-30.4316883226
 30
0.0
  0
VERTEX
  5
5E3
  8
0
  6
CONTINUOUS
 62
     7
 10
237.6550845572
 20
-30.1198055287
 30
0.0
  0
VERTEX
  5
5E4
  8
0
  6
CONTINUOUS
 62
     7
 10
237.4703876444
 20
-29.8410435458
 30
0.0
  0
VERTEX
  5
5E5
  8
0
  6
CONTINUOUS
 62
     7
 10
237.2668258616
 20
-29.5921926637
 30
0.0
  0
VERTEX
  5
5E6
  8
0
  6
CONTINUOUS
 62
     7
 10
237.0452396341
 20
-29.3667470355
 30
0.0
  0
VERTEX
  5
5E7
  8
0
  6
CONTINUOUS
 62
     7
 10
236.8001155325
 20
-29.1555558582
 30
0.0
  0
VERTEX
  5
5E8
  8
0
  6
CONTINUOUS
 62
     7
 10
236.5138999888
 20
-28.9448564191
 30
0.0
  0
VERTEX
  5
5E9
  8
0
  6
CONTINUOUS
 62
     7
 10
236.1409000822
 20
-28.7106131454
 30
0.0
  0
VERTEX
  5
5EA
  8
0
  6
CONTINUOUS
 62
     7
 10
235.6610767313
 20
-28.453365459
 30
0.0
  0
VERTEX
  5
5EB
  8
0
  6
CONTINUOUS
 62
     7
 10
235.1297549673
 20
-28.2057707448
 30
0.0
  0
VERTEX
  5
5EC
  8
0
  6
CONTINUOUS
 62
     7
 10
234.59261579
 20
-27.9821266671
 30
0.0
  0
VERTEX
  5
5ED
  8
0
  6
CONTINUOUS
 62
     7
 10
233.974456019
 20
-27.748393013
 30
0.0
  0
VERTEX
  5
5EE
  8
0
  6
CONTINUOUS
 62
     7
 10
233.3362869688
 20
-27.5272359391
 30
0.0
  0
VERTEX
  5
5EF
  8
0
  6
CONTINUOUS
 62
     7
 10
232.6734177538
 20
-27.314764752
 30
0.0
  0
VERTEX
  5
5F0
  8
0
  6
CONTINUOUS
 62
     7
 10
231.9862834879
 20
-27.1098991175
 30
0.0
  0
VERTEX
  5
5F1
  8
0
  6
CONTINUOUS
 62
     7
 10
231.2532000013
 20
-26.9058753987
 30
0.0
  0
VERTEX
  5
5F2
  8
0
  6
CONTINUOUS
 62
     7
 10
230.4870001742
 20
-26.7064963718
 30
0.0
  0
VERTEX
  5
5F3
  8
0
  6
CONTINUOUS
 62
     7
 10
229.6901575991
 20
-26.5124758025
 30
0.0
  0
VERTEX
  5
5F4
  8
0
  6
CONTINUOUS
 62
     7
 10
228.8658432432
 20
-26.3247643848
 30
0.0
  0
VERTEX
  5
5F5
  8
0
  6
CONTINUOUS
 62
     7
 10
228.0177227923
 20
-26.1444469233
 30
0.0
  0
VERTEX
  5
5F6
  8
0
  6
CONTINUOUS
 62
     7
 10
227.1497420736
 20
-25.9726469655
 30
0.0
  0
VERTEX
  5
5F7
  8
0
  6
CONTINUOUS
 62
     7
 10
226.2660614916
 20
-25.8104910393
 30
0.0
  0
VERTEX
  5
5F8
  8
0
  6
CONTINUOUS
 62
     7
 10
225.376265473
 20
-25.6598119874
 30
0.0
  0
VERTEX
  5
5F9
  8
0
  6
CONTINUOUS
 62
     7
 10
224.4747213789
 20
-25.5195533176
 30
0.0
  0
VERTEX
  5
5FA
  8
0
  6
CONTINUOUS
 62
     7
 10
223.5938064524
 20
-25.3944193263
 30
0.0
  0
SEQEND
  5
6EA
  8
0
  6
CONTINUOUS
 62
     7
  0
ARC
  5
23B
  8
0
  6
CONTINUOUS
 62
     7
 10
197.8885229577
 20
-212.4868243937
 30
0.0
 40
188.8174970670495
 50
90.2489016896
 51
97.7494217917
  0
ARC
  5
23C
  8
0
  6
CONTINUOUS
 62
     7
 10
198.2178074635
 20
-211.5781616959
 30
0.0
 40
187.9057548470586
 50
82.2387216937
 51
89.7798313593
  0
POLYLINE
  5
23D
  8
0
  6
CONTINUOUS
 62
     7
 66
     1
 10
0.0
 20
0.0
 30
0.0
  0
VERTEX
  5
5FB
  8
0
  6
CONTINUOUS
 62
     7
 10
162.5470109054
 20
-33.3842297335
 30
0.0
  0
VERTEX
  5
5FC
  8
0
  6
CONTINUOUS
 62
     7
 10
162.5455386706
 20
-33.3853592415
 30
0.0
  0
VERTEX
  5
5FD
  8
0
  6
CONTINUOUS
 62
     7
 10
162.5859476396
 20
-33.3607559343
 30
0.0
  0
VERTEX
  5
5FE
  8
0
  6
CONTINUOUS
 62
     7
 10
162.6773915955
 20
-33.310281231
 30
0.0
  0
VERTEX
  5
5FF
  8
0
  6
CONTINUOUS
 62
     7
 10
162.8266103336
 20
-33.2353850146
 30
0.0
  0
VERTEX
  5
600
  8
0
  6
CONTINUOUS
 62
     7
 10
163.0386642882
 20
-33.1380819221
 30
0.0
  0
VERTEX
  5
601
  8
0
  6
CONTINUOUS
 62
     7
 10
163.3162043759
 20
-33.0210169096
 30
0.0
  0
VERTEX
  5
602
  8
0
  6
CONTINUOUS
 62
     7
 10
163.6593781181
 20
-32.8872864385
 30
0.0
  0
VERTEX
  5
603
  8
0
  6
CONTINUOUS
 62
     7
 10
164.0662394234
 20
-32.7401568432
 30
0.0
  0
VERTEX
  5
604
  8
0
  6
CONTINUOUS
 62
     7
 10
164.5333312222
 20
-32.5828423043
 30
0.0
  0
VERTEX
  5
605
  8
0
  6
CONTINUOUS
 62
     7
 10
165.055962629
 20
-32.4184422632
 30
0.0
  0
VERTEX
  5
606
  8
0
  6
CONTINUOUS
 62
     7
 10
165.6312457987
 20
-32.2493930598
 30
0.0
  0
VERTEX
  5
607
  8
0
  6
CONTINUOUS
 62
     7
 10
166.2401608893
 20
-32.081828012
 30
0.0
  0
VERTEX
  5
608
  8
0
  6
CONTINUOUS
 62
     7
 10
166.9008008906
 20
-31.911205246
 30
0.0
  0
VERTEX
  5
609
  8
0
  6
CONTINUOUS
 62
     7
 10
167.6062755057
 20
-31.7402516742
 30
0.0
  0
VERTEX
  5
60A
  8
0
  6
CONTINUOUS
 62
     7
 10
168.349250383
 20
-31.5715526481
 30
0.0
  0
VERTEX
  5
60B
  8
0
  6
CONTINUOUS
 62
     7
 10
169.1217057177
 20
-31.4076160331
 30
0.0
  0
VERTEX
  5
60C
  8
0
  6
CONTINUOUS
 62
     7
 10
169.9138186642
 20
-31.2510733743
 30
0.0
  0
VERTEX
  5
60D
  8
0
  6
CONTINUOUS
 62
     7
 10
170.7170657583
 20
-31.1040063639
 30
0.0
  0
VERTEX
  5
60E
  8
0
  6
CONTINUOUS
 62
     7
 10
171.5277157494
 20
-30.9671377082
 30
0.0
  0
VERTEX
  5
60F
  8
0
  6
CONTINUOUS
 62
     7
 10
172.3567895361
 20
-30.8385421772
 30
0.0
  0
VERTEX
  5
610
  8
0
  6
CONTINUOUS
 62
     7
 10
173.1526516148
 20
-30.725829794
 30
0.0
  0
SEQEND
  5
6E9
  8
0
  6
CONTINUOUS
 62
     7
  0
POLYLINE
  5
23E
  8
0
  6
CONTINUOUS
 62
     7
 66
     1
 10
0.0
 20
0.0
 30
0.0
  0
VERTEX
  5
611
  8
0
  6
CONTINUOUS
 62
     7
 10
222.8693179556
 20
-30.7262038131
 30
0.0
  0
VERTEX
  5
612
  8
0
  6
CONTINUOUS
 62
     7
 10
223.5292784639
 20
-30.8182989498
 30
0.0
  0
VERTEX
  5
613
  8
0
  6
CONTINUOUS
 62
     7
 10
224.3667058417
 20
-30.9465189715
 30
0.0
  0
VERTEX
  5
614
  8
0
  6
CONTINUOUS
 62
     7
 10
225.195889897
 20
-31.0849433084
 30
0.0
  0
VERTEX
  5
615
  8
0
  6
CONTINUOUS
 62
     7
 10
226.0103456446
 20
-31.2324692746
 30
0.0
  0
VERTEX
  5
616
  8
0
  6
CONTINUOUS
 62
     7
 10
226.799159474
 20
-31.3866664906
 30
0.0
  0
VERTEX
  5
617
  8
0
  6
CONTINUOUS
 62
     7
 10
227.5673024126
 20
-31.547926857
 30
0.0
  0
VERTEX
  5
618
  8
0
  6
CONTINUOUS
 62
     7
 10
228.3109478422
 20
-31.715071692
 30
0.0
  0
VERTEX
  5
619
  8
0
  6
CONTINUOUS
 62
     7
 10
229.0240816542
 20
-31.8863441487
 30
0.0
  0
VERTEX
  5
61A
  8
0
  6
CONTINUOUS
 62
     7
 10
229.7006837793
 20
-32.0598130365
 30
0.0
  0
VERTEX
  5
61B
  8
0
  6
CONTINUOUS
 62
     7
 10
230.3349785277
 20
-32.2334115644
 30
0.0
  0
VERTEX
  5
61C
  8
0
  6
CONTINUOUS
 62
     7
 10
230.9213332602
 20
-32.4048985978
 30
0.0
  0
VERTEX
  5
61D
  8
0
  6
CONTINUOUS
 62
     7
 10
231.4547292658
 20
-32.5719301839
 30
0.0
  0
VERTEX
  5
61E
  8
0
  6
CONTINUOUS
 62
     7
 10
231.9340519377
 20
-32.7329715033
 30
0.0
  0
VERTEX
  5
61F
  8
0
  6
CONTINUOUS
 62
     7
 10
232.3602191874
 20
-32.887074842
 30
0.0
  0
VERTEX
  5
620
  8
0
  6
CONTINUOUS
 62
     7
 10
232.7260009714
 20
-33.0301602622
 30
0.0
  0
VERTEX
  5
621
  8
0
  6
CONTINUOUS
 62
     7
 10
233.0246083208
 20
-33.1573923369
 30
0.0
  0
VERTEX
  5
622
  8
0
  6
CONTINUOUS
 62
     7
 10
233.2288197943
 20
-33.2525004883
 30
0.0
  0
VERTEX
  5
623
  8
0
  6
CONTINUOUS
 62
     7
 10
233.3701960512
 20
-33.3246131678
 30
0.0
  0
VERTEX
  5
624
  8
0
  6
CONTINUOUS
 62
     7
 10
233.4523789354
 20
-33.3708112379
 30
0.0
  0
VERTEX
  5
625
  8
0
  6
CONTINUOUS
 62
     7
 10
233.4817997881
 20
-33.3890457888
 30
0.0
  0
VERTEX
  5
626
  8
0
  6
CONTINUOUS
 62
     7
 10
233.4796003767
 20
-33.387443914
 30
0.0
  0
SEQEND
  5
6E8
  8
0
  6
CONTINUOUS
 62
     7
  0
LINE
  5
23F
  8
0
  6
CONTINUOUS
 62
     7
 10
197.0109574267
 20
-23.3289485116
 30
0.0
 11
197.0109574267
 21
-23.6869205971
 31
0.0
  0
LINE
  5
240
  8
0
  6
CONTINUOUS
 62
     7
 10
199.0109614798
 20
-23.6869205971
 30
0.0
 11
199.0109614798
 21
-23.3289485116
 31
0.0
  0
ARC
  5
241
  8
0
  6
CONTINUOUS
 62
     7
 10
198.0109609433
 20
-213.7357185902
 30
0.0
 40
184.6915014406563
 50
82.2647833754
 51
97.7352166246
  0
LINE
  5
242
  8
0
  6
CONTINUOUS
 62
     7
 10
238.0697183081
 20
-36.4934486587
 30
0.0
 11
238.0697183081
 21
-31.6186745902
 31
0.0
  0
LINE
  5
243
  8
0
  6
CONTINUOUS
 62
     7
 10
157.9522035786
 20
-31.6186745902
 30
0.0
 11
157.9522035786
 21
-36.4934486587
 31
0.0
  0
POLYLINE
  5
244
  8
0
  6
CONTINUOUS
 62
     7
 66
     1
 10
0.0
 20
0.0
 30
0.0
  0
VERTEX
  5
627
  8
0
  6
CONTINUOUS
 62
     7
 10
222.8694967695
 20
-38.6002701958
 30
0.0
  0
VERTEX
  5
628
  8
0
  6
CONTINUOUS
 62
     7
 10
223.646145291
 20
-38.7044755061
 30
0.0
  0
VERTEX
  5
629
  8
0
  6
CONTINUOUS
 62
     7
 10
224.5285741755
 20
-38.8192479749
 30
0.0
  0
VERTEX
  5
62A
  8
0
  6
CONTINUOUS
 62
     7
 10
225.400506682
 20
-38.9290486713
 30
0.0
  0
VERTEX
  5
62B
  8
0
  6
CONTINUOUS
 62
     7
 10
226.2580029436
 20
-39.0333053906
 30
0.0
  0
VERTEX
  5
62C
  8
0
  6
CONTINUOUS
 62
     7
 10
227.0938806006
 20
-39.130825295
 30
0.0
  0
VERTEX
  5
62D
  8
0
  6
CONTINUOUS
 62
     7
 10
227.9153220125
 20
-39.2221411009
 30
0.0
  0
VERTEX
  5
62E
  8
0
  6
CONTINUOUS
 62
     7
 10
228.7215046354
 20
-39.3067066808
 30
0.0
  0
VERTEX
  5
62F
  8
0
  6
CONTINUOUS
 62
     7
 10
229.5060269304
 20
-39.3833113153
 30
0.0
  0
VERTEX
  5
630
  8
0
  6
CONTINUOUS
 62
     7
 10
230.2628092238
 20
-39.4507845183
 30
0.0
  0
VERTEX
  5
631
  8
0
  6
CONTINUOUS
 62
     7
 10
230.9865347811
 20
-39.508014663
 30
0.0
  0
VERTEX
  5
632
  8
0
  6
CONTINUOUS
 62
     7
 10
231.6731206843
 20
-39.5539415319
 30
0.0
  0
VERTEX
  5
633
  8
0
  6
CONTINUOUS
 62
     7
 10
232.3213092753
 20
-39.587576433
 30
0.0
  0
VERTEX
  5
634
  8
0
  6
CONTINUOUS
 62
     7
 10
232.9393498369
 20
-39.6082063456
 30
0.0
  0
VERTEX
  5
635
  8
0
  6
CONTINUOUS
 62
     7
 10
233.5323385664
 20
-39.614049836
 30
0.0
  0
VERTEX
  5
636
  8
0
  6
CONTINUOUS
 62
     7
 10
234.1088048884
 20
-39.6016401489
 30
0.0
  0
VERTEX
  5
637
  8
0
  6
CONTINUOUS
 62
     7
 10
234.6907488772
 20
-39.5628524263
 30
0.0
  0
VERTEX
  5
638
  8
0
  6
CONTINUOUS
 62
     7
 10
235.2534882494
 20
-39.4872558554
 30
0.0
  0
VERTEX
  5
639
  8
0
  6
CONTINUOUS
 62
     7
 10
235.6194190451
 20
-39.4086663862
 30
0.0
  0
VERTEX
  5
63A
  8
0
  6
CONTINUOUS
 62
     7
 10
235.9570674368
 20
-39.3080395897
 30
0.0
  0
VERTEX
  5
63B
  8
0
  6
CONTINUOUS
 62
     7
 10
236.26996798
 20
-39.1842362721
 30
0.0
  0
VERTEX
  5
63C
  8
0
  6
CONTINUOUS
 62
     7
 10
236.5717224547
 20
-39.0301120718
 30
0.0
  0
VERTEX
  5
63D
  8
0
  6
CONTINUOUS
 62
     7
 10
236.8646792837
 20
-38.8393526216
 30
0.0
  0
VERTEX
  5
63E
  8
0
  6
CONTINUOUS
 62
     7
 10
237.1451966234
 20
-38.6070077558
 30
0.0
  0
VERTEX
  5
63F
  8
0
  6
CONTINUOUS
 62
     7
 10
237.4046914049
 20
-38.331635042
 30
0.0
  0
VERTEX
  5
640
  8
0
  6
CONTINUOUS
 62
     7
 10
237.6326672503
 20
-38.0158637901
 30
0.0
  0
VERTEX
  5
641
  8
0
  6
CONTINUOUS
 62
     7
 10
237.8194264837
 20
-37.665557607
 30
0.0
  0
VERTEX
  5
642
  8
0
  6
CONTINUOUS
 62
     7
 10
237.9692010351
 20
-37.2468595643
 30
0.0
  0
VERTEX
  5
643
  8
0
  6
CONTINUOUS
 62
     7
 10
237.9950217672
 20
-37.1130001982
 30
0.0
  0
SEQEND
  5
6E7
  8
0
  6
CONTINUOUS
 62
     7
  0
POLYLINE
  5
245
  8
0
  6
CONTINUOUS
 62
     7
 66
     1
 10
0.0
 20
0.0
 30
0.0
  0
VERTEX
  5
644
  8
0
  6
CONTINUOUS
 62
     7
 10
158.0217577287
 20
-37.1136737307
 30
0.0
  0
VERTEX
  5
645
  8
0
  6
CONTINUOUS
 62
     7
 10
158.0227009722
 20
-37.120184048
 30
0.0
  0
VERTEX
  5
646
  8
0
  6
CONTINUOUS
 62
     7
 10
158.1455357143
 20
-37.5256006856
 30
0.0
  0
VERTEX
  5
647
  8
0
  6
CONTINUOUS
 62
     7
 10
158.3187021085
 20
-37.8945117135
 30
0.0
  0
VERTEX
  5
648
  8
0
  6
CONTINUOUS
 62
     7
 10
158.5322327682
 20
-38.2225719531
 30
0.0
  0
VERTEX
  5
649
  8
0
  6
CONTINUOUS
 62
     7
 10
158.7761811682
 20
-38.5075596412
 30
0.0
  0
VERTEX
  5
64A
  8
0
  6
CONTINUOUS
 62
     7
 10
159.0408734747
 20
-38.7491588731
 30
0.0
  0
VERTEX
  5
64B
  8
0
  6
CONTINUOUS
 62
     7
 10
159.3178622194
 20
-38.9492673119
 30
0.0
  0
VERTEX
  5
64C
  8
0
  6
CONTINUOUS
 62
     7
 10
159.6016548344
 20
-39.1120937903
 30
0.0
  0
VERTEX
  5
64D
  8
0
  6
CONTINUOUS
 62
     7
 10
159.8916001388
 20
-39.2435376783
 30
0.0
  0
VERTEX
  5
64E
  8
0
  6
CONTINUOUS
 62
     7
 10
160.1948804923
 20
-39.3504214724
 30
0.0
  0
VERTEX
  5
64F
  8
0
  6
CONTINUOUS
 62
     7
 10
160.5284057327
 20
-39.4386654039
 30
0.0
  0
VERTEX
  5
650
  8
0
  6
CONTINUOUS
 62
     7
 10
160.8855820962
 20
-39.5064329048
 30
0.0
  0
VERTEX
  5
651
  8
0
  6
CONTINUOUS
 62
     7
 10
161.3511495062
 20
-39.5639141341
 30
0.0
  0
VERTEX
  5
652
  8
0
  6
CONTINUOUS
 62
     7
 10
162.0176292726
 20
-39.6046166559
 30
0.0
  0
VERTEX
  5
653
  8
0
  6
CONTINUOUS
 62
     7
 10
162.5909812518
 20
-39.6135282953
 30
0.0
  0
VERTEX
  5
654
  8
0
  6
CONTINUOUS
 62
     7
 10
163.171621389
 20
-39.6056716581
 30
0.0
  0
VERTEX
  5
655
  8
0
  6
CONTINUOUS
 62
     7
 10
163.8294271895
 20
-39.5816837688
 30
0.0
  0
VERTEX
  5
656
  8
0
  6
CONTINUOUS
 62
     7
 10
164.5033560463
 20
-39.544433101
 30
0.0
  0
VERTEX
  5
657
  8
0
  6
CONTINUOUS
 62
     7
 10
165.2067087361
 20
-39.4953062077
 30
0.0
  0
VERTEX
  5
658
  8
0
  6
CONTINUOUS
 62
     7
 10
165.9417830177
 20
-39.4353715022
 30
0.0
  0
VERTEX
  5
659
  8
0
  6
CONTINUOUS
 62
     7
 10
166.7070589729
 20
-39.365508153
 30
0.0
  0
VERTEX
  5
65A
  8
0
  6
CONTINUOUS
 62
     7
 10
167.500089831
 20
-39.286549135
 30
0.0
  0
VERTEX
  5
65B
  8
0
  6
CONTINUOUS
 62
     7
 10
168.3175675341
 20
-39.199351265
 30
0.0
  0
VERTEX
  5
65C
  8
0
  6
CONTINUOUS
 62
     7
 10
169.1556565233
 20
-39.1047959466
 30
0.0
  0
VERTEX
  5
65D
  8
0
  6
CONTINUOUS
 62
     7
 10
170.0102321573
 20
-39.0037832101
 30
0.0
  0
VERTEX
  5
65E
  8
0
  6
CONTINUOUS
 62
     7
 10
170.8756200739
 20
-38.8974224468
 30
0.0
  0
VERTEX
  5
65F
  8
0
  6
CONTINUOUS
 62
     7
 10
171.7470936247
 20
-38.7866636057
 30
0.0
  0
VERTEX
  5
660
  8
0
  6
CONTINUOUS
 62
     7
 10
172.626670427
 20
-38.6712675233
 30
0.0
  0
VERTEX
  5
661
  8
0
  6
CONTINUOUS
 62
     7
 10
173.1524817415
 20
-38.6001241644
 30
0.0
  0
SEQEND
  5
6E6
  8
0
  6
CONTINUOUS
 62
     7
  0
POLYLINE
  5
246
  8
0
  6
CONTINUOUS
 62
     7
 66
     1
 10
0.0
 20
0.0
 30
0.0
  0
VERTEX
  5
662
  8
0
  6
CONTINUOUS
 62
     7
 10
238.0085162588
 20
-37.0430668135
 30
0.0
  0
VERTEX
  5
663
  8
0
  6
CONTINUOUS
 62
     7
 10
238.0510143706
 20
-36.8227680464
 30
0.0
  0
VERTEX
  5
664
  8
0
  6
CONTINUOUS
 62
     7
 10
238.0650214621
 20
-36.4943024953
 30
0.0
  0
SEQEND
  5
6E5
  8
0
  6
CONTINUOUS
 62
     7
  0
POLYLINE
  5
247
  8
0
  6
CONTINUOUS
 62
     7
 66
     1
 10
0.0
 20
0.0
 30
0.0
  0
VERTEX
  5
665
  8
0
  6
CONTINUOUS
 62
     7
 10
157.9603545138
 20
-36.4870828827
 30
0.0
  0
VERTEX
  5
666
  8
0
  6
CONTINUOUS
 62
     7
 10
157.9599357911
 20
-36.6869312962
 30
0.0
  0
VERTEX
  5
667
  8
0
  6
CONTINUOUS
 62
     7
 10
158.0217577287
 20
-37.1136737307
 30
0.0
  0
SEQEND
  5
6E4
  8
0
  6
CONTINUOUS
 62
     7
  0
ARC
  5
248
  8
0
  6
CONTINUOUS
 62
     7
 10
198.0109609433
 20
-221.6108481603
 30
0.0
 40
184.6914342469481
 50
82.264780544
 51
97.735219456
  0
ARC
  5
249
  8
0
  6
CONTINUOUS
 62
     7
 10
103.1946223097
 20
-113.8740716149
 30
0.0
 40
14.86825280728331
 50
270.8244948462
 51
0.4742558757
  0
ARC
  5
24A
  8
0
  6
CONTINUOUS
 62
     7
 10
52.8265126314
 20
-113.8775413262
 30
0.0
 40
14.86657497474975
 50
179.512892172
 51
269.323417898
  0
ARC
  5
24B
  8
0
  6
CONTINUOUS
 62
     7
 10
103.1834461669
 20
-73.6625891005
 30
0.0
 40
14.87763350840306
 50
359.6598827063
 51
32.6990667389
  0
ARC
  5
24C
  8
0
  6
CONTINUOUS
 62
     7
 10
52.9303950904
 20
-73.6950993636
 30
0.0
 40
14.97524819321615
 50
147.3881243277
 51
180.2162386816
  0
ARC
  5
24D
  8
0
  6
CONTINUOUS
 62
     7
 10
52.7546328796
 20
-73.457932742
 30
0.0
 40
14.69879197530865
 50
90.6991896742
 51
141.1138697876
  0
ARC
  5
24E
  8
0
  6
CONTINUOUS
 62
     7
 10
103.270325775
 20
-73.434596747
 30
0.0
 40
14.6782263254067
 50
38.7741646745
 51
89.7632229624
  0
LINE
  5
24F
  8
0
  6
CONTINUOUS
 62
     7
 10
37.9522017904
 20
-73.7509434362
 30
0.0
 11
37.9522017904
 21
-113.7509440322
 31
0.0
  0
LINE
  5
250
  8
0
  6
CONTINUOUS
 62
     7
 10
118.0697165199
 20
-113.7509440322
 30
0.0
 11
118.0697165199
 21
-73.7509434362
 31
0.0
  0
ARC
  5
251
  8
0
  6
CONTINUOUS
 62
     7
 10
223.1946272096
 20
-113.874079091
 30
0.0
 40
14.86824528724574
 50
270.8244832704
 51
0.4742849259
  0
ARC
  5
252
  8
0
  6
CONTINUOUS
 62
     7
 10
172.8265136805
 20
-113.87753614
 30
0.0
 40
14.86658015187278
 50
179.5129123301
 51
269.3234209822
  0
ARC
  5
253
  8
0
  6
CONTINUOUS
 62
     7
 10
223.1835139855
 20
-73.6625636213
 30
0.0
 40
14.87756166995688
 50
359.6597829379
 51
32.6991277419
  0
ARC
  5
254
  8
0
  6
CONTINUOUS
 62
     7
 10
172.9305299049
 20
-73.6951494213
 30
0.0
 40
14.97538848031698
 50
147.3882403755
 51
180.2160451339
  0
ARC
  5
255
  8
0
  6
CONTINUOUS
 62
     7
 10
172.7546390456
 20
-73.4579478908
 30
0.0
 40
14.69880721282069
 50
90.699217633
 51
141.1138418288
  0
ARC
  5
256
  8
0
  6
CONTINUOUS
 62
     7
 10
223.2703287795
 20
-73.4345848979
 30
0.0
 40
14.67821447142585
 50
38.7741425168
 51
89.7632275192
  0
LINE
  5
257
  8
0
  6
CONTINUOUS
 62
     7
 10
157.9522035786
 20
-73.7509434362
 30
0.0
 11
157.9522035786
 21
-113.7509440322
 31
0.0
  0
LINE
  5
258
  8
0
  6
CONTINUOUS
 62
     7
 10
238.0697183081
 20
-113.7509440322
 30
0.0
 11
238.0697183081
 21
-73.7509434362
 31
0.0
  0
ARC
  5
259
  8
0
  6
CONTINUOUS
 62
     7
 10
18.0109600493
 20
-47.8509426971
 30
0.0
 40
2.699999999999992
 50
0.0
 51
180.0
  0
ARC
  5
25A
  8
0
  6
CONTINUOUS
 62
     7
 10
18.0109600493
 20
-97.8509426971
 30
0.0
 40
2.699999999999992
 50
180.0
 51
0.0
  0
LINE
  5
25B
  8
0
  6
CONTINUOUS
 62
     7
 10
12.0109610029
 20
-43.0509426882
 30
0.0
 11
12.0109610029
 21
-41.850942864
 31
0.0
  0
LINE
  5
25C
  8
0
  6
CONTINUOUS
 62
     7
 10
12.0109610029
 20
-41.850942864
 30
0.0
 11
24.0109614798
 21
-41.850942864
 31
0.0
  0
LINE
  5
25D
  8
0
  6
CONTINUOUS
 62
     7
 10
24.0109614798
 20
-41.850942864
 30
0.0
 11
24.0109614798
 21
-43.0509426882
 31
0.0
  0
LINE
  5
25E
  8
0
  6
CONTINUOUS
 62
     7
 10
12.0109610029
 20
-43.0509426882
 30
0.0
 11
12.0109610029
 21
-52.6509427716
 31
0.0
  0
LINE
  5
25F
  8
0
  6
CONTINUOUS
 62
     7
 10
24.0109614798
 20
-43.0509426882
 30
0.0
 11
24.0109614798
 21
-52.6509427716
 31
0.0
  0
LINE
  5
260
  8
0
  6
CONTINUOUS
 62
     7
 10
24.0109614798
 20
-53.8509425958
 30
0.0
 11
20.7109622427
 21
-53.8509425958
 31
0.0
  0
LINE
  5
261
  8
0
  6
CONTINUOUS
 62
     7
 10
15.31096024
 20
-53.8509425958
 30
0.0
 11
12.0109610029
 21
-53.8509425958
 31
0.0
  0
LINE
  5
262
  8
0
  6
CONTINUOUS
 62
     7
 10
12.0109610029
 20
-53.8509425958
 30
0.0
 11
12.0109610029
 21
-52.6509427716
 31
0.0
  0
LINE
  5
263
  8
0
  6
CONTINUOUS
 62
     7
 10
24.0109614798
 20
-52.6509427716
 30
0.0
 11
24.0109614798
 21
-53.8509425958
 31
0.0
  0
ARC
  5
264
  8
0
  6
CONTINUOUS
 62
     7
 10
138.0109600493
 20
-47.8509426971
 30
0.0
 40
2.700000000000017
 50
0.0
 51
180.0
  0
ARC
  5
265
  8
0
  6
CONTINUOUS
 62
     7
 10
138.0109600493
 20
-97.8509426971
 30
0.0
 40
2.700000000000017
 50
180.0
 51
0.0
  0
LINE
  5
266
  8
0
  6
CONTINUOUS
 62
     7
 10
132.0109601834
 20
-41.850942864
 30
0.0
 11
144.0109599152
 21
-41.850942864
 31
0.0
  0
LINE
  5
267
  8
0
  6
CONTINUOUS
 62
     7
 10
144.0109599152
 20
-41.850942864
 30
0.0
 11
144.0109599152
 21
-43.0509426882
 31
0.0
  0
LINE
  5
268
  8
0
  6
CONTINUOUS
 62
     7
 10
132.0109601834
 20
-43.0509426882
 30
0.0
 11
132.0109601834
 21
-41.850942864
 31
0.0
  0
LINE
  5
269
  8
0
  6
CONTINUOUS
 62
     7
 10
144.0109599152
 20
-43.0509426882
 30
0.0
 11
144.0109599152
 21
-52.6509427716
 31
0.0
  0
LINE
  5
26A
  8
0
  6
CONTINUOUS
 62
     7
 10
132.0109601834
 20
-43.0509426882
 30
0.0
 11
132.0109601834
 21
-52.6509427716
 31
0.0
  0
LINE
  5
26B
  8
0
  6
CONTINUOUS
 62
     7
 10
144.0109599152
 20
-53.8509425958
 30
0.0
 11
140.7109601193
 21
-53.8509425958
 31
0.0
  0
LINE
  5
26C
  8
0
  6
CONTINUOUS
 62
     7
 10
135.3109599792
 20
-53.8509425958
 30
0.0
 11
132.0109601834
 21
-53.8509425958
 31
0.0
  0
LINE
  5
26D
  8
0
  6
CONTINUOUS
 62
     7
 10
144.0109599152
 20
-52.6509427716
 30
0.0
 11
144.0109599152
 21
-53.8509425958
 31
0.0
  0
LINE
  5
26E
  8
0
  6
CONTINUOUS
 62
     7
 10
132.0109601834
 20
-53.8509425958
 30
0.0
 11
132.0109601834
 21
-52.6509427716
 31
0.0
  0
ARC
  5
26F
  8
0
  6
CONTINUOUS
 62
     7
 10
258.0109600493
 20
-47.8509426971
 30
0.0
 40
2.700000000000045
 50
0.0
 51
180.0
  0
ARC
  5
270
  8
0
  6
CONTINUOUS
 62
     7
 10
258.0109600493
 20
-97.8509426971
 30
0.0
 40
2.700000000000045
 50
180.0
 51
0.0
  0
LINE
  5
271
  8
0
  6
CONTINUOUS
 62
     7
 10
252.0109586187
 20
-41.850942864
 30
0.0
 11
264.0109590956
 21
-41.850942864
 31
0.0
  0
LINE
  5
272
  8
0
  6
CONTINUOUS
 62
     7
 10
264.0109590956
 20
-41.850942864
 30
0.0
 11
264.0109590956
 21
-43.0509426882
 31
0.0
  0
LINE
  5
273
  8
0
  6
CONTINUOUS
 62
     7
 10
252.0109586187
 20
-43.0509426882
 30
0.0
 11
252.0109586187
 21
-41.850942864
 31
0.0
  0
LINE
  5
274
  8
0
  6
CONTINUOUS
 62
     7
 10
264.0109590956
 20
-43.0509426882
 30
0.0
 11
264.0109590956
 21
-52.6509427716
 31
0.0
  0
LINE
  5
275
  8
0
  6
CONTINUOUS
 62
     7
 10
252.0109586187
 20
-43.0509426882
 30
0.0
 11
252.0109586187
 21
-52.6509427716
 31
0.0
  0
LINE
  5
276
  8
0
  6
CONTINUOUS
 62
     7
 10
264.0109590956
 20
-53.8509425958
 30
0.0
 11
260.7109598585
 21
-53.8509425958
 31
0.0
  0
LINE
  5
277
  8
0
  6
CONTINUOUS
 62
     7
 10
255.3109578558
 20
-53.8509425958
 30
0.0
 11
252.0109586187
 21
-53.8509425958
 31
0.0
  0
LINE
  5
278
  8
0
  6
CONTINUOUS
 62
     7
 10
264.0109590956
 20
-52.6509427716
 30
0.0
 11
264.0109590956
 21
-53.8509425958
 31
0.0
  0
LINE
  5
279
  8
0
  6
CONTINUOUS
 62
     7
 10
252.0109586187
 20
-53.8509425958
 30
0.0
 11
252.0109586187
 21
-52.6509427716
 31
0.0
  0
ARC
  5
27A
  8
0
  6
CONTINUOUS
 62
     7
 10
78.0185787588
 20
-17.4531187802
 30
0.0
 40
6.286212525477511
 50
261.3047174731
 51
278.4276079687
  0
ARC
  5
27B
  8
0
  6
CONTINUOUS
 62
     7
 10
76.0072435552
 20
-22.0901445386
 30
0.0
 40
0.9962900343946065
 50
180.2148620362
 51
270.2137054399
  0
LINE
  5
27C
  8
0
  6
CONTINUOUS
 62
     7
 10
75.0109605261
 20
-22.0938806673
 30
0.0
 11
75.0109605261
 21
-18.1236987253
 31
0.0
  0
ARC
  5
27D
  8
0
  6
CONTINUOUS
 62
     7
 10
76.0072471598
 20
-18.1274369899
 30
0.0
 40
0.9962936469891892
 50
89.7865026336
 51
179.7850159064
  0
LINE
  5
27E
  8
0
  6
CONTINUOUS
 62
     7
 10
76.0109595724
 20
-17.1311502595
 30
0.0
 11
80.0109617182
 21
-17.1311502595
 31
0.0
  0
ARC
  5
27F
  8
0
  6
CONTINUOUS
 62
     7
 10
80.0146716617
 20
-18.1274394776
 30
0.0
 40
0.9962961254760655
 50
0.2151266245
 51
90.2133548355
  0
LINE
  5
280
  8
0
  6
CONTINUOUS
 62
     7
 10
81.0109607645
 20
-18.1236987253
 30
0.0
 11
81.0109607645
 21
-22.0938806673
 31
0.0
  0
ARC
  5
281
  8
0
  6
CONTINUOUS
 62
     7
 10
80.0146752664
 20
-22.090142051
 30
0.0
 40
0.9962925127945196
 50
269.7864370873
 51
359.7849954366
  0
LINE
  5
282
  8
0
  6
CONTINUOUS
 62
     7
 10
80.0109617182
 20
-23.0864276429
 30
0.0
 11
76.0109595724
 21
-23.0864276429
 31
0.0
  0
POLYLINE
  5
283
  8
0
  6
CONTINUOUS
 62
     7
 66
     1
 10
0.0
 20
0.0
 30
0.0
  0
VERTEX
  5
668
  8
0
  6
CONTINUOUS
 62
     7
 10
78.0109576651
 20
-23.2070793648
 30
0.0
  0
VERTEX
  5
669
  8
0
  6
CONTINUOUS
 62
     7
 10
77.741163201
 20
-23.211598887
 30
0.0
  0
VERTEX
  5
66A
  8
0
  6
CONTINUOUS
 62
     7
 10
77.4913780161
 20
-23.2248206873
 30
0.0
  0
VERTEX
  5
66B
  8
0
  6
CONTINUOUS
 62
     7
 10
77.2801212736
 20
-23.2457657595
 30
0.0
  0
VERTEX
  5
66C
  8
0
  6
CONTINUOUS
 62
     7
 10
77.1230749556
 20
-23.2728799124
 30
0.0
  0
VERTEX
  5
66D
  8
0
  6
CONTINUOUS
 62
     7
 10
77.0318738886
 20
-23.3041529794
 30
0.0
  0
VERTEX
  5
66E
  8
0
  6
CONTINUOUS
 62
     7
 10
77.0109586187
 20
-23.3289485116
 30
0.0
  0
SEQEND
  5
6E3
  8
0
  6
CONTINUOUS
 62
     7
  0
POLYLINE
  5
284
  8
0
  6
CONTINUOUS
 62
     7
 66
     1
 10
0.0
 20
0.0
 30
0.0
  0
VERTEX
  5
66F
  8
0
  6
CONTINUOUS
 62
     7
 10
79.0109626719
 20
-23.3289485116
 30
0.0
  0
VERTEX
  5
670
  8
0
  6
CONTINUOUS
 62
     7
 10
78.9900414415
 20
-23.3041529794
 30
0.0
  0
VERTEX
  5
671
  8
0
  6
CONTINUOUS
 62
     7
 10
78.898846335
 20
-23.2728799124
 30
0.0
  0
VERTEX
  5
672
  8
0
  6
CONTINUOUS
 62
     7
 10
78.7417940565
 20
-23.2457657595
 30
0.0
  0
VERTEX
  5
673
  8
0
  6
CONTINUOUS
 62
     7
 10
78.5305432745
 20
-23.2248206873
 30
0.0
  0
VERTEX
  5
674
  8
0
  6
CONTINUOUS
 62
     7
 10
78.2807580897
 20
-23.211598887
 30
0.0
  0
VERTEX
  5
675
  8
0
  6
CONTINUOUS
 62
     7
 10
78.0109576651
 20
-23.2070793648
 30
0.0
  0
SEQEND
  5
6E2
  8
0
  6
CONTINUOUS
 62
     7
  0
LINE
  5
285
  8
0
  6
CONTINUOUS
 62
     7
 10
81.0109607645
 20
-22.0938806673
 30
0.0
 11
81.0109607645
 21
-23.6889233132
 31
0.0
  0
LINE
  5
286
  8
0
  6
CONTINUOUS
 62
     7
 10
75.0109605261
 20
-23.6934517761
 30
0.0
 11
75.0109605261
 21
-22.0938806673
 31
0.0
  0
POLYLINE
  5
287
  8
0
  6
CONTINUOUS
 62
     7
 66
     1
 10
0.0
 20
0.0
 30
0.0
  0
VERTEX
  5
676
  8
0
  6
CONTINUOUS
 62
     7
 10
104.7115139433
 20
-37.4648270448
 30
0.0
  0
VERTEX
  5
677
  8
0
  6
CONTINUOUS
 62
     7
 10
105.7926676937
 20
-37.5941750844
 30
0.0
  0
VERTEX
  5
678
  8
0
  6
CONTINUOUS
 62
     7
 10
106.841456122
 20
-37.710074826
 30
0.0
  0
VERTEX
  5
679
  8
0
  6
CONTINUOUS
 62
     7
 10
107.8382961222
 20
-37.8096577962
 30
0.0
  0
VERTEX
  5
67A
  8
0
  6
CONTINUOUS
 62
     7
 10
108.7732188173
 20
-37.8909533163
 30
0.0
  0
VERTEX
  5
67B
  8
0
  6
CONTINUOUS
 62
     7
 10
109.6385322281
 20
-37.9524369975
 30
0.0
  0
VERTEX
  5
67C
  8
0
  6
CONTINUOUS
 62
     7
 10
110.4185454317
 20
-37.9919571121
 30
0.0
  0
VERTEX
  5
67D
  8
0
  6
CONTINUOUS
 62
     7
 10
111.1088327833
 20
-38.007803752
 30
0.0
  0
VERTEX
  5
67E
  8
0
  6
CONTINUOUS
 62
     7
 10
111.7000244328
 20
-37.9988794466
 30
0.0
  0
VERTEX
  5
67F
  8
0
  6
CONTINUOUS
 62
     7
 10
112.1817014881
 20
-37.9644287069
 30
0.0
  0
VERTEX
  5
680
  8
0
  6
CONTINUOUS
 62
     7
 10
112.5512502857
 20
-37.9028310318
 30
0.0
  0
VERTEX
  5
681
  8
0
  6
CONTINUOUS
 62
     7
 10
112.8020368286
 20
-37.8146586259
 30
0.0
  0
VERTEX
  5
682
  8
0
  6
CONTINUOUS
 62
     7
 10
112.9296861359
 20
-37.7010894258
 30
0.0
  0
VERTEX
  5
683
  8
0
  6
CONTINUOUS
 62
     7
 10
112.9465691515
 20
-37.6320210536
 30
0.0
  0
SEQEND
  5
6E1
  8
0
  6
CONTINUOUS
 62
     7
  0
ARC
  5
288
  8
0
  6
CONTINUOUS
 62
     7
 10
78.0109606453
 20
-221.3030501321
 30
0.0
 40
185.767090234865
 50
81.7361790473
 51
98.2638209527
  0
POLYLINE
  5
289
  8
0
  6
CONTINUOUS
 62
     7
 66
     1
 10
0.0
 20
0.0
 30
0.0
  0
VERTEX
  5
684
  8
0
  6
CONTINUOUS
 62
     7
 10
43.0753521391
 20
-37.6320210536
 30
0.0
  0
VERTEX
  5
685
  8
0
  6
CONTINUOUS
 62
     7
 10
43.1394390532
 20
-37.7595541318
 30
0.0
  0
VERTEX
  5
686
  8
0
  6
CONTINUOUS
 62
     7
 10
43.3294586607
 20
-37.8618520935
 30
0.0
  0
VERTEX
  5
687
  8
0
  6
CONTINUOUS
 62
     7
 10
43.6420432993
 20
-37.9373436113
 30
0.0
  0
VERTEX
  5
688
  8
0
  6
CONTINUOUS
 62
     7
 10
44.0761081644
 20
-37.9854050715
 30
0.0
  0
VERTEX
  5
689
  8
0
  6
CONTINUOUS
 62
     7
 10
44.6263544031
 20
-38.0068277259
 30
0.0
  0
VERTEX
  5
68A
  8
0
  6
CONTINUOUS
 62
     7
 10
45.282792277
 20
-38.0021152337
 30
0.0
  0
VERTEX
  5
68B
  8
0
  6
CONTINUOUS
 62
     7
 10
46.0361592241
 20
-37.972206368
 30
0.0
  0
VERTEX
  5
68C
  8
0
  6
CONTINUOUS
 62
     7
 10
46.8819729754
 20
-37.9188840528
 30
0.0
  0
VERTEX
  5
68D
  8
0
  6
CONTINUOUS
 62
     7
 10
47.8044502207
 20
-37.8442463716
 30
0.0
  0
VERTEX
  5
68E
  8
0
  6
CONTINUOUS
 62
     7
 10
48.7862638899
 20
-37.7508026798
 30
0.0
  0
VERTEX
  5
68F
  8
0
  6
CONTINUOUS
 62
     7
 10
49.8257450529
 20
-37.6399715682
 30
0.0
  0
VERTEX
  5
690
  8
0
  6
CONTINUOUS
 62
     7
 10
50.9032182165
 20
-37.5146371563
 30
0.0
  0
VERTEX
  5
691
  8
0
  6
CONTINUOUS
 62
     7
 10
51.3104073473
 20
-37.4648270448
 30
0.0
  0
SEQEND
  5
6E0
  8
0
  6
CONTINUOUS
 62
     7
  0
LINE
  5
28A
  8
0
  6
CONTINUOUS
 62
     7
 10
43.0753521391
 20
-33.1226070662
 30
0.0
 11
43.0753521391
 21
-37.6320210536
 31
0.0
  0
LINE
  5
28B
  8
0
  6
CONTINUOUS
 62
     7
 10
112.9465691515
 20
-37.6320210536
 30
0.0
 11
112.9465691515
 21
-33.1241418858
 31
0.0
  0
POLYLINE
  5
28C
  8
0
  6
CONTINUOUS
 62
     7
 66
     1
 10
0.0
 20
0.0
 30
0.0
  0
VERTEX
  5
692
  8
0
  6
CONTINUOUS
 62
     7
 10
118.0697165199
 20
-36.4934486587
 30
0.0
  0
VERTEX
  5
693
  8
0
  6
CONTINUOUS
 62
     7
 10
118.0674992272
 20
-36.6018374701
 30
0.0
  0
VERTEX
  5
694
  8
0
  6
CONTINUOUS
 62
     7
 10
118.0067769953
 20
-37.0676313777
 30
0.0
  0
SEQEND
  5
6DF
  8
0
  6
CONTINUOUS
 62
     7
  0
ARC
  5
28D
  8
0
  6
CONTINUOUS
 62
     7
 10
198.0185775622
 20
-17.4531207106
 30
0.0
 40
6.286210616522069
 50
261.3047148537
 51
278.4276105882
  0
ARC
  5
28E
  8
0
  6
CONTINUOUS
 62
     7
 10
200.0146765434
 20
-22.0901445386
 30
0.0
 40
0.9962900343945917
 50
269.7862945601
 51
359.7851379638
  0
LINE
  5
28F
  8
0
  6
CONTINUOUS
 62
     7
 10
201.0109595724
 20
-22.0938806673
 30
0.0
 11
201.0109595724
 21
-23.6889233132
 31
0.0
  0
ARC
  5
290
  8
0
  6
CONTINUOUS
 62
     7
 10
196.0072448321
 20
-22.090142051
 30
0.0
 40
0.9962925127945088
 50
180.2150045634
 51
270.2135629127
  0
LINE
  5
291
  8
0
  6
CONTINUOUS
 62
     7
 10
195.010959334
 20
-22.0938806673
 30
0.0
 11
195.010959334
 21
-18.1236987253
 31
0.0
  0
ARC
  5
292
  8
0
  6
CONTINUOUS
 62
     7
 10
196.0072484368
 20
-18.1274394776
 30
0.0
 40
0.996296125476075
 50
89.7866451645
 51
179.7848733755
  0
LINE
  5
293
  8
0
  6
CONTINUOUS
 62
     7
 10
196.0109583803
 20
-17.1311502595
 30
0.0
 11
200.0109605261
 21
-17.1311502595
 31
0.0
  0
ARC
  5
294
  8
0
  6
CONTINUOUS
 62
     7
 10
200.0146729388
 20
-18.1274369899
 30
0.0
 40
0.9962936469891784
 50
0.2149840936
 51
90.2134973664
  0
LINE
  5
295
  8
0
  6
CONTINUOUS
 62
     7
 10
201.0109595724
 20
-18.1236987253
 30
0.0
 11
201.0109595724
 21
-22.0938806673
 31
0.0
  0
LINE
  5
296
  8
0
  6
CONTINUOUS
 62
     7
 10
200.0109605261
 20
-23.0864276429
 30
0.0
 11
196.0109583803
 21
-23.0864276429
 31
0.0
  0
POLYLINE
  5
297
  8
0
  6
CONTINUOUS
 62
     7
 66
     1
 10
0.0
 20
0.0
 30
0.0
  0
VERTEX
  5
695
  8
0
  6
CONTINUOUS
 62
     7
 10
198.0109624334
 20
-23.2070793648
 30
0.0
  0
VERTEX
  5
696
  8
0
  6
CONTINUOUS
 62
     7
 10
197.7411620089
 20
-23.211598887
 30
0.0
  0
VERTEX
  5
697
  8
0
  6
CONTINUOUS
 62
     7
 10
197.491376824
 20
-23.2248206873
 30
0.0
  0
VERTEX
  5
698
  8
0
  6
CONTINUOUS
 62
     7
 10
197.280126042
 20
-23.2457657595
 30
0.0
  0
VERTEX
  5
699
  8
0
  6
CONTINUOUS
 62
     7
 10
197.1230737635
 20
-23.2728799124
 30
0.0
  0
VERTEX
  5
69A
  8
0
  6
CONTINUOUS
 62
     7
 10
197.031878657
 20
-23.3041529794
 30
0.0
  0
VERTEX
  5
69B
  8
0
  6
CONTINUOUS
 62
     7
 10
197.0109574267
 20
-23.3289485116
 30
0.0
  0
SEQEND
  5
6DE
  8
0
  6
CONTINUOUS
 62
     7
  0
POLYLINE
  5
298
  8
0
  6
CONTINUOUS
 62
     7
 66
     1
 10
0.0
 20
0.0
 30
0.0
  0
VERTEX
  5
69C
  8
0
  6
CONTINUOUS
 62
     7
 10
199.0109614798
 20
-23.3289485116
 30
0.0
  0
VERTEX
  5
69D
  8
0
  6
CONTINUOUS
 62
     7
 10
198.9900462099
 20
-23.3041529794
 30
0.0
  0
VERTEX
  5
69E
  8
0
  6
CONTINUOUS
 62
     7
 10
198.898845143
 20
-23.2728799124
 30
0.0
  0
VERTEX
  5
69F
  8
0
  6
CONTINUOUS
 62
     7
 10
198.7417988249
 20
-23.2457657595
 30
0.0
  0
VERTEX
  5
6A0
  8
0
  6
CONTINUOUS
 62
     7
 10
198.5305420824
 20
-23.2248206873
 30
0.0
  0
VERTEX
  5
6A1
  8
0
  6
CONTINUOUS
 62
     7
 10
198.2807568976
 20
-23.211598887
 30
0.0
  0
VERTEX
  5
6A2
  8
0
  6
CONTINUOUS
 62
     7
 10
198.0109624334
 20
-23.2070793648
 30
0.0
  0
SEQEND
  5
6DD
  8
0
  6
CONTINUOUS
 62
     7
  0
LINE
  5
299
  8
0
  6
CONTINUOUS
 62
     7
 10
195.010959334
 20
-23.6934517761
 30
0.0
 11
195.010959334
 21
-22.0938806673
 31
0.0
  0
POLYLINE
  5
29A
  8
0
  6
CONTINUOUS
 62
     7
 66
     1
 10
0.0
 20
0.0
 30
0.0
  0
VERTEX
  5
6A3
  8
0
  6
CONTINUOUS
 62
     7
 10
224.7115127512
 20
-37.4648270448
 30
0.0
  0
VERTEX
  5
6A4
  8
0
  6
CONTINUOUS
 62
     7
 10
225.7926694819
 20
-37.5941750844
 30
0.0
  0
VERTEX
  5
6A5
  8
0
  6
CONTINUOUS
 62
     7
 10
226.8414549299
 20
-37.710074826
 30
0.0
  0
VERTEX
  5
6A6
  8
0
  6
CONTINUOUS
 62
     7
 10
227.8382949301
 20
-37.8096577962
 30
0.0
  0
VERTEX
  5
6A7
  8
0
  6
CONTINUOUS
 62
     7
 10
228.7732176252
 20
-37.8909533163
 30
0.0
  0
VERTEX
  5
6A8
  8
0
  6
CONTINUOUS
 62
     7
 10
229.6385340162
 20
-37.9524369975
 30
0.0
  0
VERTEX
  5
6A9
  8
0
  6
CONTINUOUS
 62
     7
 10
230.4185442396
 20
-37.9919571121
 30
0.0
  0
VERTEX
  5
6AA
  8
0
  6
CONTINUOUS
 62
     7
 10
231.1088315912
 20
-38.007803752
 30
0.0
  0
VERTEX
  5
6AB
  8
0
  6
CONTINUOUS
 62
     7
 10
231.7000262209
 20
-37.9988794466
 30
0.0
  0
VERTEX
  5
6AC
  8
0
  6
CONTINUOUS
 62
     7
 10
232.1817032763
 20
-37.9644287069
 30
0.0
  0
VERTEX
  5
6AD
  8
0
  6
CONTINUOUS
 62
     7
 10
232.5512461134
 20
-37.9028310318
 30
0.0
  0
VERTEX
  5
6AE
  8
0
  6
CONTINUOUS
 62
     7
 10
232.8020386168
 20
-37.8146586259
 30
0.0
  0
VERTEX
  5
6AF
  8
0
  6
CONTINUOUS
 62
     7
 10
232.929687924
 20
-37.7010894258
 30
0.0
  0
VERTEX
  5
6B0
  8
0
  6
CONTINUOUS
 62
     7
 10
232.9465679594
 20
-37.6320210536
 30
0.0
  0
SEQEND
  5
6DC
  8
0
  6
CONTINUOUS
 62
     7
  0
ARC
  5
29B
  8
0
  6
CONTINUOUS
 62
     7
 10
198.0109594532
 20
-221.3030501321
 30
0.0
 40
185.7670902348649
 50
81.7361790473
 51
98.2638209527
  0
POLYLINE
  5
29C
  8
0
  6
CONTINUOUS
 62
     7
 66
     1
 10
0.0
 20
0.0
 30
0.0
  0
VERTEX
  5
6B1
  8
0
  6
CONTINUOUS
 62
     7
 10
163.075350947
 20
-37.6320210536
 30
0.0
  0
VERTEX
  5
6B2
  8
0
  6
CONTINUOUS
 62
     7
 10
163.1394378611
 20
-37.7595541318
 30
0.0
  0
VERTEX
  5
6B3
  8
0
  6
CONTINUOUS
 62
     7
 10
163.3294574686
 20
-37.8618520935
 30
0.0
  0
VERTEX
  5
6B4
  8
0
  6
CONTINUOUS
 62
     7
 10
163.6420421072
 20
-37.9373436113
 30
0.0
  0
VERTEX
  5
6B5
  8
0
  6
CONTINUOUS
 62
     7
 10
164.0761099526
 20
-37.9854050715
 30
0.0
  0
VERTEX
  5
6B6
  8
0
  6
CONTINUOUS
 62
     7
 10
164.6263561913
 20
-38.0068277259
 30
0.0
  0
VERTEX
  5
6B7
  8
0
  6
CONTINUOUS
 62
     7
 10
165.2827910849
 20
-38.0021152337
 30
0.0
  0
VERTEX
  5
6B8
  8
0
  6
CONTINUOUS
 62
     7
 10
166.036158032
 20
-37.972206368
 30
0.0
  0
VERTEX
  5
6B9
  8
0
  6
CONTINUOUS
 62
     7
 10
166.8819717833
 20
-37.9188840528
 30
0.0
  0
VERTEX
  5
6BA
  8
0
  6
CONTINUOUS
 62
     7
 10
167.8044490286
 20
-37.8442463716
 30
0.0
  0
VERTEX
  5
6BB
  8
0
  6
CONTINUOUS
 62
     7
 10
168.786265678
 20
-37.7508026798
 30
0.0
  0
VERTEX
  5
6BC
  8
0
  6
CONTINUOUS
 62
     7
 10
169.8257438608
 20
-37.6399715682
 30
0.0
  0
VERTEX
  5
6BD
  8
0
  6
CONTINUOUS
 62
     7
 10
170.9032200047
 20
-37.5146371563
 30
0.0
  0
VERTEX
  5
6BE
  8
0
  6
CONTINUOUS
 62
     7
 10
171.3104061552
 20
-37.4648270448
 30
0.0
  0
SEQEND
  5
6DB
  8
0
  6
CONTINUOUS
 62
     7
  0
LINE
  5
29D
  8
0
  6
CONTINUOUS
 62
     7
 10
163.075350947
 20
-33.1226070662
 30
0.0
 11
163.075350947
 21
-37.6320210536
 31
0.0
  0
LINE
  5
29E
  8
0
  6
CONTINUOUS
 62
     7
 10
232.9465679594
 20
-37.6320210536
 30
0.0
 11
232.9465679594
 21
-33.1241418858
 31
0.0
  0
POLYLINE
  5
29F
  8
0
  6
CONTINUOUS
 62
     7
 66
     1
 10
0.0
 20
0.0
 30
0.0
  0
VERTEX
  5
6BF
  8
0
  6
CONTINUOUS
 62
     7
 10
238.0697183081
 20
-36.4934486587
 30
0.0
  0
VERTEX
  5
6C0
  8
0
  6
CONTINUOUS
 62
     7
 10
238.0675010153
 20
-36.6018374701
 30
0.0
  0
VERTEX
  5
6C1
  8
0
  6
CONTINUOUS
 62
     7
 10
238.0067758032
 20
-37.0676313777
 30
0.0
  0
SEQEND
  5
6DA
  8
0
  6
CONTINUOUS
 62
     7
  0
LINE
  5
2A0
  8
0
  6
CONTINUOUS
 62
     7
 10
75.0109605261
 20
-36.9460162957
 30
0.0
 11
75.0109605261
 21
-39.620030417
 31
0.0
  0
LINE
  5
2A1
  8
0
  6
CONTINUOUS
 62
     7
 10
81.0109607645
 20
-36.9505447586
 30
0.0
 11
81.0109607645
 21
-39.620030417
 31
0.0
  0
ARC
  5
2A2
  8
0
  6
CONTINUOUS
 62
     7
 10
76.0109600493
 20
-41.0509426971
 30
0.0
 40
1.000000000000007
 50
180.0
 51
270.0
  0
LINE
  5
2A3
  8
0
  6
CONTINUOUS
 62
     7
 10
75.0109605261
 20
-39.620030417
 30
0.0
 11
75.0109605261
 21
-41.0509427329
 31
0.0
  0
ARC
  5
2A4
  8
0
  6
CONTINUOUS
 62
     7
 10
80.0109600493
 20
-41.0509426971
 30
0.0
 40
1.000000000000007
 50
270.0
 51
0.0
  0
LINE
  5
2A5
  8
0
  6
CONTINUOUS
 62
     7
 10
81.0109607645
 20
-39.620030417
 30
0.0
 11
81.0109607645
 21
-41.0509427329
 31
0.0
  0
LINE
  5
2A6
  8
0
  6
CONTINUOUS
 62
     7
 10
80.0109617182
 20
-42.0509425242
 30
0.0
 11
76.0109595724
 21
-42.0509425242
 31
0.0
  0
LINE
  5
2A7
  8
0
  6
CONTINUOUS
 62
     7
 10
96.0109613606
 20
-43.0509426882
 30
0.0
 11
96.0109613606
 21
-52.6509427716
 31
0.0
  0
LINE
  5
2A8
  8
0
  6
CONTINUOUS
 62
     7
 10
60.0109629103
 20
-43.0509426882
 30
0.0
 11
60.0109629103
 21
-52.6509427716
 31
0.0
  0
LINE
  5
2A9
  8
0
  6
CONTINUOUS
 62
     7
 10
96.0109613606
 20
-53.650942563
 30
0.0
 11
60.0109629103
 21
-53.650942563
 31
0.0
  0
LINE
  5
2AA
  8
0
  6
CONTINUOUS
 62
     7
 10
96.0109613606
 20
-52.6509427716
 30
0.0
 11
96.0109613606
 21
-53.650942563
 31
0.0
  0
LINE
  5
2AB
  8
0
  6
CONTINUOUS
 62
     7
 10
60.0109629103
 20
-52.6509427716
 30
0.0
 11
60.0109629103
 21
-53.650942563
 31
0.0
  0
LINE
  5
2AC
  8
0
  6
CONTINUOUS
 62
     7
 10
76.0109595724
 20
-42.0509425242
 30
0.0
 11
60.0109629103
 21
-42.0509425242
 31
0.0
  0
LINE
  5
2AD
  8
0
  6
CONTINUOUS
 62
     7
 10
96.0109613606
 20
-42.0509425242
 30
0.0
 11
80.0109617182
 21
-42.0509425242
 31
0.0
  0
LINE
  5
2AE
  8
0
  6
CONTINUOUS
 62
     7
 10
96.0109613606
 20
-42.0509425242
 30
0.0
 11
96.0109613606
 21
-43.0509426882
 31
0.0
  0
LINE
  5
2AF
  8
0
  6
CONTINUOUS
 62
     7
 10
60.0109629103
 20
-42.0509425242
 30
0.0
 11
60.0109629103
 21
-43.0509426882
 31
0.0
  0
LINE
  5
2B0
  8
0
  6
CONTINUOUS
 62
     7
 10
201.0109595724
 20
-36.9505447586
 30
0.0
 11
201.0109595724
 21
-39.620030417
 31
0.0
  0
LINE
  5
2B1
  8
0
  6
CONTINUOUS
 62
     7
 10
195.010959334
 20
-36.9460162957
 30
0.0
 11
195.010959334
 21
-39.620030417
 31
0.0
  0
ARC
  5
2B2
  8
0
  6
CONTINUOUS
 62
     7
 10
196.0109600493
 20
-41.0509426971
 30
0.0
 40
1.000000000000007
 50
180.0
 51
270.0
  0
LINE
  5
2B3
  8
0
  6
CONTINUOUS
 62
     7
 10
195.010959334
 20
-39.620030417
 30
0.0
 11
195.010959334
 21
-41.0509427329
 31
0.0
  0
ARC
  5
2B4
  8
0
  6
CONTINUOUS
 62
     7
 10
200.0109600493
 20
-41.0509426971
 30
0.0
 40
1.000000000000007
 50
270.0
 51
0.0
  0
LINE
  5
2B5
  8
0
  6
CONTINUOUS
 62
     7
 10
201.0109595724
 20
-39.620030417
 30
0.0
 11
201.0109595724
 21
-41.0509427329
 31
0.0
  0
LINE
  5
2B6
  8
0
  6
CONTINUOUS
 62
     7
 10
200.0109605261
 20
-42.0509425242
 30
0.0
 11
196.0109583803
 21
-42.0509425242
 31
0.0
  0
LINE
  5
2B7
  8
0
  6
CONTINUOUS
 62
     7
 10
216.0109571882
 20
-43.0509426882
 30
0.0
 11
216.0109571882
 21
-52.6509427716
 31
0.0
  0
LINE
  5
2B8
  8
0
  6
CONTINUOUS
 62
     7
 10
180.010958738
 20
-43.0509426882
 30
0.0
 11
180.010958738
 21
-52.6509427716
 31
0.0
  0
LINE
  5
2B9
  8
0
  6
CONTINUOUS
 62
     7
 10
216.0109571882
 20
-53.650942563
 30
0.0
 11
180.010958738
 21
-53.650942563
 31
0.0
  0
LINE
  5
2BA
  8
0
  6
CONTINUOUS
 62
     7
 10
216.0109571882
 20
-52.6509427716
 30
0.0
 11
216.0109571882
 21
-53.650942563
 31
0.0
  0
LINE
  5
2BB
  8
0
  6
CONTINUOUS
 62
     7
 10
180.010958738
 20
-52.6509427716
 30
0.0
 11
180.010958738
 21
-53.650942563
 31
0.0
  0
LINE
  5
2BC
  8
0
  6
CONTINUOUS
 62
     7
 10
196.0109583803
 20
-42.0509425242
 30
0.0
 11
180.010958738
 21
-42.0509425242
 31
0.0
  0
LINE
  5
2BD
  8
0
  6
CONTINUOUS
 62
     7
 10
216.0109571882
 20
-42.0509425242
 30
0.0
 11
200.0109605261
 21
-42.0509425242
 31
0.0
  0
LINE
  5
2BE
  8
0
  6
CONTINUOUS
 62
     7
 10
216.0109571882
 20
-42.0509425242
 30
0.0
 11
216.0109571882
 21
-43.0509426882
 31
0.0
  0
LINE
  5
2BF
  8
0
  6
CONTINUOUS
 62
     7
 10
180.010958738
 20
-42.0509425242
 30
0.0
 11
180.010958738
 21
-43.0509426882
 31
0.0
  0
POLYLINE
  5
2C0
  8
0
  6
CONTINUOUS
 62
     7
 66
     1
 10
0.0
 20
0.0
 30
0.0
  0
VERTEX
  5
6C2
  8
0
  6
CONTINUOUS
 62
     7
 10
41.3109592863
 20
-67.107710733
 30
0.0
  0
VERTEX
  5
6C3
  8
0
  6
CONTINUOUS
 62
     7
 10
40.7753519484
 20
-67.8119440814
 30
0.0
  0
VERTEX
  5
6C4
  8
0
  6
CONTINUOUS
 62
     7
 10
40.31096024
 20
-68.5771336098
 30
0.0
  0
SEQEND
  5
6D9
  8
0
  6
CONTINUOUS
 62
     7
  0
LINE
  5
2C1
  8
0
  6
CONTINUOUS
 62
     7
 10
52.6667408415
 20
-58.7562819262
 30
0.0
 11
52.7902774283
 21
-58.7509428401
 31
0.0
  0
ARC
  5
2C2
  8
0
  6
CONTINUOUS
 62
     7
 10
53.1505451976
 20
-73.6571129434
 30
0.0
 40
10.07562997172432
 50
100.5231352619
 51
180.5335814189
  0
LINE
  5
2C3
  8
0
  6
CONTINUOUS
 62
     7
 10
103.3428869911
 20
-128.7445579906
 30
0.0
 11
103.2316408821
 21
-128.7509416481
 31
0.0
  0
ARC
  5
2C4
  8
0
  6
CONTINUOUS
 62
     7
 10
102.8713870238
 20
-113.8447790982
 30
0.0
 40
10.07561908403454
 50
280.5230835409
 51
0.5336080021
  0
POLYLINE
  5
2C5
  8
0
  6
CONTINUOUS
 62
     7
 66
     1
 10
0.0
 20
0.0
 30
0.0
  0
VERTEX
  5
6C5
  8
0
  6
CONTINUOUS
 62
     7
 10
114.7109605142
 20
-67.107710733
 30
0.0
  0
VERTEX
  5
6C6
  8
0
  6
CONTINUOUS
 62
     7
 10
115.2465678521
 20
-67.8119440814
 30
0.0
  0
VERTEX
  5
6C7
  8
0
  6
CONTINUOUS
 62
     7
 10
115.7109595605
 20
-68.5771336098
 30
0.0
  0
SEQEND
  5
6D8
  8
0
  6
CONTINUOUS
 62
     7
  0
ARC
  5
2C6
  8
0
  6
CONTINUOUS
 62
     7
 10
102.8891190795
 20
-73.6425014974
 30
0.0
 40
10.05803467908726
 50
359.3822465328
 51
79.5610367863
  0
ARC
  5
2C7
  8
0
  6
CONTINUOUS
 62
     7
 10
53.1327931244
 20
-113.8593890321
 30
0.0
 40
10.05802562587859
 50
179.3822285381
 51
259.5610799189
  0
LINE
  5
2C8
  8
0
  6
CONTINUOUS
 62
     7
 10
52.7902774283
 20
-128.7509416481
 30
0.0
 11
52.6971392103
 21
-128.7456904788
 31
0.0
  0
LINE
  5
2C9
  8
0
  6
CONTINUOUS
 62
     7
 10
43.0753521391
 20
-73.7509434362
 30
0.0
 11
43.0753521391
 21
-113.7509440322
 31
0.0
  0
LINE
  5
2CA
  8
0
  6
CONTINUOUS
 62
     7
 10
112.9465691515
 20
-113.7509440322
 30
0.0
 11
112.9465691515
 21
-73.7509434362
 31
0.0
  0
LINE
  5
2CB
  8
0
  6
CONTINUOUS
 62
     7
 10
41.3109592863
 20
-64.7388552566
 30
0.0
 11
40.31096024
 21
-64.7388552566
 31
0.0
  0
LINE
  5
2CC
  8
0
  6
CONTINUOUS
 62
     7
 10
40.31096024
 20
-40.8904259344
 30
0.0
 11
40.31096024
 21
-64.7388552566
 31
0.0
  0
LINE
  5
2CD
  8
0
  6
CONTINUOUS
 62
     7
 10
41.3109592863
 20
-40.8904259344
 30
0.0
 11
41.3109592863
 21
-64.7388552566
 31
0.0
  0
LINE
  5
2CE
  8
0
  6
CONTINUOUS
 62
     7
 10
114.7109605142
 20
-64.7388552566
 30
0.0
 11
115.7109595605
 21
-64.7388552566
 31
0.0
  0
LINE
  5
2CF
  8
0
  6
CONTINUOUS
 62
     7
 10
114.7109605142
 20
-40.8904259344
 30
0.0
 11
114.7109605142
 21
-64.7388552566
 31
0.0
  0
LINE
  5
2D0
  8
0
  6
CONTINUOUS
 62
     7
 10
115.7109595605
 20
-40.8904259344
 30
0.0
 11
115.7109595605
 21
-64.7388552566
 31
0.0
  0
LINE
  5
2D1
  8
0
  6
CONTINUOUS
 62
     7
 10
114.7109605142
 20
-64.7388552566
 30
0.0
 11
114.7109605142
 21
-67.107710733
 31
0.0
  0
LINE
  5
2D2
  8
0
  6
CONTINUOUS
 62
     7
 10
115.7109595605
 20
-64.7388552566
 30
0.0
 11
115.7109595605
 21
-68.5771336098
 31
0.0
  0
LINE
  5
2D3
  8
0
  6
CONTINUOUS
 62
     7
 10
40.31096024
 20
-64.7388552566
 30
0.0
 11
40.31096024
 21
-68.5771336098
 31
0.0
  0
LINE
  5
2D4
  8
0
  6
CONTINUOUS
 62
     7
 10
41.3109592863
 20
-64.7388552566
 30
0.0
 11
41.3109592863
 21
-67.107710733
 31
0.0
  0
LINE
  5
2D5
  8
0
  6
CONTINUOUS
 62
     7
 10
51.3104073473
 20
-123.750940456
 30
0.0
 11
104.7115139433
 21
-123.750940456
 31
0.0
  0
LINE
  5
2D6
  8
0
  6
CONTINUOUS
 62
     7
 10
51.3104073473
 20
-63.7509425421
 30
0.0
 11
104.7115139433
 21
-63.7509425421
 31
0.0
  0
LINE
  5
2D7
  8
0
  6
CONTINUOUS
 62
     7
 10
52.7902774283
 20
-58.7509428401
 30
0.0
 11
103.2316408821
 21
-58.7509428401
 31
0.0
  0
LINE
  5
2D8
  8
0
  6
CONTINUOUS
 62
     7
 10
103.2316408821
 20
-128.7509416481
 30
0.0
 11
52.7902774283
 21
-128.7509416481
 31
0.0
  0
LINE
  5
2D9
  8
0
  6
CONTINUOUS
 62
     7
 10
40.31096024
 20
-39.34769605
 30
0.0
 11
40.31096024
 21
-40.8904259344
 31
0.0
  0
LINE
  5
2DA
  8
0
  6
CONTINUOUS
 62
     7
 10
41.3109592863
 20
-39.5457987924
 30
0.0
 11
41.3109592863
 21
-40.8904259344
 31
0.0
  0
LINE
  5
2DB
  8
0
  6
CONTINUOUS
 62
     7
 10
114.7109605142
 20
-39.5472829481
 30
0.0
 11
114.7109605142
 21
-40.8904259344
 31
0.0
  0
LINE
  5
2DC
  8
0
  6
CONTINUOUS
 62
     7
 10
115.7109595605
 20
-39.3479419191
 30
0.0
 11
115.7109595605
 21
-40.8904259344
 31
0.0
  0
LINE
  5
2DD
  8
0
  6
CONTINUOUS
 62
     7
 10
45.5109588572
 20
-52.6509427716
 30
0.0
 11
45.5109588572
 21
-42.8509426554
 31
0.0
  0
LINE
  5
2DE
  8
0
  6
CONTINUOUS
 62
     7
 10
110.5109594532
 20
-52.6509427716
 30
0.0
 11
110.5109594532
 21
-42.8509426554
 31
0.0
  0
LINE
  5
2DF
  8
0
  6
CONTINUOUS
 62
     7
 10
114.7109605142
 20
-41.850942864
 30
0.0
 11
110.5109594532
 21
-41.850942864
 31
0.0
  0
LINE
  5
2E0
  8
0
  6
CONTINUOUS
 62
     7
 10
110.5109594532
 20
-42.8509426554
 30
0.0
 11
110.5109594532
 21
-41.850942864
 31
0.0
  0
LINE
  5
2E1
  8
0
  6
CONTINUOUS
 62
     7
 10
45.5109588572
 20
-41.850942864
 30
0.0
 11
41.3109592863
 21
-41.850942864
 31
0.0
  0
LINE
  5
2E2
  8
0
  6
CONTINUOUS
 62
     7
 10
45.5109588572
 20
-41.850942864
 30
0.0
 11
45.5109588572
 21
-42.8509426554
 31
0.0
  0
LINE
  5
2E3
  8
0
  6
CONTINUOUS
 62
     7
 10
45.5109588572
 20
-53.650942563
 30
0.0
 11
41.3109592863
 21
-53.650942563
 31
0.0
  0
LINE
  5
2E4
  8
0
  6
CONTINUOUS
 62
     7
 10
45.5109588572
 20
-52.6509427716
 30
0.0
 11
45.5109588572
 21
-53.650942563
 31
0.0
  0
LINE
  5
2E5
  8
0
  6
CONTINUOUS
 62
     7
 10
114.7109605142
 20
-53.650942563
 30
0.0
 11
110.5109594532
 21
-53.650942563
 31
0.0
  0
LINE
  5
2E6
  8
0
  6
CONTINUOUS
 62
     7
 10
110.5109594532
 20
-53.650942563
 30
0.0
 11
110.5109594532
 21
-52.6509427716
 31
0.0
  0
LINE
  5
2E7
  8
0
  6
CONTINUOUS
 62
     7
 10
35.5109624334
 20
-42.8509426554
 30
0.0
 11
35.5109624334
 21
-41.850942864
 31
0.0
  0
LINE
  5
2E8
  8
0
  6
CONTINUOUS
 62
     7
 10
40.31096024
 20
-41.850942864
 30
0.0
 11
35.5109624334
 21
-41.850942864
 31
0.0
  0
LINE
  5
2E9
  8
0
  6
CONTINUOUS
 62
     7
 10
120.5109603473
 20
-52.6509427716
 30
0.0
 11
120.5109603473
 21
-42.8509426554
 31
0.0
  0
LINE
  5
2EA
  8
0
  6
CONTINUOUS
 62
     7
 10
35.5109624334
 20
-52.6509427716
 30
0.0
 11
35.5109624334
 21
-42.8509426554
 31
0.0
  0
LINE
  5
2EB
  8
0
  6
CONTINUOUS
 62
     7
 10
120.5109603473
 20
-41.850942864
 30
0.0
 11
115.7109595605
 21
-41.850942864
 31
0.0
  0
LINE
  5
2EC
  8
0
  6
CONTINUOUS
 62
     7
 10
120.5109603473
 20
-42.8509426554
 30
0.0
 11
120.5109603473
 21
-41.850942864
 31
0.0
  0
LINE
  5
2ED
  8
0
  6
CONTINUOUS
 62
     7
 10
40.31096024
 20
-53.650942563
 30
0.0
 11
35.5109624334
 21
-53.650942563
 31
0.0
  0
LINE
  5
2EE
  8
0
  6
CONTINUOUS
 62
     7
 10
35.5109624334
 20
-53.650942563
 30
0.0
 11
35.5109624334
 21
-52.6509427716
 31
0.0
  0
LINE
  5
2EF
  8
0
  6
CONTINUOUS
 62
     7
 10
120.5109603473
 20
-53.650942563
 30
0.0
 11
115.7109595605
 21
-53.650942563
 31
0.0
  0
LINE
  5
2F0
  8
0
  6
CONTINUOUS
 62
     7
 10
120.5109603473
 20
-53.650942563
 30
0.0
 11
120.5109603473
 21
-52.6509427716
 31
0.0
  0
POLYLINE
  5
2F1
  8
0
  6
CONTINUOUS
 62
     7
 66
     1
 10
0.0
 20
0.0
 30
0.0
  0
VERTEX
  5
6C8
  8
0
  6
CONTINUOUS
 62
     7
 10
161.3109595843
 20
-67.107710733
 30
0.0
  0
VERTEX
  5
6C9
  8
0
  6
CONTINUOUS
 62
     7
 10
160.7753522464
 20
-67.8119440814
 30
0.0
  0
VERTEX
  5
6CA
  8
0
  6
CONTINUOUS
 62
     7
 10
160.310960538
 20
-68.5771336098
 30
0.0
  0
SEQEND
  5
6D7
  8
0
  6
CONTINUOUS
 62
     7
  0
LINE
  5
2F2
  8
0
  6
CONTINUOUS
 62
     7
 10
172.6667396494
 20
-58.7562819262
 30
0.0
 11
172.7902792164
 21
-58.7509428401
 31
0.0
  0
ARC
  5
2F3
  8
0
  6
CONTINUOUS
 62
     7
 10
173.1505390212
 20
-73.6571088388
 30
0.0
 40
10.0756250258251
 50
100.5231116577
 51
180.5336050231
  0
ARC
  5
2F4
  8
0
  6
CONTINUOUS
 62
     7
 10
222.8713808473
 20
-113.8447749935
 30
0.0
 40
10.07562402994018
 50
280.5231071452
 51
0.5335843978
  0
LINE
  5
2F5
  8
0
  6
CONTINUOUS
 62
     7
 10
223.3428887793
 20
-128.7445579906
 30
0.0
 11
223.2316426703
 21
-128.7509416481
 31
0.0
  0
POLYLINE
  5
2F6
  8
0
  6
CONTINUOUS
 62
     7
 66
     1
 10
0.0
 20
0.0
 30
0.0
  0
VERTEX
  5
6CB
  8
0
  6
CONTINUOUS
 62
     7
 10
234.7109608122
 20
-67.107710733
 30
0.0
  0
VERTEX
  5
6CC
  8
0
  6
CONTINUOUS
 62
     7
 10
235.2465681502
 20
-67.8119440814
 30
0.0
  0
VERTEX
  5
6CD
  8
0
  6
CONTINUOUS
 62
     7
 10
235.7109598585
 20
-68.5771336098
 30
0.0
  0
SEQEND
  5
6D6
  8
0
  6
CONTINUOUS
 62
     7
  0
ARC
  5
2F7
  8
0
  6
CONTINUOUS
 62
     7
 10
222.8891201756
 20
-73.642499613
 30
0.0
 40
10.05803241131261
 50
359.3822356586
 51
79.5610476606
  0
ARC
  5
2F8
  8
0
  6
CONTINUOUS
 62
     7
 10
173.1327942205
 20
-113.8593871478
 30
0.0
 40
10.05802789364268
 50
179.3822394123
 51
259.5610690447
  0
LINE
  5
2F9
  8
0
  6
CONTINUOUS
 62
     7
 10
172.7902792164
 20
-128.7509416481
 30
0.0
 11
172.6971409985
 21
-128.7456904788
 31
0.0
  0
LINE
  5
2FA
  8
0
  6
CONTINUOUS
 62
     7
 10
163.075350947
 20
-73.7509434362
 30
0.0
 11
163.075350947
 21
-113.7509440322
 31
0.0
  0
LINE
  5
2FB
  8
0
  6
CONTINUOUS
 62
     7
 10
232.9465679594
 20
-113.7509440322
 30
0.0
 11
232.9465679594
 21
-73.7509434362
 31
0.0
  0
LINE
  5
2FC
  8
0
  6
CONTINUOUS
 62
     7
 10
234.7109608122
 20
-64.7388552566
 30
0.0
 11
235.7109598585
 21
-64.7388552566
 31
0.0
  0
LINE
  5
2FD
  8
0
  6
CONTINUOUS
 62
     7
 10
234.7109608122
 20
-40.8904259344
 30
0.0
 11
234.7109608122
 21
-64.7388552566
 31
0.0
  0
LINE
  5
2FE
  8
0
  6
CONTINUOUS
 62
     7
 10
235.7109598585
 20
-40.8904259344
 30
0.0
 11
235.7109598585
 21
-64.7388552566
 31
0.0
  0
LINE
  5
2FF
  8
0
  6
CONTINUOUS
 62
     7
 10
161.3109595843
 20
-64.7388552566
 30
0.0
 11
160.310960538
 21
-64.7388552566
 31
0.0
  0
LINE
  5
300
  8
0
  6
CONTINUOUS
 62
     7
 10
160.310960538
 20
-40.8904259344
 30
0.0
 11
160.310960538
 21
-64.7388552566
 31
0.0
  0
LINE
  5
301
  8
0
  6
CONTINUOUS
 62
     7
 10
161.3109595843
 20
-40.8904259344
 30
0.0
 11
161.3109595843
 21
-64.7388552566
 31
0.0
  0
LINE
  5
302
  8
0
  6
CONTINUOUS
 62
     7
 10
234.7109608122
 20
-64.7388552566
 30
0.0
 11
234.7109608122
 21
-67.107710733
 31
0.0
  0
LINE
  5
303
  8
0
  6
CONTINUOUS
 62
     7
 10
235.7109598585
 20
-64.7388552566
 30
0.0
 11
235.7109598585
 21
-68.5771336098
 31
0.0
  0
LINE
  5
304
  8
0
  6
CONTINUOUS
 62
     7
 10
160.310960538
 20
-64.7388552566
 30
0.0
 11
160.310960538
 21
-68.5771336098
 31
0.0
  0
LINE
  5
305
  8
0
  6
CONTINUOUS
 62
     7
 10
161.3109595843
 20
-64.7388552566
 30
0.0
 11
161.3109595843
 21
-67.107710733
 31
0.0
  0
LINE
  5
306
  8
0
  6
CONTINUOUS
 62
     7
 10
171.3104061552
 20
-123.750940456
 30
0.0
 11
224.7115127512
 21
-123.750940456
 31
0.0
  0
LINE
  5
307
  8
0
  6
CONTINUOUS
 62
     7
 10
171.3104061552
 20
-63.7509425421
 30
0.0
 11
224.7115127512
 21
-63.7509425421
 31
0.0
  0
LINE
  5
308
  8
0
  6
CONTINUOUS
 62
     7
 10
172.7902792164
 20
-58.7509428401
 30
0.0
 11
223.2316426703
 21
-58.7509428401
 31
0.0
  0
LINE
  5
309
  8
0
  6
CONTINUOUS
 62
     7
 10
223.2316426703
 20
-128.7509416481
 30
0.0
 11
172.7902792164
 21
-128.7509416481
 31
0.0
  0
LINE
  5
30A
  8
0
  6
CONTINUOUS
 62
     7
 10
234.7109608122
 20
-39.5472829481
 30
0.0
 11
234.7109608122
 21
-40.8904259344
 31
0.0
  0
LINE
  5
30B
  8
0
  6
CONTINUOUS
 62
     7
 10
235.7109598585
 20
-39.3479419191
 30
0.0
 11
235.7109598585
 21
-40.8904259344
 31
0.0
  0
LINE
  5
30C
  8
0
  6
CONTINUOUS
 62
     7
 10
160.310960538
 20
-39.34769605
 30
0.0
 11
160.310960538
 21
-40.8904259344
 31
0.0
  0
LINE
  5
30D
  8
0
  6
CONTINUOUS
 62
     7
 10
161.3109595843
 20
-39.5457987924
 30
0.0
 11
161.3109595843
 21
-40.8904259344
 31
0.0
  0
LINE
  5
30E
  8
0
  6
CONTINUOUS
 62
     7
 10
230.5109612414
 20
-52.6509427716
 30
0.0
 11
230.5109612414
 21
-42.8509426554
 31
0.0
  0
LINE
  5
30F
  8
0
  6
CONTINUOUS
 62
     7
 10
165.5109606453
 20
-52.6509427716
 30
0.0
 11
165.5109606453
 21
-42.8509426554
 31
0.0
  0
LINE
  5
310
  8
0
  6
CONTINUOUS
 62
     7
 10
165.5109606453
 20
-41.850942864
 30
0.0
 11
161.3109595843
 21
-41.850942864
 31
0.0
  0
LINE
  5
311
  8
0
  6
CONTINUOUS
 62
     7
 10
165.5109606453
 20
-41.850942864
 30
0.0
 11
165.5109606453
 21
-42.8509426554
 31
0.0
  0
LINE
  5
312
  8
0
  6
CONTINUOUS
 62
     7
 10
234.7109608122
 20
-41.850942864
 30
0.0
 11
230.5109612414
 21
-41.850942864
 31
0.0
  0
LINE
  5
313
  8
0
  6
CONTINUOUS
 62
     7
 10
230.5109612414
 20
-42.8509426554
 30
0.0
 11
230.5109612414
 21
-41.850942864
 31
0.0
  0
LINE
  5
314
  8
0
  6
CONTINUOUS
 62
     7
 10
165.5109606453
 20
-53.650942563
 30
0.0
 11
161.3109595843
 21
-53.650942563
 31
0.0
  0
LINE
  5
315
  8
0
  6
CONTINUOUS
 62
     7
 10
165.5109606453
 20
-52.6509427716
 30
0.0
 11
165.5109606453
 21
-53.650942563
 31
0.0
  0
LINE
  5
316
  8
0
  6
CONTINUOUS
 62
     7
 10
234.7109608122
 20
-53.650942563
 30
0.0
 11
230.5109612414
 21
-53.650942563
 31
0.0
  0
LINE
  5
317
  8
0
  6
CONTINUOUS
 62
     7
 10
230.5109612414
 20
-53.650942563
 30
0.0
 11
230.5109612414
 21
-52.6509427716
 31
0.0
  0
LINE
  5
318
  8
0
  6
CONTINUOUS
 62
     7
 10
155.5109597512
 20
-52.6509427716
 30
0.0
 11
155.5109597512
 21
-42.8509426554
 31
0.0
  0
LINE
  5
319
  8
0
  6
CONTINUOUS
 62
     7
 10
240.5109576651
 20
-52.6509427716
 30
0.0
 11
240.5109576651
 21
-42.8509426554
 31
0.0
  0
LINE
  5
31A
  8
0
  6
CONTINUOUS
 62
     7
 10
160.310960538
 20
-41.850942864
 30
0.0
 11
155.5109597512
 21
-41.850942864
 31
0.0
  0
LINE
  5
31B
  8
0
  6
CONTINUOUS
 62
     7
 10
155.5109597512
 20
-42.8509426554
 30
0.0
 11
155.5109597512
 21
-41.850942864
 31
0.0
  0
LINE
  5
31C
  8
0
  6
CONTINUOUS
 62
     7
 10
240.5109576651
 20
-41.850942864
 30
0.0
 11
235.7109598585
 21
-41.850942864
 31
0.0
  0
LINE
  5
31D
  8
0
  6
CONTINUOUS
 62
     7
 10
240.5109576651
 20
-42.8509426554
 30
0.0
 11
240.5109576651
 21
-41.850942864
 31
0.0
  0
LINE
  5
31E
  8
0
  6
CONTINUOUS
 62
     7
 10
240.5109576651
 20
-53.650942563
 30
0.0
 11
235.7109598585
 21
-53.650942563
 31
0.0
  0
LINE
  5
31F
  8
0
  6
CONTINUOUS
 62
     7
 10
240.5109576651
 20
-53.650942563
 30
0.0
 11
240.5109576651
 21
-52.6509427716
 31
0.0
  0
LINE
  5
320
  8
0
  6
CONTINUOUS
 62
     7
 10
160.310960538
 20
-53.650942563
 30
0.0
 11
155.5109597512
 21
-53.650942563
 31
0.0
  0
LINE
  5
321
  8
0
  6
CONTINUOUS
 62
     7
 10
155.5109597512
 20
-53.650942563
 30
0.0
 11
155.5109597512
 21
-52.6509427716
 31
0.0
  0
LINE
  5
322
  8
0
  6
CONTINUOUS
 62
     7
 10
9.210961289
 20
-43.6509427865
 30
0.0
 11
9.210961289
 21
-43.0509426882
 31
0.0
  0
ARC
  5
323
  8
0
  6
CONTINUOUS
 62
     7
 10
9.6109600493
 20
-43.0509426971
 30
0.0
 40
0.3999999999999915
 50
90.0
 51
180.0
  0
LINE
  5
324
  8
0
  6
CONTINUOUS
 62
     7
 10
266.8109588095
 20
-43.0509426882
 30
0.0
 11
266.8109588095
 21
-43.6509427865
 31
0.0
  0
ARC
  5
325
  8
0
  6
CONTINUOUS
 62
     7
 10
266.4109600493
 20
-43.0509426971
 30
0.0
 40
0.3999999999999915
 50
0.0
 51
90.0
  0
LINE
  5
326
  8
0
  6
CONTINUOUS
 62
     7
 10
9.6109561392
 20
-42.6509426226
 30
0.0
 11
12.0109610029
 21
-42.6509426226
 31
0.0
  0
LINE
  5
327
  8
0
  6
CONTINUOUS
 62
     7
 10
24.0109614798
 20
-42.6509426226
 30
0.0
 11
35.5109624334
 21
-42.6509426226
 31
0.0
  0
LINE
  5
328
  8
0
  6
CONTINUOUS
 62
     7
 10
45.5109588572
 20
-42.6509426226
 30
0.0
 11
60.0109629103
 21
-42.6509426226
 31
0.0
  0
LINE
  5
329
  8
0
  6
CONTINUOUS
 62
     7
 10
96.0109613606
 20
-42.6509426226
 30
0.0
 11
110.5109594532
 21
-42.6509426226
 31
0.0
  0
LINE
  5
32A
  8
0
  6
CONTINUOUS
 62
     7
 10
120.5109603473
 20
-42.6509426226
 30
0.0
 11
132.0109601834
 21
-42.6509426226
 31
0.0
  0
LINE
  5
32B
  8
0
  6
CONTINUOUS
 62
     7
 10
144.0109599152
 20
-42.6509426226
 30
0.0
 11
155.5109597512
 21
-42.6509426226
 31
0.0
  0
LINE
  5
32C
  8
0
  6
CONTINUOUS
 62
     7
 10
165.5109606453
 20
-42.6509426226
 30
0.0
 11
180.010958738
 21
-42.6509426226
 31
0.0
  0
LINE
  5
32D
  8
0
  6
CONTINUOUS
 62
     7
 10
216.0109571882
 20
-42.6509426226
 30
0.0
 11
230.5109612414
 21
-42.6509426226
 31
0.0
  0
LINE
  5
32E
  8
0
  6
CONTINUOUS
 62
     7
 10
240.5109576651
 20
-42.6509426226
 30
0.0
 11
252.0109586187
 21
-42.6509426226
 31
0.0
  0
LINE
  5
32F
  8
0
  6
CONTINUOUS
 62
     7
 10
264.0109590956
 20
-42.6509426226
 30
0.0
 11
266.4109639593
 21
-42.6509426226
 31
0.0
  0
LINE
  5
330
  8
0
  6
CONTINUOUS
 62
     7
 10
9.210961289
 20
-51.6509426077
 30
0.0
 11
9.210961289
 21
-43.6509427865
 31
0.0
  0
LINE
  5
331
  8
0
  6
CONTINUOUS
 62
     7
 10
266.8109588095
 20
-43.6509427865
 30
0.0
 11
266.8109588095
 21
-51.6509426077
 31
0.0
  0
LINE
  5
332
  8
0
  6
CONTINUOUS
 62
     7
 10
266.8109588095
 20
-51.6509426077
 30
0.0
 11
266.8109588095
 21
-52.250942706
 31
0.0
  0
ARC
  5
333
  8
0
  6
CONTINUOUS
 62
     7
 10
266.4109600493
 20
-52.2509426971
 30
0.0
 40
0.3999999999999986
 50
270.0
 51
0.0
  0
ARC
  5
334
  8
0
  6
CONTINUOUS
 62
     7
 10
9.6109600493
 20
-52.2509426971
 30
0.0
 40
0.3999999999999986
 50
180.0
 51
270.0
  0
LINE
  5
335
  8
0
  6
CONTINUOUS
 62
     7
 10
9.210961289
 20
-52.250942706
 30
0.0
 11
9.210961289
 21
-51.6509426077
 31
0.0
  0
LINE
  5
336
  8
0
  6
CONTINUOUS
 62
     7
 10
266.4109639593
 20
-52.6509427716
 30
0.0
 11
264.0109590956
 21
-52.6509427716
 31
0.0
  0
LINE
  5
337
  8
0
  6
CONTINUOUS
 62
     7
 10
252.0109586187
 20
-52.6509427716
 30
0.0
 11
240.5109576651
 21
-52.6509427716
 31
0.0
  0
LINE
  5
338
  8
0
  6
CONTINUOUS
 62
     7
 10
230.5109612414
 20
-52.6509427716
 30
0.0
 11
216.0109571882
 21
-52.6509427716
 31
0.0
  0
LINE
  5
339
  8
0
  6
CONTINUOUS
 62
     7
 10
180.010958738
 20
-52.6509427716
 30
0.0
 11
165.5109606453
 21
-52.6509427716
 31
0.0
  0
LINE
  5
33A
  8
0
  6
CONTINUOUS
 62
     7
 10
155.5109597512
 20
-52.6509427716
 30
0.0
 11
144.0109599152
 21
-52.6509427716
 31
0.0
  0
LINE
  5
33B
  8
0
  6
CONTINUOUS
 62
     7
 10
132.0109601834
 20
-52.6509427716
 30
0.0
 11
120.5109603473
 21
-52.6509427716
 31
0.0
  0
LINE
  5
33C
  8
0
  6
CONTINUOUS
 62
     7
 10
110.5109594532
 20
-52.6509427716
 30
0.0
 11
96.0109613606
 21
-52.6509427716
 31
0.0
  0
LINE
  5
33D
  8
0
  6
CONTINUOUS
 62
     7
 10
60.0109629103
 20
-52.6509427716
 30
0.0
 11
45.5109588572
 21
-52.6509427716
 31
0.0
  0
LINE
  5
33E
  8
0
  6
CONTINUOUS
 62
     7
 10
35.5109624334
 20
-52.6509427716
 30
0.0
 11
24.0109614798
 21
-52.6509427716
 31
0.0
  0
LINE
  5
33F
  8
0
  6
CONTINUOUS
 62
     7
 10
12.0109610029
 20
-52.6509427716
 30
0.0
 11
9.6109561392
 21
-52.6509427716
 31
0.0
  0
POLYLINE
  5
340
  8
0
  6
CONTINUOUS
 62
     7
 66
     1
 10
0.0
 20
0.0
 30
0.0
  0
VERTEX
  5
6CE
  8
0
  6
CONTINUOUS
 62
     7
 10
225.0109605261
 20
-39.6509428759
 30
0.0
  0
VERTEX
  5
6CF
  8
0
  6
CONTINUOUS
 62
     7
 10
224.9702445933
 20
-39.0816835006
 30
0.0
  0
VERTEX
  5
6D0
  8
0
  6
CONTINUOUS
 62
     7
 10
224.9325446554
 20
-38.8627995987
 30
0.0
  0
SEQEND
  5
6D5
  8
0
  6
CONTINUOUS
 62
     7
  0
LINE
  5
341
  8
0
  6
CONTINUOUS
 62
     7
 10
225.0109605261
 20
-41.6509428312
 30
0.0
 11
225.0109605261
 21
-39.6509428759
 31
0.0
  0
LINE
  5
342
  8
0
  6
CONTINUOUS
 62
     7
 10
225.0109605261
 20
-41.6509428312
 30
0.0
 11
225.0047079989
 21
-42.6509426226
 31
0.0
  0
ARC
  5
343
  8
0
  6
CONTINUOUS
 62
     7
 10
145.0109600493
 20
-41.6509426971
 30
0.0
 40
80.00000000000001
 50
347.6577971128
 51
352.0967922665
  0
ARC
  5
344
  8
0
  6
CONTINUOUS
 62
     7
 10
281.0109600493
 20
-41.6509426971
 30
0.0
 40
80.00000000000004
 50
188.6269265587
 51
192.3422028872
  0
LINE
  5
345
  8
0
  6
CONTINUOUS
 62
     7
 10
201.0119609305
 20
-42.0509425242
 30
0.0
 11
201.0109595724
 21
-41.6509428312
 31
0.0
  0
LINE
  5
346
  8
0
  6
CONTINUOUS
 62
     7
 10
201.0109595724
 20
-41.0509427329
 30
0.0
 11
201.0109595724
 21
-41.6509428312
 31
0.0
  0
ARC
  5
347
  8
0
  6
CONTINUOUS
 62
     7
 10
221.0109600493
 20
-39.6509426971
 30
0.0
 40
1.500000000000007
 50
114.2154858328
 51
51.3575194393
  0
ARC
  5
348
  8
0
  6
CONTINUOUS
 62
     7
 10
205.0109600493
 20
-39.6509426971
 30
0.0
 40
4.0
 50
137.5994299178
 51
180.0
  0
ARC
  5
349
  8
0
  6
CONTINUOUS
 62
     7
 10
131.0109600493
 20
-41.6509426971
 30
0.0
 40
80.00000000000003
 50
187.9032077335
 51
192.3422028872
  0
LINE
  5
34A
  8
0
  6
CONTINUOUS
 62
     7
 10
51.0172120997
 20
-42.6509426226
 30
0.0
 11
51.0109595724
 21
-41.6509428312
 31
0.0
  0
LINE
  5
34B
  8
0
  6
CONTINUOUS
 62
     7
 10
51.0109595724
 20
-39.6509428759
 30
0.0
 11
51.0109595724
 21
-41.6509428312
 31
0.0
  0
ARC
  5
34C
  8
0
  6
CONTINUOUS
 62
     7
 10
71.0109600493
 20
-39.6509426971
 30
0.0
 40
4.000000000000014
 50
0.0
 51
42.3395639092
  0
LINE
  5
34D
  8
0
  6
CONTINUOUS
 62
     7
 10
75.0109605261
 20
-41.6509428312
 30
0.0
 11
75.0109605261
 21
-41.0509427329
 31
0.0
  0
LINE
  5
34E
  8
0
  6
CONTINUOUS
 62
     7
 10
75.0109605261
 20
-41.6509428312
 30
0.0
 11
75.0099591681
 21
-42.0509425242
 31
0.0
  0
ARC
  5
34F
  8
0
  6
CONTINUOUS
 62
     7
 10
-4.9890399507
 20
-41.6509426971
 30
0.0
 40
80.0
 50
347.6577971128
 51
351.3730734413
  0
ARC
  5
350
  8
0
  6
CONTINUOUS
 62
     7
 10
55.0109600493
 20
-39.6509426971
 30
0.0
 40
1.50000000000001
 50
270.0
 51
66.6219492715
  0
ARC
  5
351
  8
0
  6
CONTINUOUS
 62
     7
 10
55.0109600493
 20
-39.6509426971
 30
0.0
 40
1.5
 50
126.6959892436
 51
270.0
  0
CIRCLE
  5
352
  8
0
  6
CONTINUOUS
 62
     7
 10
71.0109600493
 20
-39.6509426971
 30
0.0
 40
1.5
  0
POLYLINE
  5
353
  8
0
  6
CONTINUOUS
 62
     7
 66
     1
 10
0.0
 20
0.0
 30
0.0
  0
VERTEX
  5
6D1
  8
0
  6
CONTINUOUS
 62
     7
 10
51.0889343687
 20
-38.8650005002
 30
0.0
  0
VERTEX
  5
6D2
  8
0
  6
CONTINUOUS
 62
     7
 10
51.0516755053
 20
-39.0816835006
 30
0.0
  0
VERTEX
  5
6D3
  8
0
  6
CONTINUOUS
 62
     7
 10
51.0109595724
 20
-39.6509428759
 30
0.0
  0
SEQEND
  5
6D4
  8
0
  6
CONTINUOUS
 62
     7
  0
ENDSEC
  0
EOF
