  0
SECTION
  2
HEADER
  9
$ACADVER
  1
AC1009
  9
$DWGCODEPAGE
  3
ansi_1252
  9
$INSBASE
 10
0.0
 20
0.0
 30
0.0
  9
$EXTMIN
 10
0.0
 20
0.0
 30
0.0
  9
$EXTMAX
 10
420.0
 20
297.0
 30
0.0
  9
$LIMMIN
 10
0.0
 20
0.0
  9
$LIMMAX
 10
420.0
 20
297.0
  9
$ORTHOMODE
 70
     0
  9
$REGENMODE
 70
     1
  9
$FILLMODE
 70
     1
  9
$QTEXTMODE
 70
     0
  9
$MIRRTEXT
 70
     1
  9
$DRAGMODE
 70
     2
  9
$LTSCALE
 40
1.0
  9
$OSMODE
 70
    37
  9
$ATTMODE
 70
     1
  9
$TEXTSIZE
 40
3.5
  9
$TRACEWID
 40
1.0
  9
$TEXTSTYLE
  7
STANDARD
  9
$CLAYER
  8
0
  9
$CELTYPE
  6
BYLAYER
  9
$CECOLOR
 62
   256
  9
$DIMSCALE
 40
1.0
  9
$DIMASZ
 40
4.0
  9
$DIMEXO
 40
0.0
  9
$DIMDLI
 40
3.75
  9
$DIMRND
 40
0.0
  9
$DIMDLE
 40
0.0
  9
$DIMEXE
 40
2.0
  9
$DIMTP
 40
0.0
  9
$DIMTM
 40
0.0
  9
$DIMTXT
 40
3.5
  9
$DIMCEN
 40
2.5
  9
$DIMTSZ
 40
0.0
  9
$DIMTOL
 70
     0
  9
$DIMLIM
 70
     0
  9
$DIMTIH
 70
     1
  9
$DIMTOH
 70
     1
  9
$DIMSE1
 70
     0
  9
$DIMSE2
 70
     0
  9
$DIMTAD
 70
     1
  9
$DIMZIN
 70
     0
  9
$DIMBLK
  1

  9
$DIMASO
 70
     1
  9
$DIMSHO
 70
     1
  9
$DIMPOST
  1

  9
$DIMAPOST
  1

  9
$DIMALT
 70
     0
  9
$DIMALTD
 70
     3
  9
$DIMALTF
 40
0.0393700787
  9
$DIMLFAC
 40
5.0
  9
$DIMTOFL
 70
     1
  9
$DIMTVP
 40
0.0
  9
$DIMTIX
 70
     0
  9
$DIMSOXD
 70
     0
  9
$DIMSAH
 70
     0
  9
$DIMBLK1
  1

  9
$DIMBLK2
  1

  9
$DIMSTYLE
  2
ISO-25
  9
$DIMCLRD
 70
     0
  9
$DIMCLRE
 70
     0
  9
$DIMCLRT
 70
     0
  9
$DIMTFAC
 40
1.0
  9
$DIMGAP
 40
1.524
  9
$LUNITS
 70
     2
  9
$LUPREC
 70
     2
  9
$SKETCHINC
 40
1.0
  9
$FILLETRAD
 40
10.0
  9
$AUNITS
 70
     0
  9
$AUPREC
 70
     2
  9
$MENU
  1
.
  9
$ELEVATION
 40
0.0
  9
$PELEVATION
 40
0.0
  9
$THICKNESS
 40
0.0
  9
$LIMCHECK
 70
     0
  9
$CHAMFERA
 40
10.0
  9
$CHAMFERB
 40
10.0
  9
$SKPOLY
 70
     0
  9
$TDCREATE
 40
2457802.436307928
  9
$TDUPDATE
 40
2457802.436308159
  9
$TDINDWG
 40
0.0000000116
  9
$TDUSRTIMER
 40
0.0000000116
  9
$USRTIMER
 70
     1
  9
$ANGBASE
 50
0.0
  9
$ANGDIR
 70
     0
  9
$PDMODE
 70
     0
  9
$PDSIZE
 40
-1.0
  9
$PLINEWID
 40
0.0
  9
$COORDS
 70
     1
  9
$SPLFRAME
 70
     0
  9
$SPLINETYPE
 70
     6
  9
$SPLINESEGS
 70
     8
  9
$ATTDIA
 70
     0
  9
$ATTREQ
 70
     1
  9
$HANDLING
 70
     1
  9
$HANDSEED
  5
391
  9
$SURFTAB1
 70
     6
  9
$SURFTAB2
 70
     6
  9
$SURFTYPE
 70
     6
  9
$SURFU
 70
     6
  9
$SURFV
 70
     6
  9
$UCSNAME
  2

  9
$UCSORG
 10
0.0
 20
0.0
 30
0.0
  9
$UCSXDIR
 10
1.0
 20
0.0
 30
0.0
  9
$UCSYDIR
 10
0.0
 20
1.0
 30
0.0
  9
$PUCSNAME
  2

  9
$PUCSORG
 10
0.0
 20
0.0
 30
0.0
  9
$PUCSXDIR
 10
1.0
 20
0.0
 30
0.0
  9
$PUCSYDIR
 10
0.0
 20
1.0
 30
0.0
  9
$USERI1
 70
     0
  9
$USERI2
 70
     0
  9
$USERI3
 70
     0
  9
$USERI4
 70
     0
  9
$USERI5
 70
     0
  9
$USERR1
 40
0.0
  9
$USERR2
 40
0.0
  9
$USERR3
 40
0.0
  9
$USERR4
 40
0.0
  9
$USERR5
 40
0.0
  9
$WORLDVIEW
 70
     1
  9
$SHADEDGE
 70
     3
  9
$SHADEDIF
 70
    70
  9
$TILEMODE
 70
     1
  9
$MAXACTVP
 70
    64
  9
$PLIMCHECK
 70
     0
  9
$PEXTMIN
 10
1.0000000000E+20
 20
1.0000000000E+20
 30
1.0000000000E+20
  9
$PEXTMAX
 10
-1.0000000000E+20
 20
-1.0000000000E+20
 30
-1.0000000000E+20
  9
$PLIMMIN
 10
0.0
 20
0.0
  9
$PLIMMAX
 10
420.0
 20
297.0
  9
$UNITMODE
 70
     0
  9
$VISRETAIN
 70
     1
  9
$PLINEGEN
 70
     0
  9
$PSLTSCALE
 70
     1
  0
ENDSEC
  0
SECTION
  2
TABLES
  0
TABLE
  2
VPORT
 70
     1
  0
VPORT
  2
*ACTIVE
 70
     0
 10
0.0
 20
0.0
 11
1.0
 21
1.0
 12
210.0
 22
148.5
 13
0.0
 23
0.0
 14
10.0
 24
10.0
 15
10.0
 25
10.0
 16
0.0
 26
0.0
 36
1.0
 17
0.0
 27
0.0
 37
0.0
 40
297.0
 41
1.4141414141
 42
50.0
 43
0.0
 44
0.0
 50
0.0
 51
0.0
 71
     0
 72
  2000
 73
     1
 74
     3
 75
     0
 76
     0
 77
     0
 78
     0
  0
ENDTAB
  0
TABLE
  2
LTYPE
 70
     6
  0
LTYPE
  2
CONTINUOUS
 70
     0
  3
Solid line
 72
    65
 73
     0
 40
0.0
  0
LTYPE
  2
HIDDEN
 70
     0
  3
Hidden __ __ __ __ __ __ __ __ __ __ __ __ __ __
 72
    65
 73
     2
 40
1.905
 49
1.27
 49
-0.635
  0
LTYPE
  2
PHANTOM
 70
     0
  3
Phantom ______  __  __  ______  __  __  ______
 72
    65
 73
     6
 40
12.7
 49
6.35
 49
-1.27
 49
1.27
 49
-1.27
 49
1.27
 49
-1.27
  0
LTYPE
  2
CENTER
 70
     0
  3
Center ____ _ ____ _ ____ _ ____ _ ____ _ ____
 72
    65
 73
     4
 40
10.16
 49
6.35
 49
-1.27
 49
1.27
 49
-1.27
  0
LTYPE
  2
CENTERX2
 70
     0
  3
Center (2x) ________  __  ________  __  _____
 72
    65
 73
     4
 40
20.32
 49
12.7
 49
-2.54
 49
2.54
 49
-2.54
  0
LTYPE
  2
DOT2
 70
     0
  3
Dot (.5x) ........................................
 72
    65
 73
     2
 40
0.635
 49
0.0
 49
-0.635
  0
ENDTAB
  0
TABLE
  2
LAYER
 70
     2
  0
LAYER
  2
0
 70
     0
 62
     7
  6
CONTINUOUS
  0
LAYER
  2
FORMAT
 70
     0
 62
     7
  6
CONTINUOUS
  0
ENDTAB
  0
TABLE
  2
STYLE
 70
     1
  0
STYLE
  2
STANDARD
 70
     0
 40
0.0
 41
1.0
 50
0.0
 71
     0
 42
3.5
  3
txt
  4

  0
ENDTAB
  0
TABLE
  2
VIEW
 70
     0
  0
ENDTAB
  0
TABLE
  2
UCS
 70
     0
  0
ENDTAB
  0
TABLE
  2
APPID
 70
     1
  0
APPID
  2
ACAD
 70
     0
  0
ENDTAB
  0
TABLE
  2
DIMSTYLE
 70
     1
  0
DIMSTYLE
  2
ISO-25
 70
     0
  3

  4

  5

  6

  7

 40
1.0
 41
2.5
 42
0.625
 43
3.75
 44
1.25
 45
0.0
 46
0.0
 47
0.0
 48
0.0
140
2.5
141
2.5
142
0.0
143
0.0393700787
144
1.0
145
0.0
146
1.0
147
0.625
 71
     0
 72
     0
 73
     0
 74
     0
 75
     0
 76
     0
 77
     1
 78
     8
170
     0
171
     3
172
     1
173
     0
174
     0
175
     0
176
     0
177
     0
178
     0
  0
ENDTAB
  0
ENDSEC
  0
SECTION
  2
BLOCKS
  0
BLOCK
  8
0
  2
$MODEL_SPACE
 70
     0
 10
0.0
 20
0.0
 30
0.0
  3
$MODEL_SPACE
  1

  0
ENDBLK
  5
21
  8
0
  0
BLOCK
 67
     1
  8
0
  2
$PAPER_SPACE
 70
     0
 10
0.0
 20
0.0
 30
0.0
  3
$PAPER_SPACE
  1

  0
ENDBLK
  5
1D
 67
     1
  8
0
  0
ENDSEC
  0
SECTION
  2
ENTITIES
  0
POLYLINE
  5
45
  8
0
  6
CONTINUOUS
 62
     7
 66
     1
 10
0.0
 20
0.0
 30
0.0
  0
VERTEX
  5
2E2
  8
0
  6
CONTINUOUS
 62
     7
 10
428.0461397667
 20
266.933178835
 30
0.0
  0
VERTEX
  5
2E3
  8
0
  6
CONTINUOUS
 62
     7
 10
428.0405846138
 20
266.9322132398
 30
0.0
  0
VERTEX
  5
2E4
  8
0
  6
CONTINUOUS
 62
     7
 10
428.039535572
 20
266.9320225049
 30
0.0
  0
SEQEND
  5
390
  8
0
  6
CONTINUOUS
 62
     7
  0
POLYLINE
  5
46
  8
0
  6
CONTINUOUS
 62
     7
 66
     1
 10
0.0
 20
0.0
 30
0.0
  0
VERTEX
  5
2E5
  8
0
  6
CONTINUOUS
 62
     7
 10
354.2534318466
 20
266.931933098
 30
0.0
  0
VERTEX
  5
2E6
  8
0
  6
CONTINUOUS
 62
     7
 10
354.2524424095
 20
266.9321178724
 30
0.0
  0
VERTEX
  5
2E7
  8
0
  6
CONTINUOUS
 62
     7
 10
354.2415228386
 20
266.9340013791
 30
0.0
  0
SEQEND
  5
38F
  8
0
  6
CONTINUOUS
 62
     7
  0
LINE
  5
47
  8
0
  6
CONTINUOUS
 62
     7
 10
354.2531815071
 20
266.9319927026
 30
0.0
 11
354.2458024521
 21
266.9333040048
 31
0.0
  0
ARC
  5
48
  8
0
  6
CONTINUOUS
 62
     7
 10
337.223233274
 20
181.8836980243
 30
0.0
 40
81.35717945007985
 50
78.4978212654
 51
78.6272874017
  0
LINE
  5
49
  8
0
  6
CONTINUOUS
 62
     7
 10
353.2606211204
 20
261.6445361901
 30
0.0
 11
353.2650914688
 21
261.6436480809
 31
0.0
  0
LINE
  5
4A
  8
0
  6
CONTINUOUS
 62
     7
 10
428.9638367195
 20
261.6308092405
 30
0.0
 11
429.0204849739
 21
261.6422354509
 31
0.0
  0
POLYLINE
  5
4B
  8
0
  6
CONTINUOUS
 62
     7
 66
     1
 10
0.0
 20
0.0
 30
0.0
  0
VERTEX
  5
2E8
  8
0
  6
CONTINUOUS
 62
     7
 10
188.0461391706
 20
266.933178835
 30
0.0
  0
VERTEX
  5
2E9
  8
0
  6
CONTINUOUS
 62
     7
 10
188.0405795474
 20
266.9322132398
 30
0.0
  0
VERTEX
  5
2EA
  8
0
  6
CONTINUOUS
 62
     7
 10
188.0395245452
 20
266.9320225049
 30
0.0
  0
SEQEND
  5
38E
  8
0
  6
CONTINUOUS
 62
     7
  0
POLYLINE
  5
4C
  8
0
  6
CONTINUOUS
 62
     7
 66
     1
 10
0.0
 20
0.0
 30
0.0
  0
VERTEX
  5
2EB
  8
0
  6
CONTINUOUS
 62
     7
 10
114.2534342308
 20
266.931933098
 30
0.0
  0
VERTEX
  5
2EC
  8
0
  6
CONTINUOUS
 62
     7
 10
114.2524388332
 20
266.9321178724
 30
0.0
  0
VERTEX
  5
2ED
  8
0
  6
CONTINUOUS
 62
     7
 10
114.2415192623
 20
266.9340013791
 30
0.0
  0
SEQEND
  5
38D
  8
0
  6
CONTINUOUS
 62
     7
  0
LINE
  5
4D
  8
0
  6
CONTINUOUS
 62
     7
 10
114.2531838913
 20
266.9319927026
 30
0.0
 11
114.2458048362
 21
266.9333040048
 31
0.0
  0
ARC
  5
4E
  8
0
  6
CONTINUOUS
 62
     7
 10
97.2115278785
 20
181.8284835982
 30
0.0
 40
81.41361841651182
 50
78.4974998086
 51
78.6268720826
  0
LINE
  5
4F
  8
0
  6
CONTINUOUS
 62
     7
 10
113.2606294651
 20
261.6445361901
 30
0.0
 11
113.265093853
 21
261.6436480809
 31
0.0
  0
LINE
  5
50
  8
0
  6
CONTINUOUS
 62
     7
 10
188.9638450641
 20
261.6308092405
 30
0.0
 11
189.0204873581
 21
261.6422354509
 31
0.0
  0
POLYLINE
  5
51
  8
0
  6
CONTINUOUS
 62
     7
 66
     1
 10
0.0
 20
0.0
 30
0.0
  0
VERTEX
  5
2EE
  8
0
  6
CONTINUOUS
 62
     7
 10
68.0461373825
 20
266.933178835
 30
0.0
  0
VERTEX
  5
2EF
  8
0
  6
CONTINUOUS
 62
     7
 10
68.0405822296
 20
266.9322132398
 30
0.0
  0
VERTEX
  5
2F0
  8
0
  6
CONTINUOUS
 62
     7
 10
68.0395212669
 20
266.9320225049
 30
0.0
  0
SEQEND
  5
38C
  8
0
  6
CONTINUOUS
 62
     7
  0
POLYLINE
  5
52
  8
0
  6
CONTINUOUS
 62
     7
 66
     1
 10
0.0
 20
0.0
 30
0.0
  0
VERTEX
  5
2F1
  8
0
  6
CONTINUOUS
 62
     7
 10
-5.7465705376
 20
266.931933098
 30
0.0
  0
VERTEX
  5
2F2
  8
0
  6
CONTINUOUS
 62
     7
 10
-5.7475718956
 20
266.9321178724
 30
0.0
  0
VERTEX
  5
2F3
  8
0
  6
CONTINUOUS
 62
     7
 10
-5.7584676247
 20
266.9340013791
 30
0.0
  0
SEQEND
  5
38B
  8
0
  6
CONTINUOUS
 62
     7
  0
LINE
  5
53
  8
0
  6
CONTINUOUS
 62
     7
 10
-5.7468089562
 20
266.9319927026
 30
0.0
 11
-5.7541999321
 21
266.9333040048
 31
0.0
  0
LINE
  5
54
  8
0
  6
CONTINUOUS
 62
     7
 10
68.9638462562
 20
261.6308092405
 30
0.0
 11
69.0204825897
 21
261.6422354509
 31
0.0
  0
ARC
  5
55
  8
0
  6
CONTINUOUS
 62
     7
 10
-23.3891920552
 20
178.851125007
 30
0.0
 40
84.45097249470318
 50
78.500925452
 51
78.6256566265
  0
LINE
  5
56
  8
0
  6
CONTINUOUS
 62
     7
 10
-6.7393693428
 20
261.6445361901
 30
0.0
 11
-6.7349109154
 21
261.6436480809
 31
0.0
  0
POLYLINE
  5
57
  8
0
  6
CONTINUOUS
 62
     7
 66
     1
 10
0.0
 20
0.0
 30
0.0
  0
VERTEX
  5
2F4
  8
0
  6
CONTINUOUS
 62
     7
 10
308.0461409588
 20
266.933178835
 30
0.0
  0
VERTEX
  5
2F5
  8
0
  6
CONTINUOUS
 62
     7
 10
308.0405798454
 20
266.9322132398
 30
0.0
  0
VERTEX
  5
2F6
  8
0
  6
CONTINUOUS
 62
     7
 10
308.0395248432
 20
266.9320225049
 30
0.0
  0
SEQEND
  5
38A
  8
0
  6
CONTINUOUS
 62
     7
  0
POLYLINE
  5
58
  8
0
  6
CONTINUOUS
 62
     7
 66
     1
 10
0.0
 20
0.0
 30
0.0
  0
VERTEX
  5
2F7
  8
0
  6
CONTINUOUS
 62
     7
 10
234.2534315486
 20
266.931933098
 30
0.0
  0
VERTEX
  5
2F8
  8
0
  6
CONTINUOUS
 62
     7
 10
234.2524391312
 20
266.9321178724
 30
0.0
  0
VERTEX
  5
2F9
  8
0
  6
CONTINUOUS
 62
     7
 10
234.2415210504
 20
266.9340013791
 30
0.0
  0
SEQEND
  5
389
  8
0
  6
CONTINUOUS
 62
     7
  0
LINE
  5
59
  8
0
  6
CONTINUOUS
 62
     7
 10
234.2531812091
 20
266.9319927026
 30
0.0
 11
234.245802154
 21
266.9333040048
 31
0.0
  0
LINE
  5
5A
  8
0
  6
CONTINUOUS
 62
     7
 10
308.963843872
 20
261.6308092405
 30
0.0
 11
309.020486166
 21
261.6422354509
 31
0.0
  0
ARC
  5
5B
  8
0
  6
CONTINUOUS
 62
     7
 10
217.1407818
 20
181.477486228
 30
0.0
 40
81.7716742408972
 50
78.4979662252
 51
78.6267740599
  0
LINE
  5
5C
  8
0
  6
CONTINUOUS
 62
     7
 10
233.2606267829
 20
261.6445361901
 30
0.0
 11
233.2650926609
 21
261.6436480809
 31
0.0
  0
ARC
  5
5D
  8
0
  6
CONTINUOUS
 62
     7
 10
391.1471643694
 20
446.4870939059
 30
0.0
 40
183.3045473535724
 50
277.7930000842
 51
281.5888684784
  0
ARC
  5
5E
  8
0
  6
CONTINUOUS
 62
     7
 10
428.5150722571
 20
264.2849753096
 30
0.0
 40
2.69000000000002
 50
12.4186815058
 51
100.0467259554
  0
ARC
  5
5F
  8
0
  6
CONTINUOUS
 62
     7
 10
391.1588405261
 20
446.4192473876
 30
0.0
 40
188.6157426852533
 50
277.7922777727
 51
281.5895116938
  0
ARC
  5
60
  8
0
  6
CONTINUOUS
 62
     7
 10
428.5150722571
 20
264.2849753096
 30
0.0
 40
2.68999999999998
 50
281.5900201068
 51
12.4186815058
  0
ARC
  5
61
  8
0
  6
CONTINUOUS
 62
     7
 10
391.1662118388
 20
446.6091163247
 30
0.0
 40
188.8082539014343
 50
258.4125519674
 51
262.2057871943
  0
ARC
  5
62
  8
0
  6
CONTINUOUS
 62
     7
 10
353.7775589913
 20
264.2849753096
 30
0.0
 40
2.690000000000036
 50
167.5813184942
 51
258.4099798932
  0
ARC
  5
63
  8
0
  6
CONTINUOUS
 62
     7
 10
353.7775589913
 20
264.2849753096
 30
0.0
 40
2.690000000000036
 50
80.0567778886
 51
167.5813184942
  0
ARC
  5
64
  8
0
  6
CONTINUOUS
 62
     7
 10
391.1657412701
 20
446.6066492055
 30
0.0
 40
183.4257456873821
 50
258.4125297998
 51
262.2057935849
  0
ARC
  5
65
  8
0
  6
CONTINUOUS
 62
     7
 10
391.1463156242
 20
446.4924834636
 30
0.0
 40
188.69
 50
262.2069690737
 51
277.7930309263
  0
ARC
  5
66
  8
0
  6
CONTINUOUS
 62
     7
 10
391.1463156242
 20
446.4924834636
 30
0.0
 40
183.3100000000001
 50
262.2069690737
 51
277.7930309263
  0
LINE
  5
67
  8
0
  6
CONTINUOUS
 62
     7
 10
427.8463211555
 20
261.1444711019
 30
0.0
 11
428.8463202018
 21
261.1444711019
 31
0.0
  0
LINE
  5
68
  8
0
  6
CONTINUOUS
 62
     7
 10
427.8463211555
 20
261.4059209157
 30
0.0
 11
427.8463211555
 21
261.1444711019
 31
0.0
  0
LINE
  5
69
  8
0
  6
CONTINUOUS
 62
     7
 10
428.8463202018
 20
261.6154491235
 30
0.0
 11
428.8463202018
 21
261.1444711019
 31
0.0
  0
LINE
  5
6A
  8
0
  6
CONTINUOUS
 62
     7
 10
354.4463124771
 20
261.1444711019
 30
0.0
 11
353.4463134308
 21
261.1444711019
 31
0.0
  0
LINE
  5
6B
  8
0
  6
CONTINUOUS
 62
     7
 10
354.4463124771
 20
261.1444711019
 30
0.0
 11
354.4463124771
 21
256.6775261689
 31
0.0
  0
LINE
  5
6C
  8
0
  6
CONTINUOUS
 62
     7
 10
353.4463134308
 20
261.1444711019
 30
0.0
 11
353.4463134308
 21
256.6775261689
 31
0.0
  0
LINE
  5
6D
  8
0
  6
CONTINUOUS
 62
     7
 10
354.4463124771
 20
261.4059447576
 30
0.0
 11
354.4463124771
 21
261.1444711019
 31
0.0
  0
LINE
  5
6E
  8
0
  6
CONTINUOUS
 62
     7
 10
353.4463134308
 20
261.6154491235
 30
0.0
 11
353.4463134308
 21
261.1444711019
 31
0.0
  0
LINE
  5
6F
  8
0
  6
CONTINUOUS
 62
     7
 10
427.8463211555
 20
261.1444711019
 30
0.0
 11
427.8463211555
 21
256.6775261689
 31
0.0
  0
LINE
  5
70
  8
0
  6
CONTINUOUS
 62
     7
 10
428.8463202018
 20
261.1444711019
 30
0.0
 11
428.8463202018
 21
256.6775261689
 31
0.0
  0
LINE
  5
71
  8
0
  6
CONTINUOUS
 62
     7
 10
354.3179955978
 20
266.9201254178
 30
0.0
 11
354.3219175834
 21
266.9193207551
 31
0.0
  0
LINE
  5
72
  8
0
  6
CONTINUOUS
 62
     7
 10
427.9703941841
 20
266.91925519
 30
0.0
 11
427.9746380348
 21
266.9201254178
 31
0.0
  0
LINE
  5
73
  8
0
  6
CONTINUOUS
 62
     7
 10
354.4463124771
 20
256.6775261689
 30
0.0
 11
354.4463124771
 21
255.8239876558
 31
0.0
  0
LINE
  5
74
  8
0
  6
CONTINUOUS
 62
     7
 10
353.4463134308
 20
256.6775261689
 30
0.0
 11
353.4463134308
 21
255.8239876558
 31
0.0
  0
LINE
  5
75
  8
0
  6
CONTINUOUS
 62
     7
 10
427.8463211555
 20
256.6775261689
 30
0.0
 11
427.8463211555
 21
255.8239876558
 31
0.0
  0
LINE
  5
76
  8
0
  6
CONTINUOUS
 62
     7
 10
428.8463202018
 20
256.6775261689
 30
0.0
 11
428.8463202018
 21
255.8239876558
 31
0.0
  0
LINE
  5
77
  8
0
  6
CONTINUOUS
 62
     7
 10
354.4463124771
 20
255.8239876558
 30
0.0
 11
354.4463124771
 21
247.9695557882
 31
0.0
  0
LINE
  5
78
  8
0
  6
CONTINUOUS
 62
     7
 10
353.4463134308
 20
255.8239876558
 30
0.0
 11
353.4463134308
 21
247.9695557882
 31
0.0
  0
LINE
  5
79
  8
0
  6
CONTINUOUS
 62
     7
 10
427.8463211555
 20
255.8239876558
 30
0.0
 11
427.8463211555
 21
247.9695557882
 31
0.0
  0
LINE
  5
7A
  8
0
  6
CONTINUOUS
 62
     7
 10
428.8463202018
 20
255.8239876558
 30
0.0
 11
428.8463202018
 21
247.9695557882
 31
0.0
  0
LINE
  5
7B
  8
0
  6
CONTINUOUS
 62
     7
 10
354.4463124771
 20
247.9695557882
 30
0.0
 11
354.4463124771
 21
247.2044705678
 31
0.0
  0
LINE
  5
7C
  8
0
  6
CONTINUOUS
 62
     7
 10
353.4463134308
 20
247.9695557882
 30
0.0
 11
353.4463134308
 21
247.2044705678
 31
0.0
  0
LINE
  5
7D
  8
0
  6
CONTINUOUS
 62
     7
 10
427.8463211555
 20
245.2044724752
 30
0.0
 11
428.8463202018
 21
245.2044724752
 31
0.0
  0
LINE
  5
7E
  8
0
  6
CONTINUOUS
 62
     7
 10
427.8463211555
 20
247.2044705678
 30
0.0
 11
427.8463211555
 21
245.2044724752
 31
0.0
  0
LINE
  5
7F
  8
0
  6
CONTINUOUS
 62
     7
 10
428.8463202018
 20
247.2044705678
 30
0.0
 11
428.8463202018
 21
245.2044724752
 31
0.0
  0
LINE
  5
80
  8
0
  6
CONTINUOUS
 62
     7
 10
354.4463124771
 20
245.2044724752
 30
0.0
 11
353.4463134308
 21
245.2044724752
 31
0.0
  0
LINE
  5
81
  8
0
  6
CONTINUOUS
 62
     7
 10
354.4463124771
 20
247.2044705678
 30
0.0
 11
354.4463124771
 21
245.2044724752
 31
0.0
  0
LINE
  5
82
  8
0
  6
CONTINUOUS
 62
     7
 10
353.4463134308
 20
247.2044705678
 30
0.0
 11
353.4463134308
 21
245.2044724752
 31
0.0
  0
LINE
  5
83
  8
0
  6
CONTINUOUS
 62
     7
 10
427.8463211555
 20
247.9695557882
 30
0.0
 11
427.8463211555
 21
247.2044705678
 31
0.0
  0
LINE
  5
84
  8
0
  6
CONTINUOUS
 62
     7
 10
428.8463202018
 20
247.9695557882
 30
0.0
 11
428.8463202018
 21
247.2044705678
 31
0.0
  0
LINE
  5
85
  8
0
  6
CONTINUOUS
 62
     7
 10
427.8463211555
 20
249.0044712354
 30
0.0
 11
423.6463156242
 21
249.0044712354
 31
0.0
  0
LINE
  5
86
  8
0
  6
CONTINUOUS
 62
     7
 10
423.6463156242
 20
248.0044721891
 30
0.0
 11
423.6463156242
 21
249.0044712354
 31
0.0
  0
LINE
  5
87
  8
0
  6
CONTINUOUS
 62
     7
 10
358.6463180084
 20
249.0044712354
 30
0.0
 11
354.4463124771
 21
249.0044712354
 31
0.0
  0
LINE
  5
88
  8
0
  6
CONTINUOUS
 62
     7
 10
358.6463180084
 20
249.0044712354
 30
0.0
 11
358.6463180084
 21
248.0044721891
 31
0.0
  0
ARC
  5
89
  8
0
  6
CONTINUOUS
 62
     7
 10
431.6463156242
 20
241.0044721891
 30
0.0
 40
2.0
 50
270.0
 51
0.0
  0
LINE
  5
8A
  8
0
  6
CONTINUOUS
 62
     7
 10
431.6463079948
 20
239.0044748117
 30
0.0
 11
425.6463137169
 21
239.0044748117
 31
0.0
  0
ARC
  5
8B
  8
0
  6
CONTINUOUS
 62
     7
 10
425.6463156242
 20
241.0044721891
 30
0.0
 40
2.0
 50
180.0
 51
270.0
  0
LINE
  5
8C
  8
0
  6
CONTINUOUS
 62
     7
 10
423.6463156242
 20
248.0044721891
 30
0.0
 11
423.6463156242
 21
241.0044729043
 31
0.0
  0
CIRCLE
  5
8D
  8
0
  6
CONTINUOUS
 62
     7
 10
428.6463156242
 20
242.4044721891
 30
0.0
 40
0.9999999999999432
  0
LINE
  5
8E
  8
0
  6
CONTINUOUS
 62
     7
 10
433.6463060875
 20
241.0044729043
 30
0.0
 11
433.6463060875
 21
248.0044721891
 31
0.0
  0
LINE
  5
8F
  8
0
  6
CONTINUOUS
 62
     7
 10
433.6463060875
 20
249.0044712354
 30
0.0
 11
428.8463202018
 21
249.0044712354
 31
0.0
  0
LINE
  5
90
  8
0
  6
CONTINUOUS
 62
     7
 10
433.6463060875
 20
248.0044721891
 30
0.0
 11
433.6463060875
 21
249.0044712354
 31
0.0
  0
LINE
  5
91
  8
0
  6
CONTINUOUS
 62
     7
 10
353.4463134308
 20
249.0044712354
 30
0.0
 11
348.6463156242
 21
249.0044712354
 31
0.0
  0
LINE
  5
92
  8
0
  6
CONTINUOUS
 62
     7
 10
348.6463156242
 20
248.0044721891
 30
0.0
 11
348.6463156242
 21
249.0044712354
 31
0.0
  0
LINE
  5
93
  8
0
  6
CONTINUOUS
 62
     7
 10
358.6463180084
 20
241.0044729043
 30
0.0
 11
358.6463180084
 21
248.0044721891
 31
0.0
  0
ARC
  5
94
  8
0
  6
CONTINUOUS
 62
     7
 10
350.6463156242
 20
241.0044721891
 30
0.0
 40
2.000000000000057
 50
180.0
 51
270.0
  0
ARC
  5
95
  8
0
  6
CONTINUOUS
 62
     7
 10
356.6463156242
 20
241.0044721891
 30
0.0
 40
2.0
 50
270.0
 51
0.0
  0
LINE
  5
96
  8
0
  6
CONTINUOUS
 62
     7
 10
348.6463156242
 20
241.0044729043
 30
0.0
 11
348.6463156242
 21
248.0044721891
 31
0.0
  0
LINE
  5
97
  8
0
  6
CONTINUOUS
 62
     7
 10
356.6463199157
 20
239.0044748117
 30
0.0
 11
350.6463137169
 21
239.0044748117
 31
0.0
  0
CIRCLE
  5
98
  8
0
  6
CONTINUOUS
 62
     7
 10
353.6463156242
 20
242.4044721891
 30
0.0
 40
1.0
  0
ARC
  5
99
  8
0
  6
CONTINUOUS
 62
     7
 10
151.1462477166
 20
446.4928179228
 30
0.0
 40
183.3103411018066
 50
277.7930374791
 51
281.5887932061
  0
ARC
  5
9A
  8
0
  6
CONTINUOUS
 62
     7
 10
188.5150722571
 20
264.2849753096
 30
0.0
 40
2.690000000000036
 50
12.4186815058
 51
100.0467259554
  0
ARC
  5
9B
  8
0
  6
CONTINUOUS
 62
     7
 10
151.1593103044
 20
446.4164929488
 30
0.0
 40
188.6129499062689
 50
277.7922496498
 51
281.5895398168
  0
ARC
  5
9C
  8
0
  6
CONTINUOUS
 62
     7
 10
188.5150722571
 20
264.2849753096
 30
0.0
 40
2.690000000000036
 50
281.5900201068
 51
12.4186815058
  0
ARC
  5
9D
  8
0
  6
CONTINUOUS
 62
     7
 10
113.7775589913
 20
264.2849753096
 30
0.0
 40
2.690000000000016
 50
80.0567778886
 51
167.5813184942
  0
ARC
  5
9E
  8
0
  6
CONTINUOUS
 62
     7
 10
151.1664159823
 20
446.6106211804
 30
0.0
 40
183.4297729539051
 50
258.4125714562
 51
262.2057519284
  0
ARC
  5
9F
  8
0
  6
CONTINUOUS
 62
     7
 10
151.1657709098
 20
446.6064477886
 30
0.0
 40
188.8055507067389
 50
258.4125210951
 51
262.2058088669
  0
ARC
  5
A0
  8
0
  6
CONTINUOUS
 62
     7
 10
113.7775589913
 20
264.2849753096
 30
0.0
 40
2.690000000000008
 50
167.5813184942
 51
258.4099798932
  0
ARC
  5
A1
  8
0
  6
CONTINUOUS
 62
     7
 10
151.1463156242
 20
446.4924834636
 30
0.0
 40
188.69
 50
262.2069690737
 51
277.7930309263
  0
ARC
  5
A2
  8
0
  6
CONTINUOUS
 62
     7
 10
151.1463156242
 20
446.4924834636
 30
0.0
 40
183.3100000000001
 50
262.2069690737
 51
277.7930309263
  0
LINE
  5
A3
  8
0
  6
CONTINUOUS
 62
     7
 10
114.4463148613
 20
261.1444711019
 30
0.0
 11
113.4463158149
 21
261.1444711019
 31
0.0
  0
LINE
  5
A4
  8
0
  6
CONTINUOUS
 62
     7
 10
114.4463148613
 20
261.1444711019
 30
0.0
 11
114.4463148613
 21
256.6775261689
 31
0.0
  0
LINE
  5
A5
  8
0
  6
CONTINUOUS
 62
     7
 10
113.4463158149
 20
261.1444711019
 30
0.0
 11
113.4463158149
 21
256.6775261689
 31
0.0
  0
LINE
  5
A6
  8
0
  6
CONTINUOUS
 62
     7
 10
187.8463160891
 20
261.1444711019
 30
0.0
 11
188.8463151354
 21
261.1444711019
 31
0.0
  0
LINE
  5
A7
  8
0
  6
CONTINUOUS
 62
     7
 10
187.8463160891
 20
261.4059209157
 30
0.0
 11
187.8463160891
 21
261.1444711019
 31
0.0
  0
LINE
  5
A8
  8
0
  6
CONTINUOUS
 62
     7
 10
188.8463151354
 20
261.6154491235
 30
0.0
 11
188.8463151354
 21
261.1444711019
 31
0.0
  0
LINE
  5
A9
  8
0
  6
CONTINUOUS
 62
     7
 10
113.4463158149
 20
261.6154491235
 30
0.0
 11
113.4463158149
 21
261.1444711019
 31
0.0
  0
LINE
  5
AA
  8
0
  6
CONTINUOUS
 62
     7
 10
114.4463148613
 20
261.4059447576
 30
0.0
 11
114.4463148613
 21
261.1444711019
 31
0.0
  0
LINE
  5
AB
  8
0
  6
CONTINUOUS
 62
     7
 10
188.8463151354
 20
261.1444711019
 30
0.0
 11
188.8463151354
 21
256.6775261689
 31
0.0
  0
LINE
  5
AC
  8
0
  6
CONTINUOUS
 62
     7
 10
187.8463160891
 20
261.1444711019
 30
0.0
 11
187.8463160891
 21
256.6775261689
 31
0.0
  0
LINE
  5
AD
  8
0
  6
CONTINUOUS
 62
     7
 10
114.317997982
 20
266.9201254178
 30
0.0
 11
114.3219199676
 21
266.9193207551
 31
0.0
  0
LINE
  5
AE
  8
0
  6
CONTINUOUS
 62
     7
 10
187.9703980584
 20
266.91925519
 30
0.0
 11
187.9746314783
 21
266.9201254178
 31
0.0
  0
LINE
  5
AF
  8
0
  6
CONTINUOUS
 62
     7
 10
188.8463151354
 20
256.6775261689
 30
0.0
 11
188.8463151354
 21
255.8239876558
 31
0.0
  0
LINE
  5
B0
  8
0
  6
CONTINUOUS
 62
     7
 10
187.8463160891
 20
256.6775261689
 30
0.0
 11
187.8463160891
 21
255.8239876558
 31
0.0
  0
LINE
  5
B1
  8
0
  6
CONTINUOUS
 62
     7
 10
113.4463158149
 20
256.6775261689
 30
0.0
 11
113.4463158149
 21
255.8239876558
 31
0.0
  0
LINE
  5
B2
  8
0
  6
CONTINUOUS
 62
     7
 10
114.4463148613
 20
256.6775261689
 30
0.0
 11
114.4463148613
 21
255.8239876558
 31
0.0
  0
LINE
  5
B3
  8
0
  6
CONTINUOUS
 62
     7
 10
188.8463151354
 20
255.8239876558
 30
0.0
 11
188.8463151354
 21
247.9695557882
 31
0.0
  0
LINE
  5
B4
  8
0
  6
CONTINUOUS
 62
     7
 10
187.8463160891
 20
255.8239876558
 30
0.0
 11
187.8463160891
 21
247.9695557882
 31
0.0
  0
LINE
  5
B5
  8
0
  6
CONTINUOUS
 62
     7
 10
113.4463158149
 20
255.8239876558
 30
0.0
 11
113.4463158149
 21
247.9695557882
 31
0.0
  0
LINE
  5
B6
  8
0
  6
CONTINUOUS
 62
     7
 10
114.4463148613
 20
255.8239876558
 30
0.0
 11
114.4463148613
 21
247.9695557882
 31
0.0
  0
LINE
  5
B7
  8
0
  6
CONTINUOUS
 62
     7
 10
113.4463158149
 20
247.9695557882
 30
0.0
 11
113.4463158149
 21
247.2044705678
 31
0.0
  0
LINE
  5
B8
  8
0
  6
CONTINUOUS
 62
     7
 10
114.4463148613
 20
247.9695557882
 30
0.0
 11
114.4463148613
 21
247.2044705678
 31
0.0
  0
LINE
  5
B9
  8
0
  6
CONTINUOUS
 62
     7
 10
188.8463151354
 20
247.9695557882
 30
0.0
 11
188.8463151354
 21
247.2044705678
 31
0.0
  0
LINE
  5
BA
  8
0
  6
CONTINUOUS
 62
     7
 10
187.8463160891
 20
247.9695557882
 30
0.0
 11
187.8463160891
 21
247.2044705678
 31
0.0
  0
LINE
  5
BB
  8
0
  6
CONTINUOUS
 62
     7
 10
114.4463148613
 20
245.2044724752
 30
0.0
 11
113.4463158149
 21
245.2044724752
 31
0.0
  0
LINE
  5
BC
  8
0
  6
CONTINUOUS
 62
     7
 10
113.4463158149
 20
247.2044705678
 30
0.0
 11
113.4463158149
 21
245.2044724752
 31
0.0
  0
LINE
  5
BD
  8
0
  6
CONTINUOUS
 62
     7
 10
114.4463148613
 20
247.2044705678
 30
0.0
 11
114.4463148613
 21
245.2044724752
 31
0.0
  0
LINE
  5
BE
  8
0
  6
CONTINUOUS
 62
     7
 10
187.8463160891
 20
245.2044724752
 30
0.0
 11
188.8463151354
 21
245.2044724752
 31
0.0
  0
LINE
  5
BF
  8
0
  6
CONTINUOUS
 62
     7
 10
188.8463151354
 20
247.2044705678
 30
0.0
 11
188.8463151354
 21
245.2044724752
 31
0.0
  0
LINE
  5
C0
  8
0
  6
CONTINUOUS
 62
     7
 10
187.8463160891
 20
247.2044705678
 30
0.0
 11
187.8463160891
 21
245.2044724752
 31
0.0
  0
LINE
  5
C1
  8
0
  6
CONTINUOUS
 62
     7
 10
187.8463160891
 20
249.0044712354
 30
0.0
 11
183.6463150282
 21
249.0044712354
 31
0.0
  0
LINE
  5
C2
  8
0
  6
CONTINUOUS
 62
     7
 10
183.6463150282
 20
248.0044721891
 30
0.0
 11
183.6463150282
 21
249.0044712354
 31
0.0
  0
LINE
  5
C3
  8
0
  6
CONTINUOUS
 62
     7
 10
108.6463180084
 20
248.0044721891
 30
0.0
 11
108.6463180084
 21
249.0044712354
 31
0.0
  0
LINE
  5
C4
  8
0
  6
CONTINUOUS
 62
     7
 10
113.4463158149
 20
249.0044712354
 30
0.0
 11
108.6463180084
 21
249.0044712354
 31
0.0
  0
LINE
  5
C5
  8
0
  6
CONTINUOUS
 62
     7
 10
118.6463144321
 20
241.0044729043
 30
0.0
 11
118.6463144321
 21
248.0044721891
 31
0.0
  0
ARC
  5
C6
  8
0
  6
CONTINUOUS
 62
     7
 10
116.6463156242
 20
241.0044721891
 30
0.0
 40
2.0
 50
270.0
 51
0.0
  0
LINE
  5
C7
  8
0
  6
CONTINUOUS
 62
     7
 10
116.6463163395
 20
239.0044748117
 30
0.0
 11
110.646316101
 21
239.0044748117
 31
0.0
  0
ARC
  5
C8
  8
0
  6
CONTINUOUS
 62
     7
 10
110.6463156242
 20
241.0044721891
 30
0.0
 40
2.0
 50
180.0
 51
270.0
  0
LINE
  5
C9
  8
0
  6
CONTINUOUS
 62
     7
 10
108.6463180084
 20
241.0044729043
 30
0.0
 11
108.6463180084
 21
248.0044721891
 31
0.0
  0
CIRCLE
  5
CA
  8
0
  6
CONTINUOUS
 62
     7
 10
113.6463156242
 20
242.4044721891
 30
0.0
 40
1.0
  0
LINE
  5
CB
  8
0
  6
CONTINUOUS
 62
     7
 10
193.6463159222
 20
248.0044721891
 30
0.0
 11
193.6463159222
 21
249.0044712354
 31
0.0
  0
LINE
  5
CC
  8
0
  6
CONTINUOUS
 62
     7
 10
193.6463159222
 20
249.0044712354
 30
0.0
 11
188.8463151354
 21
249.0044712354
 31
0.0
  0
LINE
  5
CD
  8
0
  6
CONTINUOUS
 62
     7
 10
193.6463159222
 20
241.0044729043
 30
0.0
 11
193.6463159222
 21
248.0044721891
 31
0.0
  0
ARC
  5
CE
  8
0
  6
CONTINUOUS
 62
     7
 10
191.6463156242
 20
241.0044721891
 30
0.0
 40
2.0
 50
270.0
 51
0.0
  0
LINE
  5
CF
  8
0
  6
CONTINUOUS
 62
     7
 10
191.6463163395
 20
239.0044748117
 30
0.0
 11
185.646316101
 21
239.0044748117
 31
0.0
  0
ARC
  5
D0
  8
0
  6
CONTINUOUS
 62
     7
 10
185.6463156242
 20
241.0044721891
 30
0.0
 40
2.0
 50
180.0
 51
270.0
  0
LINE
  5
D1
  8
0
  6
CONTINUOUS
 62
     7
 10
183.6463150282
 20
248.0044721891
 30
0.0
 11
183.6463150282
 21
241.0044729043
 31
0.0
  0
CIRCLE
  5
D2
  8
0
  6
CONTINUOUS
 62
     7
 10
188.6463156242
 20
242.4044721891
 30
0.0
 40
1.000000000000028
  0
LINE
  5
D3
  8
0
  6
CONTINUOUS
 62
     7
 10
118.6463144321
 20
249.0044712354
 30
0.0
 11
114.4463148613
 21
249.0044712354
 31
0.0
  0
LINE
  5
D4
  8
0
  6
CONTINUOUS
 62
     7
 10
118.6463144321
 20
249.0044712354
 30
0.0
 11
118.6463144321
 21
248.0044721891
 31
0.0
  0
ARC
  5
D5
  8
0
  6
CONTINUOUS
 62
     7
 10
31.1600403311
 20
446.412207555
 30
0.0
 40
188.6086048624643
 50
277.792205894
 51
281.5895835726
  0
ARC
  5
D6
  8
0
  6
CONTINUOUS
 62
     7
 10
68.5150722571
 20
264.2849753096
 30
0.0
 40
2.690000000000008
 50
281.5900201068
 51
12.4186815058
  0
ARC
  5
D7
  8
0
  6
CONTINUOUS
 62
     7
 10
31.1468095792
 20
446.4895172794
 30
0.0
 40
183.3069945137397
 50
277.7930028174
 51
281.5888278678
  0
ARC
  5
D8
  8
0
  6
CONTINUOUS
 62
     7
 10
68.5150722571
 20
264.2849753096
 30
0.0
 40
2.69000000000001
 50
12.4186815058
 51
100.0467259554
  0
ARC
  5
D9
  8
0
  6
CONTINUOUS
 62
     7
 10
-6.2224410087
 20
264.2849753096
 30
0.0
 40
2.69000000000002
 50
80.0567778886
 51
167.5813184942
  0
ARC
  5
DA
  8
0
  6
CONTINUOUS
 62
     7
 10
31.1659913036
 20
446.6079822398
 30
0.0
 40
183.4271022549101
 50
258.4125361985
 51
262.2057682471
  0
ARC
  5
DB
  8
0
  6
CONTINUOUS
 62
     7
 10
31.1652879705
 20
446.6037202208
 30
0.0
 40
188.8027826818149
 50
258.4124969862
 51
262.2058421755
  0
ARC
  5
DC
  8
0
  6
CONTINUOUS
 62
     7
 10
-6.2224410087
 20
264.2849753096
 30
0.0
 40
2.690000000000011
 50
167.5813184942
 51
258.4099798932
  0
ARC
  5
DD
  8
0
  6
CONTINUOUS
 62
     7
 10
31.1463156242
 20
446.4924834636
 30
0.0
 40
188.69
 50
262.2069690737
 51
277.7930309263
  0
ARC
  5
DE
  8
0
  6
CONTINUOUS
 62
     7
 10
31.1463156242
 20
446.4924834636
 30
0.0
 40
183.3100000000001
 50
262.2069690737
 51
277.7930309263
  0
LINE
  5
DF
  8
0
  6
CONTINUOUS
 62
     7
 10
67.8463187713
 20
261.1444711019
 30
0.0
 11
67.8463187713
 21
256.6775261689
 31
0.0
  0
LINE
  5
E0
  8
0
  6
CONTINUOUS
 62
     7
 10
67.8463187713
 20
261.1444711019
 30
0.0
 11
68.8463178177
 21
261.1444711019
 31
0.0
  0
LINE
  5
E1
  8
0
  6
CONTINUOUS
 62
     7
 10
68.8463178177
 20
261.1444711019
 30
0.0
 11
68.8463178177
 21
256.6775261689
 31
0.0
  0
LINE
  5
E2
  8
0
  6
CONTINUOUS
 62
     7
 10
-5.5536899071
 20
261.1444711019
 30
0.0
 11
-6.5536889534
 21
261.1444711019
 31
0.0
  0
LINE
  5
E3
  8
0
  6
CONTINUOUS
 62
     7
 10
-6.5536889534
 20
261.1444711019
 30
0.0
 11
-6.5536889534
 21
256.6775261689
 31
0.0
  0
LINE
  5
E4
  8
0
  6
CONTINUOUS
 62
     7
 10
-5.5536899071
 20
261.1444711019
 30
0.0
 11
-5.5536899071
 21
256.6775261689
 31
0.0
  0
LINE
  5
E5
  8
0
  6
CONTINUOUS
 62
     7
 10
68.8463178177
 20
261.6154491235
 30
0.0
 11
68.8463178177
 21
261.1444711019
 31
0.0
  0
LINE
  5
E6
  8
0
  6
CONTINUOUS
 62
     7
 10
67.8463187713
 20
261.4059209157
 30
0.0
 11
67.8463187713
 21
261.1444711019
 31
0.0
  0
LINE
  5
E7
  8
0
  6
CONTINUOUS
 62
     7
 10
-6.5536889534
 20
261.6154491235
 30
0.0
 11
-6.5536889534
 21
261.1444711019
 31
0.0
  0
LINE
  5
E8
  8
0
  6
CONTINUOUS
 62
     7
 10
-5.5536899071
 20
261.4059447576
 30
0.0
 11
-5.5536899071
 21
261.1444711019
 31
0.0
  0
LINE
  5
E9
  8
0
  6
CONTINUOUS
 62
     7
 10
-5.6820067864
 20
266.9201254178
 30
0.0
 11
-5.6780728798
 21
266.9193207551
 31
0.0
  0
LINE
  5
EA
  8
0
  6
CONTINUOUS
 62
     7
 10
67.9704037208
 20
266.91925519
 30
0.0
 11
67.9746356506
 21
266.9201254178
 31
0.0
  0
LINE
  5
EB
  8
0
  6
CONTINUOUS
 62
     7
 10
-6.5536889534
 20
256.6775261689
 30
0.0
 11
-6.5536889534
 21
255.8239876558
 31
0.0
  0
LINE
  5
EC
  8
0
  6
CONTINUOUS
 62
     7
 10
-5.5536899071
 20
256.6775261689
 30
0.0
 11
-5.5536899071
 21
255.8239876558
 31
0.0
  0
LINE
  5
ED
  8
0
  6
CONTINUOUS
 62
     7
 10
68.8463178177
 20
256.6775261689
 30
0.0
 11
68.8463178177
 21
255.8239876558
 31
0.0
  0
LINE
  5
EE
  8
0
  6
CONTINUOUS
 62
     7
 10
67.8463187713
 20
256.6775261689
 30
0.0
 11
67.8463187713
 21
255.8239876558
 31
0.0
  0
LINE
  5
EF
  8
0
  6
CONTINUOUS
 62
     7
 10
68.8463178177
 20
255.8239876558
 30
0.0
 11
68.8463178177
 21
247.9695557882
 31
0.0
  0
LINE
  5
F0
  8
0
  6
CONTINUOUS
 62
     7
 10
67.8463187713
 20
255.8239876558
 30
0.0
 11
67.8463187713
 21
247.9695557882
 31
0.0
  0
LINE
  5
F1
  8
0
  6
CONTINUOUS
 62
     7
 10
-6.5536889534
 20
255.8239876558
 30
0.0
 11
-6.5536889534
 21
247.9695557882
 31
0.0
  0
LINE
  5
F2
  8
0
  6
CONTINUOUS
 62
     7
 10
-5.5536899071
 20
255.8239876558
 30
0.0
 11
-5.5536899071
 21
247.9695557882
 31
0.0
  0
LINE
  5
F3
  8
0
  6
CONTINUOUS
 62
     7
 10
68.8463178177
 20
247.9695557882
 30
0.0
 11
68.8463178177
 21
247.2044705678
 31
0.0
  0
LINE
  5
F4
  8
0
  6
CONTINUOUS
 62
     7
 10
67.8463187713
 20
247.9695557882
 30
0.0
 11
67.8463187713
 21
247.2044705678
 31
0.0
  0
LINE
  5
F5
  8
0
  6
CONTINUOUS
 62
     7
 10
-5.5536899071
 20
245.2044724752
 30
0.0
 11
-6.5536889534
 21
245.2044724752
 31
0.0
  0
LINE
  5
F6
  8
0
  6
CONTINUOUS
 62
     7
 10
-6.5536889534
 20
247.2044705678
 30
0.0
 11
-6.5536889534
 21
245.2044724752
 31
0.0
  0
LINE
  5
F7
  8
0
  6
CONTINUOUS
 62
     7
 10
-5.5536899071
 20
247.2044705678
 30
0.0
 11
-5.5536899071
 21
245.2044724752
 31
0.0
  0
LINE
  5
F8
  8
0
  6
CONTINUOUS
 62
     7
 10
-6.5536889534
 20
247.9695557882
 30
0.0
 11
-6.5536889534
 21
247.2044705678
 31
0.0
  0
LINE
  5
F9
  8
0
  6
CONTINUOUS
 62
     7
 10
-5.5536899071
 20
247.9695557882
 30
0.0
 11
-5.5536899071
 21
247.2044705678
 31
0.0
  0
LINE
  5
FA
  8
0
  6
CONTINUOUS
 62
     7
 10
67.8463187713
 20
245.2044724752
 30
0.0
 11
68.8463178177
 21
245.2044724752
 31
0.0
  0
LINE
  5
FB
  8
0
  6
CONTINUOUS
 62
     7
 10
68.8463178177
 20
247.2044705678
 30
0.0
 11
68.8463178177
 21
245.2044724752
 31
0.0
  0
LINE
  5
FC
  8
0
  6
CONTINUOUS
 62
     7
 10
67.8463187713
 20
247.2044705678
 30
0.0
 11
67.8463187713
 21
245.2044724752
 31
0.0
  0
LINE
  5
FD
  8
0
  6
CONTINUOUS
 62
     7
 10
73.6463156242
 20
241.0044729043
 30
0.0
 11
73.6463156242
 21
248.0044721891
 31
0.0
  0
ARC
  5
FE
  8
0
  6
CONTINUOUS
 62
     7
 10
71.6463156242
 20
241.0044721891
 30
0.0
 40
2.0
 50
270.0
 51
0.0
  0
LINE
  5
FF
  8
0
  6
CONTINUOUS
 62
     7
 10
71.6463175316
 20
239.0044748117
 30
0.0
 11
65.6463113327
 21
239.0044748117
 31
0.0
  0
ARC
  5
100
  8
0
  6
CONTINUOUS
 62
     7
 10
65.6463156242
 20
241.0044721891
 30
0.0
 40
2.000000000000007
 50
180.0
 51
270.0
  0
LINE
  5
101
  8
0
  6
CONTINUOUS
 62
     7
 10
63.64631324
 20
248.0044721891
 30
0.0
 11
63.64631324
 21
241.0044729043
 31
0.0
  0
CIRCLE
  5
102
  8
0
  6
CONTINUOUS
 62
     7
 10
68.6463156242
 20
242.4044721891
 30
0.0
 40
1.0
  0
LINE
  5
103
  8
0
  6
CONTINUOUS
 62
     7
 10
-11.3536748391
 20
248.0044721891
 30
0.0
 11
-11.3536748391
 21
249.0044712354
 31
0.0
  0
LINE
  5
104
  8
0
  6
CONTINUOUS
 62
     7
 10
-6.5536889534
 20
249.0044712354
 30
0.0
 11
-11.3536748391
 21
249.0044712354
 31
0.0
  0
LINE
  5
105
  8
0
  6
CONTINUOUS
 62
     7
 10
-1.3536843758
 20
241.0044729043
 30
0.0
 11
-1.3536843758
 21
248.0044721891
 31
0.0
  0
ARC
  5
106
  8
0
  6
CONTINUOUS
 62
     7
 10
-9.3536843758
 20
241.0044721891
 30
0.0
 40
2.000000000000002
 50
180.0
 51
270.0
  0
LINE
  5
107
  8
0
  6
CONTINUOUS
 62
     7
 10
-11.3536748391
 20
241.0044729043
 30
0.0
 11
-11.3536748391
 21
248.0044721891
 31
0.0
  0
CIRCLE
  5
108
  8
0
  6
CONTINUOUS
 62
     7
 10
-6.3536843758
 20
242.4044721891
 30
0.0
 40
1.000000000000001
  0
ARC
  5
109
  8
0
  6
CONTINUOUS
 62
     7
 10
-3.3536843758
 20
241.0044721891
 30
0.0
 40
2.000000000000002
 50
270.0
 51
0.0
  0
LINE
  5
10A
  8
0
  6
CONTINUOUS
 62
     7
 10
-3.3536824684
 20
239.0044748117
 30
0.0
 11
-9.3536767464
 21
239.0044748117
 31
0.0
  0
LINE
  5
10B
  8
0
  6
CONTINUOUS
 62
     7
 10
67.8463187713
 20
249.0044712354
 30
0.0
 11
63.64631324
 21
249.0044712354
 31
0.0
  0
LINE
  5
10C
  8
0
  6
CONTINUOUS
 62
     7
 10
63.64631324
 20
248.0044721891
 30
0.0
 11
63.64631324
 21
249.0044712354
 31
0.0
  0
LINE
  5
10D
  8
0
  6
CONTINUOUS
 62
     7
 10
-1.3536843758
 20
249.0044712354
 30
0.0
 11
-5.5536899071
 21
249.0044712354
 31
0.0
  0
LINE
  5
10E
  8
0
  6
CONTINUOUS
 62
     7
 10
-1.3536843758
 20
249.0044712354
 30
0.0
 11
-1.3536843758
 21
248.0044721891
 31
0.0
  0
LINE
  5
10F
  8
0
  6
CONTINUOUS
 62
     7
 10
73.6463156242
 20
248.0044721891
 30
0.0
 11
73.6463156242
 21
249.0044712354
 31
0.0
  0
LINE
  5
110
  8
0
  6
CONTINUOUS
 62
     7
 10
73.6463156242
 20
249.0044712354
 30
0.0
 11
68.8463178177
 21
249.0044712354
 31
0.0
  0
ARC
  5
111
  8
0
  6
CONTINUOUS
 62
     7
 10
271.1587594933
 20
446.4197288838
 30
0.0
 40
188.6162308835416
 50
277.7922826888
 51
281.5895067778
  0
ARC
  5
112
  8
0
  6
CONTINUOUS
 62
     7
 10
308.5150722571
 20
264.2849753096
 30
0.0
 40
2.68999999999998
 50
281.5900201068
 51
12.4186815058
  0
ARC
  5
113
  8
0
  6
CONTINUOUS
 62
     7
 10
271.1461405784
 20
446.4934557768
 30
0.0
 40
183.3109878346712
 50
277.7930441774
 51
281.5887865078
  0
ARC
  5
114
  8
0
  6
CONTINUOUS
 62
     7
 10
308.5150722571
 20
264.2849753096
 30
0.0
 40
2.69000000000001
 50
12.4186815058
 51
100.0467259554
  0
ARC
  5
115
  8
0
  6
CONTINUOUS
 62
     7
 10
271.1655634218
 20
446.6052222928
 30
0.0
 40
188.8043081515757
 50
258.4125086084
 51
262.2058213536
  0
ARC
  5
116
  8
0
  6
CONTINUOUS
 62
     7
 10
233.7775589913
 20
264.2849753096
 30
0.0
 40
2.690000000000008
 50
167.5813184942
 51
258.4099798932
  0
ARC
  5
117
  8
0
  6
CONTINUOUS
 62
     7
 10
233.7775589913
 20
264.2849753096
 30
0.0
 40
2.690000000000014
 50
80.0567778886
 51
167.5813184942
  0
ARC
  5
118
  8
0
  6
CONTINUOUS
 62
     7
 10
271.1657537208
 20
446.6067057242
 30
0.0
 40
183.4258036149521
 50
258.4125294448
 51
262.2057915725
  0
ARC
  5
119
  8
0
  6
CONTINUOUS
 62
     7
 10
271.1463156242
 20
446.4924834636
 30
0.0
 40
183.3100000000001
 50
262.2069690737
 51
277.7930309263
  0
ARC
  5
11A
  8
0
  6
CONTINUOUS
 62
     7
 10
271.1463156242
 20
446.4924834636
 30
0.0
 40
188.69
 50
262.2069690737
 51
277.7930309263
  0
LINE
  5
11B
  8
0
  6
CONTINUOUS
 62
     7
 10
307.8463163871
 20
261.1444711019
 30
0.0
 11
308.8463154335
 21
261.1444711019
 31
0.0
  0
LINE
  5
11C
  8
0
  6
CONTINUOUS
 62
     7
 10
307.8463163871
 20
261.4059209157
 30
0.0
 11
307.8463163871
 21
261.1444711019
 31
0.0
  0
LINE
  5
11D
  8
0
  6
CONTINUOUS
 62
     7
 10
308.8463154335
 20
261.6154491235
 30
0.0
 11
308.8463154335
 21
261.1444711019
 31
0.0
  0
LINE
  5
11E
  8
0
  6
CONTINUOUS
 62
     7
 10
234.4463151593
 20
261.4059447576
 30
0.0
 11
234.4463151593
 21
261.1444711019
 31
0.0
  0
LINE
  5
11F
  8
0
  6
CONTINUOUS
 62
     7
 10
234.4463151593
 20
261.1444711019
 30
0.0
 11
233.446316113
 21
261.1444711019
 31
0.0
  0
LINE
  5
120
  8
0
  6
CONTINUOUS
 62
     7
 10
233.446316113
 20
261.6154491235
 30
0.0
 11
233.446316113
 21
261.1444711019
 31
0.0
  0
LINE
  5
121
  8
0
  6
CONTINUOUS
 62
     7
 10
234.4463151593
 20
261.1444711019
 30
0.0
 11
234.4463151593
 21
256.6775261689
 31
0.0
  0
LINE
  5
122
  8
0
  6
CONTINUOUS
 62
     7
 10
233.446316113
 20
261.1444711019
 30
0.0
 11
233.446316113
 21
256.6775261689
 31
0.0
  0
LINE
  5
123
  8
0
  6
CONTINUOUS
 62
     7
 10
308.8463154335
 20
261.1444711019
 30
0.0
 11
308.8463154335
 21
256.6775261689
 31
0.0
  0
LINE
  5
124
  8
0
  6
CONTINUOUS
 62
     7
 10
307.8463163871
 20
261.1444711019
 30
0.0
 11
307.8463163871
 21
256.6775261689
 31
0.0
  0
LINE
  5
125
  8
0
  6
CONTINUOUS
 62
     7
 10
234.3179997701
 20
266.9201254178
 30
0.0
 11
234.3219217558
 21
266.9193207551
 31
0.0
  0
LINE
  5
126
  8
0
  6
CONTINUOUS
 62
     7
 10
307.9704013366
 20
266.91925519
 30
0.0
 11
307.9746332664
 21
266.9201254178
 31
0.0
  0
LINE
  5
127
  8
0
  6
CONTINUOUS
 62
     7
 10
234.4463151593
 20
256.6775261689
 30
0.0
 11
234.4463151593
 21
255.8239876558
 31
0.0
  0
LINE
  5
128
  8
0
  6
CONTINUOUS
 62
     7
 10
233.446316113
 20
256.6775261689
 30
0.0
 11
233.446316113
 21
255.8239876558
 31
0.0
  0
LINE
  5
129
  8
0
  6
CONTINUOUS
 62
     7
 10
308.8463154335
 20
256.6775261689
 30
0.0
 11
308.8463154335
 21
255.8239876558
 31
0.0
  0
LINE
  5
12A
  8
0
  6
CONTINUOUS
 62
     7
 10
307.8463163871
 20
256.6775261689
 30
0.0
 11
307.8463163871
 21
255.8239876558
 31
0.0
  0
LINE
  5
12B
  8
0
  6
CONTINUOUS
 62
     7
 10
234.4463151593
 20
255.8239876558
 30
0.0
 11
234.4463151593
 21
247.9695557882
 31
0.0
  0
LINE
  5
12C
  8
0
  6
CONTINUOUS
 62
     7
 10
233.446316113
 20
255.8239876558
 30
0.0
 11
233.446316113
 21
247.9695557882
 31
0.0
  0
LINE
  5
12D
  8
0
  6
CONTINUOUS
 62
     7
 10
308.8463154335
 20
255.8239876558
 30
0.0
 11
308.8463154335
 21
247.9695557882
 31
0.0
  0
LINE
  5
12E
  8
0
  6
CONTINUOUS
 62
     7
 10
307.8463163871
 20
255.8239876558
 30
0.0
 11
307.8463163871
 21
247.9695557882
 31
0.0
  0
LINE
  5
12F
  8
0
  6
CONTINUOUS
 62
     7
 10
234.4463151593
 20
247.9695557882
 30
0.0
 11
234.4463151593
 21
247.2044705678
 31
0.0
  0
LINE
  5
130
  8
0
  6
CONTINUOUS
 62
     7
 10
233.446316113
 20
247.9695557882
 30
0.0
 11
233.446316113
 21
247.2044705678
 31
0.0
  0
LINE
  5
131
  8
0
  6
CONTINUOUS
 62
     7
 10
307.8463163871
 20
245.2044724752
 30
0.0
 11
308.8463154335
 21
245.2044724752
 31
0.0
  0
LINE
  5
132
  8
0
  6
CONTINUOUS
 62
     7
 10
308.8463154335
 20
247.2044705678
 30
0.0
 11
308.8463154335
 21
245.2044724752
 31
0.0
  0
LINE
  5
133
  8
0
  6
CONTINUOUS
 62
     7
 10
307.8463163871
 20
247.2044705678
 30
0.0
 11
307.8463163871
 21
245.2044724752
 31
0.0
  0
LINE
  5
134
  8
0
  6
CONTINUOUS
 62
     7
 10
308.8463154335
 20
247.9695557882
 30
0.0
 11
308.8463154335
 21
247.2044705678
 31
0.0
  0
LINE
  5
135
  8
0
  6
CONTINUOUS
 62
     7
 10
307.8463163871
 20
247.9695557882
 30
0.0
 11
307.8463163871
 21
247.2044705678
 31
0.0
  0
LINE
  5
136
  8
0
  6
CONTINUOUS
 62
     7
 10
234.4463151593
 20
245.2044724752
 30
0.0
 11
233.446316113
 21
245.2044724752
 31
0.0
  0
LINE
  5
137
  8
0
  6
CONTINUOUS
 62
     7
 10
234.4463151593
 20
247.2044705678
 30
0.0
 11
234.4463151593
 21
245.2044724752
 31
0.0
  0
LINE
  5
138
  8
0
  6
CONTINUOUS
 62
     7
 10
233.446316113
 20
247.2044705678
 30
0.0
 11
233.446316113
 21
245.2044724752
 31
0.0
  0
LINE
  5
139
  8
0
  6
CONTINUOUS
 62
     7
 10
313.64631324
 20
241.0044729043
 30
0.0
 11
313.64631324
 21
248.0044721891
 31
0.0
  0
ARC
  5
13A
  8
0
  6
CONTINUOUS
 62
     7
 10
305.6463156242
 20
241.0044721891
 30
0.0
 40
2.0
 50
180.0
 51
270.0
  0
LINE
  5
13B
  8
0
  6
CONTINUOUS
 62
     7
 10
303.6463168163
 20
248.0044721891
 30
0.0
 11
303.6463168163
 21
241.0044729043
 31
0.0
  0
CIRCLE
  5
13C
  8
0
  6
CONTINUOUS
 62
     7
 10
308.6463156242
 20
242.4044721891
 30
0.0
 40
1.000000000000057
  0
LINE
  5
13D
  8
0
  6
CONTINUOUS
 62
     7
 10
311.6463151474
 20
239.0044748117
 30
0.0
 11
305.6463149089
 21
239.0044748117
 31
0.0
  0
ARC
  5
13E
  8
0
  6
CONTINUOUS
 62
     7
 10
311.6463156242
 20
241.0044721891
 30
0.0
 40
2.0
 50
270.0
 51
0.0
  0
LINE
  5
13F
  8
0
  6
CONTINUOUS
 62
     7
 10
228.6463153262
 20
248.0044721891
 30
0.0
 11
228.6463153262
 21
249.0044712354
 31
0.0
  0
LINE
  5
140
  8
0
  6
CONTINUOUS
 62
     7
 10
233.446316113
 20
249.0044712354
 30
0.0
 11
228.6463153262
 21
249.0044712354
 31
0.0
  0
LINE
  5
141
  8
0
  6
CONTINUOUS
 62
     7
 10
238.6463162202
 20
241.0044729043
 30
0.0
 11
238.6463162202
 21
248.0044721891
 31
0.0
  0
ARC
  5
142
  8
0
  6
CONTINUOUS
 62
     7
 10
236.6463156242
 20
241.0044721891
 30
0.0
 40
2.0
 50
270.0
 51
0.0
  0
ARC
  5
143
  8
0
  6
CONTINUOUS
 62
     7
 10
230.6463156242
 20
241.0044721891
 30
0.0
 40
2.0
 50
180.0
 51
270.0
  0
LINE
  5
144
  8
0
  6
CONTINUOUS
 62
     7
 10
228.6463153262
 20
241.0044729043
 30
0.0
 11
228.6463153262
 21
248.0044721891
 31
0.0
  0
CIRCLE
  5
145
  8
0
  6
CONTINUOUS
 62
     7
 10
233.6463156242
 20
242.4044721891
 30
0.0
 40
1.0
  0
LINE
  5
146
  8
0
  6
CONTINUOUS
 62
     7
 10
236.6463151474
 20
239.0044748117
 30
0.0
 11
230.6463149089
 21
239.0044748117
 31
0.0
  0
LINE
  5
147
  8
0
  6
CONTINUOUS
 62
     7
 10
238.6463162202
 20
249.0044712354
 30
0.0
 11
234.4463151593
 21
249.0044712354
 31
0.0
  0
LINE
  5
148
  8
0
  6
CONTINUOUS
 62
     7
 10
238.6463162202
 20
249.0044712354
 30
0.0
 11
238.6463162202
 21
248.0044721891
 31
0.0
  0
LINE
  5
149
  8
0
  6
CONTINUOUS
 62
     7
 10
307.8463163871
 20
249.0044712354
 30
0.0
 11
303.6463168163
 21
249.0044712354
 31
0.0
  0
LINE
  5
14A
  8
0
  6
CONTINUOUS
 62
     7
 10
303.6463168163
 20
248.0044721891
 30
0.0
 11
303.6463168163
 21
249.0044712354
 31
0.0
  0
LINE
  5
14B
  8
0
  6
CONTINUOUS
 62
     7
 10
313.64631324
 20
249.0044712354
 30
0.0
 11
308.8463154335
 21
249.0044712354
 31
0.0
  0
LINE
  5
14C
  8
0
  6
CONTINUOUS
 62
     7
 10
313.64631324
 20
248.0044721891
 30
0.0
 11
313.64631324
 21
249.0044712354
 31
0.0
  0
LINE
  5
14D
  8
0
  6
CONTINUOUS
 62
     7
 10
27.7320352096
 20
173.0044721891
 30
0.0
 11
23.9733901519
 21
173.0044721891
 31
0.0
  0
LINE
  5
14E
  8
0
  6
CONTINUOUS
 62
     7
 10
23.9733901519
 20
174.2044721995
 30
0.0
 11
27.7320352096
 21
174.2044721995
 31
0.0
  0
LINE
  5
14F
  8
0
  6
CONTINUOUS
 62
     7
 10
38.3192506332
 20
173.0044721891
 30
0.0
 11
34.5606055755
 21
173.0044721891
 31
0.0
  0
LINE
  5
150
  8
0
  6
CONTINUOUS
 62
     7
 10
34.5606055755
 20
174.2044721995
 30
0.0
 11
38.3192506332
 21
174.2044721995
 31
0.0
  0
LINE
  5
151
  8
0
  6
CONTINUOUS
 62
     7
 10
27.7320352096
 20
173.0044721891
 30
0.0
 11
34.5606055755
 21
173.0044721891
 31
0.0
  0
LINE
  5
152
  8
0
  6
CONTINUOUS
 62
     7
 10
27.7320352096
 20
174.2044721995
 30
0.0
 11
34.5606055755
 21
174.2044721995
 31
0.0
  0
LINE
  5
153
  8
0
  6
CONTINUOUS
 62
     7
 10
387.7320256729
 20
173.0044721891
 30
0.0
 11
383.9733806152
 21
173.0044721891
 31
0.0
  0
LINE
  5
154
  8
0
  6
CONTINUOUS
 62
     7
 10
383.9733806152
 20
174.2044721995
 30
0.0
 11
387.7320256729
 21
174.2044721995
 31
0.0
  0
LINE
  5
155
  8
0
  6
CONTINUOUS
 62
     7
 10
398.3192410965
 20
173.0044721891
 30
0.0
 11
394.5605960388
 21
173.0044721891
 31
0.0
  0
LINE
  5
156
  8
0
  6
CONTINUOUS
 62
     7
 10
394.5605960388
 20
174.2044721995
 30
0.0
 11
398.3192410965
 21
174.2044721995
 31
0.0
  0
LINE
  5
157
  8
0
  6
CONTINUOUS
 62
     7
 10
387.7320256729
 20
173.0044721891
 30
0.0
 11
394.5605960388
 21
173.0044721891
 31
0.0
  0
LINE
  5
158
  8
0
  6
CONTINUOUS
 62
     7
 10
387.7320256729
 20
174.2044721995
 30
0.0
 11
394.5605960388
 21
174.2044721995
 31
0.0
  0
LINE
  5
159
  8
0
  6
CONTINUOUS
 62
     7
 10
19.1463199157
 20
173.0044721891
 30
0.0
 11
19.1463199157
 21
174.2044721995
 31
0.0
  0
LINE
  5
15A
  8
0
  6
CONTINUOUS
 62
     7
 10
19.1463199157
 20
173.0044721891
 30
0.0
 11
23.9733901519
 21
173.0044721891
 31
0.0
  0
LINE
  5
15B
  8
0
  6
CONTINUOUS
 62
     7
 10
23.9733901519
 20
174.2044721995
 30
0.0
 11
19.1463199157
 21
174.2044721995
 31
0.0
  0
LINE
  5
15C
  8
0
  6
CONTINUOUS
 62
     7
 10
43.1463208694
 20
173.0044721891
 30
0.0
 11
43.1463208694
 21
174.2044721995
 31
0.0
  0
LINE
  5
15D
  8
0
  6
CONTINUOUS
 62
     7
 10
38.3192506332
 20
173.0044721891
 30
0.0
 11
43.1463208694
 21
173.0044721891
 31
0.0
  0
LINE
  5
15E
  8
0
  6
CONTINUOUS
 62
     7
 10
43.1463208694
 20
174.2044721995
 30
0.0
 11
38.3192506332
 21
174.2044721995
 31
0.0
  0
LINE
  5
15F
  8
0
  6
CONTINUOUS
 62
     7
 10
379.146310379
 20
173.0044721891
 30
0.0
 11
379.146310379
 21
174.2044721995
 31
0.0
  0
LINE
  5
160
  8
0
  6
CONTINUOUS
 62
     7
 10
379.146310379
 20
173.0044721891
 30
0.0
 11
383.9733806152
 21
173.0044721891
 31
0.0
  0
LINE
  5
161
  8
0
  6
CONTINUOUS
 62
     7
 10
383.9733806152
 20
174.2044721995
 30
0.0
 11
379.146310379
 21
174.2044721995
 31
0.0
  0
LINE
  5
162
  8
0
  6
CONTINUOUS
 62
     7
 10
403.1463113327
 20
173.0044721891
 30
0.0
 11
403.1463113327
 21
174.2044721995
 31
0.0
  0
LINE
  5
163
  8
0
  6
CONTINUOUS
 62
     7
 10
398.3192410965
 20
173.0044721891
 30
0.0
 11
403.1463113327
 21
173.0044721891
 31
0.0
  0
LINE
  5
164
  8
0
  6
CONTINUOUS
 62
     7
 10
403.1463113327
 20
174.2044721995
 30
0.0
 11
398.3192410965
 21
174.2044721995
 31
0.0
  0
LINE
  5
165
  8
0
  6
CONTINUOUS
 62
     7
 10
-12.0536956292
 20
248.2044696141
 30
0.0
 11
-11.3536748391
 21
248.2044696141
 31
0.0
  0
LINE
  5
166
  8
0
  6
CONTINUOUS
 62
     7
 10
-1.3536843758
 20
248.2044696141
 30
0.0
 11
63.64631324
 21
248.2044696141
 31
0.0
  0
LINE
  5
167
  8
0
  6
CONTINUOUS
 62
     7
 10
73.6463156242
 20
248.2044696141
 30
0.0
 11
108.6463180084
 21
248.2044696141
 31
0.0
  0
LINE
  5
168
  8
0
  6
CONTINUOUS
 62
     7
 10
118.6463144321
 20
248.2044696141
 30
0.0
 11
183.6463150282
 21
248.2044696141
 31
0.0
  0
LINE
  5
169
  8
0
  6
CONTINUOUS
 62
     7
 10
193.6463159222
 20
248.2044696141
 30
0.0
 11
228.6463153262
 21
248.2044696141
 31
0.0
  0
LINE
  5
16A
  8
0
  6
CONTINUOUS
 62
     7
 10
238.6463162202
 20
248.2044696141
 30
0.0
 11
303.6463168163
 21
248.2044696141
 31
0.0
  0
LINE
  5
16B
  8
0
  6
CONTINUOUS
 62
     7
 10
313.64631324
 20
248.2044696141
 30
0.0
 11
348.6463156242
 21
248.2044696141
 31
0.0
  0
LINE
  5
16C
  8
0
  6
CONTINUOUS
 62
     7
 10
358.6463180084
 20
248.2044696141
 30
0.0
 11
423.6463156242
 21
248.2044696141
 31
0.0
  0
LINE
  5
16D
  8
0
  6
CONTINUOUS
 62
     7
 10
433.6463060875
 20
248.2044696141
 30
0.0
 11
434.3463268776
 21
248.2044696141
 31
0.0
  0
LINE
  5
16E
  8
0
  6
CONTINUOUS
 62
     7
 10
434.7463217277
 20
247.2044705678
 30
0.0
 11
434.7463217277
 21
239.2044722367
 31
0.0
  0
ARC
  5
16F
  8
0
  6
CONTINUOUS
 62
     7
 10
434.3463156242
 20
247.8044721891
 30
0.0
 40
0.4000000000000057
 50
0.0
 51
90.0
  0
LINE
  5
170
  8
0
  6
CONTINUOUS
 62
     7
 10
434.7463217277
 20
247.804474764
 30
0.0
 11
434.7463217277
 21
247.2044705678
 31
0.0
  0
LINE
  5
171
  8
0
  6
CONTINUOUS
 62
     7
 10
434.7463217277
 20
239.2044722367
 30
0.0
 11
434.7463217277
 21
238.604474001
 31
0.0
  0
ARC
  5
172
  8
0
  6
CONTINUOUS
 62
     7
 10
434.3463156242
 20
238.6044721891
 30
0.0
 40
0.4000000000000057
 50
270.0
 51
0.0
  0
LINE
  5
173
  8
0
  6
CONTINUOUS
 62
     7
 10
-12.4536904793
 20
238.604474001
 30
0.0
 11
-12.4536904793
 21
239.2044722367
 31
0.0
  0
ARC
  5
174
  8
0
  6
CONTINUOUS
 62
     7
 10
-12.0536843758
 20
238.6044721891
 30
0.0
 40
0.4000000000000057
 50
180.0
 51
270.0
  0
POLYLINE
  5
175
  8
0
  6
CONTINUOUS
 62
     7
 66
     1
 10
0.0
 20
0.0
 30
0.0
  0
VERTEX
  5
2FA
  8
0
  6
CONTINUOUS
 62
     7
 10
35.1463165779
 20
239.2044722367
 30
0.0
  0
VERTEX
  5
2FB
  8
0
  6
CONTINUOUS
 62
     7
 10
35.3414025802
 20
239.0093802739
 30
0.0
  0
VERTEX
  5
2FC
  8
0
  6
CONTINUOUS
 62
     7
 10
35.5290022392
 20
238.8217865754
 30
0.0
  0
VERTEX
  5
2FD
  8
0
  6
CONTINUOUS
 62
     7
 10
35.7018914718
 20
238.6489033033
 30
0.0
  0
VERTEX
  5
2FE
  8
0
  6
CONTINUOUS
 62
     7
 10
35.8534183998
 20
238.4973644544
 30
0.0
  0
VERTEX
  5
2FF
  8
0
  6
CONTINUOUS
 62
     7
 10
35.9777894516
 20
238.3730053235
 30
0.0
  0
VERTEX
  5
300
  8
0
  6
CONTINUOUS
 62
     7
 10
36.0702004928
 20
238.2805942823
 30
0.0
  0
VERTEX
  5
301
  8
0
  6
CONTINUOUS
 62
     7
 10
36.1270990867
 20
238.2236897279
 30
0.0
  0
VERTEX
  5
302
  8
0
  6
CONTINUOUS
 62
     7
 10
36.1463156242
 20
238.2044731904
 30
0.0
  0
SEQEND
  5
388
  8
0
  6
CONTINUOUS
 62
     7
  0
LINE
  5
176
  8
0
  6
CONTINUOUS
 62
     7
 10
36.1463156242
 20
238.2044731904
 30
0.0
 11
36.1463156242
 21
174.2044721995
 31
0.0
  0
POLYLINE
  5
177
  8
0
  6
CONTINUOUS
 62
     7
 66
     1
 10
0.0
 20
0.0
 30
0.0
  0
VERTEX
  5
303
  8
0
  6
CONTINUOUS
 62
     7
 10
26.14631324
 20
238.2044731904
 30
0.0
  0
VERTEX
  5
304
  8
0
  6
CONTINUOUS
 62
     7
 10
26.1655297775
 20
238.2236897279
 30
0.0
  0
VERTEX
  5
305
  8
0
  6
CONTINUOUS
 62
     7
 10
26.2224402923
 20
238.2805942823
 30
0.0
  0
VERTEX
  5
306
  8
0
  6
CONTINUOUS
 62
     7
 10
26.3148513336
 20
238.3730053235
 30
0.0
  0
VERTEX
  5
307
  8
0
  6
CONTINUOUS
 62
     7
 10
26.4392104644
 20
238.4973644544
 30
0.0
  0
VERTEX
  5
308
  8
0
  6
CONTINUOUS
 62
     7
 10
26.5907493133
 20
238.6489033033
 30
0.0
  0
VERTEX
  5
309
  8
0
  6
CONTINUOUS
 62
     7
 10
26.763626625
 20
238.8217865754
 30
0.0
  0
VERTEX
  5
30A
  8
0
  6
CONTINUOUS
 62
     7
 10
26.951226284
 20
239.0093802739
 30
0.0
  0
VERTEX
  5
30B
  8
0
  6
CONTINUOUS
 62
     7
 10
27.1463122863
 20
239.2044722367
 30
0.0
  0
SEQEND
  5
387
  8
0
  6
CONTINUOUS
 62
     7
  0
LINE
  5
178
  8
0
  6
CONTINUOUS
 62
     7
 10
26.14631324
 20
238.2044731904
 30
0.0
 11
-12.0536956292
 21
238.2044731904
 31
0.0
  0
POLYLINE
  5
179
  8
0
  6
CONTINUOUS
 62
     7
 66
     1
 10
0.0
 20
0.0
 30
0.0
  0
VERTEX
  5
30C
  8
0
  6
CONTINUOUS
 62
     7
 10
396.1463180084
 20
238.2044731904
 30
0.0
  0
VERTEX
  5
30D
  8
0
  6
CONTINUOUS
 62
     7
 10
396.1271014709
 20
238.2236897279
 30
0.0
  0
VERTEX
  5
30E
  8
0
  6
CONTINUOUS
 62
     7
 10
396.0701909561
 20
238.2805942823
 30
0.0
  0
VERTEX
  5
30F
  8
0
  6
CONTINUOUS
 62
     7
 10
395.9777799148
 20
238.3730053235
 30
0.0
  0
VERTEX
  5
310
  8
0
  6
CONTINUOUS
 62
     7
 10
395.853420784
 20
238.4973644544
 30
0.0
  0
VERTEX
  5
311
  8
0
  6
CONTINUOUS
 62
     7
 10
395.7018819351
 20
238.6489033033
 30
0.0
  0
VERTEX
  5
312
  8
0
  6
CONTINUOUS
 62
     7
 10
395.5290046234
 20
238.8217865754
 30
0.0
  0
VERTEX
  5
313
  8
0
  6
CONTINUOUS
 62
     7
 10
395.3414049644
 20
239.0093802739
 30
0.0
  0
VERTEX
  5
314
  8
0
  6
CONTINUOUS
 62
     7
 10
395.1463189621
 20
239.2044722367
 30
0.0
  0
SEQEND
  5
386
  8
0
  6
CONTINUOUS
 62
     7
  0
LINE
  5
17A
  8
0
  6
CONTINUOUS
 62
     7
 10
434.3463268776
 20
238.2044731904
 30
0.0
 11
396.1463180084
 21
238.2044731904
 31
0.0
  0
LINE
  5
17B
  8
0
  6
CONTINUOUS
 62
     7
 10
386.1463156242
 20
174.2044721995
 30
0.0
 11
386.1463156242
 21
238.2044731904
 31
0.0
  0
POLYLINE
  5
17C
  8
0
  6
CONTINUOUS
 62
     7
 66
     1
 10
0.0
 20
0.0
 30
0.0
  0
VERTEX
  5
315
  8
0
  6
CONTINUOUS
 62
     7
 10
387.1463146705
 20
239.2044722367
 30
0.0
  0
VERTEX
  5
316
  8
0
  6
CONTINUOUS
 62
     7
 10
386.9512286682
 20
239.0093802739
 30
0.0
  0
VERTEX
  5
317
  8
0
  6
CONTINUOUS
 62
     7
 10
386.7636290092
 20
238.8217865754
 30
0.0
  0
VERTEX
  5
318
  8
0
  6
CONTINUOUS
 62
     7
 10
386.5907397766
 20
238.6489033033
 30
0.0
  0
VERTEX
  5
319
  8
0
  6
CONTINUOUS
 62
     7
 10
386.4392128486
 20
238.4973644544
 30
0.0
  0
VERTEX
  5
31A
  8
0
  6
CONTINUOUS
 62
     7
 10
386.3148417968
 20
238.3730053235
 30
0.0
  0
VERTEX
  5
31B
  8
0
  6
CONTINUOUS
 62
     7
 10
386.2224307556
 20
238.2805942823
 30
0.0
  0
VERTEX
  5
31C
  8
0
  6
CONTINUOUS
 62
     7
 10
386.1655321617
 20
238.2236897279
 30
0.0
  0
VERTEX
  5
31D
  8
0
  6
CONTINUOUS
 62
     7
 10
386.1463156242
 20
238.2044731904
 30
0.0
  0
SEQEND
  5
385
  8
0
  6
CONTINUOUS
 62
     7
  0
LINE
  5
17D
  8
0
  6
CONTINUOUS
 62
     7
 10
396.1463180084
 20
238.2044731904
 30
0.0
 11
396.1463180084
 21
174.2044721995
 31
0.0
  0
LINE
  5
17E
  8
0
  6
CONTINUOUS
 62
     7
 10
26.14631324
 20
174.2044721995
 30
0.0
 11
26.14631324
 21
238.2044731904
 31
0.0
  0
LINE
  5
17F
  8
0
  6
CONTINUOUS
 62
     7
 10
-12.4536904793
 20
239.2044722367
 30
0.0
 11
-12.4536904793
 21
247.2044705678
 31
0.0
  0
LINE
  5
180
  8
0
  6
CONTINUOUS
 62
     7
 10
386.1463156242
 20
238.2044731904
 30
0.0
 11
36.1463156242
 21
238.2044731904
 31
0.0
  0
LINE
  5
181
  8
0
  6
CONTINUOUS
 62
     7
 10
-12.4536904793
 20
247.2044705678
 30
0.0
 11
-12.4536904793
 21
247.804474764
 31
0.0
  0
ARC
  5
182
  8
0
  6
CONTINUOUS
 62
     7
 10
-12.0536843758
 20
247.8044721891
 30
0.0
 40
0.4000000000000057
 50
90.0
 51
180.0
  0
POLYLINE
  5
183
  8
0
  6
CONTINUOUS
 62
     7
 66
     1
 10
0.0
 20
0.0
 30
0.0
  0
VERTEX
  5
31E
  8
0
  6
CONTINUOUS
 62
     7
 10
601.3673368177
 20
262.2132241059
 30
0.0
  0
VERTEX
  5
31F
  8
0
  6
CONTINUOUS
 62
     7
 10
601.3619843206
 20
262.4825715352
 30
0.0
  0
VERTEX
  5
320
  8
0
  6
CONTINUOUS
 62
     7
 10
601.294786044
 20
262.8894745637
 30
0.0
  0
VERTEX
  5
321
  8
0
  6
CONTINUOUS
 62
     7
 10
601.1772039613
 20
263.2682799627
 30
0.0
  0
VERTEX
  5
322
  8
0
  6
CONTINUOUS
 62
     7
 10
601.018101283
 20
263.6142789651
 30
0.0
  0
VERTEX
  5
323
  8
0
  6
CONTINUOUS
 62
     7
 10
600.8263471803
 20
263.9249085714
 30
0.0
  0
VERTEX
  5
324
  8
0
  6
CONTINUOUS
 62
     7
 10
600.6098750314
 20
264.200240307
 30
0.0
  0
VERTEX
  5
325
  8
0
  6
CONTINUOUS
 62
     7
 10
600.3739717683
 20
264.4434034158
 30
0.0
  0
VERTEX
  5
326
  8
0
  6
CONTINUOUS
 62
     7
 10
600.1194003305
 20
264.6602927972
 30
0.0
  0
VERTEX
  5
327
  8
0
  6
CONTINUOUS
 62
     7
 10
599.8402598581
 20
264.8591636945
 30
0.0
  0
VERTEX
  5
328
  8
0
  6
CONTINUOUS
 62
     7
 10
599.5183292112
 20
265.0514840413
 30
0.0
  0
VERTEX
  5
329
  8
0
  6
CONTINUOUS
 62
     7
 10
599.1328957757
 20
265.2439832021
 30
0.0
  0
VERTEX
  5
32A
  8
0
  6
CONTINUOUS
 62
     7
 10
598.621249505
 20
265.4553412725
 30
0.0
  0
VERTEX
  5
32B
  8
0
  6
CONTINUOUS
 62
     7
 10
598.0467620572
 20
265.6518995095
 30
0.0
  0
VERTEX
  5
32C
  8
0
  6
CONTINUOUS
 62
     7
 10
597.4718096933
 20
265.8188342382
 30
0.0
  0
VERTEX
  5
32D
  8
0
  6
CONTINUOUS
 62
     7
 10
596.8162718496
 20
265.9829019834
 30
0.0
  0
VERTEX
  5
32E
  8
0
  6
CONTINUOUS
 62
     7
 10
596.1421135148
 20
266.1293744374
 30
0.0
  0
VERTEX
  5
32F
  8
0
  6
CONTINUOUS
 62
     7
 10
595.4418185434
 20
266.2625371743
 30
0.0
  0
VERTEX
  5
330
  8
0
  6
CONTINUOUS
 62
     7
 10
594.7294834337
 20
266.3811981012
 30
0.0
  0
VERTEX
  5
331
  8
0
  6
CONTINUOUS
 62
     7
 10
593.966049262
 20
266.4925097753
 30
0.0
  0
VERTEX
  5
332
  8
0
  6
CONTINUOUS
 62
     7
 10
593.1694212636
 20
266.5936409761
 30
0.0
  0
VERTEX
  5
333
  8
0
  6
CONTINUOUS
 62
     7
 10
592.3431935987
 20
266.6841565896
 30
0.0
  0
VERTEX
  5
334
  8
0
  6
CONTINUOUS
 62
     7
 10
591.492253848
 20
266.7634128858
 30
0.0
  0
VERTEX
  5
335
  8
0
  6
CONTINUOUS
 62
     7
 10
590.6223478994
 20
266.8306946088
 30
0.0
  0
VERTEX
  5
336
  8
0
  6
CONTINUOUS
 62
     7
 10
589.7396090707
 20
266.8853163053
 30
0.0
  0
VERTEX
  5
337
  8
0
  6
CONTINUOUS
 62
     7
 10
588.8506892404
 20
266.9266938497
 30
0.0
  0
VERTEX
  5
338
  8
0
  6
CONTINUOUS
 62
     7
 10
587.9541102132
 20
266.9550954629
 30
0.0
  0
VERTEX
  5
339
  8
0
  6
CONTINUOUS
 62
     7
 10
587.0388391694
 20
266.9708668519
 30
0.0
  0
VERTEX
  5
33A
  8
0
  6
CONTINUOUS
 62
     7
 10
586.3743248662
 20
266.9728338052
 30
0.0
  0
SEQEND
  5
384
  8
0
  6
CONTINUOUS
 62
     7
  0
ARC
  5
184
  8
0
  6
CONTINUOUS
 62
     7
 10
546.0756546209
 20
211.8199920447
 30
0.0
 40
55.15425742299229
 50
89.689920985
 51
97.9477118465
  0
LINE
  5
185
  8
0
  6
CONTINUOUS
 62
     7
 10
586.3742533406
 20
266.9749736119
 30
0.0
 11
546.3742527446
 21
266.9749736119
 31
0.0
  0
POLYLINE
  5
186
  8
0
  6
CONTINUOUS
 62
     7
 66
     1
 10
0.0
 20
0.0
 30
0.0
  0
VERTEX
  5
33B
  8
0
  6
CONTINUOUS
 62
     7
 10
586.3741222104
 20
261.5934252073
 30
0.0
  0
VERTEX
  5
33C
  8
0
  6
CONTINUOUS
 62
     7
 10
587.1020439347
 20
261.5898370076
 30
0.0
  0
VERTEX
  5
33D
  8
0
  6
CONTINUOUS
 62
     7
 10
587.9427138051
 20
261.5736424257
 30
0.0
  0
VERTEX
  5
33E
  8
0
  6
CONTINUOUS
 62
     7
 10
588.7719991884
 20
261.5455149938
 30
0.0
  0
VERTEX
  5
33F
  8
0
  6
CONTINUOUS
 62
     7
 10
589.5839157781
 20
261.5056812097
 30
0.0
  0
VERTEX
  5
340
  8
0
  6
CONTINUOUS
 62
     7
 10
590.3729501447
 20
261.4548861314
 30
0.0
  0
VERTEX
  5
341
  8
0
  6
CONTINUOUS
 62
     7
 10
591.1461952409
 20
261.393284731
 30
0.0
  0
VERTEX
  5
342
  8
0
  6
CONTINUOUS
 62
     7
 10
591.8985071859
 20
261.3215684224
 30
0.0
  0
VERTEX
  5
343
  8
0
  6
CONTINUOUS
 62
     7
 10
592.6209452829
 20
261.2409412194
 30
0.0
  0
VERTEX
  5
344
  8
0
  6
CONTINUOUS
 62
     7
 10
593.3033648214
 20
261.1530422498
 30
0.0
  0
VERTEX
  5
345
  8
0
  6
CONTINUOUS
 62
     7
 10
593.9373317441
 20
261.0596834947
 30
0.0
  0
VERTEX
  5
346
  8
0
  6
CONTINUOUS
 62
     7
 10
594.5150378427
 20
260.9629332353
 30
0.0
  0
VERTEX
  5
347
  8
0
  6
CONTINUOUS
 62
     7
 10
595.0336995801
 20
260.8646153737
 30
0.0
  0
VERTEX
  5
348
  8
0
  6
CONTINUOUS
 62
     7
 10
595.511097022
 20
260.762625866
 30
0.0
  0
VERTEX
  5
349
  8
0
  6
CONTINUOUS
 62
     7
 10
595.9260824403
 20
260.6625258256
 30
0.0
  0
VERTEX
  5
34A
  8
0
  6
CONTINUOUS
 62
     7
 10
596.2755802354
 20
260.5670928289
 30
0.0
  0
VERTEX
  5
34B
  8
0
  6
CONTINUOUS
 62
     7
 10
596.5542200288
 20
260.480564766
 30
0.0
  0
VERTEX
  5
34C
  8
0
  6
CONTINUOUS
 62
     7
 10
596.7382434091
 20
260.4156195451
 30
0.0
  0
VERTEX
  5
34D
  8
0
  6
CONTINUOUS
 62
     7
 10
596.8597892007
 20
260.3670298387
 30
0.0
  0
VERTEX
  5
34E
  8
0
  6
CONTINUOUS
 62
     7
 10
596.9228687963
 20
260.3384076883
 30
0.0
  0
VERTEX
  5
34F
  8
0
  6
CONTINUOUS
 62
     7
 10
596.930718728
 20
260.334503584
 30
0.0
  0
SEQEND
  5
383
  8
0
  6
CONTINUOUS
 62
     7
  0
LINE
  5
187
  8
0
  6
CONTINUOUS
 62
     7
 10
557.3742511949
 20
261.594974928
 30
0.0
 11
586.3742533406
 21
261.594974928
 31
0.0
  0
LINE
  5
188
  8
0
  6
CONTINUOUS
 62
     7
 10
557.3742511949
 20
261.4924847413
 30
0.0
 11
589.7889438352
 21
261.4924847413
 31
0.0
  0
ARC
  5
189
  8
0
  6
CONTINUOUS
 62
     7
 10
598.6842520055
 20
260.4924834636
 30
0.0
 40
2.690000000000168
 50
180.0
 51
270.0
  0
ARC
  5
18A
  8
0
  6
CONTINUOUS
 62
     7
 10
598.6842520055
 20
260.4924834636
 30
0.0
 40
2.690000000000055
 50
270.0
 51
0.0
  0
LINE
  5
18B
  8
0
  6
CONTINUOUS
 62
     7
 10
515.274251931
 20
239.2044722367
 30
0.0
 11
515.274251931
 21
239.0044748117
 31
0.0
  0
LINE
  5
18C
  8
0
  6
CONTINUOUS
 62
     7
 10
515.274251931
 20
239.0044748117
 30
0.0
 11
514.4742521724
 21
239.0044748117
 31
0.0
  0
LINE
  5
18D
  8
0
  6
CONTINUOUS
 62
     7
 10
514.4742521724
 20
239.0044748117
 30
0.0
 11
514.4742521724
 21
241.0044729043
 31
0.0
  0
ARC
  5
18E
  8
0
  6
CONTINUOUS
 62
     7
 10
525.2742520055
 20
248.0044721891
 30
0.0
 40
0.2000000000000455
 50
0.0
 51
90.0
  0
LINE
  5
18F
  8
0
  6
CONTINUOUS
 62
     7
 10
525.27425208
 20
248.2044696141
 30
0.0
 11
524.2742519161
 21
248.2044696141
 31
0.0
  0
LINE
  5
190
  8
0
  6
CONTINUOUS
 62
     7
 10
516.2742520949
 20
248.2044696141
 30
0.0
 11
515.4742519638
 21
248.2044696141
 31
0.0
  0
ARC
  5
191
  8
0
  6
CONTINUOUS
 62
     7
 10
515.4742520055
 20
248.0044721891
 30
0.0
 40
0.2000000000001592
 50
90.0
 51
180.0
  0
LINE
  5
192
  8
0
  6
CONTINUOUS
 62
     7
 10
515.274251931
 20
248.0044721891
 30
0.0
 11
515.274251931
 21
247.2044705678
 31
0.0
  0
LINE
  5
193
  8
0
  6
CONTINUOUS
 62
     7
 10
514.4742521724
 20
248.0044721891
 30
0.0
 11
514.4742521724
 21
241.0044729043
 31
0.0
  0
ARC
  5
194
  8
0
  6
CONTINUOUS
 62
     7
 10
515.4742520055
 20
248.0044721891
 30
0.0
 40
1.000000000000114
 50
90.0
 51
180.0
  0
LINE
  5
195
  8
0
  6
CONTINUOUS
 62
     7
 10
525.27425208
 20
249.0044712354
 30
0.0
 11
515.4742519638
 21
249.0044712354
 31
0.0
  0
ARC
  5
196
  8
0
  6
CONTINUOUS
 62
     7
 10
525.2742520055
 20
248.0044721891
 30
0.0
 40
1.0
 50
0.0
 51
90.0
  0
LINE
  5
197
  8
0
  6
CONTINUOUS
 62
     7
 10
526.2742518714
 20
241.0044729043
 30
0.0
 11
526.2742518714
 21
248.0044721891
 31
0.0
  0
LINE
  5
198
  8
0
  6
CONTINUOUS
 62
     7
 10
525.4742521128
 20
241.0044729043
 30
0.0
 11
525.4742521128
 21
248.0044721891
 31
0.0
  0
LINE
  5
199
  8
0
  6
CONTINUOUS
 62
     7
 10
526.2742518714
 20
239.0044748117
 30
0.0
 11
525.4742521128
 21
239.0044748117
 31
0.0
  0
LINE
  5
19A
  8
0
  6
CONTINUOUS
 62
     7
 10
526.2742518714
 20
241.0044729043
 30
0.0
 11
526.2742518714
 21
239.0044748117
 31
0.0
  0
LINE
  5
19B
  8
0
  6
CONTINUOUS
 62
     7
 10
525.4742521128
 20
239.0044748117
 30
0.0
 11
525.4742521128
 21
241.0044729043
 31
0.0
  0
POLYLINE
  5
19C
  8
0
  6
CONTINUOUS
 62
     7
 66
     1
 10
0.0
 20
0.0
 30
0.0
  0
VERTEX
  5
350
  8
0
  6
CONTINUOUS
 62
     7
 10
544.1077116212
 20
261.6070448686
 30
0.0
  0
VERTEX
  5
351
  8
0
  6
CONTINUOUS
 62
     7
 10
542.0763197622
 20
261.6638123323
 30
0.0
  0
VERTEX
  5
352
  8
0
  6
CONTINUOUS
 62
     7
 10
540.9854638657
 20
261.7919444371
 30
0.0
  0
VERTEX
  5
353
  8
0
  6
CONTINUOUS
 62
     7
 10
539.9254950961
 20
262.0651900102
 30
0.0
  0
VERTEX
  5
354
  8
0
  6
CONTINUOUS
 62
     7
 10
539.2342242679
 20
262.3888611127
 30
0.0
  0
VERTEX
  5
355
  8
0
  6
CONTINUOUS
 62
     7
 10
538.918517836
 20
262.610292368
 30
0.0
  0
VERTEX
  5
356
  8
0
  6
CONTINUOUS
 62
     7
 10
538.641679593
 20
262.8777026464
 30
0.0
  0
VERTEX
  5
357
  8
0
  6
CONTINUOUS
 62
     7
 10
538.3526745519
 20
263.3401154805
 30
0.0
  0
VERTEX
  5
358
  8
0
  6
CONTINUOUS
 62
     7
 10
538.2410156807
 20
263.877141409
 30
0.0
  0
VERTEX
  5
359
  8
0
  6
CONTINUOUS
 62
     7
 10
538.3251580676
 20
264.3965660859
 30
0.0
  0
SEQEND
  5
382
  8
0
  6
CONTINUOUS
 62
     7
  0
POLYLINE
  5
19D
  8
0
  6
CONTINUOUS
 62
     7
 66
     1
 10
0.0
 20
0.0
 30
0.0
  0
VERTEX
  5
35A
  8
0
  6
CONTINUOUS
 62
     7
 10
538.3251580676
 20
264.3965660859
 30
0.0
  0
VERTEX
  5
35B
  8
0
  6
CONTINUOUS
 62
     7
 10
538.4951251826
 20
264.7610365678
 30
0.0
  0
VERTEX
  5
35C
  8
0
  6
CONTINUOUS
 62
     7
 10
538.7426498613
 20
265.0992750455
 30
0.0
  0
VERTEX
  5
35D
  8
0
  6
CONTINUOUS
 62
     7
 10
539.1346606693
 20
265.4722987939
 30
0.0
  0
VERTEX
  5
35E
  8
0
  6
CONTINUOUS
 62
     7
 10
539.5922768196
 20
265.7880842019
 30
0.0
  0
VERTEX
  5
35F
  8
0
  6
CONTINUOUS
 62
     7
 10
540.3662714442
 20
266.166698866
 30
0.0
  0
VERTEX
  5
360
  8
0
  6
CONTINUOUS
 62
     7
 10
541.2004429182
 20
266.4444743921
 30
0.0
  0
SEQEND
  5
381
  8
0
  6
CONTINUOUS
 62
     7
  0
LINE
  5
19E
  8
0
  6
CONTINUOUS
 62
     7
 10
546.3742527446
 20
261.6154491235
 30
0.0
 11
544.1077116212
 21
261.6070448686
 31
0.0
  0
LINE
  5
19F
  8
0
  6
CONTINUOUS
 62
     7
 10
557.3742511949
 20
261.6154491235
 30
0.0
 11
546.3742527446
 21
261.6154491235
 31
0.0
  0
ARC
  5
1A0
  8
0
  6
CONTINUOUS
 62
     7
 10
517.9802337633
 20
374.4939817898
 30
0.0
 40
120.0000000000001
 50
280.9468409701
 51
289.1646231125
  0
LINE
  5
1A1
  8
0
  6
CONTINUOUS
 62
     7
 10
540.7680127105
 20
256.6775261689
 30
0.0
 11
536.3550666055
 21
255.8239876558
 31
0.0
  0
ARC
  5
1A2
  8
0
  6
CONTINUOUS
 62
     7
 10
537.8742520055
 20
247.9695546406
 30
0.0
 40
8.000000000000025
 50
100.9468409701
 51
180.0
  0
LINE
  5
1A3
  8
0
  6
CONTINUOUS
 62
     7
 10
529.874252089
 20
247.9695557882
 30
0.0
 11
529.874252089
 21
247.2044705678
 31
0.0
  0
ARC
  5
1A4
  8
0
  6
CONTINUOUS
 62
     7
 10
527.8742520055
 20
247.2044721891
 30
0.0
 40
2.0
 50
270.0
 51
0.0
  0
LINE
  5
1A5
  8
0
  6
CONTINUOUS
 62
     7
 10
527.8742517611
 20
245.2044724752
 30
0.0
 11
526.2742518714
 21
245.2044724752
 31
0.0
  0
ARC
  5
1A6
  8
0
  6
CONTINUOUS
 62
     7
 10
513.6742520055
 20
247.2044721891
 30
0.0
 40
2.0
 50
180.0
 51
270.0
  0
LINE
  5
1A7
  8
0
  6
CONTINUOUS
 62
     7
 10
511.6742517134
 20
247.2044705678
 30
0.0
 11
511.6742517134
 21
249.7654973794
 31
0.0
  0
LINE
  5
1A8
  8
0
  6
CONTINUOUS
 62
     7
 10
537.362164565
 20
266.4444743921
 30
0.0
 11
541.2004429182
 21
266.4444743921
 31
0.0
  0
LINE
  5
1A9
  8
0
  6
CONTINUOUS
 62
     7
 10
557.3742511949
 20
261.6154491235
 30
0.0
 11
557.3742511949
 21
261.1444711019
 31
0.0
  0
LINE
  5
1AA
  8
0
  6
CONTINUOUS
 62
     7
 10
514.4742521724
 20
245.2044724752
 30
0.0
 11
513.6742520413
 21
245.2044724752
 31
0.0
  0
ARC
  5
1AB
  8
0
  6
CONTINUOUS
 62
     7
 10
538.1558029649
 20
234.4543152959
 30
0.0
 40
32.00000000000009
 50
91.4211498515
 51
140.3596923241
  0
ARC
  5
1AC
  8
0
  6
CONTINUOUS
 62
     7
 10
519.6742520055
 20
249.7654966394
 30
0.0
 40
8.000000000000094
 50
140.3596923241
 51
180.0
  0
LINE
  5
1AD
  8
0
  6
CONTINUOUS
 62
     7
 10
595.9942522725
 20
260.6091319848
 30
0.0
 11
595.9942522725
 21
260.492485695
 31
0.0
  0
LINE
  5
1AE
  8
0
  6
CONTINUOUS
 62
     7
 10
601.3742509565
 20
260.492485695
 30
0.0
 11
601.3742509565
 21
262.2103153993
 31
0.0
  0
LINE
  5
1AF
  8
0
  6
CONTINUOUS
 62
     7
 10
601.3742509565
 20
262.2103153993
 30
0.0
 11
601.3738098821
 21
262.2585713197
 31
0.0
  0
ARC
  5
1B0
  8
0
  6
CONTINUOUS
 62
     7
 10
524.2742520055
 20
239.2044721891
 30
0.0
 40
1.000000000000028
 50
270.0
 51
0.0
  0
LINE
  5
1B1
  8
0
  6
CONTINUOUS
 62
     7
 10
515.274251931
 20
239.2044722367
 30
0.0
 11
515.274251931
 21
247.2044705678
 31
0.0
  0
LINE
  5
1B2
  8
0
  6
CONTINUOUS
 62
     7
 10
516.2742520949
 20
248.2044696141
 30
0.0
 11
524.2742519161
 21
248.2044696141
 31
0.0
  0
ARC
  5
1B3
  8
0
  6
CONTINUOUS
 62
     7
 10
516.2742520055
 20
239.2044721891
 30
0.0
 40
1.000000000000028
 50
180.0
 51
270.0
  0
ARC
  5
1B4
  8
0
  6
CONTINUOUS
 62
     7
 10
524.2742520055
 20
247.2044721891
 30
0.0
 40
1.0
 50
0.0
 51
90.0
  0
LINE
  5
1B5
  8
0
  6
CONTINUOUS
 62
     7
 10
524.2742519161
 20
238.2044731904
 30
0.0
 11
516.2742520949
 21
238.2044731904
 31
0.0
  0
ARC
  5
1B6
  8
0
  6
CONTINUOUS
 62
     7
 10
516.2742520055
 20
247.2044721891
 30
0.0
 40
1.0
 50
90.0
 51
180.0
  0
LINE
  5
1B7
  8
0
  6
CONTINUOUS
 62
     7
 10
525.27425208
 20
247.2044705678
 30
0.0
 11
525.27425208
 21
239.2044722367
 31
0.0
  0
LINE
  5
1B8
  8
0
  6
CONTINUOUS
 62
     7
 10
508.2742522737
 20
173.0044721891
 30
0.0
 11
508.2742522737
 21
174.2044721995
 31
0.0
  0
LINE
  5
1B9
  8
0
  6
CONTINUOUS
 62
     7
 10
508.2742522737
 20
174.2044721995
 30
0.0
 11
512.2742521843
 21
174.2044721995
 31
0.0
  0
LINE
  5
1BA
  8
0
  6
CONTINUOUS
 62
     7
 10
512.2742521843
 20
173.0044721891
 30
0.0
 11
508.2742522737
 21
173.0044721891
 31
0.0
  0
LINE
  5
1BB
  8
0
  6
CONTINUOUS
 62
     7
 10
541.6426736197
 20
174.2044721995
 30
0.0
 11
514.2742521396
 21
174.2044721995
 31
0.0
  0
LINE
  5
1BC
  8
0
  6
CONTINUOUS
 62
     7
 10
514.2742521396
 20
173.0044721891
 30
0.0
 11
541.6426736197
 21
173.0044721891
 31
0.0
  0
LINE
  5
1BD
  8
0
  6
CONTINUOUS
 62
     7
 10
512.2742521843
 20
174.2044721995
 30
0.0
 11
514.2742521396
 21
174.2044721995
 31
0.0
  0
LINE
  5
1BE
  8
0
  6
CONTINUOUS
 62
     7
 10
512.2742521843
 20
173.0044721891
 30
0.0
 11
514.2742521396
 21
173.0044721891
 31
0.0
  0
LINE
  5
1BF
  8
0
  6
CONTINUOUS
 62
     7
 10
544.2742514691
 20
174.2044721995
 30
0.0
 11
544.2742514691
 21
173.0044721891
 31
0.0
  0
LINE
  5
1C0
  8
0
  6
CONTINUOUS
 62
     7
 10
541.6426736197
 20
174.2044721995
 30
0.0
 11
544.2742514691
 21
174.2044721995
 31
0.0
  0
LINE
  5
1C1
  8
0
  6
CONTINUOUS
 62
     7
 10
544.2742514691
 20
173.0044721891
 30
0.0
 11
541.6426736197
 21
173.0044721891
 31
0.0
  0
LINE
  5
1C2
  8
0
  6
CONTINUOUS
 62
     7
 10
515.274251931
 20
174.2044721995
 30
0.0
 11
515.274251931
 21
239.0044748117
 31
0.0
  0
LINE
  5
1C3
  8
0
  6
CONTINUOUS
 62
     7
 10
525.27425208
 20
239.2044722367
 30
0.0
 11
525.27425208
 21
174.2044721995
 31
0.0
  0
ARC
  5
1C4
  8
0
  6
CONTINUOUS
 62
     7
 10
416.3299570594
 20
49.4076445307
 30
0.0
 40
14.86827553163709
 50
270.8245531713
 51
0.4741684266
  0
ARC
  5
1C5
  8
0
  6
CONTINUOUS
 62
     7
 10
365.9618690152
 20
49.4041555139
 30
0.0
 40
14.86657814047849
 50
179.5129046037
 51
269.3234287085
  0
ARC
  5
1C6
  8
0
  6
CONTINUOUS
 62
     7
 10
416.318859294
 20
89.6191164742
 30
0.0
 40
14.87757662413988
 50
359.6598354482
 51
32.6991527625
  0
ARC
  5
1C7
  8
0
  6
CONTINUOUS
 62
     7
 10
366.0657482812
 20
89.5865942778
 30
0.0
 40
14.97524819321748
 50
147.3881243277
 51
180.2162386816
  0
ARC
  5
1C8
  8
0
  6
CONTINUOUS
 62
     7
 10
365.8900005185
 20
89.8237309579
 30
0.0
 40
14.69882201824279
 50
90.6992213323
 51
141.113814295
  0
ARC
  5
1C9
  8
0
  6
CONTINUOUS
 62
     7
 10
416.4056568773
 20
89.8470293365
 30
0.0
 40
14.67829398635578
 50
38.7742907723
 51
89.7631261993
  0
LINE
  5
1CA
  8
0
  6
CONTINUOUS
 62
     7
 10
351.0875549812
 20
89.5307502052
 30
0.0
 11
351.0875549812
 21
49.5307496092
 31
0.0
  0
LINE
  5
1CB
  8
0
  6
CONTINUOUS
 62
     7
 10
431.2050667305
 20
49.5307496092
 30
0.0
 11
431.2050667305
 21
89.5307502052
 31
0.0
  0
ARC
  5
1CC
  8
0
  6
CONTINUOUS
 62
     7
 10
176.3299778846
 20
49.4076220265
 30
0.0
 40
14.86825280728335
 50
270.8244948462
 51
0.4742558757
  0
ARC
  5
1CD
  8
0
  6
CONTINUOUS
 62
     7
 10
125.9618682064
 20
49.4041523152
 30
0.0
 40
14.86657497474977
 50
179.512892172
 51
269.323417898
  0
ARC
  5
1CE
  8
0
  6
CONTINUOUS
 62
     7
 10
176.3188017418
 20
89.6191045409
 30
0.0
 40
14.87763350840301
 50
359.6598827063
 51
32.6990667389
  0
ARC
  5
1CF
  8
0
  6
CONTINUOUS
 62
     7
 10
126.0657506654
 20
89.5865942778
 30
0.0
 40
14.97524819321616
 50
147.3881243277
 51
180.2162386816
  0
ARC
  5
1D0
  8
0
  6
CONTINUOUS
 62
     7
 10
125.8899884546
 20
89.8237608994
 30
0.0
 40
14.6987919753085
 50
90.6991896742
 51
141.1138697876
  0
ARC
  5
1D1
  8
0
  6
CONTINUOUS
 62
     7
 10
176.4056813499
 20
89.8470968945
 30
0.0
 40
14.67822632540673
 50
38.7741646745
 51
89.7632229624
  0
LINE
  5
1D2
  8
0
  6
CONTINUOUS
 62
     7
 10
111.0875573654
 20
89.5307502052
 30
0.0
 11
111.0875573654
 21
49.5307496092
 31
0.0
  0
LINE
  5
1D3
  8
0
  6
CONTINUOUS
 62
     7
 10
191.2050720949
 20
49.5307496092
 30
0.0
 11
191.2050720949
 21
89.5307502052
 31
0.0
  0
ARC
  5
1D4
  8
0
  6
CONTINUOUS
 62
     7
 10
56.3299725015
 20
49.4076269338
 30
0.0
 40
14.86825785155787
 50
270.8245313927
 51
0.4742368036
  0
ARC
  5
1D5
  8
0
  6
CONTINUOUS
 62
     7
 10
5.9618718957
 20
49.4041489914
 30
0.0
 40
14.86657153992472
 50
179.5128792492
 51
269.323454063
  0
ARC
  5
1D6
  8
0
  6
CONTINUOUS
 62
     7
 10
56.3187674675
 20
89.6190905235
 30
0.0
 40
14.87766591083166
 50
359.6599374309
 51
32.6990507799
  0
ARC
  5
1D7
  8
0
  6
CONTINUOUS
 62
     7
 10
6.0660957481
 20
89.5864706856
 30
0.0
 40
14.97560949673341
 50
147.3884474048
 51
180.2157606048
  0
ARC
  5
1D8
  8
0
  6
CONTINUOUS
 62
     7
 10
5.8899729863
 20
89.823808058
 30
0.0
 40
14.69874476241983
 50
90.6991734444
 51
141.1139575208
  0
ARC
  5
1D9
  8
0
  6
CONTINUOUS
 62
     7
 10
56.4056750448
 20
89.8470719801
 30
0.0
 40
14.67825125822223
 50
38.7742112389
 51
89.7632057327
  0
LINE
  5
1DA
  8
0
  6
CONTINUOUS
 62
     7
 10
-8.9124354821
 20
89.5307502052
 30
0.0
 11
-8.9124354821
 21
49.5307496092
 31
0.0
  0
LINE
  5
1DB
  8
0
  6
CONTINUOUS
 62
     7
 10
71.2050762672
 20
49.5307496092
 30
0.0
 11
71.2050762672
 21
89.5307502052
 31
0.0
  0
ARC
  5
1DC
  8
0
  6
CONTINUOUS
 62
     7
 10
296.3299827846
 20
49.4076145505
 30
0.0
 40
14.86824528724574
 50
270.8244832704
 51
0.4742849259
  0
ARC
  5
1DD
  8
0
  6
CONTINUOUS
 62
     7
 10
245.9618692554
 20
49.4041575014
 30
0.0
 40
14.8665801518728
 50
179.5129123301
 51
269.3234209822
  0
ARC
  5
1DE
  8
0
  6
CONTINUOUS
 62
     7
 10
296.3188695605
 20
89.6191300202
 30
0.0
 40
14.87756166995785
 50
359.6597829379
 51
32.6991277419
  0
ARC
  5
1DF
  8
0
  6
CONTINUOUS
 62
     7
 10
246.0658854799
 20
89.5865442201
 30
0.0
 40
14.97538848031645
 50
147.3882403755
 51
180.2160451339
  0
ARC
  5
1E0
  8
0
  6
CONTINUOUS
 62
     7
 10
245.8899946205
 20
89.8237457506
 30
0.0
 40
14.6988072128205
 50
90.699217633
 51
141.1138418288
  0
ARC
  5
1E1
  8
0
  6
CONTINUOUS
 62
     7
 10
296.4056843544
 20
89.8471087435
 30
0.0
 40
14.6782144714262
 50
38.7741425168
 51
89.7632275192
  0
LINE
  5
1E2
  8
0
  6
CONTINUOUS
 62
     7
 10
231.0875591535
 20
89.5307502052
 30
0.0
 11
231.0875591535
 21
49.5307496092
 31
0.0
  0
LINE
  5
1E3
  8
0
  6
CONTINUOUS
 62
     7
 10
311.205073883
 20
49.5307496092
 30
0.0
 11
311.205073883
 21
89.5307502052
 31
0.0
  0
POLYLINE
  5
1E4
  8
0
  6
CONTINUOUS
 62
     7
 66
     1
 10
0.0
 20
0.0
 30
0.0
  0
VERTEX
  5
361
  8
0
  6
CONTINUOUS
 62
     7
 10
354.4463124771
 20
96.1739829084
 30
0.0
  0
VERTEX
  5
362
  8
0
  6
CONTINUOUS
 62
     7
 10
353.9107051391
 20
95.4697495601
 30
0.0
  0
VERTEX
  5
363
  8
0
  6
CONTINUOUS
 62
     7
 10
353.4463134308
 20
94.7045600316
 30
0.0
  0
SEQEND
  5
380
  8
0
  6
CONTINUOUS
 62
     7
  0
LINE
  5
1E5
  8
0
  6
CONTINUOUS
 62
     7
 10
365.8020940323
 20
104.5254117152
 30
0.0
 11
365.925630619
 21
104.5307508013
 31
0.0
  0
ARC
  5
1E6
  8
0
  6
CONTINUOUS
 62
     7
 10
366.2859011373
 20
89.6245773375
 30
0.0
 40
10.07563268922879
 50
100.5231138163
 51
180.5335621641
  0
LINE
  5
1E7
  8
0
  6
CONTINUOUS
 62
     7
 10
416.4782372017
 20
34.5371356508
 30
0.0
 11
416.3669910926
 21
34.5307519934
 31
0.0
  0
ARC
  5
1E8
  8
0
  6
CONTINUOUS
 62
     7
 10
416.0067351232
 20
49.4369225476
 30
0.0
 40
10.07563006077297
 50
280.5231703422
 51
0.5335619013
  0
POLYLINE
  5
1E9
  8
0
  6
CONTINUOUS
 62
     7
 66
     1
 10
0.0
 20
0.0
 30
0.0
  0
VERTEX
  5
364
  8
0
  6
CONTINUOUS
 62
     7
 10
427.8463211555
 20
96.1739829084
 30
0.0
  0
VERTEX
  5
365
  8
0
  6
CONTINUOUS
 62
     7
 10
428.3819284935
 20
95.4697495601
 30
0.0
  0
VERTEX
  5
366
  8
0
  6
CONTINUOUS
 62
     7
 10
428.8463202018
 20
94.7045600316
 30
0.0
  0
SEQEND
  5
37F
  8
0
  6
CONTINUOUS
 62
     7
  0
ARC
  5
1EA
  8
0
  6
CONTINUOUS
 62
     7
 10
416.0244734938
 20
89.6391893294
 30
0.0
 40
10.05803938536308
 50
359.3822628564
 51
79.5609797623
  0
ARC
  5
1EB
  8
0
  6
CONTINUOUS
 62
     7
 10
366.2681563833
 20
49.4223139867
 30
0.0
 40
10.05803559228849
 50
179.3822825717
 51
259.5610665857
  0
LINE
  5
1EC
  8
0
  6
CONTINUOUS
 62
     7
 10
365.925630619
 20
34.5307519934
 30
0.0
 11
365.8324924011
 21
34.5360031626
 31
0.0
  0
LINE
  5
1ED
  8
0
  6
CONTINUOUS
 62
     7
 10
356.2107053299
 20
89.5307502052
 30
0.0
 11
356.2107053299
 21
49.5307496092
 31
0.0
  0
LINE
  5
1EE
  8
0
  6
CONTINUOUS
 62
     7
 10
426.0819283027
 20
49.5307496092
 30
0.0
 11
426.0819283027
 21
89.5307502052
 31
0.0
  0
LINE
  5
1EF
  8
0
  6
CONTINUOUS
 62
     7
 10
354.4463124771
 20
98.5428383848
 30
0.0
 11
353.4463134308
 21
98.5428383848
 31
0.0
  0
LINE
  5
1F0
  8
0
  6
CONTINUOUS
 62
     7
 10
353.4463134308
 20
122.3912677071
 30
0.0
 11
353.4463134308
 21
98.5428383848
 31
0.0
  0
LINE
  5
1F1
  8
0
  6
CONTINUOUS
 62
     7
 10
354.4463124771
 20
122.3912677071
 30
0.0
 11
354.4463124771
 21
98.5428383848
 31
0.0
  0
LINE
  5
1F2
  8
0
  6
CONTINUOUS
 62
     7
 10
427.8463211555
 20
98.5428383848
 30
0.0
 11
428.8463202018
 21
98.5428383848
 31
0.0
  0
LINE
  5
1F3
  8
0
  6
CONTINUOUS
 62
     7
 10
427.8463211555
 20
122.3912677071
 30
0.0
 11
427.8463211555
 21
98.5428383848
 31
0.0
  0
LINE
  5
1F4
  8
0
  6
CONTINUOUS
 62
     7
 10
428.8463202018
 20
122.3912677071
 30
0.0
 11
428.8463202018
 21
98.5428383848
 31
0.0
  0
LINE
  5
1F5
  8
0
  6
CONTINUOUS
 62
     7
 10
427.8463211555
 20
98.5428383848
 30
0.0
 11
427.8463211555
 21
96.1739829084
 31
0.0
  0
LINE
  5
1F6
  8
0
  6
CONTINUOUS
 62
     7
 10
428.8463202018
 20
98.5428383848
 30
0.0
 11
428.8463202018
 21
94.7045600316
 31
0.0
  0
LINE
  5
1F7
  8
0
  6
CONTINUOUS
 62
     7
 10
353.4463134308
 20
98.5428383848
 30
0.0
 11
353.4463134308
 21
94.7045600316
 31
0.0
  0
LINE
  5
1F8
  8
0
  6
CONTINUOUS
 62
     7
 10
354.4463124771
 20
98.5428383848
 30
0.0
 11
354.4463124771
 21
96.1739829084
 31
0.0
  0
LINE
  5
1F9
  8
0
  6
CONTINUOUS
 62
     7
 10
364.4457664985
 20
39.5307531855
 30
0.0
 11
417.846879055
 21
39.5307531855
 31
0.0
  0
LINE
  5
1FA
  8
0
  6
CONTINUOUS
 62
     7
 10
364.4457664985
 20
99.5307510993
 30
0.0
 11
417.846879055
 21
99.5307510993
 31
0.0
  0
LINE
  5
1FB
  8
0
  6
CONTINUOUS
 62
     7
 10
365.925630619
 20
104.5307508013
 30
0.0
 11
416.3669910926
 21
104.5307508013
 31
0.0
  0
LINE
  5
1FC
  8
0
  6
CONTINUOUS
 62
     7
 10
416.3669910926
 20
34.5307519934
 30
0.0
 11
365.925630619
 21
34.5307519934
 31
0.0
  0
LINE
  5
1FD
  8
0
  6
CONTINUOUS
 62
     7
 10
427.8463211555
 20
124.2307512364
 30
0.0
 11
428.8463202018
 21
124.2307512364
 31
0.0
  0
LINE
  5
1FE
  8
0
  6
CONTINUOUS
 62
     7
 10
427.8463211555
 20
124.2307512364
 30
0.0
 11
427.8463211555
 21
122.3912677071
 31
0.0
  0
LINE
  5
1FF
  8
0
  6
CONTINUOUS
 62
     7
 10
428.8463202018
 20
124.2307512364
 30
0.0
 11
428.8463202018
 21
122.3912677071
 31
0.0
  0
LINE
  5
200
  8
0
  6
CONTINUOUS
 62
     7
 10
354.4463124771
 20
124.2307512364
 30
0.0
 11
353.4463134308
 21
124.2307512364
 31
0.0
  0
LINE
  5
201
  8
0
  6
CONTINUOUS
 62
     7
 10
353.4463134308
 20
124.2307512364
 30
0.0
 11
353.4463134308
 21
122.3912677071
 31
0.0
  0
LINE
  5
202
  8
0
  6
CONTINUOUS
 62
     7
 10
354.4463124771
 20
124.2307512364
 30
0.0
 11
354.4463124771
 21
122.3912677071
 31
0.0
  0
LINE
  5
203
  8
0
  6
CONTINUOUS
 62
     7
 10
358.6463180084
 20
110.6307508698
 30
0.0
 11
358.6463180084
 21
120.4307509861
 31
0.0
  0
LINE
  5
204
  8
0
  6
CONTINUOUS
 62
     7
 10
423.6463156242
 20
110.6307508698
 30
0.0
 11
423.6463156242
 21
120.4307509861
 31
0.0
  0
LINE
  5
205
  8
0
  6
CONTINUOUS
 62
     7
 10
358.6463180084
 20
121.4307507774
 30
0.0
 11
354.4463124771
 21
121.4307507774
 31
0.0
  0
LINE
  5
206
  8
0
  6
CONTINUOUS
 62
     7
 10
358.6463180084
 20
121.4307507774
 30
0.0
 11
358.6463180084
 21
120.4307509861
 31
0.0
  0
LINE
  5
207
  8
0
  6
CONTINUOUS
 62
     7
 10
427.8463211555
 20
121.4307507774
 30
0.0
 11
423.6463156242
 21
121.4307507774
 31
0.0
  0
LINE
  5
208
  8
0
  6
CONTINUOUS
 62
     7
 10
423.6463156242
 20
120.4307509861
 30
0.0
 11
423.6463156242
 21
121.4307507774
 31
0.0
  0
LINE
  5
209
  8
0
  6
CONTINUOUS
 62
     7
 10
358.6463180084
 20
109.6307510784
 30
0.0
 11
354.4463124771
 21
109.6307510784
 31
0.0
  0
LINE
  5
20A
  8
0
  6
CONTINUOUS
 62
     7
 10
358.6463180084
 20
110.6307508698
 30
0.0
 11
358.6463180084
 21
109.6307510784
 31
0.0
  0
LINE
  5
20B
  8
0
  6
CONTINUOUS
 62
     7
 10
427.8463211555
 20
109.6307510784
 30
0.0
 11
423.6463156242
 21
109.6307510784
 31
0.0
  0
LINE
  5
20C
  8
0
  6
CONTINUOUS
 62
     7
 10
423.6463156242
 20
109.6307510784
 30
0.0
 11
423.6463156242
 21
110.6307508698
 31
0.0
  0
LINE
  5
20D
  8
0
  6
CONTINUOUS
 62
     7
 10
348.6463156242
 20
120.4307509861
 30
0.0
 11
348.6463156242
 21
121.4307507774
 31
0.0
  0
LINE
  5
20E
  8
0
  6
CONTINUOUS
 62
     7
 10
353.4463134308
 20
121.4307507774
 30
0.0
 11
348.6463156242
 21
121.4307507774
 31
0.0
  0
LINE
  5
20F
  8
0
  6
CONTINUOUS
 62
     7
 10
433.6463060875
 20
110.6307508698
 30
0.0
 11
433.6463060875
 21
120.4307509861
 31
0.0
  0
LINE
  5
210
  8
0
  6
CONTINUOUS
 62
     7
 10
348.6463156242
 20
110.6307508698
 30
0.0
 11
348.6463156242
 21
120.4307509861
 31
0.0
  0
LINE
  5
211
  8
0
  6
CONTINUOUS
 62
     7
 10
433.6463060875
 20
121.4307507774
 30
0.0
 11
428.8463202018
 21
121.4307507774
 31
0.0
  0
LINE
  5
212
  8
0
  6
CONTINUOUS
 62
     7
 10
433.6463060875
 20
120.4307509861
 30
0.0
 11
433.6463060875
 21
121.4307507774
 31
0.0
  0
LINE
  5
213
  8
0
  6
CONTINUOUS
 62
     7
 10
433.6463060875
 20
109.6307510784
 30
0.0
 11
428.8463202018
 21
109.6307510784
 31
0.0
  0
LINE
  5
214
  8
0
  6
CONTINUOUS
 62
     7
 10
433.6463060875
 20
109.6307510784
 30
0.0
 11
433.6463060875
 21
110.6307508698
 31
0.0
  0
LINE
  5
215
  8
0
  6
CONTINUOUS
 62
     7
 10
353.4463134308
 20
109.6307510784
 30
0.0
 11
348.6463156242
 21
109.6307510784
 31
0.0
  0
LINE
  5
216
  8
0
  6
CONTINUOUS
 62
     7
 10
348.6463156242
 20
109.6307510784
 30
0.0
 11
348.6463156242
 21
110.6307508698
 31
0.0
  0
POLYLINE
  5
217
  8
0
  6
CONTINUOUS
 62
     7
 66
     1
 10
0.0
 20
0.0
 30
0.0
  0
VERTEX
  5
367
  8
0
  6
CONTINUOUS
 62
     7
 10
114.4463148613
 20
96.1739829084
 30
0.0
  0
VERTEX
  5
368
  8
0
  6
CONTINUOUS
 62
     7
 10
113.9107075233
 20
95.4697495601
 30
0.0
  0
VERTEX
  5
369
  8
0
  6
CONTINUOUS
 62
     7
 10
113.4463158149
 20
94.7045600316
 30
0.0
  0
SEQEND
  5
37E
  8
0
  6
CONTINUOUS
 62
     7
  0
LINE
  5
218
  8
0
  6
CONTINUOUS
 62
     7
 10
125.8020964164
 20
104.5254117152
 30
0.0
 11
125.9256330032
 21
104.5307508013
 31
0.0
  0
ARC
  5
219
  8
0
  6
CONTINUOUS
 62
     7
 10
126.2859007725
 20
89.624580698
 30
0.0
 40
10.07562997172435
 50
100.5231352619
 51
180.5335814189
  0
LINE
  5
21A
  8
0
  6
CONTINUOUS
 62
     7
 10
176.4782425661
 20
34.5371356508
 30
0.0
 11
176.3669964571
 21
34.5307519934
 31
0.0
  0
ARC
  5
21B
  8
0
  6
CONTINUOUS
 62
     7
 10
176.0067425987
 20
49.4369145433
 30
0.0
 40
10.07561908403449
 50
280.5230835409
 51
0.5336080021
  0
POLYLINE
  5
21C
  8
0
  6
CONTINUOUS
 62
     7
 66
     1
 10
0.0
 20
0.0
 30
0.0
  0
VERTEX
  5
36A
  8
0
  6
CONTINUOUS
 62
     7
 10
187.8463160891
 20
96.1739829084
 30
0.0
  0
VERTEX
  5
36B
  8
0
  6
CONTINUOUS
 62
     7
 10
188.3819234271
 20
95.4697495601
 30
0.0
  0
VERTEX
  5
36C
  8
0
  6
CONTINUOUS
 62
     7
 10
188.8463151354
 20
94.7045600316
 30
0.0
  0
SEQEND
  5
37D
  8
0
  6
CONTINUOUS
 62
     7
  0
ARC
  5
21D
  8
0
  6
CONTINUOUS
 62
     7
 10
176.0244746544
 20
89.639192144
 30
0.0
 40
10.0580346790873
 50
359.3822465328
 51
79.5610367863
  0
ARC
  5
21E
  8
0
  6
CONTINUOUS
 62
     7
 10
126.2681486993
 20
49.4223046093
 30
0.0
 40
10.05802562587866
 50
179.3822285381
 51
259.5610799189
  0
LINE
  5
21F
  8
0
  6
CONTINUOUS
 62
     7
 10
125.9256330032
 20
34.5307519934
 30
0.0
 11
125.8324947853
 21
34.5360031626
 31
0.0
  0
LINE
  5
220
  8
0
  6
CONTINUOUS
 62
     7
 10
116.210707714
 20
89.5307502052
 30
0.0
 11
116.210707714
 21
49.5307496092
 31
0.0
  0
LINE
  5
221
  8
0
  6
CONTINUOUS
 62
     7
 10
186.0819247265
 20
49.5307496092
 30
0.0
 11
186.0819247265
 21
89.5307502052
 31
0.0
  0
LINE
  5
222
  8
0
  6
CONTINUOUS
 62
     7
 10
187.8463160891
 20
98.5428383848
 30
0.0
 11
188.8463151354
 21
98.5428383848
 31
0.0
  0
LINE
  5
223
  8
0
  6
CONTINUOUS
 62
     7
 10
187.8463160891
 20
122.3912677071
 30
0.0
 11
187.8463160891
 21
98.5428383848
 31
0.0
  0
LINE
  5
224
  8
0
  6
CONTINUOUS
 62
     7
 10
188.8463151354
 20
122.3912677071
 30
0.0
 11
188.8463151354
 21
98.5428383848
 31
0.0
  0
LINE
  5
225
  8
0
  6
CONTINUOUS
 62
     7
 10
114.4463148613
 20
98.5428383848
 30
0.0
 11
113.4463158149
 21
98.5428383848
 31
0.0
  0
LINE
  5
226
  8
0
  6
CONTINUOUS
 62
     7
 10
113.4463158149
 20
122.3912677071
 30
0.0
 11
113.4463158149
 21
98.5428383848
 31
0.0
  0
LINE
  5
227
  8
0
  6
CONTINUOUS
 62
     7
 10
114.4463148613
 20
122.3912677071
 30
0.0
 11
114.4463148613
 21
98.5428383848
 31
0.0
  0
LINE
  5
228
  8
0
  6
CONTINUOUS
 62
     7
 10
187.8463160891
 20
98.5428383848
 30
0.0
 11
187.8463160891
 21
96.1739829084
 31
0.0
  0
LINE
  5
229
  8
0
  6
CONTINUOUS
 62
     7
 10
188.8463151354
 20
98.5428383848
 30
0.0
 11
188.8463151354
 21
94.7045600316
 31
0.0
  0
LINE
  5
22A
  8
0
  6
CONTINUOUS
 62
     7
 10
113.4463158149
 20
98.5428383848
 30
0.0
 11
113.4463158149
 21
94.7045600316
 31
0.0
  0
LINE
  5
22B
  8
0
  6
CONTINUOUS
 62
     7
 10
114.4463148613
 20
98.5428383848
 30
0.0
 11
114.4463148613
 21
96.1739829084
 31
0.0
  0
LINE
  5
22C
  8
0
  6
CONTINUOUS
 62
     7
 10
124.4457629223
 20
39.5307531855
 30
0.0
 11
177.8468695182
 21
39.5307531855
 31
0.0
  0
LINE
  5
22D
  8
0
  6
CONTINUOUS
 62
     7
 10
124.4457629223
 20
99.5307510993
 30
0.0
 11
177.8468695182
 21
99.5307510993
 31
0.0
  0
LINE
  5
22E
  8
0
  6
CONTINUOUS
 62
     7
 10
125.9256330032
 20
104.5307508013
 30
0.0
 11
176.3669964571
 21
104.5307508013
 31
0.0
  0
LINE
  5
22F
  8
0
  6
CONTINUOUS
 62
     7
 10
176.3669964571
 20
34.5307519934
 30
0.0
 11
125.9256330032
 21
34.5307519934
 31
0.0
  0
LINE
  5
230
  8
0
  6
CONTINUOUS
 62
     7
 10
114.4463148613
 20
124.2307512364
 30
0.0
 11
113.4463158149
 21
124.2307512364
 31
0.0
  0
LINE
  5
231
  8
0
  6
CONTINUOUS
 62
     7
 10
113.4463158149
 20
124.2307512364
 30
0.0
 11
113.4463158149
 21
122.3912677071
 31
0.0
  0
LINE
  5
232
  8
0
  6
CONTINUOUS
 62
     7
 10
114.4463148613
 20
124.2307512364
 30
0.0
 11
114.4463148613
 21
122.3912677071
 31
0.0
  0
LINE
  5
233
  8
0
  6
CONTINUOUS
 62
     7
 10
187.8463160891
 20
124.2307512364
 30
0.0
 11
188.8463151354
 21
124.2307512364
 31
0.0
  0
LINE
  5
234
  8
0
  6
CONTINUOUS
 62
     7
 10
187.8463160891
 20
124.2307512364
 30
0.0
 11
187.8463160891
 21
122.3912677071
 31
0.0
  0
LINE
  5
235
  8
0
  6
CONTINUOUS
 62
     7
 10
188.8463151354
 20
124.2307512364
 30
0.0
 11
188.8463151354
 21
122.3912677071
 31
0.0
  0
LINE
  5
236
  8
0
  6
CONTINUOUS
 62
     7
 10
183.6463150282
 20
110.6307508698
 30
0.0
 11
183.6463150282
 21
120.4307509861
 31
0.0
  0
LINE
  5
237
  8
0
  6
CONTINUOUS
 62
     7
 10
118.6463144321
 20
110.6307508698
 30
0.0
 11
118.6463144321
 21
120.4307509861
 31
0.0
  0
LINE
  5
238
  8
0
  6
CONTINUOUS
 62
     7
 10
118.6463144321
 20
121.4307507774
 30
0.0
 11
114.4463148613
 21
121.4307507774
 31
0.0
  0
LINE
  5
239
  8
0
  6
CONTINUOUS
 62
     7
 10
118.6463144321
 20
121.4307507774
 30
0.0
 11
118.6463144321
 21
120.4307509861
 31
0.0
  0
LINE
  5
23A
  8
0
  6
CONTINUOUS
 62
     7
 10
187.8463160891
 20
121.4307507774
 30
0.0
 11
183.6463150282
 21
121.4307507774
 31
0.0
  0
LINE
  5
23B
  8
0
  6
CONTINUOUS
 62
     7
 10
183.6463150282
 20
120.4307509861
 30
0.0
 11
183.6463150282
 21
121.4307507774
 31
0.0
  0
LINE
  5
23C
  8
0
  6
CONTINUOUS
 62
     7
 10
187.8463160891
 20
109.6307510784
 30
0.0
 11
183.6463150282
 21
109.6307510784
 31
0.0
  0
LINE
  5
23D
  8
0
  6
CONTINUOUS
 62
     7
 10
183.6463150282
 20
109.6307510784
 30
0.0
 11
183.6463150282
 21
110.6307508698
 31
0.0
  0
LINE
  5
23E
  8
0
  6
CONTINUOUS
 62
     7
 10
118.6463144321
 20
109.6307510784
 30
0.0
 11
114.4463148613
 21
109.6307510784
 31
0.0
  0
LINE
  5
23F
  8
0
  6
CONTINUOUS
 62
     7
 10
118.6463144321
 20
110.6307508698
 30
0.0
 11
118.6463144321
 21
109.6307510784
 31
0.0
  0
LINE
  5
240
  8
0
  6
CONTINUOUS
 62
     7
 10
108.6463180084
 20
110.6307508698
 30
0.0
 11
108.6463180084
 21
120.4307509861
 31
0.0
  0
LINE
  5
241
  8
0
  6
CONTINUOUS
 62
     7
 10
193.6463159222
 20
120.4307509861
 30
0.0
 11
193.6463159222
 21
121.4307507774
 31
0.0
  0
LINE
  5
242
  8
0
  6
CONTINUOUS
 62
     7
 10
193.6463159222
 20
121.4307507774
 30
0.0
 11
188.8463151354
 21
121.4307507774
 31
0.0
  0
LINE
  5
243
  8
0
  6
CONTINUOUS
 62
     7
 10
193.6463159222
 20
110.6307508698
 30
0.0
 11
193.6463159222
 21
120.4307509861
 31
0.0
  0
LINE
  5
244
  8
0
  6
CONTINUOUS
 62
     7
 10
108.6463180084
 20
120.4307509861
 30
0.0
 11
108.6463180084
 21
121.4307507774
 31
0.0
  0
LINE
  5
245
  8
0
  6
CONTINUOUS
 62
     7
 10
113.4463158149
 20
121.4307507774
 30
0.0
 11
108.6463180084
 21
121.4307507774
 31
0.0
  0
LINE
  5
246
  8
0
  6
CONTINUOUS
 62
     7
 10
193.6463159222
 20
109.6307510784
 30
0.0
 11
188.8463151354
 21
109.6307510784
 31
0.0
  0
LINE
  5
247
  8
0
  6
CONTINUOUS
 62
     7
 10
193.6463159222
 20
109.6307510784
 30
0.0
 11
193.6463159222
 21
110.6307508698
 31
0.0
  0
LINE
  5
248
  8
0
  6
CONTINUOUS
 62
     7
 10
113.4463158149
 20
109.6307510784
 30
0.0
 11
108.6463180084
 21
109.6307510784
 31
0.0
  0
LINE
  5
249
  8
0
  6
CONTINUOUS
 62
     7
 10
108.6463180084
 20
109.6307510784
 30
0.0
 11
108.6463180084
 21
110.6307508698
 31
0.0
  0
POLYLINE
  5
24A
  8
0
  6
CONTINUOUS
 62
     7
 66
     1
 10
0.0
 20
0.0
 30
0.0
  0
VERTEX
  5
36D
  8
0
  6
CONTINUOUS
 62
     7
 10
-5.5536899071
 20
96.1739829084
 30
0.0
  0
VERTEX
  5
36E
  8
0
  6
CONTINUOUS
 62
     7
 10
-6.0892972451
 20
95.4697495601
 30
0.0
  0
VERTEX
  5
36F
  8
0
  6
CONTINUOUS
 62
     7
 10
-6.5536889534
 20
94.7045600316
 30
0.0
  0
SEQEND
  5
37C
  8
0
  6
CONTINUOUS
 62
     7
  0
LINE
  5
24B
  8
0
  6
CONTINUOUS
 62
     7
 10
5.8020916481
 20
104.5254117152
 30
0.0
 11
5.9256401558
 21
104.5307508013
 31
0.0
  0
ARC
  5
24C
  8
0
  6
CONTINUOUS
 62
     7
 10
6.2859020716
 20
89.6245767982
 30
0.0
 40
10.0756360026201
 50
100.5231984591
 51
180.5335589222
  0
ARC
  5
24D
  8
0
  6
CONTINUOUS
 62
     7
 10
56.0067360575
 20
49.4369220085
 30
0.0
 40
10.07562674746249
 50
280.5230856997
 51
0.533565143
  0
LINE
  5
24E
  8
0
  6
CONTINUOUS
 62
     7
 10
56.4782467384
 20
34.5371356508
 30
0.0
 11
56.3670006294
 21
34.5307519934
 31
0.0
  0
POLYLINE
  5
24F
  8
0
  6
CONTINUOUS
 62
     7
 66
     1
 10
0.0
 20
0.0
 30
0.0
  0
VERTEX
  5
370
  8
0
  6
CONTINUOUS
 62
     7
 10
67.8463187713
 20
96.1739829084
 30
0.0
  0
VERTEX
  5
371
  8
0
  6
CONTINUOUS
 62
     7
 10
68.3819261093
 20
95.4697495601
 30
0.0
  0
VERTEX
  5
372
  8
0
  6
CONTINUOUS
 62
     7
 10
68.8463178177
 20
94.7045600316
 30
0.0
  0
SEQEND
  5
37B
  8
0
  6
CONTINUOUS
 62
     7
  0
ARC
  5
250
  8
0
  6
CONTINUOUS
 62
     7
 10
56.0244680666
 20
89.639184651
 30
0.0
 40
10.05804237770572
 50
359.3822896921
 51
79.5610343275
  0
LINE
  5
251
  8
0
  6
CONTINUOUS
 62
     7
 10
5.9256401558
 20
34.5307519934
 30
0.0
 11
5.8324900169
 21
34.5360031626
 31
0.0
  0
ARC
  5
252
  8
0
  6
CONTINUOUS
 62
     7
 10
6.2681509561
 20
49.4223093083
 30
0.0
 40
10.05803259991573
 50
179.3822557359
 51
259.5610120207
  0
LINE
  5
253
  8
0
  6
CONTINUOUS
 62
     7
 10
-3.7892970543
 20
89.5307502052
 30
0.0
 11
-3.7892970543
 21
49.5307496092
 31
0.0
  0
LINE
  5
254
  8
0
  6
CONTINUOUS
 62
     7
 10
66.0819259185
 20
49.5307496092
 30
0.0
 11
66.0819259185
 21
89.5307502052
 31
0.0
  0
LINE
  5
255
  8
0
  6
CONTINUOUS
 62
     7
 10
67.8463187713
 20
98.5428383848
 30
0.0
 11
68.8463178177
 21
98.5428383848
 31
0.0
  0
LINE
  5
256
  8
0
  6
CONTINUOUS
 62
     7
 10
68.8463178177
 20
122.3912677071
 30
0.0
 11
68.8463178177
 21
98.5428383848
 31
0.0
  0
LINE
  5
257
  8
0
  6
CONTINUOUS
 62
     7
 10
67.8463187713
 20
122.3912677071
 30
0.0
 11
67.8463187713
 21
98.5428383848
 31
0.0
  0
LINE
  5
258
  8
0
  6
CONTINUOUS
 62
     7
 10
-5.5536899071
 20
98.5428383848
 30
0.0
 11
-6.5536889534
 21
98.5428383848
 31
0.0
  0
LINE
  5
259
  8
0
  6
CONTINUOUS
 62
     7
 10
-6.5536889534
 20
122.3912677071
 30
0.0
 11
-6.5536889534
 21
98.5428383848
 31
0.0
  0
LINE
  5
25A
  8
0
  6
CONTINUOUS
 62
     7
 10
-5.5536899071
 20
122.3912677071
 30
0.0
 11
-5.5536899071
 21
98.5428383848
 31
0.0
  0
LINE
  5
25B
  8
0
  6
CONTINUOUS
 62
     7
 10
68.8463178177
 20
98.5428383848
 30
0.0
 11
68.8463178177
 21
94.7045600316
 31
0.0
  0
LINE
  5
25C
  8
0
  6
CONTINUOUS
 62
     7
 10
67.8463187713
 20
98.5428383848
 30
0.0
 11
67.8463187713
 21
96.1739829084
 31
0.0
  0
LINE
  5
25D
  8
0
  6
CONTINUOUS
 62
     7
 10
-6.5536889534
 20
98.5428383848
 30
0.0
 11
-6.5536889534
 21
94.7045600316
 31
0.0
  0
LINE
  5
25E
  8
0
  6
CONTINUOUS
 62
     7
 10
-5.5536899071
 20
98.5428383848
 30
0.0
 11
-5.5536899071
 21
96.1739829084
 31
0.0
  0
LINE
  5
25F
  8
0
  6
CONTINUOUS
 62
     7
 10
4.4457521934
 20
39.5307531855
 30
0.0
 11
57.8468647499
 21
39.5307531855
 31
0.0
  0
LINE
  5
260
  8
0
  6
CONTINUOUS
 62
     7
 10
4.4457521934
 20
99.5307510993
 30
0.0
 11
57.8468647499
 21
99.5307510993
 31
0.0
  0
LINE
  5
261
  8
0
  6
CONTINUOUS
 62
     7
 10
5.9256401558
 20
104.5307508013
 30
0.0
 11
56.3670006294
 21
104.5307508013
 31
0.0
  0
LINE
  5
262
  8
0
  6
CONTINUOUS
 62
     7
 10
56.3670006294
 20
34.5307519934
 30
0.0
 11
5.9256401558
 21
34.5307519934
 31
0.0
  0
LINE
  5
263
  8
0
  6
CONTINUOUS
 62
     7
 10
67.8463187713
 20
124.2307512364
 30
0.0
 11
68.8463178177
 21
124.2307512364
 31
0.0
  0
LINE
  5
264
  8
0
  6
CONTINUOUS
 62
     7
 10
68.8463178177
 20
124.2307512364
 30
0.0
 11
68.8463178177
 21
122.3912677071
 31
0.0
  0
LINE
  5
265
  8
0
  6
CONTINUOUS
 62
     7
 10
67.8463187713
 20
124.2307512364
 30
0.0
 11
67.8463187713
 21
122.3912677071
 31
0.0
  0
LINE
  5
266
  8
0
  6
CONTINUOUS
 62
     7
 10
-5.5536899071
 20
124.2307512364
 30
0.0
 11
-6.5536889534
 21
124.2307512364
 31
0.0
  0
LINE
  5
267
  8
0
  6
CONTINUOUS
 62
     7
 10
-6.5536889534
 20
124.2307512364
 30
0.0
 11
-6.5536889534
 21
122.3912677071
 31
0.0
  0
LINE
  5
268
  8
0
  6
CONTINUOUS
 62
     7
 10
-5.5536899071
 20
124.2307512364
 30
0.0
 11
-5.5536899071
 21
122.3912677071
 31
0.0
  0
LINE
  5
269
  8
0
  6
CONTINUOUS
 62
     7
 10
-1.3536843758
 20
110.6307508698
 30
0.0
 11
-1.3536843758
 21
120.4307509861
 31
0.0
  0
LINE
  5
26A
  8
0
  6
CONTINUOUS
 62
     7
 10
63.64631324
 20
110.6307508698
 30
0.0
 11
63.64631324
 21
120.4307509861
 31
0.0
  0
LINE
  5
26B
  8
0
  6
CONTINUOUS
 62
     7
 10
67.8463187713
 20
121.4307507774
 30
0.0
 11
63.64631324
 21
121.4307507774
 31
0.0
  0
LINE
  5
26C
  8
0
  6
CONTINUOUS
 62
     7
 10
63.64631324
 20
120.4307509861
 30
0.0
 11
63.64631324
 21
121.4307507774
 31
0.0
  0
LINE
  5
26D
  8
0
  6
CONTINUOUS
 62
     7
 10
-1.3536843758
 20
121.4307507774
 30
0.0
 11
-5.5536899071
 21
121.4307507774
 31
0.0
  0
LINE
  5
26E
  8
0
  6
CONTINUOUS
 62
     7
 10
-1.3536843758
 20
121.4307507774
 30
0.0
 11
-1.3536843758
 21
120.4307509861
 31
0.0
  0
LINE
  5
26F
  8
0
  6
CONTINUOUS
 62
     7
 10
67.8463187713
 20
109.6307510784
 30
0.0
 11
63.64631324
 21
109.6307510784
 31
0.0
  0
LINE
  5
270
  8
0
  6
CONTINUOUS
 62
     7
 10
63.64631324
 20
109.6307510784
 30
0.0
 11
63.64631324
 21
110.6307508698
 31
0.0
  0
LINE
  5
271
  8
0
  6
CONTINUOUS
 62
     7
 10
-1.3536843758
 20
109.6307510784
 30
0.0
 11
-5.5536899071
 21
109.6307510784
 31
0.0
  0
LINE
  5
272
  8
0
  6
CONTINUOUS
 62
     7
 10
-1.3536843758
 20
110.6307508698
 30
0.0
 11
-1.3536843758
 21
109.6307510784
 31
0.0
  0
LINE
  5
273
  8
0
  6
CONTINUOUS
 62
     7
 10
-11.3536748391
 20
110.6307508698
 30
0.0
 11
-11.3536748391
 21
120.4307509861
 31
0.0
  0
LINE
  5
274
  8
0
  6
CONTINUOUS
 62
     7
 10
73.6463156242
 20
120.4307509861
 30
0.0
 11
73.6463156242
 21
121.4307507774
 31
0.0
  0
LINE
  5
275
  8
0
  6
CONTINUOUS
 62
     7
 10
73.6463156242
 20
121.4307507774
 30
0.0
 11
68.8463178177
 21
121.4307507774
 31
0.0
  0
LINE
  5
276
  8
0
  6
CONTINUOUS
 62
     7
 10
73.6463156242
 20
110.6307508698
 30
0.0
 11
73.6463156242
 21
120.4307509861
 31
0.0
  0
LINE
  5
277
  8
0
  6
CONTINUOUS
 62
     7
 10
-11.3536748391
 20
120.4307509861
 30
0.0
 11
-11.3536748391
 21
121.4307507774
 31
0.0
  0
LINE
  5
278
  8
0
  6
CONTINUOUS
 62
     7
 10
-6.5536889534
 20
121.4307507774
 30
0.0
 11
-11.3536748391
 21
121.4307507774
 31
0.0
  0
LINE
  5
279
  8
0
  6
CONTINUOUS
 62
     7
 10
73.6463156242
 20
109.6307510784
 30
0.0
 11
68.8463178177
 21
109.6307510784
 31
0.0
  0
LINE
  5
27A
  8
0
  6
CONTINUOUS
 62
     7
 10
73.6463156242
 20
109.6307510784
 30
0.0
 11
73.6463156242
 21
110.6307508698
 31
0.0
  0
LINE
  5
27B
  8
0
  6
CONTINUOUS
 62
     7
 10
-6.5536889534
 20
109.6307510784
 30
0.0
 11
-11.3536748391
 21
109.6307510784
 31
0.0
  0
LINE
  5
27C
  8
0
  6
CONTINUOUS
 62
     7
 10
-11.3536748391
 20
109.6307510784
 30
0.0
 11
-11.3536748391
 21
110.6307508698
 31
0.0
  0
POLYLINE
  5
27D
  8
0
  6
CONTINUOUS
 62
     7
 66
     1
 10
0.0
 20
0.0
 30
0.0
  0
VERTEX
  5
373
  8
0
  6
CONTINUOUS
 62
     7
 10
234.4463151593
 20
96.1739829084
 30
0.0
  0
VERTEX
  5
374
  8
0
  6
CONTINUOUS
 62
     7
 10
233.9107078213
 20
95.4697495601
 30
0.0
  0
VERTEX
  5
375
  8
0
  6
CONTINUOUS
 62
     7
 10
233.446316113
 20
94.7045600316
 30
0.0
  0
SEQEND
  5
37A
  8
0
  6
CONTINUOUS
 62
     7
  0
LINE
  5
27E
  8
0
  6
CONTINUOUS
 62
     7
 10
245.8020952243
 20
104.5254117152
 30
0.0
 11
245.9256347913
 21
104.5307508013
 31
0.0
  0
ARC
  5
27F
  8
0
  6
CONTINUOUS
 62
     7
 10
246.2858945961
 20
89.6245848027
 30
0.0
 40
10.075625025825
 50
100.5231116577
 51
180.5336050231
  0
ARC
  5
280
  8
0
  6
CONTINUOUS
 62
     7
 10
296.0067364223
 20
49.4369186479
 30
0.0
 40
10.07562402994021
 50
280.5231071452
 51
0.5335843978
  0
LINE
  5
281
  8
0
  6
CONTINUOUS
 62
     7
 10
296.4782443542
 20
34.5371356508
 30
0.0
 11
296.3669982452
 21
34.5307519934
 31
0.0
  0
POLYLINE
  5
282
  8
0
  6
CONTINUOUS
 62
     7
 66
     1
 10
0.0
 20
0.0
 30
0.0
  0
VERTEX
  5
376
  8
0
  6
CONTINUOUS
 62
     7
 10
307.8463163871
 20
96.1739829084
 30
0.0
  0
VERTEX
  5
377
  8
0
  6
CONTINUOUS
 62
     7
 10
308.3819237251
 20
95.4697495601
 30
0.0
  0
VERTEX
  5
378
  8
0
  6
CONTINUOUS
 62
     7
 10
308.8463154335
 20
94.7045600316
 30
0.0
  0
SEQEND
  5
379
  8
0
  6
CONTINUOUS
 62
     7
  0
ARC
  5
283
  8
0
  6
CONTINUOUS
 62
     7
 10
296.0244757505
 20
89.6391940284
 30
0.0
 40
10.0580324113126
 50
359.3822356586
 51
79.5610476606
  0
LINE
  5
284
  8
0
  6
CONTINUOUS
 62
     7
 10
245.9256347913
 20
34.5307519934
 30
0.0
 11
245.8324965734
 21
34.5360031626
 31
0.0
  0
ARC
  5
285
  8
0
  6
CONTINUOUS
 62
     7
 10
246.2681497955
 20
49.4223064937
 30
0.0
 40
10.0580278936427
 50
179.3822394123
 51
259.5610690447
  0
LINE
  5
286
  8
0
  6
CONTINUOUS
 62
     7
 10
236.210706522
 20
89.5307502052
 30
0.0
 11
236.210706522
 21
49.5307496092
 31
0.0
  0
LINE
  5
287
  8
0
  6
CONTINUOUS
 62
     7
 10
306.0819235344
 20
49.5307496092
 30
0.0
 11
306.0819235344
 21
89.5307502052
 31
0.0
  0
LINE
  5
288
  8
0
  6
CONTINUOUS
 62
     7
 10
307.8463163871
 20
98.5428383848
 30
0.0
 11
308.8463154335
 21
98.5428383848
 31
0.0
  0
LINE
  5
289
  8
0
  6
CONTINUOUS
 62
     7
 10
307.8463163871
 20
122.3912677071
 30
0.0
 11
307.8463163871
 21
98.5428383848
 31
0.0
  0
LINE
  5
28A
  8
0
  6
CONTINUOUS
 62
     7
 10
308.8463154335
 20
122.3912677071
 30
0.0
 11
308.8463154335
 21
98.5428383848
 31
0.0
  0
LINE
  5
28B
  8
0
  6
CONTINUOUS
 62
     7
 10
234.4463151593
 20
98.5428383848
 30
0.0
 11
233.446316113
 21
98.5428383848
 31
0.0
  0
LINE
  5
28C
  8
0
  6
CONTINUOUS
 62
     7
 10
233.446316113
 20
122.3912677071
 30
0.0
 11
233.446316113
 21
98.5428383848
 31
0.0
  0
LINE
  5
28D
  8
0
  6
CONTINUOUS
 62
     7
 10
234.4463151593
 20
122.3912677071
 30
0.0
 11
234.4463151593
 21
98.5428383848
 31
0.0
  0
LINE
  5
28E
  8
0
  6
CONTINUOUS
 62
     7
 10
307.8463163871
 20
98.5428383848
 30
0.0
 11
307.8463163871
 21
96.1739829084
 31
0.0
  0
LINE
  5
28F
  8
0
  6
CONTINUOUS
 62
     7
 10
308.8463154335
 20
98.5428383848
 30
0.0
 11
308.8463154335
 21
94.7045600316
 31
0.0
  0
LINE
  5
290
  8
0
  6
CONTINUOUS
 62
     7
 10
233.446316113
 20
98.5428383848
 30
0.0
 11
233.446316113
 21
94.7045600316
 31
0.0
  0
LINE
  5
291
  8
0
  6
CONTINUOUS
 62
     7
 10
234.4463151593
 20
98.5428383848
 30
0.0
 11
234.4463151593
 21
96.1739829084
 31
0.0
  0
LINE
  5
292
  8
0
  6
CONTINUOUS
 62
     7
 10
244.4457617302
 20
39.5307531855
 30
0.0
 11
297.8468683262
 21
39.5307531855
 31
0.0
  0
LINE
  5
293
  8
0
  6
CONTINUOUS
 62
     7
 10
244.4457617302
 20
99.5307510993
 30
0.0
 11
297.8468683262
 21
99.5307510993
 31
0.0
  0
LINE
  5
294
  8
0
  6
CONTINUOUS
 62
     7
 10
245.9256347913
 20
104.5307508013
 30
0.0
 11
296.3669982452
 21
104.5307508013
 31
0.0
  0
LINE
  5
295
  8
0
  6
CONTINUOUS
 62
     7
 10
296.3669982452
 20
34.5307519934
 30
0.0
 11
245.9256347913
 21
34.5307519934
 31
0.0
  0
LINE
  5
296
  8
0
  6
CONTINUOUS
 62
     7
 10
307.8463163871
 20
124.2307512364
 30
0.0
 11
308.8463154335
 21
124.2307512364
 31
0.0
  0
LINE
  5
297
  8
0
  6
CONTINUOUS
 62
     7
 10
307.8463163871
 20
124.2307512364
 30
0.0
 11
307.8463163871
 21
122.3912677071
 31
0.0
  0
LINE
  5
298
  8
0
  6
CONTINUOUS
 62
     7
 10
308.8463154335
 20
124.2307512364
 30
0.0
 11
308.8463154335
 21
122.3912677071
 31
0.0
  0
LINE
  5
299
  8
0
  6
CONTINUOUS
 62
     7
 10
234.4463151593
 20
124.2307512364
 30
0.0
 11
233.446316113
 21
124.2307512364
 31
0.0
  0
LINE
  5
29A
  8
0
  6
CONTINUOUS
 62
     7
 10
233.446316113
 20
124.2307512364
 30
0.0
 11
233.446316113
 21
122.3912677071
 31
0.0
  0
LINE
  5
29B
  8
0
  6
CONTINUOUS
 62
     7
 10
234.4463151593
 20
124.2307512364
 30
0.0
 11
234.4463151593
 21
122.3912677071
 31
0.0
  0
LINE
  5
29C
  8
0
  6
CONTINUOUS
 62
     7
 10
303.6463168163
 20
110.6307508698
 30
0.0
 11
303.6463168163
 21
120.4307509861
 31
0.0
  0
LINE
  5
29D
  8
0
  6
CONTINUOUS
 62
     7
 10
238.6463162202
 20
110.6307508698
 30
0.0
 11
238.6463162202
 21
120.4307509861
 31
0.0
  0
LINE
  5
29E
  8
0
  6
CONTINUOUS
 62
     7
 10
307.8463163871
 20
121.4307507774
 30
0.0
 11
303.6463168163
 21
121.4307507774
 31
0.0
  0
LINE
  5
29F
  8
0
  6
CONTINUOUS
 62
     7
 10
303.6463168163
 20
120.4307509861
 30
0.0
 11
303.6463168163
 21
121.4307507774
 31
0.0
  0
LINE
  5
2A0
  8
0
  6
CONTINUOUS
 62
     7
 10
238.6463162202
 20
121.4307507774
 30
0.0
 11
234.4463151593
 21
121.4307507774
 31
0.0
  0
LINE
  5
2A1
  8
0
  6
CONTINUOUS
 62
     7
 10
238.6463162202
 20
121.4307507774
 30
0.0
 11
238.6463162202
 21
120.4307509861
 31
0.0
  0
LINE
  5
2A2
  8
0
  6
CONTINUOUS
 62
     7
 10
307.8463163871
 20
109.6307510784
 30
0.0
 11
303.6463168163
 21
109.6307510784
 31
0.0
  0
LINE
  5
2A3
  8
0
  6
CONTINUOUS
 62
     7
 10
303.6463168163
 20
109.6307510784
 30
0.0
 11
303.6463168163
 21
110.6307508698
 31
0.0
  0
LINE
  5
2A4
  8
0
  6
CONTINUOUS
 62
     7
 10
238.6463162202
 20
109.6307510784
 30
0.0
 11
234.4463151593
 21
109.6307510784
 31
0.0
  0
LINE
  5
2A5
  8
0
  6
CONTINUOUS
 62
     7
 10
238.6463162202
 20
110.6307508698
 30
0.0
 11
238.6463162202
 21
109.6307510784
 31
0.0
  0
LINE
  5
2A6
  8
0
  6
CONTINUOUS
 62
     7
 10
313.64631324
 20
110.6307508698
 30
0.0
 11
313.64631324
 21
120.4307509861
 31
0.0
  0
LINE
  5
2A7
  8
0
  6
CONTINUOUS
 62
     7
 10
228.6463153262
 20
110.6307508698
 30
0.0
 11
228.6463153262
 21
120.4307509861
 31
0.0
  0
LINE
  5
2A8
  8
0
  6
CONTINUOUS
 62
     7
 10
313.64631324
 20
121.4307507774
 30
0.0
 11
308.8463154335
 21
121.4307507774
 31
0.0
  0
LINE
  5
2A9
  8
0
  6
CONTINUOUS
 62
     7
 10
313.64631324
 20
120.4307509861
 30
0.0
 11
313.64631324
 21
121.4307507774
 31
0.0
  0
LINE
  5
2AA
  8
0
  6
CONTINUOUS
 62
     7
 10
228.6463153262
 20
120.4307509861
 30
0.0
 11
228.6463153262
 21
121.4307507774
 31
0.0
  0
LINE
  5
2AB
  8
0
  6
CONTINUOUS
 62
     7
 10
233.446316113
 20
121.4307507774
 30
0.0
 11
228.6463153262
 21
121.4307507774
 31
0.0
  0
LINE
  5
2AC
  8
0
  6
CONTINUOUS
 62
     7
 10
313.64631324
 20
109.6307510784
 30
0.0
 11
308.8463154335
 21
109.6307510784
 31
0.0
  0
LINE
  5
2AD
  8
0
  6
CONTINUOUS
 62
     7
 10
313.64631324
 20
109.6307510784
 30
0.0
 11
313.64631324
 21
110.6307508698
 31
0.0
  0
LINE
  5
2AE
  8
0
  6
CONTINUOUS
 62
     7
 10
233.446316113
 20
109.6307510784
 30
0.0
 11
228.6463153262
 21
109.6307510784
 31
0.0
  0
LINE
  5
2AF
  8
0
  6
CONTINUOUS
 62
     7
 10
228.6463153262
 20
109.6307510784
 30
0.0
 11
228.6463153262
 21
110.6307508698
 31
0.0
  0
LINE
  5
2B0
  8
0
  6
CONTINUOUS
 62
     7
 10
-12.0536956292
 20
120.6307510188
 30
0.0
 11
-11.3536748391
 21
120.6307510188
 31
0.0
  0
LINE
  5
2B1
  8
0
  6
CONTINUOUS
 62
     7
 10
-1.3536843758
 20
120.6307510188
 30
0.0
 11
63.64631324
 21
120.6307510188
 31
0.0
  0
LINE
  5
2B2
  8
0
  6
CONTINUOUS
 62
     7
 10
73.6463156242
 20
120.6307510188
 30
0.0
 11
108.6463180084
 21
120.6307510188
 31
0.0
  0
LINE
  5
2B3
  8
0
  6
CONTINUOUS
 62
     7
 10
118.6463144321
 20
120.6307510188
 30
0.0
 11
183.6463150282
 21
120.6307510188
 31
0.0
  0
LINE
  5
2B4
  8
0
  6
CONTINUOUS
 62
     7
 10
193.6463159222
 20
120.6307510188
 30
0.0
 11
228.6463153262
 21
120.6307510188
 31
0.0
  0
LINE
  5
2B5
  8
0
  6
CONTINUOUS
 62
     7
 10
238.6463162202
 20
120.6307510188
 30
0.0
 11
303.6463168163
 21
120.6307510188
 31
0.0
  0
LINE
  5
2B6
  8
0
  6
CONTINUOUS
 62
     7
 10
313.64631324
 20
120.6307510188
 30
0.0
 11
348.6463156242
 21
120.6307510188
 31
0.0
  0
LINE
  5
2B7
  8
0
  6
CONTINUOUS
 62
     7
 10
358.6463180084
 20
120.6307510188
 30
0.0
 11
423.6463156242
 21
120.6307510188
 31
0.0
  0
LINE
  5
2B8
  8
0
  6
CONTINUOUS
 62
     7
 10
433.6463060875
 20
120.6307510188
 30
0.0
 11
434.3463268776
 21
120.6307510188
 31
0.0
  0
LINE
  5
2B9
  8
0
  6
CONTINUOUS
 62
     7
 10
434.7463217277
 20
120.2307509533
 30
0.0
 11
434.7463217277
 21
119.6307508549
 31
0.0
  0
ARC
  5
2BA
  8
0
  6
CONTINUOUS
 62
     7
 10
434.3463156242
 20
120.2307509443
 30
0.0
 40
0.4000000000000057
 50
0.0
 51
90.0
  0
LINE
  5
2BB
  8
0
  6
CONTINUOUS
 62
     7
 10
-12.4536904793
 20
119.6307508549
 30
0.0
 11
-12.4536904793
 21
120.2307509533
 31
0.0
  0
ARC
  5
2BC
  8
0
  6
CONTINUOUS
 62
     7
 10
-12.0536843758
 20
120.2307509443
 30
0.0
 40
0.4000000000000057
 50
90.0
 51
180.0
  0
LINE
  5
2BD
  8
0
  6
CONTINUOUS
 62
     7
 10
434.7463217277
 20
119.6307508549
 30
0.0
 11
434.7463217277
 21
111.6307510337
 31
0.0
  0
LINE
  5
2BE
  8
0
  6
CONTINUOUS
 62
     7
 10
-12.4536904793
 20
111.6307510337
 30
0.0
 11
-12.4536904793
 21
119.6307508549
 31
0.0
  0
ARC
  5
2BF
  8
0
  6
CONTINUOUS
 62
     7
 10
-12.0536843758
 20
111.0307509443
 30
0.0
 40
0.4000000000000057
 50
180.0
 51
270.0
  0
LINE
  5
2C0
  8
0
  6
CONTINUOUS
 62
     7
 10
-12.4536904793
 20
111.0307509354
 30
0.0
 11
-12.4536904793
 21
111.6307510337
 31
0.0
  0
LINE
  5
2C1
  8
0
  6
CONTINUOUS
 62
     7
 10
434.3463268776
 20
110.6307508698
 30
0.0
 11
433.6463060875
 21
110.6307508698
 31
0.0
  0
LINE
  5
2C2
  8
0
  6
CONTINUOUS
 62
     7
 10
423.6463156242
 20
110.6307508698
 30
0.0
 11
358.6463180084
 21
110.6307508698
 31
0.0
  0
LINE
  5
2C3
  8
0
  6
CONTINUOUS
 62
     7
 10
348.6463156242
 20
110.6307508698
 30
0.0
 11
313.64631324
 21
110.6307508698
 31
0.0
  0
LINE
  5
2C4
  8
0
  6
CONTINUOUS
 62
     7
 10
303.6463168163
 20
110.6307508698
 30
0.0
 11
238.6463162202
 21
110.6307508698
 31
0.0
  0
LINE
  5
2C5
  8
0
  6
CONTINUOUS
 62
     7
 10
228.6463153262
 20
110.6307508698
 30
0.0
 11
193.6463159222
 21
110.6307508698
 31
0.0
  0
LINE
  5
2C6
  8
0
  6
CONTINUOUS
 62
     7
 10
183.6463150282
 20
110.6307508698
 30
0.0
 11
118.6463144321
 21
110.6307508698
 31
0.0
  0
LINE
  5
2C7
  8
0
  6
CONTINUOUS
 62
     7
 10
108.6463180084
 20
110.6307508698
 30
0.0
 11
73.6463156242
 21
110.6307508698
 31
0.0
  0
LINE
  5
2C8
  8
0
  6
CONTINUOUS
 62
     7
 10
63.64631324
 20
110.6307508698
 30
0.0
 11
-1.3536843758
 21
110.6307508698
 31
0.0
  0
LINE
  5
2C9
  8
0
  6
CONTINUOUS
 62
     7
 10
-11.3536748391
 20
110.6307508698
 30
0.0
 11
-12.0536956292
 21
110.6307508698
 31
0.0
  0
LINE
  5
2CA
  8
0
  6
CONTINUOUS
 62
     7
 10
434.7463217277
 20
111.6307510337
 30
0.0
 11
434.7463217277
 21
111.0307509354
 31
0.0
  0
ARC
  5
2CB
  8
0
  6
CONTINUOUS
 62
     7
 10
434.3463156242
 20
111.0307509443
 30
0.0
 40
0.4000000000000057
 50
270.0
 51
0.0
  0
ARC
  5
2CC
  8
0
  6
CONTINUOUS
 62
     7
 10
99.1463156242
 20
121.6307509443
 30
0.0
 40
80.00000000000001
 50
187.9032077335
 51
192.3422028872
  0
LINE
  5
2CD
  8
0
  6
CONTINUOUS
 62
     7
 10
19.1525664825
 20
120.6307510188
 30
0.0
 11
19.1463199157
 21
121.6307508102
 31
0.0
  0
LINE
  5
2CE
  8
0
  6
CONTINUOUS
 62
     7
 10
19.1463199157
 20
123.6307507655
 30
0.0
 11
19.1463199157
 21
121.6307508102
 31
0.0
  0
ARC
  5
2CF
  8
0
  6
CONTINUOUS
 62
     7
 10
23.1463156242
 20
123.6307509443
 30
0.0
 40
4.000000000000014
 50
90.0
 51
180.0
  0
LINE
  5
2D0
  8
0
  6
CONTINUOUS
 62
     7
 10
39.1463127632
 20
127.6307506761
 30
0.0
 11
23.146316101
 21
127.6307506761
 31
0.0
  0
ARC
  5
2D1
  8
0
  6
CONTINUOUS
 62
     7
 10
39.1463156242
 20
123.6307509443
 30
0.0
 40
4.000000000000014
 50
0.0
 51
90.0
  0
LINE
  5
2D2
  8
0
  6
CONTINUOUS
 62
     7
 10
43.1463208694
 20
121.6307508102
 30
0.0
 11
43.1463208694
 21
123.6307507655
 31
0.0
  0
LINE
  5
2D3
  8
0
  6
CONTINUOUS
 62
     7
 10
43.1463208694
 20
121.6307508102
 30
0.0
 11
43.1400623817
 21
120.6307510188
 31
0.0
  0
ARC
  5
2D4
  8
0
  6
CONTINUOUS
 62
     7
 10
-36.8536843758
 20
121.6307509443
 30
0.0
 40
80.00000000000003
 50
347.6577971128
 51
352.0967922665
  0
CIRCLE
  5
2D5
  8
0
  6
CONTINUOUS
 62
     7
 10
23.1463156242
 20
123.6307509443
 30
0.0
 40
1.500000000000014
  0
CIRCLE
  5
2D6
  8
0
  6
CONTINUOUS
 62
     7
 10
39.1463156242
 20
123.6307509443
 30
0.0
 40
1.500000000000014
  0
ARC
  5
2D7
  8
0
  6
CONTINUOUS
 62
     7
 10
399.1463156242
 20
123.6307509443
 30
0.0
 40
4.0
 50
0.0
 51
90.0
  0
LINE
  5
2D8
  8
0
  6
CONTINUOUS
 62
     7
 10
403.1463113327
 20
121.6307508102
 30
0.0
 11
403.1463113327
 21
123.6307507655
 31
0.0
  0
LINE
  5
2D9
  8
0
  6
CONTINUOUS
 62
     7
 10
403.1463113327
 20
121.6307508102
 30
0.0
 11
403.1400647659
 21
120.6307510188
 31
0.0
  0
ARC
  5
2DA
  8
0
  6
CONTINUOUS
 62
     7
 10
323.1463156242
 20
121.6307509443
 30
0.0
 40
80.00000000000004
 50
347.6577971128
 51
352.0967922665
  0
ARC
  5
2DB
  8
0
  6
CONTINUOUS
 62
     7
 10
459.1463156242
 20
121.6307509443
 30
0.0
 40
80.00000000000004
 50
187.9032077335
 51
192.3422028872
  0
LINE
  5
2DC
  8
0
  6
CONTINUOUS
 62
     7
 10
379.1525688667
 20
120.6307510188
 30
0.0
 11
379.146310379
 21
121.6307508102
 31
0.0
  0
LINE
  5
2DD
  8
0
  6
CONTINUOUS
 62
     7
 10
379.146310379
 20
123.6307507655
 30
0.0
 11
379.146310379
 21
121.6307508102
 31
0.0
  0
ARC
  5
2DE
  8
0
  6
CONTINUOUS
 62
     7
 10
383.1463156242
 20
123.6307509443
 30
0.0
 40
4.0
 50
90.0
 51
180.0
  0
LINE
  5
2DF
  8
0
  6
CONTINUOUS
 62
     7
 10
399.1463151474
 20
127.6307506761
 30
0.0
 11
383.1463184852
 21
127.6307506761
 31
0.0
  0
CIRCLE
  5
2E0
  8
0
  6
CONTINUOUS
 62
     7
 10
399.1463156242
 20
123.6307509443
 30
0.0
 40
1.500000000000028
  0
CIRCLE
  5
2E1
  8
0
  6
CONTINUOUS
 62
     7
 10
383.1463156242
 20
123.6307509443
 30
0.0
 40
1.500000000000028
  0
ENDSEC
  0
EOF
