  0
SECTION
  2
HEADER
  9
$ACADVER
  1
AC1009
  9
$DWGCODEPAGE
  3
ansi_1252
  9
$INSBASE
 10
0.0
 20
0.0
 30
0.0
  9
$EXTMIN
 10
0.0
 20
0.0
 30
0.0
  9
$EXTMAX
 10
420.0
 20
297.0
 30
0.0
  9
$LIMMIN
 10
0.0
 20
0.0
  9
$LIMMAX
 10
420.0
 20
297.0
  9
$ORTHOMODE
 70
     0
  9
$REGENMODE
 70
     1
  9
$FILLMODE
 70
     1
  9
$QTEXTMODE
 70
     0
  9
$MIRRTEXT
 70
     1
  9
$DRAGMODE
 70
     2
  9
$LTSCALE
 40
1.0
  9
$OSMODE
 70
    37
  9
$ATTMODE
 70
     1
  9
$TEXTSIZE
 40
3.5
  9
$TRACEWID
 40
1.0
  9
$TEXTSTYLE
  7
STANDARD
  9
$CLAYER
  8
0
  9
$CELTYPE
  6
BYLAYER
  9
$CECOLOR
 62
   256
  9
$DIMSCALE
 40
1.0
  9
$DIMASZ
 40
4.0
  9
$DIMEXO
 40
0.0
  9
$DIMDLI
 40
3.75
  9
$DIMRND
 40
0.0
  9
$DIMDLE
 40
0.0
  9
$DIMEXE
 40
2.0
  9
$DIMTP
 40
0.0
  9
$DIMTM
 40
0.0
  9
$DIMTXT
 40
3.5
  9
$DIMCEN
 40
2.5
  9
$DIMTSZ
 40
0.0
  9
$DIMTOL
 70
     0
  9
$DIMLIM
 70
     0
  9
$DIMTIH
 70
     1
  9
$DIMTOH
 70
     1
  9
$DIMSE1
 70
     0
  9
$DIMSE2
 70
     0
  9
$DIMTAD
 70
     1
  9
$DIMZIN
 70
     0
  9
$DIMBLK
  1

  9
$DIMASO
 70
     1
  9
$DIMSHO
 70
     1
  9
$DIMPOST
  1

  9
$DIMAPOST
  1

  9
$DIMALT
 70
     0
  9
$DIMALTD
 70
     3
  9
$DIMALTF
 40
0.0393700787
  9
$DIMLFAC
 40
5.0
  9
$DIMTOFL
 70
     1
  9
$DIMTVP
 40
0.0
  9
$DIMTIX
 70
     0
  9
$DIMSOXD
 70
     0
  9
$DIMSAH
 70
     0
  9
$DIMBLK1
  1

  9
$DIMBLK2
  1

  9
$DIMSTYLE
  2
ISO-25
  9
$DIMCLRD
 70
     0
  9
$DIMCLRE
 70
     0
  9
$DIMCLRT
 70
     0
  9
$DIMTFAC
 40
1.0
  9
$DIMGAP
 40
1.524
  9
$LUNITS
 70
     2
  9
$LUPREC
 70
     2
  9
$SKETCHINC
 40
1.0
  9
$FILLETRAD
 40
10.0
  9
$AUNITS
 70
     0
  9
$AUPREC
 70
     2
  9
$MENU
  1
.
  9
$ELEVATION
 40
0.0
  9
$PELEVATION
 40
0.0
  9
$THICKNESS
 40
0.0
  9
$LIMCHECK
 70
     0
  9
$CHAMFERA
 40
10.0
  9
$CHAMFERB
 40
10.0
  9
$SKPOLY
 70
     0
  9
$TDCREATE
 40
2457802.542425718
  9
$TDUPDATE
 40
2457802.542425891
  9
$TDINDWG
 40
0.0000000116
  9
$TDUSRTIMER
 40
0.0000000116
  9
$USRTIMER
 70
     1
  9
$ANGBASE
 50
0.0
  9
$ANGDIR
 70
     0
  9
$PDMODE
 70
     0
  9
$PDSIZE
 40
-1.0
  9
$PLINEWID
 40
0.0
  9
$COORDS
 70
     1
  9
$SPLFRAME
 70
     0
  9
$SPLINETYPE
 70
     6
  9
$SPLINESEGS
 70
     8
  9
$ATTDIA
 70
     0
  9
$ATTREQ
 70
     1
  9
$HANDLING
 70
     1
  9
$HANDSEED
  5
2F4
  9
$SURFTAB1
 70
     6
  9
$SURFTAB2
 70
     6
  9
$SURFTYPE
 70
     6
  9
$SURFU
 70
     6
  9
$SURFV
 70
     6
  9
$UCSNAME
  2

  9
$UCSORG
 10
0.0
 20
0.0
 30
0.0
  9
$UCSXDIR
 10
1.0
 20
0.0
 30
0.0
  9
$UCSYDIR
 10
0.0
 20
1.0
 30
0.0
  9
$PUCSNAME
  2

  9
$PUCSORG
 10
0.0
 20
0.0
 30
0.0
  9
$PUCSXDIR
 10
1.0
 20
0.0
 30
0.0
  9
$PUCSYDIR
 10
0.0
 20
1.0
 30
0.0
  9
$USERI1
 70
     0
  9
$USERI2
 70
     0
  9
$USERI3
 70
     0
  9
$USERI4
 70
     0
  9
$USERI5
 70
     0
  9
$USERR1
 40
0.0
  9
$USERR2
 40
0.0
  9
$USERR3
 40
0.0
  9
$USERR4
 40
0.0
  9
$USERR5
 40
0.0
  9
$WORLDVIEW
 70
     1
  9
$SHADEDGE
 70
     3
  9
$SHADEDIF
 70
    70
  9
$TILEMODE
 70
     1
  9
$MAXACTVP
 70
    64
  9
$PLIMCHECK
 70
     0
  9
$PEXTMIN
 10
1.0000000000E+20
 20
1.0000000000E+20
 30
1.0000000000E+20
  9
$PEXTMAX
 10
-1.0000000000E+20
 20
-1.0000000000E+20
 30
-1.0000000000E+20
  9
$PLIMMIN
 10
0.0
 20
0.0
  9
$PLIMMAX
 10
420.0
 20
297.0
  9
$UNITMODE
 70
     0
  9
$VISRETAIN
 70
     1
  9
$PLINEGEN
 70
     0
  9
$PSLTSCALE
 70
     1
  0
ENDSEC
  0
SECTION
  2
TABLES
  0
TABLE
  2
VPORT
 70
     1
  0
VPORT
  2
*ACTIVE
 70
     0
 10
0.0
 20
0.0
 11
1.0
 21
1.0
 12
210.0
 22
148.5
 13
0.0
 23
0.0
 14
10.0
 24
10.0
 15
10.0
 25
10.0
 16
0.0
 26
0.0
 36
1.0
 17
0.0
 27
0.0
 37
0.0
 40
297.0
 41
1.4141414141
 42
50.0
 43
0.0
 44
0.0
 50
0.0
 51
0.0
 71
     0
 72
  2000
 73
     1
 74
     3
 75
     0
 76
     0
 77
     0
 78
     0
  0
ENDTAB
  0
TABLE
  2
LTYPE
 70
     6
  0
LTYPE
  2
CONTINUOUS
 70
     0
  3
Solid line
 72
    65
 73
     0
 40
0.0
  0
LTYPE
  2
HIDDEN
 70
     0
  3
Hidden __ __ __ __ __ __ __ __ __ __ __ __ __ __
 72
    65
 73
     2
 40
1.905
 49
1.27
 49
-0.635
  0
LTYPE
  2
PHANTOM
 70
     0
  3
Phantom ______  __  __  ______  __  __  ______
 72
    65
 73
     6
 40
12.7
 49
6.35
 49
-1.27
 49
1.27
 49
-1.27
 49
1.27
 49
-1.27
  0
LTYPE
  2
CENTER
 70
     0
  3
Center ____ _ ____ _ ____ _ ____ _ ____ _ ____
 72
    65
 73
     4
 40
10.16
 49
6.35
 49
-1.27
 49
1.27
 49
-1.27
  0
LTYPE
  2
CENTERX2
 70
     0
  3
Center (2x) ________  __  ________  __  _____
 72
    65
 73
     4
 40
20.32
 49
12.7
 49
-2.54
 49
2.54
 49
-2.54
  0
LTYPE
  2
DOT2
 70
     0
  3
Dot (.5x) ........................................
 72
    65
 73
     2
 40
0.635
 49
0.0
 49
-0.635
  0
ENDTAB
  0
TABLE
  2
LAYER
 70
     2
  0
LAYER
  2
0
 70
     0
 62
     7
  6
CONTINUOUS
  0
LAYER
  2
FORMAT
 70
     0
 62
     7
  6
CONTINUOUS
  0
ENDTAB
  0
TABLE
  2
STYLE
 70
     1
  0
STYLE
  2
STANDARD
 70
     0
 40
0.0
 41
1.0
 50
0.0
 71
     0
 42
3.5
  3
txt
  4

  0
ENDTAB
  0
TABLE
  2
VIEW
 70
     0
  0
ENDTAB
  0
TABLE
  2
UCS
 70
     0
  0
ENDTAB
  0
TABLE
  2
APPID
 70
     1
  0
APPID
  2
ACAD
 70
     0
  0
ENDTAB
  0
TABLE
  2
DIMSTYLE
 70
     1
  0
DIMSTYLE
  2
ISO-25
 70
     0
  3

  4

  5

  6

  7

 40
1.0
 41
2.5
 42
0.625
 43
3.75
 44
1.25
 45
0.0
 46
0.0
 47
0.0
 48
0.0
140
2.5
141
2.5
142
0.0
143
0.0393700787
144
1.0
145
0.0
146
1.0
147
0.625
 71
     0
 72
     0
 73
     0
 74
     0
 75
     0
 76
     0
 77
     1
 78
     8
170
     0
171
     3
172
     1
173
     0
174
     0
175
     0
176
     0
177
     0
178
     0
  0
ENDTAB
  0
ENDSEC
  0
SECTION
  2
BLOCKS
  0
BLOCK
  8
0
  2
$MODEL_SPACE
 70
     0
 10
0.0
 20
0.0
 30
0.0
  3
$MODEL_SPACE
  1

  0
ENDBLK
  5
21
  8
0
  0
BLOCK
 67
     1
  8
0
  2
$PAPER_SPACE
 70
     0
 10
0.0
 20
0.0
 30
0.0
  3
$PAPER_SPACE
  1

  0
ENDBLK
  5
1D
 67
     1
  8
0
  0
ENDSEC
  0
SECTION
  2
ENTITIES
  0
LINE
  5
45
  8
0
  6
CONTINUOUS
 62
     7
 10
22.2353030971
 20
214.1083652336
 30
0.0
 11
22.2353030971
 21
199.1083676178
 31
0.0
  0
LINE
  5
46
  8
0
  6
CONTINUOUS
 62
     7
 10
27.6353050999
 20
199.1083676178
 30
0.0
 11
27.6353050999
 21
214.1083652336
 31
0.0
  0
LINE
  5
47
  8
0
  6
CONTINUOUS
 62
     7
 10
27.6353050999
 20
182.5083667594
 30
0.0
 11
27.6353050999
 21
199.1083676178
 31
0.0
  0
LINE
  5
48
  8
0
  6
CONTINUOUS
 62
     7
 10
22.2353030971
 20
199.1083676178
 30
0.0
 11
22.2353030971
 21
182.5083667594
 31
0.0
  0
LINE
  5
49
  8
0
  6
CONTINUOUS
 62
     7
 10
22.2353030971
 20
182.5083667594
 30
0.0
 11
22.2353030971
 21
167.5083691436
 31
0.0
  0
LINE
  5
4A
  8
0
  6
CONTINUOUS
 62
     7
 10
27.6353050999
 20
167.5083691436
 30
0.0
 11
27.6353050999
 21
182.5083667594
 31
0.0
  0
LINE
  5
4B
  8
0
  6
CONTINUOUS
 62
     7
 10
142.2353028364
 20
214.1083652336
 30
0.0
 11
142.2353028364
 21
199.1083676178
 31
0.0
  0
LINE
  5
4C
  8
0
  6
CONTINUOUS
 62
     7
 10
147.6353029764
 20
199.1083676178
 30
0.0
 11
147.6353029764
 21
214.1083652336
 31
0.0
  0
LINE
  5
4D
  8
0
  6
CONTINUOUS
 62
     7
 10
147.6353029764
 20
182.5083667594
 30
0.0
 11
147.6353029764
 21
199.1083676178
 31
0.0
  0
LINE
  5
4E
  8
0
  6
CONTINUOUS
 62
     7
 10
142.2353028364
 20
199.1083676178
 30
0.0
 11
142.2353028364
 21
182.5083667594
 31
0.0
  0
LINE
  5
4F
  8
0
  6
CONTINUOUS
 62
     7
 10
142.2353028364
 20
182.5083667594
 30
0.0
 11
142.2353028364
 21
167.5083691436
 31
0.0
  0
LINE
  5
50
  8
0
  6
CONTINUOUS
 62
     7
 10
147.6353029764
 20
167.5083691436
 30
0.0
 11
147.6353029764
 21
182.5083667594
 31
0.0
  0
LINE
  5
51
  8
0
  6
CONTINUOUS
 62
     7
 10
262.235300713
 20
214.1083652336
 30
0.0
 11
262.235300713
 21
199.1083676178
 31
0.0
  0
LINE
  5
52
  8
0
  6
CONTINUOUS
 62
     7
 10
267.6353027157
 20
199.1083676178
 30
0.0
 11
267.6353027157
 21
214.1083652336
 31
0.0
  0
LINE
  5
53
  8
0
  6
CONTINUOUS
 62
     7
 10
267.6353027157
 20
182.5083667594
 30
0.0
 11
267.6353027157
 21
199.1083676178
 31
0.0
  0
LINE
  5
54
  8
0
  6
CONTINUOUS
 62
     7
 10
262.235300713
 20
199.1083676178
 30
0.0
 11
262.235300713
 21
182.5083667594
 31
0.0
  0
LINE
  5
55
  8
0
  6
CONTINUOUS
 62
     7
 10
262.235300713
 20
182.5083667594
 30
0.0
 11
262.235300713
 21
167.5083691436
 31
0.0
  0
LINE
  5
56
  8
0
  6
CONTINUOUS
 62
     7
 10
267.6353027157
 20
167.5083691436
 30
0.0
 11
267.6353027157
 21
182.5083667594
 31
0.0
  0
POLYLINE
  5
57
  8
0
  6
CONTINUOUS
 62
     7
 66
     1
 10
0.0
 20
0.0
 30
0.0
  0
VERTEX
  5
265
  8
0
  6
CONTINUOUS
 62
     7
 10
241.835128241
 20
192.0370752174
 30
0.0
  0
VERTEX
  5
266
  8
0
  6
CONTINUOUS
 62
     7
 10
241.8295671276
 20
192.0361096221
 30
0.0
  0
VERTEX
  5
267
  8
0
  6
CONTINUOUS
 62
     7
 10
241.8285121254
 20
192.0359188873
 30
0.0
  0
SEQEND
  5
2F3
  8
0
  6
CONTINUOUS
 62
     7
  0
POLYLINE
  5
58
  8
0
  6
CONTINUOUS
 62
     7
 66
     1
 10
0.0
 20
0.0
 30
0.0
  0
VERTEX
  5
268
  8
0
  6
CONTINUOUS
 62
     7
 10
168.0424188308
 20
192.0358294803
 30
0.0
  0
VERTEX
  5
269
  8
0
  6
CONTINUOUS
 62
     7
 10
168.0414264134
 20
192.0360142547
 30
0.0
  0
VERTEX
  5
26A
  8
0
  6
CONTINUOUS
 62
     7
 10
168.0305083326
 20
192.0378977615
 30
0.0
  0
SEQEND
  5
2F2
  8
0
  6
CONTINUOUS
 62
     7
  0
LINE
  5
59
  8
0
  6
CONTINUOUS
 62
     7
 10
168.0421684913
 20
192.035889085
 30
0.0
 11
168.0347894362
 21
192.0372003871
 31
0.0
  0
ARC
  5
5A
  8
0
  6
CONTINUOUS
 62
     7
 10
150.9297690935
 20
106.5813826661
 30
0.0
 40
81.77167418400576
 50
78.4979662251
 51
78.6267740599
  0
LINE
  5
5B
  8
0
  6
CONTINUOUS
 62
     7
 10
167.0496140651
 20
186.7484325725
 30
0.0
 11
167.0540799431
 21
186.7475444633
 31
0.0
  0
LINE
  5
5C
  8
0
  6
CONTINUOUS
 62
     7
 10
242.7528311542
 20
186.7347056228
 30
0.0
 11
242.8094734482
 21
186.7461318332
 31
0.0
  0
POLYLINE
  5
5D
  8
0
  6
CONTINUOUS
 62
     7
 66
     1
 10
0.0
 20
0.0
 30
0.0
  0
VERTEX
  5
26B
  8
0
  6
CONTINUOUS
 62
     7
 10
121.8351264528
 20
192.0370752174
 30
0.0
  0
VERTEX
  5
26C
  8
0
  6
CONTINUOUS
 62
     7
 10
121.8295668296
 20
192.0361096221
 30
0.0
  0
VERTEX
  5
26D
  8
0
  6
CONTINUOUS
 62
     7
 10
121.8285118274
 20
192.0359188873
 30
0.0
  0
SEQEND
  5
2F1
  8
0
  6
CONTINUOUS
 62
     7
  0
POLYLINE
  5
5E
  8
0
  6
CONTINUOUS
 62
     7
 66
     1
 10
0.0
 20
0.0
 30
0.0
  0
VERTEX
  5
26E
  8
0
  6
CONTINUOUS
 62
     7
 10
48.042421513
 20
192.0358294803
 30
0.0
  0
VERTEX
  5
26F
  8
0
  6
CONTINUOUS
 62
     7
 10
48.0414261154
 20
192.0360142547
 30
0.0
  0
VERTEX
  5
270
  8
0
  6
CONTINUOUS
 62
     7
 10
48.0305065445
 20
192.0378977615
 30
0.0
  0
SEQEND
  5
2F0
  8
0
  6
CONTINUOUS
 62
     7
  0
LINE
  5
5F
  8
0
  6
CONTINUOUS
 62
     7
 10
48.0421711735
 20
192.035889085
 30
0.0
 11
48.0347921184
 21
192.0372003871
 31
0.0
  0
LINE
  5
60
  8
0
  6
CONTINUOUS
 62
     7
 10
122.7528323463
 20
186.7347056228
 30
0.0
 11
122.8094746403
 21
186.7461318332
 31
0.0
  0
ARC
  5
61
  8
0
  6
CONTINUOUS
 62
     7
 10
31.0005151705
 20
106.9323800291
 30
0.0
 40
81.41361836698869
 50
78.4974998085
 51
78.6268720827
  0
LINE
  5
62
  8
0
  6
CONTINUOUS
 62
     7
 10
47.0496167473
 20
186.7484325725
 30
0.0
 11
47.0540811352
 21
186.7475444633
 31
0.0
  0
ARC
  5
63
  8
0
  6
CONTINUOUS
 62
     7
 10
24.9353029064
 20
214.1083685714
 30
0.0
 40
2.699999999999996
 50
0.0
 51
180.0
  0
ARC
  5
64
  8
0
  6
CONTINUOUS
 62
     7
 10
24.9353029064
 20
167.5083685714
 30
0.0
 40
2.699999999999996
 50
180.0
 51
0.0
  0
ARC
  5
65
  8
0
  6
CONTINUOUS
 62
     7
 10
28.9353029064
 20
166.3083685714
 30
0.0
 40
2.0
 50
270.0
 51
0.0
  0
LINE
  5
66
  8
0
  6
CONTINUOUS
 62
     7
 10
28.9353062443
 20
164.3083686191
 30
0.0
 11
20.9353019527
 21
164.3083686191
 31
0.0
  0
ARC
  5
67
  8
0
  6
CONTINUOUS
 62
     7
 10
20.9353029064
 20
166.3083685714
 30
0.0
 40
2.000000000000004
 50
180.0
 51
270.0
  0
LINE
  5
68
  8
0
  6
CONTINUOUS
 62
     7
 10
18.9353038601
 20
172.9083711463
 30
0.0
 11
18.9353038601
 21
166.3083667118
 31
0.0
  0
LINE
  5
69
  8
0
  6
CONTINUOUS
 62
     7
 10
30.9353043369
 20
172.9083711463
 30
0.0
 11
30.9353043369
 21
166.3083667118
 31
0.0
  0
LINE
  5
6A
  8
0
  6
CONTINUOUS
 62
     7
 10
18.9353038601
 20
172.9083711463
 30
0.0
 11
18.9353038601
 21
174.1083676178
 31
0.0
  0
LINE
  5
6B
  8
0
  6
CONTINUOUS
 62
     7
 10
18.9353038601
 20
174.1083676178
 30
0.0
 11
22.2353030971
 21
174.1083676178
 31
0.0
  0
LINE
  5
6C
  8
0
  6
CONTINUOUS
 62
     7
 10
27.6353050999
 20
174.1083676178
 30
0.0
 11
30.9353043369
 21
174.1083676178
 31
0.0
  0
LINE
  5
6D
  8
0
  6
CONTINUOUS
 62
     7
 10
30.9353043369
 20
174.1083676178
 30
0.0
 11
30.9353043369
 21
172.9083711463
 31
0.0
  0
ARC
  5
6E
  8
0
  6
CONTINUOUS
 62
     7
 10
144.9353029064
 20
214.1083685714
 30
0.0
 40
2.700000000000017
 50
0.0
 51
180.0
  0
ARC
  5
6F
  8
0
  6
CONTINUOUS
 62
     7
 10
144.9353029064
 20
167.5083685714
 30
0.0
 40
2.700000000000017
 50
180.0
 51
0.0
  0
ARC
  5
70
  8
0
  6
CONTINUOUS
 62
     7
 10
148.9353029064
 20
166.3083685714
 30
0.0
 40
2.0
 50
270.0
 51
0.0
  0
LINE
  5
71
  8
0
  6
CONTINUOUS
 62
     7
 10
148.935302817
 20
164.3083686191
 30
0.0
 11
140.9353029958
 21
164.3083686191
 31
0.0
  0
ARC
  5
72
  8
0
  6
CONTINUOUS
 62
     7
 10
140.9353029064
 20
166.3083685714
 30
0.0
 40
2.0
 50
180.0
 51
270.0
  0
LINE
  5
73
  8
0
  6
CONTINUOUS
 62
     7
 10
138.9353030405
 20
172.9083711463
 30
0.0
 11
138.9353030405
 21
166.3083667118
 31
0.0
  0
LINE
  5
74
  8
0
  6
CONTINUOUS
 62
     7
 10
150.9353027723
 20
172.9083711463
 30
0.0
 11
150.9353027723
 21
166.3083667118
 31
0.0
  0
LINE
  5
75
  8
0
  6
CONTINUOUS
 62
     7
 10
138.9353030405
 20
174.1083676178
 30
0.0
 11
142.2353028364
 21
174.1083676178
 31
0.0
  0
LINE
  5
76
  8
0
  6
CONTINUOUS
 62
     7
 10
147.6353029764
 20
174.1083676178
 30
0.0
 11
150.9353027723
 21
174.1083676178
 31
0.0
  0
LINE
  5
77
  8
0
  6
CONTINUOUS
 62
     7
 10
138.9353030405
 20
172.9083711463
 30
0.0
 11
138.9353030405
 21
174.1083676178
 31
0.0
  0
LINE
  5
78
  8
0
  6
CONTINUOUS
 62
     7
 10
150.9353027723
 20
174.1083676178
 30
0.0
 11
150.9353027723
 21
172.9083711463
 31
0.0
  0
ARC
  5
79
  8
0
  6
CONTINUOUS
 62
     7
 10
264.9353029064
 20
214.1083685714
 30
0.0
 40
2.700000000000045
 50
0.0
 51
180.0
  0
ARC
  5
7A
  8
0
  6
CONTINUOUS
 62
     7
 10
264.9353029064
 20
167.5083685714
 30
0.0
 40
2.700000000000045
 50
180.0
 51
0.0
  0
ARC
  5
7B
  8
0
  6
CONTINUOUS
 62
     7
 10
268.9353029064
 20
166.3083685714
 30
0.0
 40
2.0
 50
270.0
 51
0.0
  0
LINE
  5
7C
  8
0
  6
CONTINUOUS
 62
     7
 10
268.9353038601
 20
164.3083686191
 30
0.0
 11
260.9352995685
 21
164.3083686191
 31
0.0
  0
ARC
  5
7D
  8
0
  6
CONTINUOUS
 62
     7
 10
260.9353029064
 20
166.3083685714
 30
0.0
 40
2.0
 50
180.0
 51
270.0
  0
LINE
  5
7E
  8
0
  6
CONTINUOUS
 62
     7
 10
258.9353014759
 20
172.9083711463
 30
0.0
 11
258.9353014759
 21
166.3083667118
 31
0.0
  0
LINE
  5
7F
  8
0
  6
CONTINUOUS
 62
     7
 10
270.9353019527
 20
172.9083711463
 30
0.0
 11
270.9353019527
 21
166.3083667118
 31
0.0
  0
LINE
  5
80
  8
0
  6
CONTINUOUS
 62
     7
 10
258.9353014759
 20
174.1083676178
 30
0.0
 11
262.235300713
 21
174.1083676178
 31
0.0
  0
LINE
  5
81
  8
0
  6
CONTINUOUS
 62
     7
 10
267.6353027157
 20
174.1083676178
 30
0.0
 11
270.9353019527
 21
174.1083676178
 31
0.0
  0
LINE
  5
82
  8
0
  6
CONTINUOUS
 62
     7
 10
270.9353019527
 20
174.1083676178
 30
0.0
 11
270.9353019527
 21
172.9083711463
 31
0.0
  0
LINE
  5
83
  8
0
  6
CONTINUOUS
 62
     7
 10
258.9353014759
 20
172.9083711463
 30
0.0
 11
258.9353014759
 21
174.1083676178
 31
0.0
  0
ARC
  5
84
  8
0
  6
CONTINUOUS
 62
     7
 10
204.9351278606
 20
371.5973521592
 30
0.0
 40
183.3109878346544
 50
277.7930441774
 51
281.5887865078
  0
ARC
  5
85
  8
0
  6
CONTINUOUS
 62
     7
 10
242.3040595393
 20
189.3888716919
 30
0.0
 40
2.690000000000018
 50
12.4186815058
 51
100.0467259555
  0
ARC
  5
86
  8
0
  6
CONTINUOUS
 62
     7
 10
204.9477467755
 20
371.5236252662
 30
0.0
 40
188.6162308835866
 50
277.7922826888
 51
281.5895067778
  0
ARC
  5
87
  8
0
  6
CONTINUOUS
 62
     7
 10
242.3040595393
 20
189.3888716919
 30
0.0
 40
2.689999999999996
 50
281.5900201068
 51
12.4186815058
  0
ARC
  5
88
  8
0
  6
CONTINUOUS
 62
     7
 10
167.5665462735
 20
189.3888716919
 30
0.0
 40
2.69000000000003
 50
80.0567778886
 51
167.5813184942
  0
ARC
  5
89
  8
0
  6
CONTINUOUS
 62
     7
 10
204.9547410031
 20
371.7106021067
 30
0.0
 40
183.4258036150802
 50
258.4125294448
 51
262.2057915725
  0
ARC
  5
8A
  8
0
  6
CONTINUOUS
 62
     7
 10
204.954550704
 20
371.7091186753
 30
0.0
 40
188.8043081516823
 50
258.4125086084
 51
262.2058213536
  0
ARC
  5
8B
  8
0
  6
CONTINUOUS
 62
     7
 10
167.5665462735
 20
189.3888716919
 30
0.0
 40
2.690000000000023
 50
167.5813184942
 51
258.4099798932
  0
ARC
  5
8C
  8
0
  6
CONTINUOUS
 62
     7
 10
204.9353029064
 20
371.596379846
 30
0.0
 40
188.6900000000001
 50
262.2069690737
 51
277.7930309263
  0
ARC
  5
8D
  8
0
  6
CONTINUOUS
 62
     7
 10
204.9353029064
 20
371.596379846
 30
0.0
 40
183.31
 50
262.2069690737
 51
277.7930309263
  0
LINE
  5
8E
  8
0
  6
CONTINUOUS
 62
     7
 10
241.6353036693
 20
186.2483674842
 30
0.0
 11
242.6353027157
 21
186.2483674842
 31
0.0
  0
LINE
  5
8F
  8
0
  6
CONTINUOUS
 62
     7
 10
241.6353036693
 20
186.5098172981
 30
0.0
 11
241.6353036693
 21
186.2483674842
 31
0.0
  0
LINE
  5
90
  8
0
  6
CONTINUOUS
 62
     7
 10
242.6353027157
 20
186.7193455059
 30
0.0
 11
242.6353027157
 21
186.2483674842
 31
0.0
  0
LINE
  5
91
  8
0
  6
CONTINUOUS
 62
     7
 10
168.2353024415
 20
186.2483674842
 30
0.0
 11
167.2353033952
 21
186.2483674842
 31
0.0
  0
LINE
  5
92
  8
0
  6
CONTINUOUS
 62
     7
 10
167.2353033952
 20
186.2483674842
 30
0.0
 11
167.2353033952
 21
181.7814225513
 31
0.0
  0
LINE
  5
93
  8
0
  6
CONTINUOUS
 62
     7
 10
168.2353024415
 20
186.2483674842
 30
0.0
 11
168.2353024415
 21
181.7814225513
 31
0.0
  0
LINE
  5
94
  8
0
  6
CONTINUOUS
 62
     7
 10
167.2353033952
 20
186.7193455059
 30
0.0
 11
167.2353033952
 21
186.2483674842
 31
0.0
  0
LINE
  5
95
  8
0
  6
CONTINUOUS
 62
     7
 10
168.2353024415
 20
186.5098411399
 30
0.0
 11
168.2353024415
 21
186.2483674842
 31
0.0
  0
LINE
  5
96
  8
0
  6
CONTINUOUS
 62
     7
 10
241.6353036693
 20
186.2483674842
 30
0.0
 11
241.6353036693
 21
181.7814225513
 31
0.0
  0
LINE
  5
97
  8
0
  6
CONTINUOUS
 62
     7
 10
242.6353027157
 20
186.2483674842
 30
0.0
 11
242.6353027157
 21
181.7814225513
 31
0.0
  0
LINE
  5
98
  8
0
  6
CONTINUOUS
 62
     7
 10
168.1069870523
 20
192.0240218002
 30
0.0
 11
168.110909038
 21
192.0232171375
 31
0.0
  0
LINE
  5
99
  8
0
  6
CONTINUOUS
 62
     7
 10
241.7593886188
 20
192.0231515724
 30
0.0
 11
241.7636205486
 21
192.0240218002
 31
0.0
  0
LINE
  5
9A
  8
0
  6
CONTINUOUS
 62
     7
 10
167.2353033952
 20
181.7814225513
 30
0.0
 11
167.2353033952
 21
180.9278840381
 31
0.0
  0
LINE
  5
9B
  8
0
  6
CONTINUOUS
 62
     7
 10
168.2353024415
 20
181.7814225513
 30
0.0
 11
168.2353024415
 21
180.9278840381
 31
0.0
  0
LINE
  5
9C
  8
0
  6
CONTINUOUS
 62
     7
 10
241.6353036693
 20
181.7814225513
 30
0.0
 11
241.6353036693
 21
180.9278840381
 31
0.0
  0
LINE
  5
9D
  8
0
  6
CONTINUOUS
 62
     7
 10
242.6353027157
 20
181.7814225513
 30
0.0
 11
242.6353027157
 21
180.9278840381
 31
0.0
  0
LINE
  5
9E
  8
0
  6
CONTINUOUS
 62
     7
 10
167.2353033952
 20
180.9278840381
 30
0.0
 11
167.2353033952
 21
173.0734521705
 31
0.0
  0
LINE
  5
9F
  8
0
  6
CONTINUOUS
 62
     7
 10
168.2353024415
 20
180.9278840381
 30
0.0
 11
168.2353024415
 21
173.0734521705
 31
0.0
  0
LINE
  5
A0
  8
0
  6
CONTINUOUS
 62
     7
 10
241.6353036693
 20
180.9278840381
 30
0.0
 11
241.6353036693
 21
173.0734521705
 31
0.0
  0
LINE
  5
A1
  8
0
  6
CONTINUOUS
 62
     7
 10
242.6353027157
 20
180.9278840381
 30
0.0
 11
242.6353027157
 21
173.0734521705
 31
0.0
  0
LINE
  5
A2
  8
0
  6
CONTINUOUS
 62
     7
 10
241.6353036693
 20
170.3083688575
 30
0.0
 11
242.6353027157
 21
170.3083688575
 31
0.0
  0
LINE
  5
A3
  8
0
  6
CONTINUOUS
 62
     7
 10
241.6353036693
 20
172.3083669502
 30
0.0
 11
241.6353036693
 21
170.3083688575
 31
0.0
  0
LINE
  5
A4
  8
0
  6
CONTINUOUS
 62
     7
 10
242.6353027157
 20
172.3083669502
 30
0.0
 11
242.6353027157
 21
170.3083688575
 31
0.0
  0
LINE
  5
A5
  8
0
  6
CONTINUOUS
 62
     7
 10
241.6353036693
 20
173.0734521705
 30
0.0
 11
241.6353036693
 21
172.3083669502
 31
0.0
  0
LINE
  5
A6
  8
0
  6
CONTINUOUS
 62
     7
 10
242.6353027157
 20
173.0734521705
 30
0.0
 11
242.6353027157
 21
172.3083669502
 31
0.0
  0
LINE
  5
A7
  8
0
  6
CONTINUOUS
 62
     7
 10
167.2353033952
 20
173.0734521705
 30
0.0
 11
167.2353033952
 21
172.3083669502
 31
0.0
  0
LINE
  5
A8
  8
0
  6
CONTINUOUS
 62
     7
 10
168.2353024415
 20
173.0734521705
 30
0.0
 11
168.2353024415
 21
172.3083669502
 31
0.0
  0
LINE
  5
A9
  8
0
  6
CONTINUOUS
 62
     7
 10
168.2353024415
 20
170.3083688575
 30
0.0
 11
167.2353033952
 21
170.3083688575
 31
0.0
  0
LINE
  5
AA
  8
0
  6
CONTINUOUS
 62
     7
 10
167.2353033952
 20
172.3083669502
 30
0.0
 11
167.2353033952
 21
170.3083688575
 31
0.0
  0
LINE
  5
AB
  8
0
  6
CONTINUOUS
 62
     7
 10
168.2353024415
 20
172.3083669502
 30
0.0
 11
168.2353024415
 21
170.3083688575
 31
0.0
  0
LINE
  5
AC
  8
0
  6
CONTINUOUS
 62
     7
 10
247.4353005222
 20
166.1083692867
 30
0.0
 11
247.4353005222
 21
173.1083685714
 31
0.0
  0
ARC
  5
AD
  8
0
  6
CONTINUOUS
 62
     7
 10
245.4353029064
 20
166.1083685714
 30
0.0
 40
2.0
 50
270.0
 51
0.0
  0
ARC
  5
AE
  8
0
  6
CONTINUOUS
 62
     7
 10
239.4353029064
 20
166.1083685714
 30
0.0
 40
2.0
 50
180.0
 51
270.0
  0
LINE
  5
AF
  8
0
  6
CONTINUOUS
 62
     7
 10
237.4353040985
 20
173.1083685714
 30
0.0
 11
237.4353040985
 21
166.1083692867
 31
0.0
  0
LINE
  5
B0
  8
0
  6
CONTINUOUS
 62
     7
 10
245.4353024296
 20
164.108371194
 30
0.0
 11
239.4353021911
 21
164.108371194
 31
0.0
  0
CIRCLE
  5
B1
  8
0
  6
CONTINUOUS
 62
     7
 10
242.4353029064
 20
167.5083685714
 30
0.0
 40
1.0
  0
LINE
  5
B2
  8
0
  6
CONTINUOUS
 62
     7
 10
172.4353035025
 20
174.1083676178
 30
0.0
 11
168.2353024415
 21
174.1083676178
 31
0.0
  0
LINE
  5
B3
  8
0
  6
CONTINUOUS
 62
     7
 10
172.4353035025
 20
174.1083676178
 30
0.0
 11
172.4353035025
 21
173.1083685714
 31
0.0
  0
ARC
  5
B4
  8
0
  6
CONTINUOUS
 62
     7
 10
170.4353029064
 20
166.1083685714
 30
0.0
 40
2.0
 50
270.0
 51
0.0
  0
ARC
  5
B5
  8
0
  6
CONTINUOUS
 62
     7
 10
164.4353029064
 20
166.1083685714
 30
0.0
 40
2.0
 50
180.0
 51
270.0
  0
LINE
  5
B6
  8
0
  6
CONTINUOUS
 62
     7
 10
172.4353035025
 20
166.1083692867
 30
0.0
 11
172.4353035025
 21
173.1083685714
 31
0.0
  0
LINE
  5
B7
  8
0
  6
CONTINUOUS
 62
     7
 10
170.4353024296
 20
164.108371194
 30
0.0
 11
164.4353021911
 21
164.108371194
 31
0.0
  0
CIRCLE
  5
B8
  8
0
  6
CONTINUOUS
 62
     7
 10
167.4353029064
 20
167.5083685714
 30
0.0
 40
1.0
  0
LINE
  5
B9
  8
0
  6
CONTINUOUS
 62
     7
 10
162.4353026084
 20
166.1083692867
 30
0.0
 11
162.4353026084
 21
173.1083685714
 31
0.0
  0
LINE
  5
BA
  8
0
  6
CONTINUOUS
 62
     7
 10
247.4353005222
 20
173.1083685714
 30
0.0
 11
247.4353005222
 21
174.1083676178
 31
0.0
  0
LINE
  5
BB
  8
0
  6
CONTINUOUS
 62
     7
 10
247.4353005222
 20
174.1083676178
 30
0.0
 11
242.6353027157
 21
174.1083676178
 31
0.0
  0
LINE
  5
BC
  8
0
  6
CONTINUOUS
 62
     7
 10
167.2353033952
 20
174.1083676178
 30
0.0
 11
162.4353026084
 21
174.1083676178
 31
0.0
  0
LINE
  5
BD
  8
0
  6
CONTINUOUS
 62
     7
 10
162.4353026084
 20
173.1083685714
 30
0.0
 11
162.4353026084
 21
174.1083676178
 31
0.0
  0
LINE
  5
BE
  8
0
  6
CONTINUOUS
 62
     7
 10
241.6353036693
 20
174.1083676178
 30
0.0
 11
237.4353040985
 21
174.1083676178
 31
0.0
  0
LINE
  5
BF
  8
0
  6
CONTINUOUS
 62
     7
 10
237.4353040985
 20
173.1083685714
 30
0.0
 11
237.4353040985
 21
174.1083676178
 31
0.0
  0
ARC
  5
C0
  8
0
  6
CONTINUOUS
 62
     7
 10
84.9352349988
 20
371.5967143052
 30
0.0
 40
183.3103411017881
 50
277.7930374791
 51
281.5887932061
  0
ARC
  5
C1
  8
0
  6
CONTINUOUS
 62
     7
 10
122.3040595393
 20
189.3888716919
 30
0.0
 40
2.690000000000018
 50
12.4186815058
 51
100.0467259555
  0
ARC
  5
C2
  8
0
  6
CONTINUOUS
 62
     7
 10
84.9482975866
 20
371.5203893312
 30
0.0
 40
188.6129499063001
 50
277.7922496498
 51
281.5895398168
  0
ARC
  5
C3
  8
0
  6
CONTINUOUS
 62
     7
 10
122.3040595393
 20
189.3888716919
 30
0.0
 40
2.69000000000001
 50
281.5900201068
 51
12.4186815058
  0
ARC
  5
C4
  8
0
  6
CONTINUOUS
 62
     7
 10
47.5665462735
 20
189.3888716919
 30
0.0
 40
2.689999999999985
 50
80.0567778886
 51
167.5813184942
  0
ARC
  5
C5
  8
0
  6
CONTINUOUS
 62
     7
 10
84.9554032645
 20
371.7145175629
 30
0.0
 40
183.4297729540238
 50
258.4125714562
 51
262.2057519284
  0
ARC
  5
C6
  8
0
  6
CONTINUOUS
 62
     7
 10
84.954758192
 20
371.7103441711
 30
0.0
 40
188.8055507068111
 50
258.4125210951
 51
262.2058088669
  0
ARC
  5
C7
  8
0
  6
CONTINUOUS
 62
     7
 10
47.5665462735
 20
189.3888716919
 30
0.0
 40
2.690000000000015
 50
167.5813184942
 51
258.4099798932
  0
ARC
  5
C8
  8
0
  6
CONTINUOUS
 62
     7
 10
84.9353029064
 20
371.596379846
 30
0.0
 40
188.6900000000001
 50
262.2069690737
 51
277.7930309263
  0
ARC
  5
C9
  8
0
  6
CONTINUOUS
 62
     7
 10
84.9353029064
 20
371.596379846
 30
0.0
 40
183.31
 50
262.2069690737
 51
277.7930309263
  0
LINE
  5
CA
  8
0
  6
CONTINUOUS
 62
     7
 10
48.2353021435
 20
186.2483674842
 30
0.0
 11
47.2353030971
 21
186.2483674842
 31
0.0
  0
LINE
  5
CB
  8
0
  6
CONTINUOUS
 62
     7
 10
47.2353030971
 20
186.2483674842
 30
0.0
 11
47.2353030971
 21
181.7814225513
 31
0.0
  0
LINE
  5
CC
  8
0
  6
CONTINUOUS
 62
     7
 10
48.2353021435
 20
186.2483674842
 30
0.0
 11
48.2353021435
 21
181.7814225513
 31
0.0
  0
LINE
  5
CD
  8
0
  6
CONTINUOUS
 62
     7
 10
121.6353033713
 20
186.2483674842
 30
0.0
 11
122.6353024176
 21
186.2483674842
 31
0.0
  0
LINE
  5
CE
  8
0
  6
CONTINUOUS
 62
     7
 10
121.6353033713
 20
186.5098172981
 30
0.0
 11
121.6353033713
 21
186.2483674842
 31
0.0
  0
LINE
  5
CF
  8
0
  6
CONTINUOUS
 62
     7
 10
122.6353024176
 20
186.7193455059
 30
0.0
 11
122.6353024176
 21
186.2483674842
 31
0.0
  0
LINE
  5
D0
  8
0
  6
CONTINUOUS
 62
     7
 10
121.6353033713
 20
186.2483674842
 30
0.0
 11
121.6353033713
 21
181.7814225513
 31
0.0
  0
LINE
  5
D1
  8
0
  6
CONTINUOUS
 62
     7
 10
122.6353024176
 20
186.2483674842
 30
0.0
 11
122.6353024176
 21
181.7814225513
 31
0.0
  0
LINE
  5
D2
  8
0
  6
CONTINUOUS
 62
     7
 10
47.2353030971
 20
186.7193455059
 30
0.0
 11
47.2353030971
 21
186.2483674842
 31
0.0
  0
LINE
  5
D3
  8
0
  6
CONTINUOUS
 62
     7
 10
48.2353021435
 20
186.5098411399
 30
0.0
 11
48.2353021435
 21
186.2483674842
 31
0.0
  0
LINE
  5
D4
  8
0
  6
CONTINUOUS
 62
     7
 10
48.1069852642
 20
192.0240218002
 30
0.0
 11
48.1109072498
 21
192.0232171375
 31
0.0
  0
LINE
  5
D5
  8
0
  6
CONTINUOUS
 62
     7
 10
121.7593853406
 20
192.0231515724
 30
0.0
 11
121.7636187605
 21
192.0240218002
 31
0.0
  0
LINE
  5
D6
  8
0
  6
CONTINUOUS
 62
     7
 10
47.2353030971
 20
181.7814225513
 30
0.0
 11
47.2353030971
 21
180.9278840381
 31
0.0
  0
LINE
  5
D7
  8
0
  6
CONTINUOUS
 62
     7
 10
48.2353021435
 20
181.7814225513
 30
0.0
 11
48.2353021435
 21
180.9278840381
 31
0.0
  0
LINE
  5
D8
  8
0
  6
CONTINUOUS
 62
     7
 10
121.6353033713
 20
181.7814225513
 30
0.0
 11
121.6353033713
 21
180.9278840381
 31
0.0
  0
LINE
  5
D9
  8
0
  6
CONTINUOUS
 62
     7
 10
122.6353024176
 20
181.7814225513
 30
0.0
 11
122.6353024176
 21
180.9278840381
 31
0.0
  0
LINE
  5
DA
  8
0
  6
CONTINUOUS
 62
     7
 10
121.6353033713
 20
180.9278840381
 30
0.0
 11
121.6353033713
 21
173.0734521705
 31
0.0
  0
LINE
  5
DB
  8
0
  6
CONTINUOUS
 62
     7
 10
122.6353024176
 20
180.9278840381
 30
0.0
 11
122.6353024176
 21
173.0734521705
 31
0.0
  0
LINE
  5
DC
  8
0
  6
CONTINUOUS
 62
     7
 10
47.2353030971
 20
180.9278840381
 30
0.0
 11
47.2353030971
 21
173.0734521705
 31
0.0
  0
LINE
  5
DD
  8
0
  6
CONTINUOUS
 62
     7
 10
48.2353021435
 20
180.9278840381
 30
0.0
 11
48.2353021435
 21
173.0734521705
 31
0.0
  0
LINE
  5
DE
  8
0
  6
CONTINUOUS
 62
     7
 10
121.6353033713
 20
173.0734521705
 30
0.0
 11
121.6353033713
 21
172.3083669502
 31
0.0
  0
LINE
  5
DF
  8
0
  6
CONTINUOUS
 62
     7
 10
122.6353024176
 20
173.0734521705
 30
0.0
 11
122.6353024176
 21
172.3083669502
 31
0.0
  0
LINE
  5
E0
  8
0
  6
CONTINUOUS
 62
     7
 10
121.6353033713
 20
170.3083688575
 30
0.0
 11
122.6353024176
 21
170.3083688575
 31
0.0
  0
LINE
  5
E1
  8
0
  6
CONTINUOUS
 62
     7
 10
121.6353033713
 20
172.3083669502
 30
0.0
 11
121.6353033713
 21
170.3083688575
 31
0.0
  0
LINE
  5
E2
  8
0
  6
CONTINUOUS
 62
     7
 10
122.6353024176
 20
172.3083669502
 30
0.0
 11
122.6353024176
 21
170.3083688575
 31
0.0
  0
LINE
  5
E3
  8
0
  6
CONTINUOUS
 62
     7
 10
47.2353030971
 20
173.0734521705
 30
0.0
 11
47.2353030971
 21
172.3083669502
 31
0.0
  0
LINE
  5
E4
  8
0
  6
CONTINUOUS
 62
     7
 10
48.2353021435
 20
173.0734521705
 30
0.0
 11
48.2353021435
 21
172.3083669502
 31
0.0
  0
LINE
  5
E5
  8
0
  6
CONTINUOUS
 62
     7
 10
48.2353021435
 20
170.3083688575
 30
0.0
 11
47.2353030971
 21
170.3083688575
 31
0.0
  0
LINE
  5
E6
  8
0
  6
CONTINUOUS
 62
     7
 10
47.2353030971
 20
172.3083669502
 30
0.0
 11
47.2353030971
 21
170.3083688575
 31
0.0
  0
LINE
  5
E7
  8
0
  6
CONTINUOUS
 62
     7
 10
48.2353021435
 20
172.3083669502
 30
0.0
 11
48.2353021435
 21
170.3083688575
 31
0.0
  0
LINE
  5
E8
  8
0
  6
CONTINUOUS
 62
     7
 10
42.4353052906
 20
173.1083685714
 30
0.0
 11
42.4353052906
 21
174.1083676178
 31
0.0
  0
LINE
  5
E9
  8
0
  6
CONTINUOUS
 62
     7
 10
47.2353030971
 20
174.1083676178
 30
0.0
 11
42.4353052906
 21
174.1083676178
 31
0.0
  0
ARC
  5
EA
  8
0
  6
CONTINUOUS
 62
     7
 10
50.4353029064
 20
166.1083685714
 30
0.0
 40
2.0
 50
270.0
 51
0.0
  0
LINE
  5
EB
  8
0
  6
CONTINUOUS
 62
     7
 10
42.4353052906
 20
166.1083692867
 30
0.0
 11
42.4353052906
 21
173.1083685714
 31
0.0
  0
LINE
  5
EC
  8
0
  6
CONTINUOUS
 62
     7
 10
50.4353036217
 20
164.108371194
 30
0.0
 11
44.4353033832
 21
164.108371194
 31
0.0
  0
CIRCLE
  5
ED
  8
0
  6
CONTINUOUS
 62
     7
 10
47.4353029064
 20
167.5083685714
 30
0.0
 40
1.000000000000014
  0
LINE
  5
EE
  8
0
  6
CONTINUOUS
 62
     7
 10
52.4353017143
 20
166.1083692867
 30
0.0
 11
52.4353017143
 21
173.1083685714
 31
0.0
  0
ARC
  5
EF
  8
0
  6
CONTINUOUS
 62
     7
 10
44.4353029064
 20
166.1083685714
 30
0.0
 40
2.0
 50
180.0
 51
270.0
  0
ARC
  5
F0
  8
0
  6
CONTINUOUS
 62
     7
 10
125.4353029064
 20
166.1083685714
 30
0.0
 40
2.0
 50
270.0
 51
0.0
  0
LINE
  5
F1
  8
0
  6
CONTINUOUS
 62
     7
 10
117.4353023104
 20
173.1083685714
 30
0.0
 11
117.4353023104
 21
166.1083692867
 31
0.0
  0
CIRCLE
  5
F2
  8
0
  6
CONTINUOUS
 62
     7
 10
122.4353029064
 20
167.5083685714
 30
0.0
 40
1.0
  0
ARC
  5
F3
  8
0
  6
CONTINUOUS
 62
     7
 10
119.4353029064
 20
166.1083685714
 30
0.0
 40
2.0
 50
180.0
 51
270.0
  0
LINE
  5
F4
  8
0
  6
CONTINUOUS
 62
     7
 10
127.4353032044
 20
166.1083692867
 30
0.0
 11
127.4353032044
 21
173.1083685714
 31
0.0
  0
LINE
  5
F5
  8
0
  6
CONTINUOUS
 62
     7
 10
125.4353036217
 20
164.108371194
 30
0.0
 11
119.4353033832
 21
164.108371194
 31
0.0
  0
LINE
  5
F6
  8
0
  6
CONTINUOUS
 62
     7
 10
121.6353033713
 20
174.1083676178
 30
0.0
 11
117.4353023104
 21
174.1083676178
 31
0.0
  0
LINE
  5
F7
  8
0
  6
CONTINUOUS
 62
     7
 10
117.4353023104
 20
173.1083685714
 30
0.0
 11
117.4353023104
 21
174.1083676178
 31
0.0
  0
LINE
  5
F8
  8
0
  6
CONTINUOUS
 62
     7
 10
52.4353017143
 20
174.1083676178
 30
0.0
 11
48.2353021435
 21
174.1083676178
 31
0.0
  0
LINE
  5
F9
  8
0
  6
CONTINUOUS
 62
     7
 10
52.4353017143
 20
174.1083676178
 30
0.0
 11
52.4353017143
 21
173.1083685714
 31
0.0
  0
LINE
  5
FA
  8
0
  6
CONTINUOUS
 62
     7
 10
127.4353032044
 20
174.1083676178
 30
0.0
 11
122.6353024176
 21
174.1083676178
 31
0.0
  0
LINE
  5
FB
  8
0
  6
CONTINUOUS
 62
     7
 10
127.4353032044
 20
173.1083685714
 30
0.0
 11
127.4353032044
 21
174.1083676178
 31
0.0
  0
LINE
  5
FC
  8
0
  6
CONTINUOUS
 62
     7
 10
66.5210177235
 20
98.1083685714
 30
0.0
 11
62.7623726658
 21
98.1083685714
 31
0.0
  0
LINE
  5
FD
  8
0
  6
CONTINUOUS
 62
     7
 10
62.7623726658
 20
99.3083685819
 30
0.0
 11
66.5210177235
 21
99.3083685819
 31
0.0
  0
LINE
  5
FE
  8
0
  6
CONTINUOUS
 62
     7
 10
66.5210177235
 20
98.1083685714
 30
0.0
 11
73.3495880894
 21
98.1083685714
 31
0.0
  0
LINE
  5
FF
  8
0
  6
CONTINUOUS
 62
     7
 10
66.5210177235
 20
99.3083685819
 30
0.0
 11
73.3495880894
 21
99.3083685819
 31
0.0
  0
LINE
  5
100
  8
0
  6
CONTINUOUS
 62
     7
 10
77.108233147
 20
98.1083685714
 30
0.0
 11
73.3495880894
 21
98.1083685714
 31
0.0
  0
LINE
  5
101
  8
0
  6
CONTINUOUS
 62
     7
 10
73.3495880894
 20
99.3083685819
 30
0.0
 11
77.108233147
 21
99.3083685819
 31
0.0
  0
LINE
  5
102
  8
0
  6
CONTINUOUS
 62
     7
 10
212.7623726658
 20
99.3083685819
 30
0.0
 11
216.5210177235
 21
99.3083685819
 31
0.0
  0
LINE
  5
103
  8
0
  6
CONTINUOUS
 62
     7
 10
216.5210177235
 20
98.1083685714
 30
0.0
 11
212.7623726658
 21
98.1083685714
 31
0.0
  0
LINE
  5
104
  8
0
  6
CONTINUOUS
 62
     7
 10
223.3495880894
 20
99.3083685819
 30
0.0
 11
227.108233147
 21
99.3083685819
 31
0.0
  0
LINE
  5
105
  8
0
  6
CONTINUOUS
 62
     7
 10
227.108233147
 20
98.1083685714
 30
0.0
 11
223.3495880894
 21
98.1083685714
 31
0.0
  0
LINE
  5
106
  8
0
  6
CONTINUOUS
 62
     7
 10
216.5210177235
 20
99.3083685819
 30
0.0
 11
223.3495880894
 21
99.3083685819
 31
0.0
  0
LINE
  5
107
  8
0
  6
CONTINUOUS
 62
     7
 10
216.5210177235
 20
98.1083685714
 30
0.0
 11
223.3495880894
 21
98.1083685714
 31
0.0
  0
LINE
  5
108
  8
0
  6
CONTINUOUS
 62
     7
 10
57.9353024296
 20
98.1083685714
 30
0.0
 11
57.9353024296
 21
99.3083685819
 31
0.0
  0
LINE
  5
109
  8
0
  6
CONTINUOUS
 62
     7
 10
57.9353024296
 20
98.1083685714
 30
0.0
 11
62.7623726658
 21
98.1083685714
 31
0.0
  0
LINE
  5
10A
  8
0
  6
CONTINUOUS
 62
     7
 10
62.7623726658
 20
99.3083685819
 30
0.0
 11
57.9353024296
 21
99.3083685819
 31
0.0
  0
LINE
  5
10B
  8
0
  6
CONTINUOUS
 62
     7
 10
81.9353033832
 20
98.1083685714
 30
0.0
 11
81.9353033832
 21
99.3083685819
 31
0.0
  0
LINE
  5
10C
  8
0
  6
CONTINUOUS
 62
     7
 10
77.108233147
 20
98.1083685714
 30
0.0
 11
81.9353033832
 21
98.1083685714
 31
0.0
  0
LINE
  5
10D
  8
0
  6
CONTINUOUS
 62
     7
 10
81.9353033832
 20
99.3083685819
 30
0.0
 11
77.108233147
 21
99.3083685819
 31
0.0
  0
LINE
  5
10E
  8
0
  6
CONTINUOUS
 62
     7
 10
207.9353024296
 20
98.1083685714
 30
0.0
 11
207.9353024296
 21
99.3083685819
 31
0.0
  0
LINE
  5
10F
  8
0
  6
CONTINUOUS
 62
     7
 10
212.7623726658
 20
99.3083685819
 30
0.0
 11
207.9353024296
 21
99.3083685819
 31
0.0
  0
LINE
  5
110
  8
0
  6
CONTINUOUS
 62
     7
 10
207.9353024296
 20
98.1083685714
 30
0.0
 11
212.7623726658
 21
98.1083685714
 31
0.0
  0
LINE
  5
111
  8
0
  6
CONTINUOUS
 62
     7
 10
231.9353033832
 20
98.1083685714
 30
0.0
 11
231.9353033832
 21
99.3083685819
 31
0.0
  0
LINE
  5
112
  8
0
  6
CONTINUOUS
 62
     7
 10
231.9353033832
 20
99.3083685819
 30
0.0
 11
227.108233147
 21
99.3083685819
 31
0.0
  0
LINE
  5
113
  8
0
  6
CONTINUOUS
 62
     7
 10
227.108233147
 20
98.1083685714
 30
0.0
 11
231.9353033832
 21
98.1083685714
 31
0.0
  0
LINE
  5
114
  8
0
  6
CONTINUOUS
 62
     7
 10
273.7353016666
 20
164.3083686191
 30
0.0
 11
273.7353016666
 21
163.7083703834
 31
0.0
  0
ARC
  5
115
  8
0
  6
CONTINUOUS
 62
     7
 10
273.3353029064
 20
163.7083685714
 30
0.0
 40
0.4000000000000057
 50
270.0
 51
0.0
  0
POLYLINE
  5
116
  8
0
  6
CONTINUOUS
 62
     7
 66
     1
 10
0.0
 20
0.0
 30
0.0
  0
VERTEX
  5
271
  8
0
  6
CONTINUOUS
 62
     7
 10
224.9353040985
 20
163.3083695728
 30
0.0
  0
VERTEX
  5
272
  8
0
  6
CONTINUOUS
 62
     7
 10
224.916087561
 20
163.3275861103
 30
0.0
  0
VERTEX
  5
273
  8
0
  6
CONTINUOUS
 62
     7
 10
224.8591830067
 20
163.3844906646
 30
0.0
  0
VERTEX
  5
274
  8
0
  6
CONTINUOUS
 62
     7
 10
224.7667719654
 20
163.4769017059
 30
0.0
  0
VERTEX
  5
275
  8
0
  6
CONTINUOUS
 62
     7
 10
224.6424068741
 20
163.6012608367
 30
0.0
  0
VERTEX
  5
276
  8
0
  6
CONTINUOUS
 62
     7
 10
224.4908739857
 20
163.7527996856
 30
0.0
  0
VERTEX
  5
277
  8
0
  6
CONTINUOUS
 62
     7
 10
224.317984753
 20
163.9256829578
 30
0.0
  0
VERTEX
  5
278
  8
0
  6
CONTINUOUS
 62
     7
 10
224.1303910545
 20
164.1132766563
 30
0.0
  0
VERTEX
  5
279
  8
0
  6
CONTINUOUS
 62
     7
 10
223.9353050522
 20
164.3083686191
 30
0.0
  0
SEQEND
  5
2EF
  8
0
  6
CONTINUOUS
 62
     7
  0
LINE
  5
117
  8
0
  6
CONTINUOUS
 62
     7
 10
273.3353068165
 20
163.3083695728
 30
0.0
 11
224.9353040985
 21
163.3083695728
 31
0.0
  0
POLYLINE
  5
118
  8
0
  6
CONTINUOUS
 62
     7
 66
     1
 10
0.0
 20
0.0
 30
0.0
  0
VERTEX
  5
27A
  8
0
  6
CONTINUOUS
 62
     7
 10
64.9353017143
 20
163.3083695728
 30
0.0
  0
VERTEX
  5
27B
  8
0
  6
CONTINUOUS
 62
     7
 10
64.9545182518
 20
163.3275861103
 30
0.0
  0
VERTEX
  5
27C
  8
0
  6
CONTINUOUS
 62
     7
 10
65.0114228062
 20
163.3844906646
 30
0.0
  0
VERTEX
  5
27D
  8
0
  6
CONTINUOUS
 62
     7
 10
65.1038338474
 20
163.4769017059
 30
0.0
  0
VERTEX
  5
27E
  8
0
  6
CONTINUOUS
 62
     7
 10
65.2281989387
 20
163.6012608367
 30
0.0
  0
VERTEX
  5
27F
  8
0
  6
CONTINUOUS
 62
     7
 10
65.3797318271
 20
163.7527996856
 30
0.0
  0
VERTEX
  5
280
  8
0
  6
CONTINUOUS
 62
     7
 10
65.5526210598
 20
163.9256829578
 30
0.0
  0
VERTEX
  5
281
  8
0
  6
CONTINUOUS
 62
     7
 10
65.7402147583
 20
164.1132766563
 30
0.0
  0
VERTEX
  5
282
  8
0
  6
CONTINUOUS
 62
     7
 10
65.9353007606
 20
164.3083686191
 30
0.0
  0
SEQEND
  5
2EE
  8
0
  6
CONTINUOUS
 62
     7
  0
LINE
  5
119
  8
0
  6
CONTINUOUS
 62
     7
 10
64.9353017143
 20
163.3083695728
 30
0.0
 11
16.5352989963
 21
163.3083695728
 31
0.0
  0
ARC
  5
11A
  8
0
  6
CONTINUOUS
 62
     7
 10
273.3353029064
 20
172.9083685714
 30
0.0
 40
0.4000000000000057
 50
0.0
 51
90.0
  0
LINE
  5
11B
  8
0
  6
CONTINUOUS
 62
     7
 10
273.7353016666
 20
172.9083711463
 30
0.0
 11
273.7353016666
 21
172.3083669502
 31
0.0
  0
LINE
  5
11C
  8
0
  6
CONTINUOUS
 62
     7
 10
273.7353016666
 20
172.3083669502
 30
0.0
 11
273.7353016666
 21
164.3083686191
 31
0.0
  0
LINE
  5
11D
  8
0
  6
CONTINUOUS
 62
     7
 10
16.1353041462
 20
164.3083686191
 30
0.0
 11
16.1353041462
 21
172.3083669502
 31
0.0
  0
LINE
  5
11E
  8
0
  6
CONTINUOUS
 62
     7
 10
16.5352989963
 20
173.3083659965
 30
0.0
 11
18.9353038601
 21
173.3083659965
 31
0.0
  0
LINE
  5
11F
  8
0
  6
CONTINUOUS
 62
     7
 10
30.9353043369
 20
173.3083659965
 30
0.0
 11
42.4353052906
 21
173.3083659965
 31
0.0
  0
LINE
  5
120
  8
0
  6
CONTINUOUS
 62
     7
 10
52.4353017143
 20
173.3083659965
 30
0.0
 11
117.4353023104
 21
173.3083659965
 31
0.0
  0
LINE
  5
121
  8
0
  6
CONTINUOUS
 62
     7
 10
127.4353032044
 20
173.3083659965
 30
0.0
 11
138.9353030405
 21
173.3083659965
 31
0.0
  0
LINE
  5
122
  8
0
  6
CONTINUOUS
 62
     7
 10
150.9353027723
 20
173.3083659965
 30
0.0
 11
162.4353026084
 21
173.3083659965
 31
0.0
  0
LINE
  5
123
  8
0
  6
CONTINUOUS
 62
     7
 10
172.4353035025
 20
173.3083659965
 30
0.0
 11
237.4353040985
 21
173.3083659965
 31
0.0
  0
LINE
  5
124
  8
0
  6
CONTINUOUS
 62
     7
 10
247.4353005222
 20
173.3083659965
 30
0.0
 11
258.9353014759
 21
173.3083659965
 31
0.0
  0
LINE
  5
125
  8
0
  6
CONTINUOUS
 62
     7
 10
270.9353019527
 20
173.3083659965
 30
0.0
 11
273.3353068165
 21
173.3083659965
 31
0.0
  0
LINE
  5
126
  8
0
  6
CONTINUOUS
 62
     7
 10
214.9353017143
 20
99.3083685819
 30
0.0
 11
214.9353017143
 21
163.3083695728
 31
0.0
  0
POLYLINE
  5
127
  8
0
  6
CONTINUOUS
 62
     7
 66
     1
 10
0.0
 20
0.0
 30
0.0
  0
VERTEX
  5
283
  8
0
  6
CONTINUOUS
 62
     7
 10
215.9353007606
 20
164.3083686191
 30
0.0
  0
VERTEX
  5
284
  8
0
  6
CONTINUOUS
 62
     7
 10
215.7402147583
 20
164.1132766563
 30
0.0
  0
VERTEX
  5
285
  8
0
  6
CONTINUOUS
 62
     7
 10
215.5526210598
 20
163.9256829578
 30
0.0
  0
VERTEX
  5
286
  8
0
  6
CONTINUOUS
 62
     7
 10
215.3797318271
 20
163.7527996856
 30
0.0
  0
VERTEX
  5
287
  8
0
  6
CONTINUOUS
 62
     7
 10
215.2281989387
 20
163.6012608367
 30
0.0
  0
VERTEX
  5
288
  8
0
  6
CONTINUOUS
 62
     7
 10
215.1038338474
 20
163.4769017059
 30
0.0
  0
VERTEX
  5
289
  8
0
  6
CONTINUOUS
 62
     7
 10
215.0114228062
 20
163.3844906646
 30
0.0
  0
VERTEX
  5
28A
  8
0
  6
CONTINUOUS
 62
     7
 10
214.9545182518
 20
163.3275861103
 30
0.0
  0
VERTEX
  5
28B
  8
0
  6
CONTINUOUS
 62
     7
 10
214.9353017143
 20
163.3083695728
 30
0.0
  0
SEQEND
  5
2ED
  8
0
  6
CONTINUOUS
 62
     7
  0
LINE
  5
128
  8
0
  6
CONTINUOUS
 62
     7
 10
214.9353017143
 20
163.3083695728
 30
0.0
 11
74.9353040985
 21
163.3083695728
 31
0.0
  0
POLYLINE
  5
129
  8
0
  6
CONTINUOUS
 62
     7
 66
     1
 10
0.0
 20
0.0
 30
0.0
  0
VERTEX
  5
28C
  8
0
  6
CONTINUOUS
 62
     7
 10
73.9353050522
 20
164.3083686191
 30
0.0
  0
VERTEX
  5
28D
  8
0
  6
CONTINUOUS
 62
     7
 10
74.1303910545
 20
164.1132766563
 30
0.0
  0
VERTEX
  5
28E
  8
0
  6
CONTINUOUS
 62
     7
 10
74.317984753
 20
163.9256829578
 30
0.0
  0
VERTEX
  5
28F
  8
0
  6
CONTINUOUS
 62
     7
 10
74.4908739857
 20
163.7527996856
 30
0.0
  0
VERTEX
  5
290
  8
0
  6
CONTINUOUS
 62
     7
 10
74.6424068741
 20
163.6012608367
 30
0.0
  0
VERTEX
  5
291
  8
0
  6
CONTINUOUS
 62
     7
 10
74.7667719654
 20
163.4769017059
 30
0.0
  0
VERTEX
  5
292
  8
0
  6
CONTINUOUS
 62
     7
 10
74.8591830067
 20
163.3844906646
 30
0.0
  0
VERTEX
  5
293
  8
0
  6
CONTINUOUS
 62
     7
 10
74.916087561
 20
163.3275861103
 30
0.0
  0
VERTEX
  5
294
  8
0
  6
CONTINUOUS
 62
     7
 10
74.9353040985
 20
163.3083695728
 30
0.0
  0
SEQEND
  5
2EC
  8
0
  6
CONTINUOUS
 62
     7
  0
LINE
  5
12A
  8
0
  6
CONTINUOUS
 62
     7
 10
16.1353041462
 20
163.7083703834
 30
0.0
 11
16.1353041462
 21
164.3083686191
 31
0.0
  0
ARC
  5
12B
  8
0
  6
CONTINUOUS
 62
     7
 10
16.5353029064
 20
163.7083685714
 30
0.0
 40
0.4000000000000057
 50
180.0
 51
270.0
  0
LINE
  5
12C
  8
0
  6
CONTINUOUS
 62
     7
 10
64.9353017143
 20
99.3083685819
 30
0.0
 11
64.9353017143
 21
163.3083695728
 31
0.0
  0
LINE
  5
12D
  8
0
  6
CONTINUOUS
 62
     7
 10
224.9353040985
 20
163.3083695728
 30
0.0
 11
224.9353040985
 21
99.3083685819
 31
0.0
  0
LINE
  5
12E
  8
0
  6
CONTINUOUS
 62
     7
 10
16.1353041462
 20
172.3083669502
 30
0.0
 11
16.1353041462
 21
172.9083711463
 31
0.0
  0
ARC
  5
12F
  8
0
  6
CONTINUOUS
 62
     7
 10
16.5353029064
 20
172.9083685714
 30
0.0
 40
0.4000000000000057
 50
90.0
 51
180.0
  0
LINE
  5
130
  8
0
  6
CONTINUOUS
 62
     7
 10
74.9353040985
 20
163.3083695728
 30
0.0
 11
74.9353040985
 21
99.3083685819
 31
0.0
  0
ARC
  5
131
  8
0
  6
CONTINUOUS
 62
     7
 10
373.5867282044
 20
199.1083685714
 30
0.0
 40
12.30000000000001
 50
90.0
 51
180.0
  0
ARC
  5
132
  8
0
  6
CONTINUOUS
 62
     7
 10
373.5867282044
 20
199.1083685714
 30
0.0
 40
17.70000000000002
 50
90.0
 51
180.0
  0
LINE
  5
133
  8
0
  6
CONTINUOUS
 62
     7
 10
361.2867281209
 20
174.1083676178
 30
0.0
 11
361.2867281209
 21
199.1083676178
 31
0.0
  0
LINE
  5
134
  8
0
  6
CONTINUOUS
 62
     7
 10
355.8867281671
 20
199.1083676178
 30
0.0
 11
355.8867281671
 21
174.1083676178
 31
0.0
  0
LINE
  5
135
  8
0
  6
CONTINUOUS
 62
     7
 10
364.586728103
 20
164.8083681423
 30
0.0
 11
393.5867280136
 21
164.8083681423
 31
0.0
  0
LINE
  5
136
  8
0
  6
CONTINUOUS
 62
     7
 10
393.5867280136
 20
170.208370145
 30
0.0
 11
364.586728103
 21
170.208370145
 31
0.0
  0
LINE
  5
137
  8
0
  6
CONTINUOUS
 62
     7
 10
393.5867280136
 20
216.8083721954
 30
0.0
 11
373.5867277156
 21
216.8083721954
 31
0.0
  0
LINE
  5
138
  8
0
  6
CONTINUOUS
 62
     7
 10
373.5867277156
 20
211.4083701927
 30
0.0
 11
393.5867280136
 21
211.4083701927
 31
0.0
  0
ARC
  5
139
  8
0
  6
CONTINUOUS
 62
     7
 10
393.5867282044
 20
199.1083685714
 30
0.0
 40
12.30000000000001
 50
0.0
 51
90.0
  0
ARC
  5
13A
  8
0
  6
CONTINUOUS
 62
     7
 10
393.5867282044
 20
199.1083685714
 30
0.0
 40
17.69999999999999
 50
360.0
 51
90.0
  0
ARC
  5
13B
  8
0
  6
CONTINUOUS
 62
     7
 10
393.5867282044
 20
182.5083685714
 30
0.0
 40
12.30000000000001
 50
270.0
 51
0.0
  0
ARC
  5
13C
  8
0
  6
CONTINUOUS
 62
     7
 10
393.5867282044
 20
182.5083685714
 30
0.0
 40
17.69999999999999
 50
270.0
 51
0.0
  0
LINE
  5
13D
  8
0
  6
CONTINUOUS
 62
     7
 10
411.2867266308
 20
182.5083667594
 30
0.0
 11
411.2867266308
 21
199.1083676178
 31
0.0
  0
LINE
  5
13E
  8
0
  6
CONTINUOUS
 62
     7
 10
405.8867276083
 20
199.1083676178
 30
0.0
 11
405.8867276083
 21
182.5083667594
 31
0.0
  0
POLYLINE
  5
13F
  8
0
  6
CONTINUOUS
 62
     7
 66
     1
 10
0.0
 20
0.0
 30
0.0
  0
VERTEX
  5
295
  8
0
  6
CONTINUOUS
 62
     7
 10
439.4798130165
 20
187.3171204883
 30
0.0
  0
VERTEX
  5
296
  8
0
  6
CONTINUOUS
 62
     7
 10
439.4744605194
 20
187.5864679176
 30
0.0
  0
VERTEX
  5
297
  8
0
  6
CONTINUOUS
 62
     7
 10
439.4072622429
 20
187.9933709461
 30
0.0
  0
VERTEX
  5
298
  8
0
  6
CONTINUOUS
 62
     7
 10
439.2896801602
 20
188.372176345
 30
0.0
  0
VERTEX
  5
299
  8
0
  6
CONTINUOUS
 62
     7
 10
439.1305774819
 20
188.7181753475
 30
0.0
  0
VERTEX
  5
29A
  8
0
  6
CONTINUOUS
 62
     7
 10
438.9388233792
 20
189.0288049537
 30
0.0
  0
VERTEX
  5
29B
  8
0
  6
CONTINUOUS
 62
     7
 10
438.7223512303
 20
189.3041366893
 30
0.0
  0
VERTEX
  5
29C
  8
0
  6
CONTINUOUS
 62
     7
 10
438.4864479672
 20
189.5472997982
 30
0.0
  0
VERTEX
  5
29D
  8
0
  6
CONTINUOUS
 62
     7
 10
438.2318765293
 20
189.7641891796
 30
0.0
  0
VERTEX
  5
29E
  8
0
  6
CONTINUOUS
 62
     7
 10
437.9527360569
 20
189.9630600769
 30
0.0
  0
VERTEX
  5
29F
  8
0
  6
CONTINUOUS
 62
     7
 10
437.63080541
 20
190.1553804237
 30
0.0
  0
VERTEX
  5
2A0
  8
0
  6
CONTINUOUS
 62
     7
 10
437.2453719746
 20
190.3478795845
 30
0.0
  0
VERTEX
  5
2A1
  8
0
  6
CONTINUOUS
 62
     7
 10
436.7337257038
 20
190.5592376548
 30
0.0
  0
VERTEX
  5
2A2
  8
0
  6
CONTINUOUS
 62
     7
 10
436.1592382561
 20
190.7557958919
 30
0.0
  0
VERTEX
  5
2A3
  8
0
  6
CONTINUOUS
 62
     7
 10
435.5842858921
 20
190.9227306205
 30
0.0
  0
VERTEX
  5
2A4
  8
0
  6
CONTINUOUS
 62
     7
 10
434.9287480484
 20
191.0867983657
 30
0.0
  0
VERTEX
  5
2A5
  8
0
  6
CONTINUOUS
 62
     7
 10
434.2545897137
 20
191.2332708198
 30
0.0
  0
VERTEX
  5
2A6
  8
0
  6
CONTINUOUS
 62
     7
 10
433.5542947422
 20
191.3664335567
 30
0.0
  0
VERTEX
  5
2A7
  8
0
  6
CONTINUOUS
 62
     7
 10
432.8419596325
 20
191.4850944835
 30
0.0
  0
VERTEX
  5
2A8
  8
0
  6
CONTINUOUS
 62
     7
 10
432.0785254608
 20
191.5964061576
 30
0.0
  0
VERTEX
  5
2A9
  8
0
  6
CONTINUOUS
 62
     7
 10
431.2818974625
 20
191.6975373584
 30
0.0
  0
VERTEX
  5
2AA
  8
0
  6
CONTINUOUS
 62
     7
 10
430.4556697975
 20
191.788052972
 30
0.0
  0
VERTEX
  5
2AB
  8
0
  6
CONTINUOUS
 62
     7
 10
429.6047300469
 20
191.8673092681
 30
0.0
  0
VERTEX
  5
2AC
  8
0
  6
CONTINUOUS
 62
     7
 10
428.7348240982
 20
191.9345909912
 30
0.0
  0
VERTEX
  5
2AD
  8
0
  6
CONTINUOUS
 62
     7
 10
427.8520852696
 20
191.9892126876
 30
0.0
  0
VERTEX
  5
2AE
  8
0
  6
CONTINUOUS
 62
     7
 10
426.9631654392
 20
192.030590232
 30
0.0
  0
VERTEX
  5
2AF
  8
0
  6
CONTINUOUS
 62
     7
 10
426.0665864121
 20
192.0589918453
 30
0.0
  0
VERTEX
  5
2B0
  8
0
  6
CONTINUOUS
 62
     7
 10
425.1513153683
 20
192.0747632343
 30
0.0
  0
VERTEX
  5
2B1
  8
0
  6
CONTINUOUS
 62
     7
 10
424.4868010651
 20
192.0767301876
 30
0.0
  0
SEQEND
  5
2EB
  8
0
  6
CONTINUOUS
 62
     7
  0
ARC
  5
140
  8
0
  6
CONTINUOUS
 62
     7
 10
384.1881308198
 20
136.9238884271
 30
0.0
 40
55.1542574229812
 50
89.689920985
 51
97.9477118465
  0
LINE
  5
141
  8
0
  6
CONTINUOUS
 62
     7
 10
424.4867295395
 20
192.0788699943
 30
0.0
 11
411.2867266308
 21
192.0788699943
 31
0.0
  0
LINE
  5
142
  8
0
  6
CONTINUOUS
 62
     7
 10
405.8867276083
 20
192.0788699943
 30
0.0
 11
384.4867289435
 21
192.0788699943
 31
0.0
  0
POLYLINE
  5
143
  8
0
  6
CONTINUOUS
 62
     7
 66
     1
 10
0.0
 20
0.0
 30
0.0
  0
VERTEX
  5
2B2
  8
0
  6
CONTINUOUS
 62
     7
 10
424.4865984093
 20
186.6973215896
 30
0.0
  0
VERTEX
  5
2B3
  8
0
  6
CONTINUOUS
 62
     7
 10
425.2145201336
 20
186.69373339
 30
0.0
  0
VERTEX
  5
2B4
  8
0
  6
CONTINUOUS
 62
     7
 10
426.055190004
 20
186.677538808
 30
0.0
  0
VERTEX
  5
2B5
  8
0
  6
CONTINUOUS
 62
     7
 10
426.8844753872
 20
186.6494113761
 30
0.0
  0
VERTEX
  5
2B6
  8
0
  6
CONTINUOUS
 62
     7
 10
427.6963919769
 20
186.609577592
 30
0.0
  0
VERTEX
  5
2B7
  8
0
  6
CONTINUOUS
 62
     7
 10
428.4854263436
 20
186.5587825138
 30
0.0
  0
VERTEX
  5
2B8
  8
0
  6
CONTINUOUS
 62
     7
 10
429.2586714398
 20
186.4971811134
 30
0.0
  0
VERTEX
  5
2B9
  8
0
  6
CONTINUOUS
 62
     7
 10
430.0109833847
 20
186.4254648048
 30
0.0
  0
VERTEX
  5
2BA
  8
0
  6
CONTINUOUS
 62
     7
 10
430.7334214817
 20
186.3448376018
 30
0.0
  0
VERTEX
  5
2BB
  8
0
  6
CONTINUOUS
 62
     7
 10
431.4158410202
 20
186.2569386322
 30
0.0
  0
VERTEX
  5
2BC
  8
0
  6
CONTINUOUS
 62
     7
 10
432.049807943
 20
186.163579877
 30
0.0
  0
VERTEX
  5
2BD
  8
0
  6
CONTINUOUS
 62
     7
 10
432.6275140415
 20
186.0668296176
 30
0.0
  0
VERTEX
  5
2BE
  8
0
  6
CONTINUOUS
 62
     7
 10
433.146175779
 20
185.9685117561
 30
0.0
  0
VERTEX
  5
2BF
  8
0
  6
CONTINUOUS
 62
     7
 10
433.6235732208
 20
185.8665222484
 30
0.0
  0
VERTEX
  5
2C0
  8
0
  6
CONTINUOUS
 62
     7
 10
434.0385586392
 20
185.766422208
 30
0.0
  0
VERTEX
  5
2C1
  8
0
  6
CONTINUOUS
 62
     7
 10
434.3880564343
 20
185.6709892112
 30
0.0
  0
VERTEX
  5
2C2
  8
0
  6
CONTINUOUS
 62
     7
 10
434.6666962277
 20
185.5844611484
 30
0.0
  0
VERTEX
  5
2C3
  8
0
  6
CONTINUOUS
 62
     7
 10
434.8507196079
 20
185.5195159275
 30
0.0
  0
VERTEX
  5
2C4
  8
0
  6
CONTINUOUS
 62
     7
 10
434.9722653996
 20
185.470926221
 30
0.0
  0
VERTEX
  5
2C5
  8
0
  6
CONTINUOUS
 62
     7
 10
435.0353449951
 20
185.4423040706
 30
0.0
  0
VERTEX
  5
2C6
  8
0
  6
CONTINUOUS
 62
     7
 10
435.0431949268
 20
185.4383999664
 30
0.0
  0
SEQEND
  5
2EA
  8
0
  6
CONTINUOUS
 62
     7
  0
LINE
  5
144
  8
0
  6
CONTINUOUS
 62
     7
 10
395.4867273937
 20
186.6988713104
 30
0.0
 11
405.8867276083
 21
186.6988713104
 31
0.0
  0
LINE
  5
145
  8
0
  6
CONTINUOUS
 62
     7
 10
411.2867266308
 20
186.6988713104
 30
0.0
 11
424.4867295395
 21
186.6988713104
 31
0.0
  0
LINE
  5
146
  8
0
  6
CONTINUOUS
 62
     7
 10
395.4867273937
 20
186.5963811237
 30
0.0
 11
405.8867276083
 21
186.5963811237
 31
0.0
  0
LINE
  5
147
  8
0
  6
CONTINUOUS
 62
     7
 10
411.2867266308
 20
186.5963811237
 30
0.0
 11
427.901420034
 21
186.5963811237
 31
0.0
  0
ARC
  5
148
  8
0
  6
CONTINUOUS
 62
     7
 10
436.7967282044
 20
185.596379846
 30
0.0
 40
2.690000000000055
 50
180.0
 51
270.0
  0
ARC
  5
149
  8
0
  6
CONTINUOUS
 62
     7
 10
436.7967282044
 20
185.596379846
 30
0.0
 40
2.689999999999998
 50
270.0
 51
0.0
  0
LINE
  5
14A
  8
0
  6
CONTINUOUS
 62
     7
 10
363.7867283444
 20
172.9083711463
 30
0.0
 11
363.7867283444
 21
166.3083667118
 31
0.0
  0
ARC
  5
14B
  8
0
  6
CONTINUOUS
 62
     7
 10
363.3867282044
 20
172.9083685714
 30
0.0
 40
0.4000000000000057
 50
0.0
 51
90.0
  0
LINE
  5
14C
  8
0
  6
CONTINUOUS
 62
     7
 10
352.5867283713
 20
166.3083667118
 30
0.0
 11
352.5867283713
 21
172.9083711463
 31
0.0
  0
ARC
  5
14D
  8
0
  6
CONTINUOUS
 62
     7
 10
363.3867282044
 20
172.9083685714
 30
0.0
 40
1.199999999999989
 50
0.0
 51
90.0
  0
LINE
  5
14E
  8
0
  6
CONTINUOUS
 62
     7
 10
364.586728103
 20
172.9083711463
 30
0.0
 11
364.586728103
 21
166.3083667118
 31
0.0
  0
LINE
  5
14F
  8
0
  6
CONTINUOUS
 62
     7
 10
353.7867281954
 20
173.3083659965
 30
0.0
 11
354.3867282938
 21
173.3083659965
 31
0.0
  0
LINE
  5
150
  8
0
  6
CONTINUOUS
 62
     7
 10
362.386728115
 20
173.3083659965
 30
0.0
 11
363.3867282789
 21
173.3083659965
 31
0.0
  0
ARC
  5
151
  8
0
  6
CONTINUOUS
 62
     7
 10
353.7867282044
 20
172.9083685714
 30
0.0
 40
1.199999999999989
 50
90.0
 51
180.0
  0
LINE
  5
152
  8
0
  6
CONTINUOUS
 62
     7
 10
353.7867281954
 20
174.1083676178
 30
0.0
 11
363.3867282789
 21
174.1083676178
 31
0.0
  0
LINE
  5
153
  8
0
  6
CONTINUOUS
 62
     7
 10
353.3867281299
 20
172.3083669502
 30
0.0
 11
353.3867281299
 21
172.9083711463
 31
0.0
  0
ARC
  5
154
  8
0
  6
CONTINUOUS
 62
     7
 10
353.7867282044
 20
172.9083685714
 30
0.0
 40
0.4000000000000057
 50
90.0
 51
180.0
  0
LINE
  5
155
  8
0
  6
CONTINUOUS
 62
     7
 10
353.3867281299
 20
164.3083686191
 30
0.0
 11
352.5867283713
 21
164.3083686191
 31
0.0
  0
LINE
  5
156
  8
0
  6
CONTINUOUS
 62
     7
 10
352.5867283713
 20
164.3083686191
 30
0.0
 11
352.5867283713
 21
166.3083667118
 31
0.0
  0
LINE
  5
157
  8
0
  6
CONTINUOUS
 62
     7
 10
364.586728103
 20
164.3083686191
 30
0.0
 11
363.7867283444
 21
164.3083686191
 31
0.0
  0
LINE
  5
158
  8
0
  6
CONTINUOUS
 62
     7
 10
363.7867283444
 20
164.3083686191
 30
0.0
 11
363.7867283444
 21
166.3083667118
 31
0.0
  0
LINE
  5
159
  8
0
  6
CONTINUOUS
 62
     7
 10
364.586728103
 20
166.3083667118
 30
0.0
 11
364.586728103
 21
164.3083686191
 31
0.0
  0
LINE
  5
15A
  8
0
  6
CONTINUOUS
 62
     7
 10
353.3867281299
 20
164.3083686191
 30
0.0
 11
353.3867281299
 21
164.108371194
 31
0.0
  0
LINE
  5
15B
  8
0
  6
CONTINUOUS
 62
     7
 10
353.3867281299
 20
164.108371194
 30
0.0
 11
352.5867283713
 21
164.108371194
 31
0.0
  0
LINE
  5
15C
  8
0
  6
CONTINUOUS
 62
     7
 10
352.5867283713
 20
164.108371194
 30
0.0
 11
352.5867283713
 21
164.3083686191
 31
0.0
  0
ARC
  5
15D
  8
0
  6
CONTINUOUS
 62
     7
 10
363.3867282044
 20
173.1083685714
 30
0.0
 40
0.2000000000000455
 50
0.0
 51
90.0
  0
LINE
  5
15E
  8
0
  6
CONTINUOUS
 62
     7
 10
363.5867283116
 20
166.1083692867
 30
0.0
 11
363.5867283116
 21
173.1083685714
 31
0.0
  0
ARC
  5
15F
  8
0
  6
CONTINUOUS
 62
     7
 10
353.5867282044
 20
173.1083685714
 30
0.0
 40
1.0
 50
90.0
 51
180.0
  0
LINE
  5
160
  8
0
  6
CONTINUOUS
 62
     7
 10
364.3867280703
 20
164.108371194
 30
0.0
 11
363.5867283116
 21
164.108371194
 31
0.0
  0
LINE
  5
161
  8
0
  6
CONTINUOUS
 62
     7
 10
363.5867283116
 20
164.108371194
 30
0.0
 11
363.5867283116
 21
166.1083692867
 31
0.0
  0
LINE
  5
162
  8
0
  6
CONTINUOUS
 62
     7
 10
364.3867280703
 20
164.3083686191
 30
0.0
 11
364.3867280703
 21
164.108371194
 31
0.0
  0
POLYLINE
  5
163
  8
0
  6
CONTINUOUS
 62
     7
 66
     1
 10
0.0
 20
0.0
 30
0.0
  0
VERTEX
  5
2C7
  8
0
  6
CONTINUOUS
 62
     7
 10
376.4376342665
 20
189.5004624683
 30
0.0
  0
VERTEX
  5
2C8
  8
0
  6
CONTINUOUS
 62
     7
 10
376.6076013814
 20
189.8649329502
 30
0.0
  0
VERTEX
  5
2C9
  8
0
  6
CONTINUOUS
 62
     7
 10
376.8551260601
 20
190.2031714279
 30
0.0
  0
VERTEX
  5
2CA
  8
0
  6
CONTINUOUS
 62
     7
 10
377.2471368681
 20
190.5761951763
 30
0.0
  0
VERTEX
  5
2CB
  8
0
  6
CONTINUOUS
 62
     7
 10
377.7047530185
 20
190.8919805843
 30
0.0
  0
VERTEX
  5
2CC
  8
0
  6
CONTINUOUS
 62
     7
 10
378.4787476431
 20
191.2705952484
 30
0.0
  0
VERTEX
  5
2CD
  8
0
  6
CONTINUOUS
 62
     7
 10
379.3129191171
 20
191.5483707744
 30
0.0
  0
SEQEND
  5
2E9
  8
0
  6
CONTINUOUS
 62
     7
  0
POLYLINE
  5
164
  8
0
  6
CONTINUOUS
 62
     7
 66
     1
 10
0.0
 20
0.0
 30
0.0
  0
VERTEX
  5
2CE
  8
0
  6
CONTINUOUS
 62
     7
 10
382.2201878201
 20
186.7109412509
 30
0.0
  0
VERTEX
  5
2CF
  8
0
  6
CONTINUOUS
 62
     7
 10
380.188795961
 20
186.7677087146
 30
0.0
  0
VERTEX
  5
2D0
  8
0
  6
CONTINUOUS
 62
     7
 10
379.0979400645
 20
186.8958408195
 30
0.0
  0
VERTEX
  5
2D1
  8
0
  6
CONTINUOUS
 62
     7
 10
378.037971295
 20
187.1690863925
 30
0.0
  0
VERTEX
  5
2D2
  8
0
  6
CONTINUOUS
 62
     7
 10
377.3467004667
 20
187.4927574951
 30
0.0
  0
VERTEX
  5
2D3
  8
0
  6
CONTINUOUS
 62
     7
 10
377.0309940349
 20
187.7141887504
 30
0.0
  0
VERTEX
  5
2D4
  8
0
  6
CONTINUOUS
 62
     7
 10
376.7541557919
 20
187.9815990287
 30
0.0
  0
VERTEX
  5
2D5
  8
0
  6
CONTINUOUS
 62
     7
 10
376.4651507507
 20
188.4440118629
 30
0.0
  0
VERTEX
  5
2D6
  8
0
  6
CONTINUOUS
 62
     7
 10
376.3534918796
 20
188.9810377914
 30
0.0
  0
VERTEX
  5
2D7
  8
0
  6
CONTINUOUS
 62
     7
 10
376.4376342665
 20
189.5004624683
 30
0.0
  0
SEQEND
  5
2E8
  8
0
  6
CONTINUOUS
 62
     7
  0
LINE
  5
165
  8
0
  6
CONTINUOUS
 62
     7
 10
384.4867289435
 20
186.7193455059
 30
0.0
 11
382.2201878201
 21
186.7109412509
 31
0.0
  0
LINE
  5
166
  8
0
  6
CONTINUOUS
 62
     7
 10
395.4867273937
 20
186.7193455059
 30
0.0
 11
384.4867289435
 21
186.7193455059
 31
0.0
  0
ARC
  5
167
  8
0
  6
CONTINUOUS
 62
     7
 10
356.0927099621
 20
299.5978781722
 30
0.0
 40
120.0
 50
280.9468409701
 51
289.1646231125
  0
LINE
  5
168
  8
0
  6
CONTINUOUS
 62
     7
 10
378.8804889094
 20
181.7814225513
 30
0.0
 11
374.4675428044
 21
180.9278840381
 31
0.0
  0
ARC
  5
169
  8
0
  6
CONTINUOUS
 62
     7
 10
375.9867282044
 20
173.073451023
 30
0.0
 40
8.000000000000014
 50
100.9468409701
 51
180.0
  0
LINE
  5
16A
  8
0
  6
CONTINUOUS
 62
     7
 10
367.9867282878
 20
173.0734521705
 30
0.0
 11
367.9867282878
 21
172.3083669502
 31
0.0
  0
ARC
  5
16B
  8
0
  6
CONTINUOUS
 62
     7
 10
365.9867282044
 20
172.3083685714
 30
0.0
 40
2.0
 50
270.0
 51
0.0
  0
LINE
  5
16C
  8
0
  6
CONTINUOUS
 62
     7
 10
365.98672796
 20
170.3083688575
 30
0.0
 11
364.586728103
 21
170.3083688575
 31
0.0
  0
LINE
  5
16D
  8
0
  6
CONTINUOUS
 62
     7
 10
352.5867283713
 20
170.3083688575
 30
0.0
 11
351.7867282401
 21
170.3083688575
 31
0.0
  0
ARC
  5
16E
  8
0
  6
CONTINUOUS
 62
     7
 10
351.7867282044
 20
172.3083685714
 30
0.0
 40
2.0
 50
180.0
 51
270.0
  0
LINE
  5
16F
  8
0
  6
CONTINUOUS
 62
     7
 10
349.7867279123
 20
172.3083669502
 30
0.0
 11
349.7867279123
 21
174.8693937618
 31
0.0
  0
ARC
  5
170
  8
0
  6
CONTINUOUS
 62
     7
 10
357.7867282044
 20
174.8693930218
 30
0.0
 40
8.0
 50
140.3596923241
 51
180.0
  0
ARC
  5
171
  8
0
  6
CONTINUOUS
 62
     7
 10
376.2682791638
 20
159.5582116783
 30
0.0
 40
32.0
 50
129.5627908875
 51
140.3596923241
  0
ARC
  5
172
  8
0
  6
CONTINUOUS
 62
     7
 10
376.2682791638
 20
159.5582116783
 30
0.0
 40
32.00000000000001
 50
91.4211498515
 51
117.9157975373
  0
LINE
  5
173
  8
0
  6
CONTINUOUS
 62
     7
 10
375.4746407639
 20
191.5483707744
 30
0.0
 11
379.3129191171
 21
191.5483707744
 31
0.0
  0
LINE
  5
174
  8
0
  6
CONTINUOUS
 62
     7
 10
395.4867273937
 20
186.7193455059
 30
0.0
 11
395.4867273937
 21
186.2483674842
 31
0.0
  0
LINE
  5
175
  8
0
  6
CONTINUOUS
 62
     7
 10
434.1067284714
 20
185.7130283672
 30
0.0
 11
434.1067284714
 21
185.5963820774
 31
0.0
  0
LINE
  5
176
  8
0
  6
CONTINUOUS
 62
     7
 10
439.4867271553
 20
185.5963820774
 30
0.0
 11
439.4867271553
 21
187.3142117816
 31
0.0
  0
LINE
  5
177
  8
0
  6
CONTINUOUS
 62
     7
 10
439.4867271553
 20
187.3142117816
 30
0.0
 11
439.4862860809
 21
187.3624677021
 31
0.0
  0
ARC
  5
178
  8
0
  6
CONTINUOUS
 62
     7
 10
354.3867282044
 20
172.3083685714
 30
0.0
 40
1.0
 50
90.0
 51
180.0
  0
LINE
  5
179
  8
0
  6
CONTINUOUS
 62
     7
 10
353.3867281299
 20
164.3083686191
 30
0.0
 11
353.3867281299
 21
172.3083669502
 31
0.0
  0
LINE
  5
17A
  8
0
  6
CONTINUOUS
 62
     7
 10
362.386728115
 20
163.3083695728
 30
0.0
 11
354.3867282938
 21
163.3083695728
 31
0.0
  0
ARC
  5
17B
  8
0
  6
CONTINUOUS
 62
     7
 10
354.3867282044
 20
164.3083685714
 30
0.0
 40
1.0
 50
180.0
 51
270.0
  0
LINE
  5
17C
  8
0
  6
CONTINUOUS
 62
     7
 10
354.3867282938
 20
173.3083659965
 30
0.0
 11
362.386728115
 21
173.3083659965
 31
0.0
  0
ARC
  5
17D
  8
0
  6
CONTINUOUS
 62
     7
 10
362.3867282044
 20
164.3083685714
 30
0.0
 40
1.0
 50
270.0
 51
0.0
  0
LINE
  5
17E
  8
0
  6
CONTINUOUS
 62
     7
 10
363.3867282789
 20
172.3083669502
 30
0.0
 11
363.3867282789
 21
164.3083686191
 31
0.0
  0
ARC
  5
17F
  8
0
  6
CONTINUOUS
 62
     7
 10
362.3867282044
 20
172.3083685714
 30
0.0
 40
1.0
 50
0.0
 51
90.0
  0
LINE
  5
180
  8
0
  6
CONTINUOUS
 62
     7
 10
346.3867284726
 20
98.1083685714
 30
0.0
 11
346.3867284726
 21
99.3083685819
 31
0.0
  0
LINE
  5
181
  8
0
  6
CONTINUOUS
 62
     7
 10
346.3867284726
 20
99.3083685819
 30
0.0
 11
350.3867283832
 21
99.3083685819
 31
0.0
  0
LINE
  5
182
  8
0
  6
CONTINUOUS
 62
     7
 10
350.3867283832
 20
98.1083685714
 30
0.0
 11
346.3867284726
 21
98.1083685714
 31
0.0
  0
LINE
  5
183
  8
0
  6
CONTINUOUS
 62
     7
 10
350.3867283832
 20
99.3083685819
 30
0.0
 11
352.3867283385
 21
99.3083685819
 31
0.0
  0
LINE
  5
184
  8
0
  6
CONTINUOUS
 62
     7
 10
350.3867283832
 20
98.1083685714
 30
0.0
 11
352.3867283385
 21
98.1083685714
 31
0.0
  0
LINE
  5
185
  8
0
  6
CONTINUOUS
 62
     7
 10
379.7551498185
 20
99.3083685819
 30
0.0
 11
352.3867283385
 21
99.3083685819
 31
0.0
  0
LINE
  5
186
  8
0
  6
CONTINUOUS
 62
     7
 10
352.3867283385
 20
98.1083685714
 30
0.0
 11
379.7551498185
 21
98.1083685714
 31
0.0
  0
LINE
  5
187
  8
0
  6
CONTINUOUS
 62
     7
 10
382.3867276679
 20
99.3083685819
 30
0.0
 11
382.3867276679
 21
98.1083685714
 31
0.0
  0
LINE
  5
188
  8
0
  6
CONTINUOUS
 62
     7
 10
379.7551498185
 20
99.3083685819
 30
0.0
 11
382.3867276679
 21
99.3083685819
 31
0.0
  0
LINE
  5
189
  8
0
  6
CONTINUOUS
 62
     7
 10
382.3867276679
 20
98.1083685714
 30
0.0
 11
379.7551498185
 21
98.1083685714
 31
0.0
  0
LINE
  5
18A
  8
0
  6
CONTINUOUS
 62
     7
 10
353.3867281299
 20
99.3083685819
 30
0.0
 11
353.3867281299
 21
164.108371194
 31
0.0
  0
LINE
  5
18B
  8
0
  6
CONTINUOUS
 62
     7
 10
363.3867282789
 20
164.3083686191
 30
0.0
 11
363.3867282789
 21
99.3083685819
 31
0.0
  0
LINE
  5
18C
  8
0
  6
CONTINUOUS
 62
     7
 10
22.2353030971
 20
14.492943264
 30
0.0
 11
22.2353030971
 21
-0.5070562378
 31
0.0
  0
LINE
  5
18D
  8
0
  6
CONTINUOUS
 62
     7
 10
27.6353050999
 20
-0.5070562378
 30
0.0
 11
27.6353050999
 21
14.492943264
 31
0.0
  0
LINE
  5
18E
  8
0
  6
CONTINUOUS
 62
     7
 10
27.6353050999
 20
-20.5070565358
 30
0.0
 11
27.6353050999
 21
-0.5070562378
 31
0.0
  0
LINE
  5
18F
  8
0
  6
CONTINUOUS
 62
     7
 10
22.2353030971
 20
-0.5070562378
 30
0.0
 11
22.2353030971
 21
-20.5070565358
 31
0.0
  0
LINE
  5
190
  8
0
  6
CONTINUOUS
 62
     7
 10
22.2353030971
 20
-20.5070565358
 30
0.0
 11
22.2353030971
 21
-35.5070541516
 31
0.0
  0
LINE
  5
191
  8
0
  6
CONTINUOUS
 62
     7
 10
27.6353050999
 20
-35.5070541516
 30
0.0
 11
27.6353050999
 21
-20.5070565358
 31
0.0
  0
LINE
  5
192
  8
0
  6
CONTINUOUS
 62
     7
 10
142.2353028364
 20
14.492943264
 30
0.0
 11
142.2353028364
 21
-0.5070562378
 31
0.0
  0
LINE
  5
193
  8
0
  6
CONTINUOUS
 62
     7
 10
147.6353029764
 20
-0.5070562378
 30
0.0
 11
147.6353029764
 21
14.492943264
 31
0.0
  0
LINE
  5
194
  8
0
  6
CONTINUOUS
 62
     7
 10
147.6353029764
 20
-20.5070565358
 30
0.0
 11
147.6353029764
 21
-0.5070562378
 31
0.0
  0
LINE
  5
195
  8
0
  6
CONTINUOUS
 62
     7
 10
142.2353028364
 20
-0.5070562378
 30
0.0
 11
142.2353028364
 21
-20.5070565358
 31
0.0
  0
LINE
  5
196
  8
0
  6
CONTINUOUS
 62
     7
 10
142.2353028364
 20
-20.5070565358
 30
0.0
 11
142.2353028364
 21
-35.5070541516
 31
0.0
  0
LINE
  5
197
  8
0
  6
CONTINUOUS
 62
     7
 10
147.6353029764
 20
-35.5070541516
 30
0.0
 11
147.6353029764
 21
-20.5070565358
 31
0.0
  0
LINE
  5
198
  8
0
  6
CONTINUOUS
 62
     7
 10
262.235300713
 20
14.492943264
 30
0.0
 11
262.235300713
 21
-0.5070562378
 31
0.0
  0
LINE
  5
199
  8
0
  6
CONTINUOUS
 62
     7
 10
267.6353027157
 20
-0.5070562378
 30
0.0
 11
267.6353027157
 21
14.492943264
 31
0.0
  0
LINE
  5
19A
  8
0
  6
CONTINUOUS
 62
     7
 10
267.6353027157
 20
-20.5070565358
 30
0.0
 11
267.6353027157
 21
-0.5070562378
 31
0.0
  0
LINE
  5
19B
  8
0
  6
CONTINUOUS
 62
     7
 10
262.235300713
 20
-0.5070562378
 30
0.0
 11
262.235300713
 21
-20.5070565358
 31
0.0
  0
LINE
  5
19C
  8
0
  6
CONTINUOUS
 62
     7
 10
262.235300713
 20
-20.5070565358
 30
0.0
 11
262.235300713
 21
-35.5070541516
 31
0.0
  0
LINE
  5
19D
  8
0
  6
CONTINUOUS
 62
     7
 10
267.6353027157
 20
-35.5070541516
 30
0.0
 11
267.6353027157
 21
-20.5070565358
 31
0.0
  0
ARC
  5
19E
  8
0
  6
CONTINUOUS
 62
     7
 10
230.1189700668
 20
-51.5301931204
 30
0.0
 40
14.86824528724569
 50
270.8244832704
 51
0.4742849259
  0
ARC
  5
19F
  8
0
  6
CONTINUOUS
 62
     7
 10
179.7508565376
 20
-51.5336501694
 30
0.0
 40
14.8665801518728
 50
179.5129123301
 51
269.3234209822
  0
ARC
  5
1A0
  8
0
  6
CONTINUOUS
 62
     7
 10
230.1078568427
 20
-11.3186776507
 30
0.0
 40
14.87756166995702
 50
359.6597829379
 51
32.6991277419
  0
ARC
  5
1A1
  8
0
  6
CONTINUOUS
 62
     7
 10
179.8548727621
 20
-11.3512634508
 30
0.0
 40
14.975388480317
 50
147.3882403755
 51
180.2160451339
  0
ARC
  5
1A2
  8
0
  6
CONTINUOUS
 62
     7
 10
179.6789819027
 20
-11.1140619203
 30
0.0
 40
14.69880721282064
 50
90.699217633
 51
141.1138418288
  0
ARC
  5
1A3
  8
0
  6
CONTINUOUS
 62
     7
 10
230.1946716366
 20
-11.0906989274
 30
0.0
 40
14.67821447142603
 50
38.7741425168
 51
89.7632275192
  0
LINE
  5
1A4
  8
0
  6
CONTINUOUS
 62
     7
 10
164.8765464357
 20
-11.4070574656
 30
0.0
 11
164.8765464357
 21
-51.4070580617
 31
0.0
  0
LINE
  5
1A5
  8
0
  6
CONTINUOUS
 62
     7
 10
244.9940611652
 20
-51.4070580617
 30
0.0
 11
244.9940611652
 21
-11.4070574656
 31
0.0
  0
ARC
  5
1A6
  8
0
  6
CONTINUOUS
 62
     7
 10
110.1189651668
 20
-51.5301856444
 30
0.0
 40
14.86825280728333
 50
270.8244948462
 51
0.4742558757
  0
ARC
  5
1A7
  8
0
  6
CONTINUOUS
 62
     7
 10
59.7508554886
 20
-51.5336553556
 30
0.0
 40
14.86657497474977
 50
179.512892172
 51
269.323417898
  0
ARC
  5
1A8
  8
0
  6
CONTINUOUS
 62
     7
 10
110.107789024
 20
-11.3187031299
 30
0.0
 40
14.87763350840304
 50
359.6598827063
 51
32.6990667389
  0
ARC
  5
1A9
  8
0
  6
CONTINUOUS
 62
     7
 10
59.8547379476
 20
-11.351213393
 30
0.0
 40
14.97524819321581
 50
147.3881243277
 51
180.2162386816
  0
ARC
  5
1AA
  8
0
  6
CONTINUOUS
 62
     7
 10
59.6789757368
 20
-11.1140467714
 30
0.0
 40
14.6987919753086
 50
90.6991896742
 51
141.1138697876
  0
ARC
  5
1AB
  8
0
  6
CONTINUOUS
 62
     7
 10
110.1946686321
 20
-11.0907107764
 30
0.0
 40
14.67822632540678
 50
38.7741646745
 51
89.7632229624
  0
LINE
  5
1AC
  8
0
  6
CONTINUOUS
 62
     7
 10
44.8765446476
 20
-11.4070574656
 30
0.0
 11
44.8765446476
 21
-51.4070580617
 31
0.0
  0
LINE
  5
1AD
  8
0
  6
CONTINUOUS
 62
     7
 10
124.9940593771
 20
-51.4070580617
 30
0.0
 11
124.9940593771
 21
-11.4070574656
 31
0.0
  0
ARC
  5
1AE
  8
0
  6
CONTINUOUS
 62
     7
 10
24.9353029064
 20
14.4929432735
 30
0.0
 40
2.699999999999996
 50
0.0
 51
180.0
  0
ARC
  5
1AF
  8
0
  6
CONTINUOUS
 62
     7
 10
24.9353029064
 20
-35.5070567265
 30
0.0
 40
2.699999999999996
 50
180.0
 51
0.0
  0
LINE
  5
1B0
  8
0
  6
CONTINUOUS
 62
     7
 10
18.9353038601
 20
19.2929432824
 30
0.0
 11
18.9353038601
 21
20.4929431066
 31
0.0
  0
LINE
  5
1B1
  8
0
  6
CONTINUOUS
 62
     7
 10
18.9353038601
 20
20.4929431066
 30
0.0
 11
30.9353043369
 21
20.4929431066
 31
0.0
  0
LINE
  5
1B2
  8
0
  6
CONTINUOUS
 62
     7
 10
30.9353043369
 20
20.4929431066
 30
0.0
 11
30.9353043369
 21
19.2929432824
 31
0.0
  0
LINE
  5
1B3
  8
0
  6
CONTINUOUS
 62
     7
 10
30.9353043369
 20
19.2929432824
 30
0.0
 11
30.9353043369
 21
9.692943199
 31
0.0
  0
LINE
  5
1B4
  8
0
  6
CONTINUOUS
 62
     7
 10
18.9353038601
 20
19.2929432824
 30
0.0
 11
18.9353038601
 21
9.692943199
 31
0.0
  0
LINE
  5
1B5
  8
0
  6
CONTINUOUS
 62
     7
 10
30.9353043369
 20
8.4929433748
 30
0.0
 11
27.6353050999
 21
8.4929433748
 31
0.0
  0
LINE
  5
1B6
  8
0
  6
CONTINUOUS
 62
     7
 10
22.2353030971
 20
8.4929433748
 30
0.0
 11
18.9353038601
 21
8.4929433748
 31
0.0
  0
LINE
  5
1B7
  8
0
  6
CONTINUOUS
 62
     7
 10
30.9353043369
 20
9.692943199
 30
0.0
 11
30.9353043369
 21
8.4929433748
 31
0.0
  0
LINE
  5
1B8
  8
0
  6
CONTINUOUS
 62
     7
 10
18.9353038601
 20
8.4929433748
 30
0.0
 11
18.9353038601
 21
9.692943199
 31
0.0
  0
ARC
  5
1B9
  8
0
  6
CONTINUOUS
 62
     7
 10
144.9353029064
 20
14.4929432735
 30
0.0
 40
2.700000000000017
 50
0.0
 51
180.0
  0
ARC
  5
1BA
  8
0
  6
CONTINUOUS
 62
     7
 10
144.9353029064
 20
-35.5070567265
 30
0.0
 40
2.700000000000017
 50
180.0
 51
0.0
  0
LINE
  5
1BB
  8
0
  6
CONTINUOUS
 62
     7
 10
138.9353030405
 20
19.2929432824
 30
0.0
 11
138.9353030405
 21
20.4929431066
 31
0.0
  0
LINE
  5
1BC
  8
0
  6
CONTINUOUS
 62
     7
 10
138.9353030405
 20
20.4929431066
 30
0.0
 11
150.9353027723
 21
20.4929431066
 31
0.0
  0
LINE
  5
1BD
  8
0
  6
CONTINUOUS
 62
     7
 10
150.9353027723
 20
20.4929431066
 30
0.0
 11
150.9353027723
 21
19.2929432824
 31
0.0
  0
LINE
  5
1BE
  8
0
  6
CONTINUOUS
 62
     7
 10
138.9353030405
 20
19.2929432824
 30
0.0
 11
138.9353030405
 21
9.692943199
 31
0.0
  0
LINE
  5
1BF
  8
0
  6
CONTINUOUS
 62
     7
 10
150.9353027723
 20
19.2929432824
 30
0.0
 11
150.9353027723
 21
9.692943199
 31
0.0
  0
LINE
  5
1C0
  8
0
  6
CONTINUOUS
 62
     7
 10
150.9353027723
 20
8.4929433748
 30
0.0
 11
147.6353029764
 21
8.4929433748
 31
0.0
  0
LINE
  5
1C1
  8
0
  6
CONTINUOUS
 62
     7
 10
142.2353028364
 20
8.4929433748
 30
0.0
 11
138.9353030405
 21
8.4929433748
 31
0.0
  0
LINE
  5
1C2
  8
0
  6
CONTINUOUS
 62
     7
 10
138.9353030405
 20
8.4929433748
 30
0.0
 11
138.9353030405
 21
9.692943199
 31
0.0
  0
LINE
  5
1C3
  8
0
  6
CONTINUOUS
 62
     7
 10
150.9353027723
 20
9.692943199
 30
0.0
 11
150.9353027723
 21
8.4929433748
 31
0.0
  0
ARC
  5
1C4
  8
0
  6
CONTINUOUS
 62
     7
 10
264.9353029064
 20
14.4929432735
 30
0.0
 40
2.699999999999989
 50
0.0
 51
180.0
  0
ARC
  5
1C5
  8
0
  6
CONTINUOUS
 62
     7
 10
264.9353029064
 20
-35.5070567265
 30
0.0
 40
2.699999999999989
 50
180.0
 51
0.0
  0
LINE
  5
1C6
  8
0
  6
CONTINUOUS
 62
     7
 10
258.9353014759
 20
20.4929431066
 30
0.0
 11
270.9353019527
 21
20.4929431066
 31
0.0
  0
LINE
  5
1C7
  8
0
  6
CONTINUOUS
 62
     7
 10
258.9353014759
 20
19.2929432824
 30
0.0
 11
258.9353014759
 21
20.4929431066
 31
0.0
  0
LINE
  5
1C8
  8
0
  6
CONTINUOUS
 62
     7
 10
270.9353019527
 20
20.4929431066
 30
0.0
 11
270.9353019527
 21
19.2929432824
 31
0.0
  0
LINE
  5
1C9
  8
0
  6
CONTINUOUS
 62
     7
 10
258.9353014759
 20
19.2929432824
 30
0.0
 11
258.9353014759
 21
9.692943199
 31
0.0
  0
LINE
  5
1CA
  8
0
  6
CONTINUOUS
 62
     7
 10
270.9353019527
 20
19.2929432824
 30
0.0
 11
270.9353019527
 21
9.692943199
 31
0.0
  0
LINE
  5
1CB
  8
0
  6
CONTINUOUS
 62
     7
 10
270.9353019527
 20
8.4929433748
 30
0.0
 11
267.6353027157
 21
8.4929433748
 31
0.0
  0
LINE
  5
1CC
  8
0
  6
CONTINUOUS
 62
     7
 10
262.235300713
 20
8.4929433748
 30
0.0
 11
258.9353014759
 21
8.4929433748
 31
0.0
  0
LINE
  5
1CD
  8
0
  6
CONTINUOUS
 62
     7
 10
258.9353014759
 20
8.4929433748
 30
0.0
 11
258.9353014759
 21
9.692943199
 31
0.0
  0
LINE
  5
1CE
  8
0
  6
CONTINUOUS
 62
     7
 10
270.9353019527
 20
9.692943199
 30
0.0
 11
270.9353019527
 21
8.4929433748
 31
0.0
  0
POLYLINE
  5
1CF
  8
0
  6
CONTINUOUS
 62
     7
 66
     1
 10
0.0
 20
0.0
 30
0.0
  0
VERTEX
  5
2D8
  8
0
  6
CONTINUOUS
 62
     7
 10
168.2353024415
 20
-4.7638247624
 30
0.0
  0
VERTEX
  5
2D9
  8
0
  6
CONTINUOUS
 62
     7
 10
167.6996951035
 20
-5.4680581108
 30
0.0
  0
VERTEX
  5
2DA
  8
0
  6
CONTINUOUS
 62
     7
 10
167.2353033952
 20
-6.2332476393
 30
0.0
  0
SEQEND
  5
2E7
  8
0
  6
CONTINUOUS
 62
     7
  0
LINE
  5
1D0
  8
0
  6
CONTINUOUS
 62
     7
 10
179.5910825065
 20
3.5876040444
 30
0.0
 11
179.7146220735
 21
3.5929431304
 31
0.0
  0
ARC
  5
1D1
  8
0
  6
CONTINUOUS
 62
     7
 10
180.0748818783
 20
-11.3132228682
 30
0.0
 40
10.07562502582504
 50
100.5231116577
 51
180.5336050231
  0
ARC
  5
1D2
  8
0
  6
CONTINUOUS
 62
     7
 10
229.7957237045
 20
-51.500889023
 30
0.0
 40
10.07562402994026
 50
280.5231071452
 51
0.5335843978
  0
LINE
  5
1D3
  8
0
  6
CONTINUOUS
 62
     7
 10
230.2672316364
 20
-66.40067202
 30
0.0
 11
230.1559855274
 21
-66.4070556775
 31
0.0
  0
POLYLINE
  5
1D4
  8
0
  6
CONTINUOUS
 62
     7
 66
     1
 10
0.0
 20
0.0
 30
0.0
  0
VERTEX
  5
2DB
  8
0
  6
CONTINUOUS
 62
     7
 10
241.6353036693
 20
-4.7638247624
 30
0.0
  0
VERTEX
  5
2DC
  8
0
  6
CONTINUOUS
 62
     7
 10
242.1709110073
 20
-5.4680581108
 30
0.0
  0
VERTEX
  5
2DD
  8
0
  6
CONTINUOUS
 62
     7
 10
242.6353027157
 20
-6.2332476393
 30
0.0
  0
SEQEND
  5
2E6
  8
0
  6
CONTINUOUS
 62
     7
  0
ARC
  5
1D5
  8
0
  6
CONTINUOUS
 62
     7
 10
229.8134630327
 20
-11.2986136425
 30
0.0
 40
10.05803241131264
 50
359.3822356586
 51
79.5610476606
  0
ARC
  5
1D6
  8
0
  6
CONTINUOUS
 62
     7
 10
180.0571370777
 20
-51.5155011772
 30
0.0
 40
10.0580278936427
 50
179.3822394123
 51
259.5610690447
  0
LINE
  5
1D7
  8
0
  6
CONTINUOUS
 62
     7
 10
179.7146220735
 20
-66.4070556775
 30
0.0
 11
179.6214838556
 21
-66.4018045083
 31
0.0
  0
LINE
  5
1D8
  8
0
  6
CONTINUOUS
 62
     7
 10
169.9996938042
 20
-11.4070574656
 30
0.0
 11
169.9996938042
 21
-51.4070580617
 31
0.0
  0
LINE
  5
1D9
  8
0
  6
CONTINUOUS
 62
     7
 10
239.8709108166
 20
-51.4070580617
 30
0.0
 11
239.8709108166
 21
-11.4070574656
 31
0.0
  0
LINE
  5
1DA
  8
0
  6
CONTINUOUS
 62
     7
 10
168.2353024415
 20
-2.394969286
 30
0.0
 11
167.2353033952
 21
-2.394969286
 31
0.0
  0
LINE
  5
1DB
  8
0
  6
CONTINUOUS
 62
     7
 10
167.2353033952
 20
21.4534600362
 30
0.0
 11
167.2353033952
 21
-2.394969286
 31
0.0
  0
LINE
  5
1DC
  8
0
  6
CONTINUOUS
 62
     7
 10
168.2353024415
 20
21.4534600362
 30
0.0
 11
168.2353024415
 21
-2.394969286
 31
0.0
  0
LINE
  5
1DD
  8
0
  6
CONTINUOUS
 62
     7
 10
241.6353036693
 20
-2.394969286
 30
0.0
 11
242.6353027157
 21
-2.394969286
 31
0.0
  0
LINE
  5
1DE
  8
0
  6
CONTINUOUS
 62
     7
 10
241.6353036693
 20
21.4534600362
 30
0.0
 11
241.6353036693
 21
-2.394969286
 31
0.0
  0
LINE
  5
1DF
  8
0
  6
CONTINUOUS
 62
     7
 10
242.6353027157
 20
21.4534600362
 30
0.0
 11
242.6353027157
 21
-2.394969286
 31
0.0
  0
LINE
  5
1E0
  8
0
  6
CONTINUOUS
 62
     7
 10
241.6353036693
 20
-2.394969286
 30
0.0
 11
241.6353036693
 21
-4.7638247624
 31
0.0
  0
LINE
  5
1E1
  8
0
  6
CONTINUOUS
 62
     7
 10
242.6353027157
 20
-2.394969286
 30
0.0
 11
242.6353027157
 21
-6.2332476393
 31
0.0
  0
LINE
  5
1E2
  8
0
  6
CONTINUOUS
 62
     7
 10
167.2353033952
 20
-2.394969286
 30
0.0
 11
167.2353033952
 21
-6.2332476393
 31
0.0
  0
LINE
  5
1E3
  8
0
  6
CONTINUOUS
 62
     7
 10
168.2353024415
 20
-2.394969286
 30
0.0
 11
168.2353024415
 21
-4.7638247624
 31
0.0
  0
LINE
  5
1E4
  8
0
  6
CONTINUOUS
 62
     7
 10
178.2347490124
 20
-61.4070544854
 30
0.0
 11
231.6358556084
 21
-61.4070544854
 31
0.0
  0
LINE
  5
1E5
  8
0
  6
CONTINUOUS
 62
     7
 10
178.2347490124
 20
-1.4070565716
 30
0.0
 11
231.6358556084
 21
-1.4070565716
 31
0.0
  0
LINE
  5
1E6
  8
0
  6
CONTINUOUS
 62
     7
 10
179.7146220735
 20
3.5929431304
 30
0.0
 11
230.1559855274
 21
3.5929431304
 31
0.0
  0
LINE
  5
1E7
  8
0
  6
CONTINUOUS
 62
     7
 10
230.1559855274
 20
-66.4070556775
 30
0.0
 11
179.7146220735
 21
-66.4070556775
 31
0.0
  0
LINE
  5
1E8
  8
0
  6
CONTINUOUS
 62
     7
 10
168.2353024415
 20
23.2929435655
 30
0.0
 11
167.2353033952
 21
23.2929435655
 31
0.0
  0
LINE
  5
1E9
  8
0
  6
CONTINUOUS
 62
     7
 10
167.2353033952
 20
23.2929435655
 30
0.0
 11
167.2353033952
 21
21.4534600362
 31
0.0
  0
LINE
  5
1EA
  8
0
  6
CONTINUOUS
 62
     7
 10
168.2353024415
 20
23.2929435655
 30
0.0
 11
168.2353024415
 21
21.4534600362
 31
0.0
  0
LINE
  5
1EB
  8
0
  6
CONTINUOUS
 62
     7
 10
241.6353036693
 20
23.2929435655
 30
0.0
 11
242.6353027157
 21
23.2929435655
 31
0.0
  0
LINE
  5
1EC
  8
0
  6
CONTINUOUS
 62
     7
 10
241.6353036693
 20
23.2929435655
 30
0.0
 11
241.6353036693
 21
21.4534600362
 31
0.0
  0
LINE
  5
1ED
  8
0
  6
CONTINUOUS
 62
     7
 10
242.6353027157
 20
23.2929435655
 30
0.0
 11
242.6353027157
 21
21.4534600362
 31
0.0
  0
LINE
  5
1EE
  8
0
  6
CONTINUOUS
 62
     7
 10
172.4353035025
 20
9.692943199
 30
0.0
 11
172.4353035025
 21
19.4929433152
 31
0.0
  0
LINE
  5
1EF
  8
0
  6
CONTINUOUS
 62
     7
 10
237.4353040985
 20
9.692943199
 30
0.0
 11
237.4353040985
 21
19.4929433152
 31
0.0
  0
LINE
  5
1F0
  8
0
  6
CONTINUOUS
 62
     7
 10
241.6353036693
 20
20.4929431066
 30
0.0
 11
237.4353040985
 21
20.4929431066
 31
0.0
  0
LINE
  5
1F1
  8
0
  6
CONTINUOUS
 62
     7
 10
237.4353040985
 20
19.4929433152
 30
0.0
 11
237.4353040985
 21
20.4929431066
 31
0.0
  0
LINE
  5
1F2
  8
0
  6
CONTINUOUS
 62
     7
 10
172.4353035025
 20
20.4929431066
 30
0.0
 11
168.2353024415
 21
20.4929431066
 31
0.0
  0
LINE
  5
1F3
  8
0
  6
CONTINUOUS
 62
     7
 10
172.4353035025
 20
20.4929431066
 30
0.0
 11
172.4353035025
 21
19.4929433152
 31
0.0
  0
LINE
  5
1F4
  8
0
  6
CONTINUOUS
 62
     7
 10
172.4353035025
 20
8.6929434076
 30
0.0
 11
168.2353024415
 21
8.6929434076
 31
0.0
  0
LINE
  5
1F5
  8
0
  6
CONTINUOUS
 62
     7
 10
172.4353035025
 20
9.692943199
 30
0.0
 11
172.4353035025
 21
8.6929434076
 31
0.0
  0
LINE
  5
1F6
  8
0
  6
CONTINUOUS
 62
     7
 10
241.6353036693
 20
8.6929434076
 30
0.0
 11
237.4353040985
 21
8.6929434076
 31
0.0
  0
LINE
  5
1F7
  8
0
  6
CONTINUOUS
 62
     7
 10
237.4353040985
 20
8.6929434076
 30
0.0
 11
237.4353040985
 21
9.692943199
 31
0.0
  0
LINE
  5
1F8
  8
0
  6
CONTINUOUS
 62
     7
 10
162.4353026084
 20
9.692943199
 30
0.0
 11
162.4353026084
 21
19.4929433152
 31
0.0
  0
LINE
  5
1F9
  8
0
  6
CONTINUOUS
 62
     7
 10
162.4353026084
 20
19.4929433152
 30
0.0
 11
162.4353026084
 21
20.4929431066
 31
0.0
  0
LINE
  5
1FA
  8
0
  6
CONTINUOUS
 62
     7
 10
167.2353033952
 20
20.4929431066
 30
0.0
 11
162.4353026084
 21
20.4929431066
 31
0.0
  0
LINE
  5
1FB
  8
0
  6
CONTINUOUS
 62
     7
 10
247.4353005222
 20
9.692943199
 30
0.0
 11
247.4353005222
 21
19.4929433152
 31
0.0
  0
LINE
  5
1FC
  8
0
  6
CONTINUOUS
 62
     7
 10
247.4353005222
 20
20.4929431066
 30
0.0
 11
242.6353027157
 21
20.4929431066
 31
0.0
  0
LINE
  5
1FD
  8
0
  6
CONTINUOUS
 62
     7
 10
247.4353005222
 20
19.4929433152
 30
0.0
 11
247.4353005222
 21
20.4929431066
 31
0.0
  0
LINE
  5
1FE
  8
0
  6
CONTINUOUS
 62
     7
 10
247.4353005222
 20
8.6929434076
 30
0.0
 11
242.6353027157
 21
8.6929434076
 31
0.0
  0
LINE
  5
1FF
  8
0
  6
CONTINUOUS
 62
     7
 10
247.4353005222
 20
8.6929434076
 30
0.0
 11
247.4353005222
 21
9.692943199
 31
0.0
  0
LINE
  5
200
  8
0
  6
CONTINUOUS
 62
     7
 10
167.2353033952
 20
8.6929434076
 30
0.0
 11
162.4353026084
 21
8.6929434076
 31
0.0
  0
LINE
  5
201
  8
0
  6
CONTINUOUS
 62
     7
 10
162.4353026084
 20
8.6929434076
 30
0.0
 11
162.4353026084
 21
9.692943199
 31
0.0
  0
POLYLINE
  5
202
  8
0
  6
CONTINUOUS
 62
     7
 66
     1
 10
0.0
 20
0.0
 30
0.0
  0
VERTEX
  5
2DE
  8
0
  6
CONTINUOUS
 62
     7
 10
48.2353021435
 20
-4.7638247624
 30
0.0
  0
VERTEX
  5
2DF
  8
0
  6
CONTINUOUS
 62
     7
 10
47.6996948055
 20
-5.4680581108
 30
0.0
  0
VERTEX
  5
2E0
  8
0
  6
CONTINUOUS
 62
     7
 10
47.2353030971
 20
-6.2332476393
 30
0.0
  0
SEQEND
  5
2E5
  8
0
  6
CONTINUOUS
 62
     7
  0
LINE
  5
203
  8
0
  6
CONTINUOUS
 62
     7
 10
59.5910836986
 20
3.5876040444
 30
0.0
 11
59.7146202854
 21
3.5929431304
 31
0.0
  0
ARC
  5
204
  8
0
  6
CONTINUOUS
 62
     7
 10
60.0748880547
 20
-11.3132269728
 30
0.0
 40
10.07562997172434
 50
100.5231352619
 51
180.5335814189
  0
LINE
  5
205
  8
0
  6
CONTINUOUS
 62
     7
 10
110.2672298483
 20
-66.40067202
 30
0.0
 11
110.1559837393
 21
-66.4070556775
 31
0.0
  0
ARC
  5
206
  8
0
  6
CONTINUOUS
 62
     7
 10
109.7957298809
 20
-51.5008931276
 30
0.0
 40
10.0756190840346
 50
280.5230835409
 51
0.5336080021
  0
POLYLINE
  5
207
  8
0
  6
CONTINUOUS
 62
     7
 66
     1
 10
0.0
 20
0.0
 30
0.0
  0
VERTEX
  5
2E1
  8
0
  6
CONTINUOUS
 62
     7
 10
121.6353033713
 20
-4.7638247624
 30
0.0
  0
VERTEX
  5
2E2
  8
0
  6
CONTINUOUS
 62
     7
 10
122.1709107093
 20
-5.4680581108
 30
0.0
  0
VERTEX
  5
2E3
  8
0
  6
CONTINUOUS
 62
     7
 10
122.6353024176
 20
-6.2332476393
 30
0.0
  0
SEQEND
  5
2E4
  8
0
  6
CONTINUOUS
 62
     7
  0
ARC
  5
208
  8
0
  6
CONTINUOUS
 62
     7
 10
109.8134619366
 20
-11.2986155268
 30
0.0
 40
10.05803467908729
 50
359.3822465328
 51
79.5610367863
  0
LINE
  5
209
  8
0
  6
CONTINUOUS
 62
     7
 10
59.7146202854
 20
-66.4070556775
 30
0.0
 11
59.6214820675
 21
-66.4018045083
 31
0.0
  0
ARC
  5
20A
  8
0
  6
CONTINUOUS
 62
     7
 10
60.0571359815
 20
-51.5155030616
 30
0.0
 40
10.05802562587863
 50
179.3822285381
 51
259.5610799189
  0
LINE
  5
20B
  8
0
  6
CONTINUOUS
 62
     7
 10
49.9996949962
 20
-11.4070574656
 30
0.0
 11
49.9996949962
 21
-51.4070580617
 31
0.0
  0
LINE
  5
20C
  8
0
  6
CONTINUOUS
 62
     7
 10
119.8709120087
 20
-51.4070580617
 30
0.0
 11
119.8709120087
 21
-11.4070574656
 31
0.0
  0
LINE
  5
20D
  8
0
  6
CONTINUOUS
 62
     7
 10
48.2353021435
 20
-2.394969286
 30
0.0
 11
47.2353030971
 21
-2.394969286
 31
0.0
  0
LINE
  5
20E
  8
0
  6
CONTINUOUS
 62
     7
 10
47.2353030971
 20
21.4534600362
 30
0.0
 11
47.2353030971
 21
-2.394969286
 31
0.0
  0
LINE
  5
20F
  8
0
  6
CONTINUOUS
 62
     7
 10
48.2353021435
 20
21.4534600362
 30
0.0
 11
48.2353021435
 21
-2.394969286
 31
0.0
  0
LINE
  5
210
  8
0
  6
CONTINUOUS
 62
     7
 10
121.6353033713
 20
-2.394969286
 30
0.0
 11
122.6353024176
 21
-2.394969286
 31
0.0
  0
LINE
  5
211
  8
0
  6
CONTINUOUS
 62
     7
 10
121.6353033713
 20
21.4534600362
 30
0.0
 11
121.6353033713
 21
-2.394969286
 31
0.0
  0
LINE
  5
212
  8
0
  6
CONTINUOUS
 62
     7
 10
122.6353024176
 20
21.4534600362
 30
0.0
 11
122.6353024176
 21
-2.394969286
 31
0.0
  0
LINE
  5
213
  8
0
  6
CONTINUOUS
 62
     7
 10
121.6353033713
 20
-2.394969286
 30
0.0
 11
121.6353033713
 21
-4.7638247624
 31
0.0
  0
LINE
  5
214
  8
0
  6
CONTINUOUS
 62
     7
 10
122.6353024176
 20
-2.394969286
 30
0.0
 11
122.6353024176
 21
-6.2332476393
 31
0.0
  0
LINE
  5
215
  8
0
  6
CONTINUOUS
 62
     7
 10
47.2353030971
 20
-2.394969286
 30
0.0
 11
47.2353030971
 21
-6.2332476393
 31
0.0
  0
LINE
  5
216
  8
0
  6
CONTINUOUS
 62
     7
 10
48.2353021435
 20
-2.394969286
 30
0.0
 11
48.2353021435
 21
-4.7638247624
 31
0.0
  0
LINE
  5
217
  8
0
  6
CONTINUOUS
 62
     7
 10
58.2347502045
 20
-61.4070544854
 30
0.0
 11
111.6358568004
 21
-61.4070544854
 31
0.0
  0
LINE
  5
218
  8
0
  6
CONTINUOUS
 62
     7
 10
58.2347502045
 20
-1.4070565716
 30
0.0
 11
111.6358568004
 21
-1.4070565716
 31
0.0
  0
LINE
  5
219
  8
0
  6
CONTINUOUS
 62
     7
 10
59.7146202854
 20
3.5929431304
 30
0.0
 11
110.1559837393
 21
3.5929431304
 31
0.0
  0
LINE
  5
21A
  8
0
  6
CONTINUOUS
 62
     7
 10
110.1559837393
 20
-66.4070556775
 30
0.0
 11
59.7146202854
 21
-66.4070556775
 31
0.0
  0
LINE
  5
21B
  8
0
  6
CONTINUOUS
 62
     7
 10
121.6353033713
 20
23.2929435655
 30
0.0
 11
122.6353024176
 21
23.2929435655
 31
0.0
  0
LINE
  5
21C
  8
0
  6
CONTINUOUS
 62
     7
 10
121.6353033713
 20
23.2929435655
 30
0.0
 11
121.6353033713
 21
21.4534600362
 31
0.0
  0
LINE
  5
21D
  8
0
  6
CONTINUOUS
 62
     7
 10
122.6353024176
 20
23.2929435655
 30
0.0
 11
122.6353024176
 21
21.4534600362
 31
0.0
  0
LINE
  5
21E
  8
0
  6
CONTINUOUS
 62
     7
 10
48.2353021435
 20
23.2929435655
 30
0.0
 11
47.2353030971
 21
23.2929435655
 31
0.0
  0
LINE
  5
21F
  8
0
  6
CONTINUOUS
 62
     7
 10
47.2353030971
 20
23.2929435655
 30
0.0
 11
47.2353030971
 21
21.4534600362
 31
0.0
  0
LINE
  5
220
  8
0
  6
CONTINUOUS
 62
     7
 10
48.2353021435
 20
23.2929435655
 30
0.0
 11
48.2353021435
 21
21.4534600362
 31
0.0
  0
LINE
  5
221
  8
0
  6
CONTINUOUS
 62
     7
 10
117.4353023104
 20
9.692943199
 30
0.0
 11
117.4353023104
 21
19.4929433152
 31
0.0
  0
LINE
  5
222
  8
0
  6
CONTINUOUS
 62
     7
 10
52.4353017143
 20
9.692943199
 30
0.0
 11
52.4353017143
 21
19.4929433152
 31
0.0
  0
LINE
  5
223
  8
0
  6
CONTINUOUS
 62
     7
 10
52.4353017143
 20
20.4929431066
 30
0.0
 11
48.2353021435
 21
20.4929431066
 31
0.0
  0
LINE
  5
224
  8
0
  6
CONTINUOUS
 62
     7
 10
52.4353017143
 20
20.4929431066
 30
0.0
 11
52.4353017143
 21
19.4929433152
 31
0.0
  0
LINE
  5
225
  8
0
  6
CONTINUOUS
 62
     7
 10
121.6353033713
 20
20.4929431066
 30
0.0
 11
117.4353023104
 21
20.4929431066
 31
0.0
  0
LINE
  5
226
  8
0
  6
CONTINUOUS
 62
     7
 10
117.4353023104
 20
19.4929433152
 30
0.0
 11
117.4353023104
 21
20.4929431066
 31
0.0
  0
LINE
  5
227
  8
0
  6
CONTINUOUS
 62
     7
 10
121.6353033713
 20
8.6929434076
 30
0.0
 11
117.4353023104
 21
8.6929434076
 31
0.0
  0
LINE
  5
228
  8
0
  6
CONTINUOUS
 62
     7
 10
117.4353023104
 20
8.6929434076
 30
0.0
 11
117.4353023104
 21
9.692943199
 31
0.0
  0
LINE
  5
229
  8
0
  6
CONTINUOUS
 62
     7
 10
52.4353017143
 20
8.6929434076
 30
0.0
 11
48.2353021435
 21
8.6929434076
 31
0.0
  0
LINE
  5
22A
  8
0
  6
CONTINUOUS
 62
     7
 10
52.4353017143
 20
9.692943199
 30
0.0
 11
52.4353017143
 21
8.6929434076
 31
0.0
  0
LINE
  5
22B
  8
0
  6
CONTINUOUS
 62
     7
 10
42.4353052906
 20
19.4929433152
 30
0.0
 11
42.4353052906
 21
20.4929431066
 31
0.0
  0
LINE
  5
22C
  8
0
  6
CONTINUOUS
 62
     7
 10
47.2353030971
 20
20.4929431066
 30
0.0
 11
42.4353052906
 21
20.4929431066
 31
0.0
  0
LINE
  5
22D
  8
0
  6
CONTINUOUS
 62
     7
 10
42.4353052906
 20
9.692943199
 30
0.0
 11
42.4353052906
 21
19.4929433152
 31
0.0
  0
LINE
  5
22E
  8
0
  6
CONTINUOUS
 62
     7
 10
127.4353032044
 20
9.692943199
 30
0.0
 11
127.4353032044
 21
19.4929433152
 31
0.0
  0
LINE
  5
22F
  8
0
  6
CONTINUOUS
 62
     7
 10
127.4353032044
 20
20.4929431066
 30
0.0
 11
122.6353024176
 21
20.4929431066
 31
0.0
  0
LINE
  5
230
  8
0
  6
CONTINUOUS
 62
     7
 10
127.4353032044
 20
19.4929433152
 30
0.0
 11
127.4353032044
 21
20.4929431066
 31
0.0
  0
LINE
  5
231
  8
0
  6
CONTINUOUS
 62
     7
 10
127.4353032044
 20
8.6929434076
 30
0.0
 11
122.6353024176
 21
8.6929434076
 31
0.0
  0
LINE
  5
232
  8
0
  6
CONTINUOUS
 62
     7
 10
127.4353032044
 20
8.6929434076
 30
0.0
 11
127.4353032044
 21
9.692943199
 31
0.0
  0
LINE
  5
233
  8
0
  6
CONTINUOUS
 62
     7
 10
47.2353030971
 20
8.6929434076
 30
0.0
 11
42.4353052906
 21
8.6929434076
 31
0.0
  0
LINE
  5
234
  8
0
  6
CONTINUOUS
 62
     7
 10
42.4353052906
 20
8.6929434076
 30
0.0
 11
42.4353052906
 21
9.692943199
 31
0.0
  0
LINE
  5
235
  8
0
  6
CONTINUOUS
 62
     7
 10
16.1353041462
 20
18.6929431841
 30
0.0
 11
16.1353041462
 21
19.2929432824
 31
0.0
  0
ARC
  5
236
  8
0
  6
CONTINUOUS
 62
     7
 10
16.5353029064
 20
19.2929432735
 30
0.0
 40
0.399999999999995
 50
90.0
 51
180.0
  0
LINE
  5
237
  8
0
  6
CONTINUOUS
 62
     7
 10
16.5352989963
 20
19.692943348
 30
0.0
 11
18.9353038601
 21
19.692943348
 31
0.0
  0
LINE
  5
238
  8
0
  6
CONTINUOUS
 62
     7
 10
30.9353043369
 20
19.692943348
 30
0.0
 11
42.4353052906
 21
19.692943348
 31
0.0
  0
LINE
  5
239
  8
0
  6
CONTINUOUS
 62
     7
 10
52.4353017143
 20
19.692943348
 30
0.0
 11
117.4353023104
 21
19.692943348
 31
0.0
  0
LINE
  5
23A
  8
0
  6
CONTINUOUS
 62
     7
 10
127.4353032044
 20
19.692943348
 30
0.0
 11
138.9353030405
 21
19.692943348
 31
0.0
  0
LINE
  5
23B
  8
0
  6
CONTINUOUS
 62
     7
 10
150.9353027723
 20
19.692943348
 30
0.0
 11
162.4353026084
 21
19.692943348
 31
0.0
  0
LINE
  5
23C
  8
0
  6
CONTINUOUS
 62
     7
 10
172.4353035025
 20
19.692943348
 30
0.0
 11
237.4353040985
 21
19.692943348
 31
0.0
  0
LINE
  5
23D
  8
0
  6
CONTINUOUS
 62
     7
 10
247.4353005222
 20
19.692943348
 30
0.0
 11
258.9353014759
 21
19.692943348
 31
0.0
  0
LINE
  5
23E
  8
0
  6
CONTINUOUS
 62
     7
 10
270.9353019527
 20
19.692943348
 30
0.0
 11
273.3353068165
 21
19.692943348
 31
0.0
  0
LINE
  5
23F
  8
0
  6
CONTINUOUS
 62
     7
 10
273.7353016666
 20
19.2929432824
 30
0.0
 11
273.7353016666
 21
18.6929431841
 31
0.0
  0
ARC
  5
240
  8
0
  6
CONTINUOUS
 62
     7
 10
273.3353029064
 20
19.2929432735
 30
0.0
 40
0.399999999999995
 50
0.0
 51
90.0
  0
LINE
  5
241
  8
0
  6
CONTINUOUS
 62
     7
 10
16.1353041462
 20
10.6929433629
 30
0.0
 11
16.1353041462
 21
18.6929431841
 31
0.0
  0
LINE
  5
242
  8
0
  6
CONTINUOUS
 62
     7
 10
273.7353016666
 20
18.6929431841
 30
0.0
 11
273.7353016666
 21
10.6929433629
 31
0.0
  0
LINE
  5
243
  8
0
  6
CONTINUOUS
 62
     7
 10
273.3353068165
 20
9.692943199
 30
0.0
 11
270.9353019527
 21
9.692943199
 31
0.0
  0
LINE
  5
244
  8
0
  6
CONTINUOUS
 62
     7
 10
258.9353014759
 20
9.692943199
 30
0.0
 11
247.4353005222
 21
9.692943199
 31
0.0
  0
LINE
  5
245
  8
0
  6
CONTINUOUS
 62
     7
 10
237.4353040985
 20
9.692943199
 30
0.0
 11
172.4353035025
 21
9.692943199
 31
0.0
  0
LINE
  5
246
  8
0
  6
CONTINUOUS
 62
     7
 10
162.4353026084
 20
9.692943199
 30
0.0
 11
150.9353027723
 21
9.692943199
 31
0.0
  0
LINE
  5
247
  8
0
  6
CONTINUOUS
 62
     7
 10
138.9353030405
 20
9.692943199
 30
0.0
 11
127.4353032044
 21
9.692943199
 31
0.0
  0
LINE
  5
248
  8
0
  6
CONTINUOUS
 62
     7
 10
117.4353023104
 20
9.692943199
 30
0.0
 11
52.4353017143
 21
9.692943199
 31
0.0
  0
LINE
  5
249
  8
0
  6
CONTINUOUS
 62
     7
 10
42.4353052906
 20
9.692943199
 30
0.0
 11
30.9353043369
 21
9.692943199
 31
0.0
  0
LINE
  5
24A
  8
0
  6
CONTINUOUS
 62
     7
 10
18.9353038601
 20
9.692943199
 30
0.0
 11
16.5352989963
 21
9.692943199
 31
0.0
  0
ARC
  5
24B
  8
0
  6
CONTINUOUS
 62
     7
 10
16.5353029064
 20
10.0929432735
 30
0.0
 40
0.3999999999999968
 50
180.0
 51
270.0
  0
LINE
  5
24C
  8
0
  6
CONTINUOUS
 62
     7
 10
16.1353041462
 20
10.0929432645
 30
0.0
 11
16.1353041462
 21
10.6929433629
 31
0.0
  0
LINE
  5
24D
  8
0
  6
CONTINUOUS
 62
     7
 10
273.7353016666
 20
10.6929433629
 30
0.0
 11
273.7353016666
 21
10.0929432645
 31
0.0
  0
ARC
  5
24E
  8
0
  6
CONTINUOUS
 62
     7
 10
273.3353029064
 20
10.0929432735
 30
0.0
 40
0.3999999999999968
 50
270.0
 51
0.0
  0
ARC
  5
24F
  8
0
  6
CONTINUOUS
 62
     7
 10
137.9353029064
 20
20.6929432735
 30
0.0
 40
80.00000000000001
 50
187.9032077335
 51
192.3422028872
  0
LINE
  5
250
  8
0
  6
CONTINUOUS
 62
     7
 10
57.9415549568
 20
19.692943348
 30
0.0
 11
57.9353024296
 21
20.6929431394
 31
0.0
  0
LINE
  5
251
  8
0
  6
CONTINUOUS
 62
     7
 10
57.9353024296
 20
22.6929430947
 30
0.0
 11
57.9353024296
 21
20.6929431394
 31
0.0
  0
ARC
  5
252
  8
0
  6
CONTINUOUS
 62
     7
 10
61.9353029064
 20
22.6929432735
 30
0.0
 40
4.000000000000007
 50
90.0
 51
180.0
  0
ARC
  5
253
  8
0
  6
CONTINUOUS
 62
     7
 10
77.9353029064
 20
22.6929432735
 30
0.0
 40
4.000000000000014
 50
0.0
 51
90.0
  0
LINE
  5
254
  8
0
  6
CONTINUOUS
 62
     7
 10
81.9353033832
 20
20.6929431394
 30
0.0
 11
81.9353033832
 21
22.6929430947
 31
0.0
  0
LINE
  5
255
  8
0
  6
CONTINUOUS
 62
     7
 10
81.9353033832
 20
20.6929431394
 30
0.0
 11
81.929050856
 21
19.692943348
 31
0.0
  0
ARC
  5
256
  8
0
  6
CONTINUOUS
 62
     7
 10
1.9353029064
 20
20.6929432735
 30
0.0
 40
80.0
 50
347.6577971128
 51
352.0967922665
  0
CIRCLE
  5
257
  8
0
  6
CONTINUOUS
 62
     7
 10
61.9353029064
 20
22.6929432735
 30
0.0
 40
1.5
  0
CIRCLE
  5
258
  8
0
  6
CONTINUOUS
 62
     7
 10
77.9353029064
 20
22.6929432735
 30
0.0
 40
1.5
  0
LINE
  5
259
  8
0
  6
CONTINUOUS
 62
     7
 10
77.9353012375
 20
26.6929430053
 30
0.0
 11
61.9353045753
 21
26.6929430053
 31
0.0
  0
ARC
  5
25A
  8
0
  6
CONTINUOUS
 62
     7
 10
227.9353029064
 20
22.6929432735
 30
0.0
 40
4.000000000000004
 50
0.0
 51
90.0
  0
LINE
  5
25B
  8
0
  6
CONTINUOUS
 62
     7
 10
231.9353033832
 20
20.6929431394
 30
0.0
 11
231.9353033832
 21
22.6929430947
 31
0.0
  0
LINE
  5
25C
  8
0
  6
CONTINUOUS
 62
     7
 10
231.9353033832
 20
20.6929431394
 30
0.0
 11
231.929050856
 21
19.692943348
 31
0.0
  0
ARC
  5
25D
  8
0
  6
CONTINUOUS
 62
     7
 10
151.9353029064
 20
20.6929432735
 30
0.0
 40
80.00000000000001
 50
347.6577971128
 51
352.0967922665
  0
ARC
  5
25E
  8
0
  6
CONTINUOUS
 62
     7
 10
287.9353029064
 20
20.6929432735
 30
0.0
 40
79.99999999999994
 50
187.9032077335
 51
192.3422028872
  0
LINE
  5
25F
  8
0
  6
CONTINUOUS
 62
     7
 10
207.9415549568
 20
19.692943348
 30
0.0
 11
207.9353024296
 21
20.6929431394
 31
0.0
  0
LINE
  5
260
  8
0
  6
CONTINUOUS
 62
     7
 10
207.9353024296
 20
22.6929430947
 30
0.0
 11
207.9353024296
 21
20.6929431394
 31
0.0
  0
ARC
  5
261
  8
0
  6
CONTINUOUS
 62
     7
 10
211.9353029064
 20
22.6929432735
 30
0.0
 40
4.000000000000004
 50
90.0
 51
180.0
  0
CIRCLE
  5
262
  8
0
  6
CONTINUOUS
 62
     7
 10
227.9353029064
 20
22.6929432735
 30
0.0
 40
1.500000000000004
  0
CIRCLE
  5
263
  8
0
  6
CONTINUOUS
 62
     7
 10
211.9353029064
 20
22.6929432735
 30
0.0
 40
1.500000000000011
  0
LINE
  5
264
  8
0
  6
CONTINUOUS
 62
     7
 10
227.9353012375
 20
26.6929430053
 30
0.0
 11
211.9353045753
 21
26.6929430053
 31
0.0
  0
ENDSEC
  0
EOF
