  0
SECTION
  2
HEADER
  9
$ACADVER
  1
AC1009
  9
$DWGCODEPAGE
  3
ansi_1252
  9
$INSBASE
 10
0.0
 20
0.0
 30
0.0
  9
$EXTMIN
 10
0.0
 20
0.0
 30
0.0
  9
$EXTMAX
 10
420.0
 20
297.0
 30
0.0
  9
$LIMMIN
 10
0.0
 20
0.0
  9
$LIMMAX
 10
420.0
 20
297.0
  9
$ORTHOMODE
 70
     0
  9
$REGENMODE
 70
     1
  9
$FILLMODE
 70
     1
  9
$QTEXTMODE
 70
     0
  9
$MIRRTEXT
 70
     1
  9
$DRAGMODE
 70
     2
  9
$LTSCALE
 40
1.0
  9
$OSMODE
 70
    37
  9
$ATTMODE
 70
     1
  9
$TEXTSIZE
 40
3.5
  9
$TRACEWID
 40
1.0
  9
$TEXTSTYLE
  7
STANDARD
  9
$CLAYER
  8
0
  9
$CELTYPE
  6
BYLAYER
  9
$CECOLOR
 62
   256
  9
$DIMSCALE
 40
1.0
  9
$DIMASZ
 40
4.0
  9
$DIMEXO
 40
0.0
  9
$DIMDLI
 40
3.75
  9
$DIMRND
 40
0.0
  9
$DIMDLE
 40
0.0
  9
$DIMEXE
 40
2.0
  9
$DIMTP
 40
0.0
  9
$DIMTM
 40
0.0
  9
$DIMTXT
 40
3.5
  9
$DIMCEN
 40
2.5
  9
$DIMTSZ
 40
0.0
  9
$DIMTOL
 70
     0
  9
$DIMLIM
 70
     0
  9
$DIMTIH
 70
     1
  9
$DIMTOH
 70
     1
  9
$DIMSE1
 70
     0
  9
$DIMSE2
 70
     0
  9
$DIMTAD
 70
     1
  9
$DIMZIN
 70
     0
  9
$DIMBLK
  1

  9
$DIMASO
 70
     1
  9
$DIMSHO
 70
     1
  9
$DIMPOST
  1

  9
$DIMAPOST
  1

  9
$DIMALT
 70
     0
  9
$DIMALTD
 70
     3
  9
$DIMALTF
 40
0.0393700787
  9
$DIMLFAC
 40
5.0
  9
$DIMTOFL
 70
     1
  9
$DIMTVP
 40
0.0
  9
$DIMTIX
 70
     0
  9
$DIMSOXD
 70
     0
  9
$DIMSAH
 70
     0
  9
$DIMBLK1
  1

  9
$DIMBLK2
  1

  9
$DIMSTYLE
  2
ISO-25
  9
$DIMCLRD
 70
     0
  9
$DIMCLRE
 70
     0
  9
$DIMCLRT
 70
     0
  9
$DIMTFAC
 40
1.0
  9
$DIMGAP
 40
1.524
  9
$LUNITS
 70
     2
  9
$LUPREC
 70
     2
  9
$SKETCHINC
 40
1.0
  9
$FILLETRAD
 40
10.0
  9
$AUNITS
 70
     0
  9
$AUPREC
 70
     2
  9
$MENU
  1
.
  9
$ELEVATION
 40
0.0
  9
$PELEVATION
 40
0.0
  9
$THICKNESS
 40
0.0
  9
$LIMCHECK
 70
     0
  9
$CHAMFERA
 40
10.0
  9
$CHAMFERB
 40
10.0
  9
$SKPOLY
 70
     0
  9
$TDCREATE
 40
2457802.383852917
  9
$TDUPDATE
 40
2457802.38385309
  9
$TDINDWG
 40
0.0000000116
  9
$TDUSRTIMER
 40
0.0000000116
  9
$USRTIMER
 70
     1
  9
$ANGBASE
 50
0.0
  9
$ANGDIR
 70
     0
  9
$PDMODE
 70
     0
  9
$PDSIZE
 40
-1.0
  9
$PLINEWID
 40
0.0
  9
$COORDS
 70
     1
  9
$SPLFRAME
 70
     0
  9
$SPLINETYPE
 70
     6
  9
$SPLINESEGS
 70
     8
  9
$ATTDIA
 70
     0
  9
$ATTREQ
 70
     1
  9
$HANDLING
 70
     1
  9
$HANDSEED
  5
26B
  9
$SURFTAB1
 70
     6
  9
$SURFTAB2
 70
     6
  9
$SURFTYPE
 70
     6
  9
$SURFU
 70
     6
  9
$SURFV
 70
     6
  9
$UCSNAME
  2

  9
$UCSORG
 10
0.0
 20
0.0
 30
0.0
  9
$UCSXDIR
 10
1.0
 20
0.0
 30
0.0
  9
$UCSYDIR
 10
0.0
 20
1.0
 30
0.0
  9
$PUCSNAME
  2

  9
$PUCSORG
 10
0.0
 20
0.0
 30
0.0
  9
$PUCSXDIR
 10
1.0
 20
0.0
 30
0.0
  9
$PUCSYDIR
 10
0.0
 20
1.0
 30
0.0
  9
$USERI1
 70
     0
  9
$USERI2
 70
     0
  9
$USERI3
 70
     0
  9
$USERI4
 70
     0
  9
$USERI5
 70
     0
  9
$USERR1
 40
0.0
  9
$USERR2
 40
0.0
  9
$USERR3
 40
0.0
  9
$USERR4
 40
0.0
  9
$USERR5
 40
0.0
  9
$WORLDVIEW
 70
     1
  9
$SHADEDGE
 70
     3
  9
$SHADEDIF
 70
    70
  9
$TILEMODE
 70
     1
  9
$MAXACTVP
 70
    64
  9
$PLIMCHECK
 70
     0
  9
$PEXTMIN
 10
1.0000000000E+20
 20
1.0000000000E+20
 30
1.0000000000E+20
  9
$PEXTMAX
 10
-1.0000000000E+20
 20
-1.0000000000E+20
 30
-1.0000000000E+20
  9
$PLIMMIN
 10
0.0
 20
0.0
  9
$PLIMMAX
 10
420.0
 20
297.0
  9
$UNITMODE
 70
     0
  9
$VISRETAIN
 70
     1
  9
$PLINEGEN
 70
     0
  9
$PSLTSCALE
 70
     1
  0
ENDSEC
  0
SECTION
  2
TABLES
  0
TABLE
  2
VPORT
 70
     1
  0
VPORT
  2
*ACTIVE
 70
     0
 10
0.0
 20
0.0
 11
1.0
 21
1.0
 12
210.0
 22
148.5
 13
0.0
 23
0.0
 14
10.0
 24
10.0
 15
10.0
 25
10.0
 16
0.0
 26
0.0
 36
1.0
 17
0.0
 27
0.0
 37
0.0
 40
297.0
 41
1.4141414141
 42
50.0
 43
0.0
 44
0.0
 50
0.0
 51
0.0
 71
     0
 72
  2000
 73
     1
 74
     3
 75
     0
 76
     0
 77
     0
 78
     0
  0
ENDTAB
  0
TABLE
  2
LTYPE
 70
     6
  0
LTYPE
  2
CONTINUOUS
 70
     0
  3
Solid line
 72
    65
 73
     0
 40
0.0
  0
LTYPE
  2
HIDDEN
 70
     0
  3
Hidden __ __ __ __ __ __ __ __ __ __ __ __ __ __
 72
    65
 73
     2
 40
1.905
 49
1.27
 49
-0.635
  0
LTYPE
  2
PHANTOM
 70
     0
  3
Phantom ______  __  __  ______  __  __  ______
 72
    65
 73
     6
 40
12.7
 49
6.35
 49
-1.27
 49
1.27
 49
-1.27
 49
1.27
 49
-1.27
  0
LTYPE
  2
CENTER
 70
     0
  3
Center ____ _ ____ _ ____ _ ____ _ ____ _ ____
 72
    65
 73
     4
 40
10.16
 49
6.35
 49
-1.27
 49
1.27
 49
-1.27
  0
LTYPE
  2
CENTERX2
 70
     0
  3
Center (2x) ________  __  ________  __  _____
 72
    65
 73
     4
 40
20.32
 49
12.7
 49
-2.54
 49
2.54
 49
-2.54
  0
LTYPE
  2
DOT2
 70
     0
  3
Dot (.5x) ........................................
 72
    65
 73
     2
 40
0.635
 49
0.0
 49
-0.635
  0
ENDTAB
  0
TABLE
  2
LAYER
 70
     2
  0
LAYER
  2
0
 70
     0
 62
     7
  6
CONTINUOUS
  0
LAYER
  2
FORMAT
 70
     0
 62
     7
  6
CONTINUOUS
  0
ENDTAB
  0
TABLE
  2
STYLE
 70
     1
  0
STYLE
  2
STANDARD
 70
     0
 40
0.0
 41
1.0
 50
0.0
 71
     0
 42
3.5
  3
txt
  4

  0
ENDTAB
  0
TABLE
  2
VIEW
 70
     0
  0
ENDTAB
  0
TABLE
  2
UCS
 70
     0
  0
ENDTAB
  0
TABLE
  2
APPID
 70
     1
  0
APPID
  2
ACAD
 70
     0
  0
ENDTAB
  0
TABLE
  2
DIMSTYLE
 70
     1
  0
DIMSTYLE
  2
ISO-25
 70
     0
  3

  4

  5

  6

  7

 40
1.0
 41
2.5
 42
0.625
 43
3.75
 44
1.25
 45
0.0
 46
0.0
 47
0.0
 48
0.0
140
2.5
141
2.5
142
0.0
143
0.0393700787
144
1.0
145
0.0
146
1.0
147
0.625
 71
     0
 72
     0
 73
     0
 74
     0
 75
     0
 76
     0
 77
     1
 78
     8
170
     0
171
     3
172
     1
173
     0
174
     0
175
     0
176
     0
177
     0
178
     0
  0
ENDTAB
  0
ENDSEC
  0
SECTION
  2
BLOCKS
  0
BLOCK
  8
0
  2
$MODEL_SPACE
 70
     0
 10
0.0
 20
0.0
 30
0.0
  3
$MODEL_SPACE
  1

  0
ENDBLK
  5
21
  8
0
  0
BLOCK
 67
     1
  8
0
  2
$PAPER_SPACE
 70
     0
 10
0.0
 20
0.0
 30
0.0
  3
$PAPER_SPACE
  1

  0
ENDBLK
  5
1D
 67
     1
  8
0
  0
ENDSEC
  0
SECTION
  2
ENTITIES
  0
POLYLINE
  5
45
  8
0
  6
CONTINUOUS
 62
     7
 66
     1
 10
0.0
 20
0.0
 30
0.0
  0
VERTEX
  5
1DC
  8
0
  6
CONTINUOUS
 62
     7
 10
110.6538749935
 20
260.4144487661
 30
0.0
  0
VERTEX
  5
1DD
  8
0
  6
CONTINUOUS
 62
     7
 10
110.6483153703
 20
260.4134831709
 30
0.0
  0
VERTEX
  5
1DE
  8
0
  6
CONTINUOUS
 62
     7
 10
110.6472603681
 20
260.413292436
 30
0.0
  0
SEQEND
  5
26A
  8
0
  6
CONTINUOUS
 62
     7
  0
POLYLINE
  5
46
  8
0
  6
CONTINUOUS
 62
     7
 66
     1
 10
0.0
 20
0.0
 30
0.0
  0
VERTEX
  5
1DF
  8
0
  6
CONTINUOUS
 62
     7
 10
36.8611700537
 20
260.4132030291
 30
0.0
  0
VERTEX
  5
1E0
  8
0
  6
CONTINUOUS
 62
     7
 10
36.8601746561
 20
260.4133878035
 30
0.0
  0
VERTEX
  5
1E1
  8
0
  6
CONTINUOUS
 62
     7
 10
36.8492550852
 20
260.4152713102
 30
0.0
  0
SEQEND
  5
269
  8
0
  6
CONTINUOUS
 62
     7
  0
LINE
  5
47
  8
0
  6
CONTINUOUS
 62
     7
 10
36.8609197142
 20
260.4132626337
 30
0.0
 11
36.8535406591
 21
260.4145739359
 31
0.0
  0
ARC
  5
48
  8
0
  6
CONTINUOUS
 62
     7
 10
19.8192637027
 20
175.3097535358
 30
0.0
 40
81.41361840992643
 50
78.4974998086
 51
78.6268720826
  0
LINE
  5
49
  8
0
  6
CONTINUOUS
 62
     7
 10
35.868365288
 20
255.1258061213
 30
0.0
 11
35.8728296759
 21
255.1249180121
 31
0.0
  0
LINE
  5
4A
  8
0
  6
CONTINUOUS
 62
     7
 10
111.571580887
 20
255.1120791716
 30
0.0
 11
111.628223181
 21
255.123505382
 31
0.0
  0
POLYLINE
  5
4B
  8
0
  6
CONTINUOUS
 62
     7
 66
     1
 10
0.0
 20
0.0
 30
0.0
  0
VERTEX
  5
1E2
  8
0
  6
CONTINUOUS
 62
     7
 10
230.6538767817
 20
260.4144487661
 30
0.0
  0
VERTEX
  5
1E3
  8
0
  6
CONTINUOUS
 62
     7
 10
230.6483156683
 20
260.4134831709
 30
0.0
  0
VERTEX
  5
1E4
  8
0
  6
CONTINUOUS
 62
     7
 10
230.6472606661
 20
260.413292436
 30
0.0
  0
SEQEND
  5
268
  8
0
  6
CONTINUOUS
 62
     7
  0
POLYLINE
  5
4C
  8
0
  6
CONTINUOUS
 62
     7
 66
     1
 10
0.0
 20
0.0
 30
0.0
  0
VERTEX
  5
1E5
  8
0
  6
CONTINUOUS
 62
     7
 10
156.8611673715
 20
260.4132030291
 30
0.0
  0
VERTEX
  5
1E6
  8
0
  6
CONTINUOUS
 62
     7
 10
156.8601749541
 20
260.4133878035
 30
0.0
  0
VERTEX
  5
1E7
  8
0
  6
CONTINUOUS
 62
     7
 10
156.8492568733
 20
260.4152713102
 30
0.0
  0
SEQEND
  5
267
  8
0
  6
CONTINUOUS
 62
     7
  0
LINE
  5
4D
  8
0
  6
CONTINUOUS
 62
     7
 10
156.860917032
 20
260.4132626337
 30
0.0
 11
156.8535379769
 21
260.4145739359
 31
0.0
  0
LINE
  5
4E
  8
0
  6
CONTINUOUS
 62
     7
 10
231.5715796949
 20
255.1120791716
 30
0.0
 11
231.6282219889
 21
255.123505382
 31
0.0
  0
ARC
  5
4F
  8
0
  6
CONTINUOUS
 62
     7
 10
139.7485176257
 20
174.9587561729
 30
0.0
 40
81.77167422680004
 50
78.4979662251
 51
78.6267740599
  0
LINE
  5
50
  8
0
  6
CONTINUOUS
 62
     7
 10
155.8683626058
 20
255.1258061213
 30
0.0
 11
155.8728284838
 21
255.1249180121
 31
0.0
  0
ARC
  5
51
  8
0
  6
CONTINUOUS
 62
     7
 10
73.7670461273
 20
439.8977628799
 30
0.0
 40
188.6129499063211
 50
277.7922496498
 51
281.5895398168
  0
ARC
  5
52
  8
0
  6
CONTINUOUS
 62
     7
 10
111.12280808
 20
257.7662452407
 30
0.0
 40
2.69000000000001
 50
281.5900201068
 51
12.4186815058
  0
ARC
  5
53
  8
0
  6
CONTINUOUS
 62
     7
 10
73.7539835395
 20
439.9740878539
 30
0.0
 40
183.3103411017823
 50
277.7930374791
 51
281.5887932061
  0
ARC
  5
54
  8
0
  6
CONTINUOUS
 62
     7
 10
111.12280808
 20
257.7662452407
 30
0.0
 40
2.689999999999998
 50
12.4186815058
 51
100.0467259554
  0
ARC
  5
55
  8
0
  6
CONTINUOUS
 62
     7
 10
36.3852948142
 20
257.7662452407
 30
0.0
 40
2.69000000000002
 50
80.0567778886
 51
167.5813184942
  0
ARC
  5
56
  8
0
  6
CONTINUOUS
 62
     7
 10
73.7741518052
 20
440.0918911118
 30
0.0
 40
183.4297729541028
 50
258.4125714562
 51
262.2057519284
  0
ARC
  5
57
  8
0
  6
CONTINUOUS
 62
     7
 10
73.7735067327
 20
440.0877177199
 30
0.0
 40
188.8055507068995
 50
258.4125210951
 51
262.2058088669
  0
ARC
  5
58
  8
0
  6
CONTINUOUS
 62
     7
 10
36.3852948142
 20
257.7662452407
 30
0.0
 40
2.690000000000013
 50
167.5813184942
 51
258.4099798932
  0
ARC
  5
59
  8
0
  6
CONTINUOUS
 62
     7
 10
73.7540514471
 20
439.9737533947
 30
0.0
 40
183.3099999999999
 50
262.2069690737
 51
277.7930309263
  0
ARC
  5
5A
  8
0
  6
CONTINUOUS
 62
     7
 10
73.7540514471
 20
439.9737533947
 30
0.0
 40
188.69
 50
262.2069690737
 51
277.7930309263
  0
LINE
  5
5B
  8
0
  6
CONTINUOUS
 62
     7
 10
110.454051912
 20
254.625741033
 30
0.0
 11
111.4540509583
 21
254.625741033
 31
0.0
  0
LINE
  5
5C
  8
0
  6
CONTINUOUS
 62
     7
 10
110.454051912
 20
254.8871908468
 30
0.0
 11
110.454051912
 21
254.625741033
 31
0.0
  0
LINE
  5
5D
  8
0
  6
CONTINUOUS
 62
     7
 10
111.4540509583
 20
255.0967190546
 30
0.0
 11
111.4540509583
 21
254.625741033
 31
0.0
  0
LINE
  5
5E
  8
0
  6
CONTINUOUS
 62
     7
 10
37.0540506842
 20
254.625741033
 30
0.0
 11
36.0540516378
 21
254.625741033
 31
0.0
  0
LINE
  5
5F
  8
0
  6
CONTINUOUS
 62
     7
 10
37.0540506842
 20
254.625741033
 30
0.0
 11
37.0540506842
 21
250.1587961001
 31
0.0
  0
LINE
  5
60
  8
0
  6
CONTINUOUS
 62
     7
 10
36.0540516378
 20
254.625741033
 30
0.0
 11
36.0540516378
 21
250.1587961001
 31
0.0
  0
LINE
  5
61
  8
0
  6
CONTINUOUS
 62
     7
 10
37.0540506842
 20
254.8872146887
 30
0.0
 11
37.0540506842
 21
254.625741033
 31
0.0
  0
LINE
  5
62
  8
0
  6
CONTINUOUS
 62
     7
 10
36.0540516378
 20
255.0967190546
 30
0.0
 11
36.0540516378
 21
254.625741033
 31
0.0
  0
LINE
  5
63
  8
0
  6
CONTINUOUS
 62
     7
 10
111.4540509583
 20
254.625741033
 30
0.0
 11
111.4540509583
 21
250.1587961001
 31
0.0
  0
LINE
  5
64
  8
0
  6
CONTINUOUS
 62
     7
 10
110.454051912
 20
254.625741033
 30
0.0
 11
110.454051912
 21
250.1587961001
 31
0.0
  0
LINE
  5
65
  8
0
  6
CONTINUOUS
 62
     7
 10
36.9257338049
 20
260.4013953489
 30
0.0
 11
36.9296557905
 21
260.4005906862
 31
0.0
  0
LINE
  5
66
  8
0
  6
CONTINUOUS
 62
     7
 10
110.5781338813
 20
260.4005251211
 30
0.0
 11
110.5823673012
 21
260.4013953489
 31
0.0
  0
LINE
  5
67
  8
0
  6
CONTINUOUS
 62
     7
 10
37.0540506842
 20
250.1587961001
 30
0.0
 11
37.0540506842
 21
249.3052575869
 31
0.0
  0
LINE
  5
68
  8
0
  6
CONTINUOUS
 62
     7
 10
36.0540516378
 20
250.1587961001
 30
0.0
 11
36.0540516378
 21
249.3052575869
 31
0.0
  0
LINE
  5
69
  8
0
  6
CONTINUOUS
 62
     7
 10
111.4540509583
 20
250.1587961001
 30
0.0
 11
111.4540509583
 21
249.3052575869
 31
0.0
  0
LINE
  5
6A
  8
0
  6
CONTINUOUS
 62
     7
 10
110.454051912
 20
250.1587961001
 30
0.0
 11
110.454051912
 21
249.3052575869
 31
0.0
  0
LINE
  5
6B
  8
0
  6
CONTINUOUS
 62
     7
 10
111.4540509583
 20
249.3052575869
 30
0.0
 11
111.4540509583
 21
241.4508257193
 31
0.0
  0
LINE
  5
6C
  8
0
  6
CONTINUOUS
 62
     7
 10
110.454051912
 20
249.3052575869
 30
0.0
 11
110.454051912
 21
241.4508257193
 31
0.0
  0
LINE
  5
6D
  8
0
  6
CONTINUOUS
 62
     7
 10
37.0540506842
 20
249.3052575869
 30
0.0
 11
37.0540506842
 21
241.4508257193
 31
0.0
  0
LINE
  5
6E
  8
0
  6
CONTINUOUS
 62
     7
 10
36.0540516378
 20
249.3052575869
 30
0.0
 11
36.0540516378
 21
241.4508257193
 31
0.0
  0
LINE
  5
6F
  8
0
  6
CONTINUOUS
 62
     7
 10
111.4540509583
 20
241.4508257193
 30
0.0
 11
111.4540509583
 21
240.6857404989
 31
0.0
  0
LINE
  5
70
  8
0
  6
CONTINUOUS
 62
     7
 10
110.454051912
 20
241.4508257193
 30
0.0
 11
110.454051912
 21
240.6857404989
 31
0.0
  0
LINE
  5
71
  8
0
  6
CONTINUOUS
 62
     7
 10
37.0540506842
 20
238.6857424063
 30
0.0
 11
36.0540516378
 21
238.6857424063
 31
0.0
  0
LINE
  5
72
  8
0
  6
CONTINUOUS
 62
     7
 10
37.0540506842
 20
240.6857404989
 30
0.0
 11
37.0540506842
 21
238.6857424063
 31
0.0
  0
LINE
  5
73
  8
0
  6
CONTINUOUS
 62
     7
 10
36.0540516378
 20
240.6857404989
 30
0.0
 11
36.0540516378
 21
238.6857424063
 31
0.0
  0
LINE
  5
74
  8
0
  6
CONTINUOUS
 62
     7
 10
110.454051912
 20
238.6857424063
 30
0.0
 11
111.4540509583
 21
238.6857424063
 31
0.0
  0
LINE
  5
75
  8
0
  6
CONTINUOUS
 62
     7
 10
111.4540509583
 20
240.6857404989
 30
0.0
 11
111.4540509583
 21
238.6857424063
 31
0.0
  0
LINE
  5
76
  8
0
  6
CONTINUOUS
 62
     7
 10
110.454051912
 20
240.6857404989
 30
0.0
 11
110.454051912
 21
238.6857424063
 31
0.0
  0
LINE
  5
77
  8
0
  6
CONTINUOUS
 62
     7
 10
37.0540506842
 20
241.4508257193
 30
0.0
 11
37.0540506842
 21
240.6857404989
 31
0.0
  0
LINE
  5
78
  8
0
  6
CONTINUOUS
 62
     7
 10
36.0540516378
 20
241.4508257193
 30
0.0
 11
36.0540516378
 21
240.6857404989
 31
0.0
  0
LINE
  5
79
  8
0
  6
CONTINUOUS
 62
     7
 10
31.2540538313
 20
241.4857421202
 30
0.0
 11
31.2540538313
 21
242.4857411665
 31
0.0
  0
LINE
  5
7A
  8
0
  6
CONTINUOUS
 62
     7
 10
36.0540516378
 20
242.4857411665
 30
0.0
 11
31.2540538313
 21
242.4857411665
 31
0.0
  0
LINE
  5
7B
  8
0
  6
CONTINUOUS
 62
     7
 10
41.254050255
 20
242.4857411665
 30
0.0
 11
37.0540506842
 21
242.4857411665
 31
0.0
  0
LINE
  5
7C
  8
0
  6
CONTINUOUS
 62
     7
 10
41.254050255
 20
242.4857411665
 30
0.0
 11
41.254050255
 21
241.4857421202
 31
0.0
  0
LINE
  5
7D
  8
0
  6
CONTINUOUS
 62
     7
 10
110.454051912
 20
242.4857411665
 30
0.0
 11
106.2540508511
 21
242.4857411665
 31
0.0
  0
LINE
  5
7E
  8
0
  6
CONTINUOUS
 62
     7
 10
106.2540508511
 20
241.4857421202
 30
0.0
 11
106.2540508511
 21
242.4857411665
 31
0.0
  0
LINE
  5
7F
  8
0
  6
CONTINUOUS
 62
     7
 10
116.2540517451
 20
234.4857428354
 30
0.0
 11
116.2540517451
 21
241.4857421202
 31
0.0
  0
ARC
  5
80
  8
0
  6
CONTINUOUS
 62
     7
 10
114.2540514471
 20
234.4857421202
 30
0.0
 40
2.000000000000028
 50
270.0
 51
0.0
  0
ARC
  5
81
  8
0
  6
CONTINUOUS
 62
     7
 10
108.2540514471
 20
234.4857421202
 30
0.0
 40
2.000000000000028
 50
180.0
 51
270.0
  0
LINE
  5
82
  8
0
  6
CONTINUOUS
 62
     7
 10
106.2540508511
 20
241.4857421202
 30
0.0
 11
106.2540508511
 21
234.4857428354
 31
0.0
  0
CIRCLE
  5
83
  8
0
  6
CONTINUOUS
 62
     7
 10
111.2540514471
 20
235.8857421202
 30
0.0
 40
1.0
  0
LINE
  5
84
  8
0
  6
CONTINUOUS
 62
     7
 10
114.2540521624
 20
232.4857447428
 30
0.0
 11
108.2540519239
 21
232.4857447428
 31
0.0
  0
ARC
  5
85
  8
0
  6
CONTINUOUS
 62
     7
 10
39.2540514471
 20
234.4857421202
 30
0.0
 40
2.000000000000028
 50
270.0
 51
0.0
  0
LINE
  5
86
  8
0
  6
CONTINUOUS
 62
     7
 10
39.2540521624
 20
232.4857447428
 30
0.0
 11
33.2540519239
 21
232.4857447428
 31
0.0
  0
ARC
  5
87
  8
0
  6
CONTINUOUS
 62
     7
 10
33.2540514471
 20
234.4857421202
 30
0.0
 40
2.000000000000028
 50
180.0
 51
270.0
  0
LINE
  5
88
  8
0
  6
CONTINUOUS
 62
     7
 10
31.2540538313
 20
234.4857428354
 30
0.0
 11
31.2540538313
 21
241.4857421202
 31
0.0
  0
CIRCLE
  5
89
  8
0
  6
CONTINUOUS
 62
     7
 10
36.2540514471
 20
235.8857421202
 30
0.0
 40
1.000000000000014
  0
LINE
  5
8A
  8
0
  6
CONTINUOUS
 62
     7
 10
41.254050255
 20
234.4857428354
 30
0.0
 11
41.254050255
 21
241.4857421202
 31
0.0
  0
LINE
  5
8B
  8
0
  6
CONTINUOUS
 62
     7
 10
116.2540517451
 20
242.4857411665
 30
0.0
 11
111.4540509583
 21
242.4857411665
 31
0.0
  0
LINE
  5
8C
  8
0
  6
CONTINUOUS
 62
     7
 10
116.2540517451
 20
241.4857421202
 30
0.0
 11
116.2540517451
 21
242.4857411665
 31
0.0
  0
ARC
  5
8D
  8
0
  6
CONTINUOUS
 62
     7
 10
193.7538764014
 20
439.9747257079
 30
0.0
 40
183.310987834653
 50
277.7930441774
 51
281.5887865078
  0
ARC
  5
8E
  8
0
  6
CONTINUOUS
 62
     7
 10
231.12280808
 20
257.7662452407
 30
0.0
 40
2.689999999999984
 50
12.4186815058
 51
100.0467259554
  0
ARC
  5
8F
  8
0
  6
CONTINUOUS
 62
     7
 10
193.7664953162
 20
439.900998815
 30
0.0
 40
188.6162308836165
 50
277.7922826888
 51
281.5895067778
  0
ARC
  5
90
  8
0
  6
CONTINUOUS
 62
     7
 10
231.12280808
 20
257.7662452407
 30
0.0
 40
2.689999999999996
 50
281.5900201068
 51
12.4186815058
  0
ARC
  5
91
  8
0
  6
CONTINUOUS
 62
     7
 10
156.3852948142
 20
257.7662452407
 30
0.0
 40
2.690000000000019
 50
80.0567778886
 51
167.5813184942
  0
ARC
  5
92
  8
0
  6
CONTINUOUS
 62
     7
 10
193.7734895438
 20
440.0879756555
 30
0.0
 40
183.4258036151303
 50
258.4125294448
 51
262.2057915725
  0
ARC
  5
93
  8
0
  6
CONTINUOUS
 62
     7
 10
193.7732992447
 20
440.0864922241
 30
0.0
 40
188.8043081517358
 50
258.4125086084
 51
262.2058213536
  0
ARC
  5
94
  8
0
  6
CONTINUOUS
 62
     7
 10
156.3852948142
 20
257.7662452407
 30
0.0
 40
2.690000000000015
 50
167.5813184942
 51
258.4099798932
  0
ARC
  5
95
  8
0
  6
CONTINUOUS
 62
     7
 10
193.7540514471
 20
439.9737533947
 30
0.0
 40
188.69
 50
262.2069690737
 51
277.7930309263
  0
ARC
  5
96
  8
0
  6
CONTINUOUS
 62
     7
 10
193.7540514471
 20
439.9737533947
 30
0.0
 40
183.3099999999999
 50
262.2069690737
 51
277.7930309263
  0
LINE
  5
97
  8
0
  6
CONTINUOUS
 62
     7
 10
230.45405221
 20
254.625741033
 30
0.0
 11
231.4540512564
 21
254.625741033
 31
0.0
  0
LINE
  5
98
  8
0
  6
CONTINUOUS
 62
     7
 10
230.45405221
 20
254.8871908468
 30
0.0
 11
230.45405221
 21
254.625741033
 31
0.0
  0
LINE
  5
99
  8
0
  6
CONTINUOUS
 62
     7
 10
231.4540512564
 20
255.0967190546
 30
0.0
 11
231.4540512564
 21
254.625741033
 31
0.0
  0
LINE
  5
9A
  8
0
  6
CONTINUOUS
 62
     7
 10
157.0540509822
 20
254.625741033
 30
0.0
 11
156.0540519359
 21
254.625741033
 31
0.0
  0
LINE
  5
9B
  8
0
  6
CONTINUOUS
 62
     7
 10
157.0540509822
 20
254.625741033
 30
0.0
 11
157.0540509822
 21
250.1587961001
 31
0.0
  0
LINE
  5
9C
  8
0
  6
CONTINUOUS
 62
     7
 10
156.0540519359
 20
254.625741033
 30
0.0
 11
156.0540519359
 21
250.1587961001
 31
0.0
  0
LINE
  5
9D
  8
0
  6
CONTINUOUS
 62
     7
 10
230.45405221
 20
254.625741033
 30
0.0
 11
230.45405221
 21
250.1587961001
 31
0.0
  0
LINE
  5
9E
  8
0
  6
CONTINUOUS
 62
     7
 10
231.4540512564
 20
254.625741033
 30
0.0
 11
231.4540512564
 21
250.1587961001
 31
0.0
  0
LINE
  5
9F
  8
0
  6
CONTINUOUS
 62
     7
 10
157.0540509822
 20
254.8872146887
 30
0.0
 11
157.0540509822
 21
254.625741033
 31
0.0
  0
LINE
  5
A0
  8
0
  6
CONTINUOUS
 62
     7
 10
156.0540519359
 20
255.0967190546
 30
0.0
 11
156.0540519359
 21
254.625741033
 31
0.0
  0
LINE
  5
A1
  8
0
  6
CONTINUOUS
 62
     7
 10
156.925735593
 20
260.4013953489
 30
0.0
 11
156.9296575787
 21
260.4005906862
 31
0.0
  0
LINE
  5
A2
  8
0
  6
CONTINUOUS
 62
     7
 10
230.5781371595
 20
260.4005251211
 30
0.0
 11
230.5823690893
 21
260.4013953489
 31
0.0
  0
LINE
  5
A3
  8
0
  6
CONTINUOUS
 62
     7
 10
157.0540509822
 20
250.1587961001
 30
0.0
 11
157.0540509822
 21
249.3052575869
 31
0.0
  0
LINE
  5
A4
  8
0
  6
CONTINUOUS
 62
     7
 10
156.0540519359
 20
250.1587961001
 30
0.0
 11
156.0540519359
 21
249.3052575869
 31
0.0
  0
LINE
  5
A5
  8
0
  6
CONTINUOUS
 62
     7
 10
230.45405221
 20
250.1587961001
 30
0.0
 11
230.45405221
 21
249.3052575869
 31
0.0
  0
LINE
  5
A6
  8
0
  6
CONTINUOUS
 62
     7
 10
231.4540512564
 20
250.1587961001
 30
0.0
 11
231.4540512564
 21
249.3052575869
 31
0.0
  0
LINE
  5
A7
  8
0
  6
CONTINUOUS
 62
     7
 10
157.0540509822
 20
249.3052575869
 30
0.0
 11
157.0540509822
 21
241.4508257193
 31
0.0
  0
LINE
  5
A8
  8
0
  6
CONTINUOUS
 62
     7
 10
156.0540519359
 20
249.3052575869
 30
0.0
 11
156.0540519359
 21
241.4508257193
 31
0.0
  0
LINE
  5
A9
  8
0
  6
CONTINUOUS
 62
     7
 10
230.45405221
 20
249.3052575869
 30
0.0
 11
230.45405221
 21
241.4508257193
 31
0.0
  0
LINE
  5
AA
  8
0
  6
CONTINUOUS
 62
     7
 10
231.4540512564
 20
249.3052575869
 30
0.0
 11
231.4540512564
 21
241.4508257193
 31
0.0
  0
LINE
  5
AB
  8
0
  6
CONTINUOUS
 62
     7
 10
157.0540509822
 20
241.4508257193
 30
0.0
 11
157.0540509822
 21
240.6857404989
 31
0.0
  0
LINE
  5
AC
  8
0
  6
CONTINUOUS
 62
     7
 10
156.0540519359
 20
241.4508257193
 30
0.0
 11
156.0540519359
 21
240.6857404989
 31
0.0
  0
LINE
  5
AD
  8
0
  6
CONTINUOUS
 62
     7
 10
230.45405221
 20
241.4508257193
 30
0.0
 11
230.45405221
 21
240.6857404989
 31
0.0
  0
LINE
  5
AE
  8
0
  6
CONTINUOUS
 62
     7
 10
231.4540512564
 20
241.4508257193
 30
0.0
 11
231.4540512564
 21
240.6857404989
 31
0.0
  0
LINE
  5
AF
  8
0
  6
CONTINUOUS
 62
     7
 10
157.0540509822
 20
238.6857424063
 30
0.0
 11
156.0540519359
 21
238.6857424063
 31
0.0
  0
LINE
  5
B0
  8
0
  6
CONTINUOUS
 62
     7
 10
157.0540509822
 20
240.6857404989
 30
0.0
 11
157.0540509822
 21
238.6857424063
 31
0.0
  0
LINE
  5
B1
  8
0
  6
CONTINUOUS
 62
     7
 10
156.0540519359
 20
240.6857404989
 30
0.0
 11
156.0540519359
 21
238.6857424063
 31
0.0
  0
LINE
  5
B2
  8
0
  6
CONTINUOUS
 62
     7
 10
230.45405221
 20
238.6857424063
 30
0.0
 11
231.4540512564
 21
238.6857424063
 31
0.0
  0
LINE
  5
B3
  8
0
  6
CONTINUOUS
 62
     7
 10
230.45405221
 20
240.6857404989
 30
0.0
 11
230.45405221
 21
238.6857424063
 31
0.0
  0
LINE
  5
B4
  8
0
  6
CONTINUOUS
 62
     7
 10
231.4540512564
 20
240.6857404989
 30
0.0
 11
231.4540512564
 21
238.6857424063
 31
0.0
  0
LINE
  5
B5
  8
0
  6
CONTINUOUS
 62
     7
 10
151.2540511491
 20
241.4857421202
 30
0.0
 11
151.2540511491
 21
242.4857411665
 31
0.0
  0
LINE
  5
B6
  8
0
  6
CONTINUOUS
 62
     7
 10
156.0540519359
 20
242.4857411665
 30
0.0
 11
151.2540511491
 21
242.4857411665
 31
0.0
  0
LINE
  5
B7
  8
0
  6
CONTINUOUS
 62
     7
 10
161.2540520432
 20
234.4857428354
 30
0.0
 11
161.2540520432
 21
241.4857421202
 31
0.0
  0
ARC
  5
B8
  8
0
  6
CONTINUOUS
 62
     7
 10
159.2540514471
 20
234.4857421202
 30
0.0
 40
2.000000000000028
 50
270.0
 51
0.0
  0
LINE
  5
B9
  8
0
  6
CONTINUOUS
 62
     7
 10
159.2540509703
 20
232.4857447428
 30
0.0
 11
153.2540507319
 21
232.4857447428
 31
0.0
  0
ARC
  5
BA
  8
0
  6
CONTINUOUS
 62
     7
 10
153.2540514471
 20
234.4857421202
 30
0.0
 40
2.000000000000028
 50
180.0
 51
270.0
  0
CIRCLE
  5
BB
  8
0
  6
CONTINUOUS
 62
     7
 10
156.2540514471
 20
235.8857421202
 30
0.0
 40
1.0
  0
LINE
  5
BC
  8
0
  6
CONTINUOUS
 62
     7
 10
151.2540511491
 20
234.4857428354
 30
0.0
 11
151.2540511491
 21
241.4857421202
 31
0.0
  0
LINE
  5
BD
  8
0
  6
CONTINUOUS
 62
     7
 10
161.2540520432
 20
242.4857411665
 30
0.0
 11
157.0540509822
 21
242.4857411665
 31
0.0
  0
LINE
  5
BE
  8
0
  6
CONTINUOUS
 62
     7
 10
161.2540520432
 20
242.4857411665
 30
0.0
 11
161.2540520432
 21
241.4857421202
 31
0.0
  0
LINE
  5
BF
  8
0
  6
CONTINUOUS
 62
     7
 10
230.45405221
 20
242.4857411665
 30
0.0
 11
226.2540526392
 21
242.4857411665
 31
0.0
  0
LINE
  5
C0
  8
0
  6
CONTINUOUS
 62
     7
 10
226.2540526392
 20
241.4857421202
 30
0.0
 11
226.2540526392
 21
242.4857411665
 31
0.0
  0
LINE
  5
C1
  8
0
  6
CONTINUOUS
 62
     7
 10
236.2540490629
 20
234.4857428354
 30
0.0
 11
236.2540490629
 21
241.4857421202
 31
0.0
  0
CIRCLE
  5
C2
  8
0
  6
CONTINUOUS
 62
     7
 10
231.2540514471
 20
235.8857421202
 30
0.0
 40
1.0
  0
LINE
  5
C3
  8
0
  6
CONTINUOUS
 62
     7
 10
226.2540526392
 20
241.4857421202
 30
0.0
 11
226.2540526392
 21
234.4857428354
 31
0.0
  0
ARC
  5
C4
  8
0
  6
CONTINUOUS
 62
     7
 10
228.2540514471
 20
234.4857421202
 30
0.0
 40
2.000000000000028
 50
180.0
 51
270.0
  0
LINE
  5
C5
  8
0
  6
CONTINUOUS
 62
     7
 10
234.2540509703
 20
232.4857447428
 30
0.0
 11
228.2540507319
 21
232.4857447428
 31
0.0
  0
ARC
  5
C6
  8
0
  6
CONTINUOUS
 62
     7
 10
234.2540514471
 20
234.4857421202
 30
0.0
 40
2.000000000000028
 50
270.0
 51
0.0
  0
LINE
  5
C7
  8
0
  6
CONTINUOUS
 62
     7
 10
236.2540490629
 20
241.4857421202
 30
0.0
 11
236.2540490629
 21
242.4857411665
 31
0.0
  0
LINE
  5
C8
  8
0
  6
CONTINUOUS
 62
     7
 10
236.2540490629
 20
242.4857411665
 30
0.0
 11
231.4540512564
 21
242.4857411665
 31
0.0
  0
LINE
  5
C9
  8
0
  6
CONTINUOUS
 62
     7
 10
51.5811212065
 20
167.6857421306
 30
0.0
 11
55.3397662642
 21
167.6857421306
 31
0.0
  0
LINE
  5
CA
  8
0
  6
CONTINUOUS
 62
     7
 10
55.3397662642
 20
166.4857421202
 30
0.0
 11
51.5811212065
 21
166.4857421202
 31
0.0
  0
LINE
  5
CB
  8
0
  6
CONTINUOUS
 62
     7
 10
55.3397662642
 20
167.6857421306
 30
0.0
 11
62.1683366301
 21
167.6857421306
 31
0.0
  0
LINE
  5
CC
  8
0
  6
CONTINUOUS
 62
     7
 10
55.3397662642
 20
166.4857421202
 30
0.0
 11
62.1683366301
 21
166.4857421202
 31
0.0
  0
LINE
  5
CD
  8
0
  6
CONTINUOUS
 62
     7
 10
62.1683366301
 20
167.6857421306
 30
0.0
 11
65.9269816877
 21
167.6857421306
 31
0.0
  0
LINE
  5
CE
  8
0
  6
CONTINUOUS
 62
     7
 10
65.9269816877
 20
166.4857421202
 30
0.0
 11
62.1683366301
 21
166.4857421202
 31
0.0
  0
LINE
  5
CF
  8
0
  6
CONTINUOUS
 62
     7
 10
205.3397662642
 20
166.4857421202
 30
0.0
 11
201.5811212065
 21
166.4857421202
 31
0.0
  0
LINE
  5
D0
  8
0
  6
CONTINUOUS
 62
     7
 10
201.5811212065
 20
167.6857421306
 30
0.0
 11
205.3397662642
 21
167.6857421306
 31
0.0
  0
LINE
  5
D1
  8
0
  6
CONTINUOUS
 62
     7
 10
205.3397662642
 20
166.4857421202
 30
0.0
 11
212.1683366301
 21
166.4857421202
 31
0.0
  0
LINE
  5
D2
  8
0
  6
CONTINUOUS
 62
     7
 10
205.3397662642
 20
167.6857421306
 30
0.0
 11
212.1683366301
 21
167.6857421306
 31
0.0
  0
LINE
  5
D3
  8
0
  6
CONTINUOUS
 62
     7
 10
215.9269816877
 20
166.4857421202
 30
0.0
 11
212.1683366301
 21
166.4857421202
 31
0.0
  0
LINE
  5
D4
  8
0
  6
CONTINUOUS
 62
     7
 10
212.1683366301
 20
167.6857421306
 30
0.0
 11
215.9269816877
 21
167.6857421306
 31
0.0
  0
LINE
  5
D5
  8
0
  6
CONTINUOUS
 62
     7
 10
46.7540509703
 20
166.4857421202
 30
0.0
 11
46.7540509703
 21
167.6857421306
 31
0.0
  0
LINE
  5
D6
  8
0
  6
CONTINUOUS
 62
     7
 10
51.5811212065
 20
167.6857421306
 30
0.0
 11
46.7540509703
 21
167.6857421306
 31
0.0
  0
LINE
  5
D7
  8
0
  6
CONTINUOUS
 62
     7
 10
46.7540509703
 20
166.4857421202
 30
0.0
 11
51.5811212065
 21
166.4857421202
 31
0.0
  0
LINE
  5
D8
  8
0
  6
CONTINUOUS
 62
     7
 10
70.7540519239
 20
166.4857421202
 30
0.0
 11
70.7540519239
 21
167.6857421306
 31
0.0
  0
LINE
  5
D9
  8
0
  6
CONTINUOUS
 62
     7
 10
70.7540519239
 20
167.6857421306
 30
0.0
 11
65.9269816877
 21
167.6857421306
 31
0.0
  0
LINE
  5
DA
  8
0
  6
CONTINUOUS
 62
     7
 10
65.9269816877
 20
166.4857421202
 30
0.0
 11
70.7540519239
 21
166.4857421202
 31
0.0
  0
LINE
  5
DB
  8
0
  6
CONTINUOUS
 62
     7
 10
196.7540509703
 20
166.4857421202
 30
0.0
 11
196.7540509703
 21
167.6857421306
 31
0.0
  0
LINE
  5
DC
  8
0
  6
CONTINUOUS
 62
     7
 10
196.7540509703
 20
166.4857421202
 30
0.0
 11
201.5811212065
 21
166.4857421202
 31
0.0
  0
LINE
  5
DD
  8
0
  6
CONTINUOUS
 62
     7
 10
201.5811212065
 20
167.6857421306
 30
0.0
 11
196.7540509703
 21
167.6857421306
 31
0.0
  0
LINE
  5
DE
  8
0
  6
CONTINUOUS
 62
     7
 10
220.7540519239
 20
166.4857421202
 30
0.0
 11
220.7540519239
 21
167.6857421306
 31
0.0
  0
LINE
  5
DF
  8
0
  6
CONTINUOUS
 62
     7
 10
215.9269816877
 20
166.4857421202
 30
0.0
 11
220.7540519239
 21
166.4857421202
 31
0.0
  0
LINE
  5
E0
  8
0
  6
CONTINUOUS
 62
     7
 10
220.7540519239
 20
167.6857421306
 30
0.0
 11
215.9269816877
 21
167.6857421306
 31
0.0
  0
POLYLINE
  5
E1
  8
0
  6
CONTINUOUS
 62
     7
 66
     1
 10
0.0
 20
0.0
 30
0.0
  0
VERTEX
  5
1E8
  8
0
  6
CONTINUOUS
 62
     7
 10
53.754050255
 20
231.6857431215
 30
0.0
  0
VERTEX
  5
1E9
  8
0
  6
CONTINUOUS
 62
     7
 10
53.7732667925
 20
231.704959659
 30
0.0
  0
VERTEX
  5
1EA
  8
0
  6
CONTINUOUS
 62
     7
 10
53.8301713469
 20
231.7618642134
 30
0.0
  0
VERTEX
  5
1EB
  8
0
  6
CONTINUOUS
 62
     7
 10
53.9225823881
 20
231.8542752546
 30
0.0
  0
VERTEX
  5
1EC
  8
0
  6
CONTINUOUS
 62
     7
 10
54.0469474794
 20
231.9786343855
 30
0.0
  0
VERTEX
  5
1ED
  8
0
  6
CONTINUOUS
 62
     7
 10
54.1984803679
 20
232.1301732344
 30
0.0
  0
VERTEX
  5
1EE
  8
0
  6
CONTINUOUS
 62
     7
 10
54.3713696005
 20
232.3030565066
 30
0.0
  0
VERTEX
  5
1EF
  8
0
  6
CONTINUOUS
 62
     7
 10
54.558963299
 20
232.4906502051
 30
0.0
  0
VERTEX
  5
1F0
  8
0
  6
CONTINUOUS
 62
     7
 10
54.7540493013
 20
232.6857421679
 30
0.0
  0
SEQEND
  5
266
  8
0
  6
CONTINUOUS
 62
     7
  0
LINE
  5
E2
  8
0
  6
CONTINUOUS
 62
     7
 10
53.754050255
 20
231.6857431215
 30
0.0
 11
30.5540568831
 21
231.6857431215
 31
0.0
  0
LINE
  5
E3
  8
0
  6
CONTINUOUS
 62
     7
 10
203.754050255
 20
167.6857421306
 30
0.0
 11
203.754050255
 21
231.6857431215
 31
0.0
  0
POLYLINE
  5
E4
  8
0
  6
CONTINUOUS
 62
     7
 66
     1
 10
0.0
 20
0.0
 30
0.0
  0
VERTEX
  5
1F1
  8
0
  6
CONTINUOUS
 62
     7
 10
204.7540493013
 20
232.6857421679
 30
0.0
  0
VERTEX
  5
1F2
  8
0
  6
CONTINUOUS
 62
     7
 10
204.558963299
 20
232.4906502051
 30
0.0
  0
VERTEX
  5
1F3
  8
0
  6
CONTINUOUS
 62
     7
 10
204.3713696005
 20
232.3030565066
 30
0.0
  0
VERTEX
  5
1F4
  8
0
  6
CONTINUOUS
 62
     7
 10
204.1984803679
 20
232.1301732344
 30
0.0
  0
VERTEX
  5
1F5
  8
0
  6
CONTINUOUS
 62
     7
 10
204.0469474794
 20
231.9786343855
 30
0.0
  0
VERTEX
  5
1F6
  8
0
  6
CONTINUOUS
 62
     7
 10
203.9225823881
 20
231.8542752546
 30
0.0
  0
VERTEX
  5
1F7
  8
0
  6
CONTINUOUS
 62
     7
 10
203.8301713469
 20
231.7618642134
 30
0.0
  0
VERTEX
  5
1F8
  8
0
  6
CONTINUOUS
 62
     7
 10
203.7732667925
 20
231.704959659
 30
0.0
  0
VERTEX
  5
1F9
  8
0
  6
CONTINUOUS
 62
     7
 10
203.754050255
 20
231.6857431215
 30
0.0
  0
SEQEND
  5
265
  8
0
  6
CONTINUOUS
 62
     7
  0
LINE
  5
E5
  8
0
  6
CONTINUOUS
 62
     7
 10
237.3540527823
 20
240.6857404989
 30
0.0
 11
237.3540527823
 21
232.6857421679
 31
0.0
  0
LINE
  5
E6
  8
0
  6
CONTINUOUS
 62
     7
 10
30.5540568831
 20
241.6857395453
 30
0.0
 11
31.2540538313
 21
241.6857395453
 31
0.0
  0
LINE
  5
E7
  8
0
  6
CONTINUOUS
 62
     7
 10
41.254050255
 20
241.6857395453
 30
0.0
 11
106.2540508511
 21
241.6857395453
 31
0.0
  0
LINE
  5
E8
  8
0
  6
CONTINUOUS
 62
     7
 10
116.2540517451
 20
241.6857395453
 30
0.0
 11
151.2540511491
 21
241.6857395453
 31
0.0
  0
LINE
  5
E9
  8
0
  6
CONTINUOUS
 62
     7
 10
161.2540520432
 20
241.6857395453
 30
0.0
 11
226.2540526392
 21
241.6857395453
 31
0.0
  0
LINE
  5
EA
  8
0
  6
CONTINUOUS
 62
     7
 10
236.2540490629
 20
241.6857395453
 30
0.0
 11
236.9540460112
 21
241.6857395453
 31
0.0
  0
LINE
  5
EB
  8
0
  6
CONTINUOUS
 62
     7
 10
30.154050112
 20
240.6857404989
 30
0.0
 11
30.154050112
 21
241.2857446951
 31
0.0
  0
ARC
  5
EC
  8
0
  6
CONTINUOUS
 62
     7
 10
30.5540514471
 20
241.2857421202
 30
0.0
 40
0.4000000000000341
 50
90.0
 51
180.0
  0
ARC
  5
ED
  8
0
  6
CONTINUOUS
 62
     7
 10
236.9540514471
 20
241.2857421202
 30
0.0
 40
0.4000000000000341
 50
0.0
 51
90.0
  0
LINE
  5
EE
  8
0
  6
CONTINUOUS
 62
     7
 10
237.3540527823
 20
241.2857446951
 30
0.0
 11
237.3540527823
 21
240.6857404989
 31
0.0
  0
LINE
  5
EF
  8
0
  6
CONTINUOUS
 62
     7
 10
30.154050112
 20
232.0857439322
 30
0.0
 11
30.154050112
 21
232.6857421679
 31
0.0
  0
ARC
  5
F0
  8
0
  6
CONTINUOUS
 62
     7
 10
30.5540514471
 20
232.0857421202
 30
0.0
 40
0.4000000000000341
 50
180.0
 51
270.0
  0
LINE
  5
F1
  8
0
  6
CONTINUOUS
 62
     7
 10
203.754050255
 20
231.6857431215
 30
0.0
 11
63.7540526392
 21
231.6857431215
 31
0.0
  0
POLYLINE
  5
F2
  8
0
  6
CONTINUOUS
 62
     7
 66
     1
 10
0.0
 20
0.0
 30
0.0
  0
VERTEX
  5
1FA
  8
0
  6
CONTINUOUS
 62
     7
 10
62.7540535929
 20
232.6857421679
 30
0.0
  0
VERTEX
  5
1FB
  8
0
  6
CONTINUOUS
 62
     7
 10
62.9491395952
 20
232.4906502051
 30
0.0
  0
VERTEX
  5
1FC
  8
0
  6
CONTINUOUS
 62
     7
 10
63.1367332937
 20
232.3030565066
 30
0.0
  0
VERTEX
  5
1FD
  8
0
  6
CONTINUOUS
 62
     7
 10
63.3096225264
 20
232.1301732344
 30
0.0
  0
VERTEX
  5
1FE
  8
0
  6
CONTINUOUS
 62
     7
 10
63.4611554148
 20
231.9786343855
 30
0.0
  0
VERTEX
  5
1FF
  8
0
  6
CONTINUOUS
 62
     7
 10
63.5855205061
 20
231.8542752546
 30
0.0
  0
VERTEX
  5
200
  8
0
  6
CONTINUOUS
 62
     7
 10
63.6779315474
 20
231.7618642134
 30
0.0
  0
VERTEX
  5
201
  8
0
  6
CONTINUOUS
 62
     7
 10
63.7348361017
 20
231.704959659
 30
0.0
  0
VERTEX
  5
202
  8
0
  6
CONTINUOUS
 62
     7
 10
63.7540526392
 20
231.6857431215
 30
0.0
  0
SEQEND
  5
264
  8
0
  6
CONTINUOUS
 62
     7
  0
LINE
  5
F3
  8
0
  6
CONTINUOUS
 62
     7
 10
237.3540527823
 20
232.6857421679
 30
0.0
 11
237.3540527823
 21
232.0857439322
 31
0.0
  0
ARC
  5
F4
  8
0
  6
CONTINUOUS
 62
     7
 10
236.9540514471
 20
232.0857421202
 30
0.0
 40
0.4000000000000341
 50
270.0
 51
0.0
  0
LINE
  5
F5
  8
0
  6
CONTINUOUS
 62
     7
 10
63.7540526392
 20
231.6857431215
 30
0.0
 11
63.7540526392
 21
167.6857421306
 31
0.0
  0
POLYLINE
  5
F6
  8
0
  6
CONTINUOUS
 62
     7
 66
     1
 10
0.0
 20
0.0
 30
0.0
  0
VERTEX
  5
203
  8
0
  6
CONTINUOUS
 62
     7
 10
213.7540526392
 20
231.6857431215
 30
0.0
  0
VERTEX
  5
204
  8
0
  6
CONTINUOUS
 62
     7
 10
213.7348361017
 20
231.704959659
 30
0.0
  0
VERTEX
  5
205
  8
0
  6
CONTINUOUS
 62
     7
 10
213.6779315474
 20
231.7618642134
 30
0.0
  0
VERTEX
  5
206
  8
0
  6
CONTINUOUS
 62
     7
 10
213.5855205061
 20
231.8542752546
 30
0.0
  0
VERTEX
  5
207
  8
0
  6
CONTINUOUS
 62
     7
 10
213.4611554148
 20
231.9786343855
 30
0.0
  0
VERTEX
  5
208
  8
0
  6
CONTINUOUS
 62
     7
 10
213.3096225264
 20
232.1301732344
 30
0.0
  0
VERTEX
  5
209
  8
0
  6
CONTINUOUS
 62
     7
 10
213.1367332937
 20
232.3030565066
 30
0.0
  0
VERTEX
  5
20A
  8
0
  6
CONTINUOUS
 62
     7
 10
212.9491395952
 20
232.4906502051
 30
0.0
  0
VERTEX
  5
20B
  8
0
  6
CONTINUOUS
 62
     7
 10
212.7540535929
 20
232.6857421679
 30
0.0
  0
SEQEND
  5
263
  8
0
  6
CONTINUOUS
 62
     7
  0
LINE
  5
F7
  8
0
  6
CONTINUOUS
 62
     7
 10
213.7540526392
 20
231.6857431215
 30
0.0
 11
213.7540526392
 21
167.6857421306
 31
0.0
  0
LINE
  5
F8
  8
0
  6
CONTINUOUS
 62
     7
 10
30.154050112
 20
232.6857421679
 30
0.0
 11
30.154050112
 21
240.6857404989
 31
0.0
  0
LINE
  5
F9
  8
0
  6
CONTINUOUS
 62
     7
 10
236.9540460112
 20
231.6857431215
 30
0.0
 11
213.7540526392
 21
231.6857431215
 31
0.0
  0
LINE
  5
FA
  8
0
  6
CONTINUOUS
 62
     7
 10
53.754050255
 20
167.6857421306
 30
0.0
 11
53.754050255
 21
231.6857431215
 31
0.0
  0
POLYLINE
  5
FB
  8
0
  6
CONTINUOUS
 62
     7
 66
     1
 10
0.0
 20
0.0
 30
0.0
  0
VERTEX
  5
20C
  8
0
  6
CONTINUOUS
 62
     7
 10
393.2280878737
 20
255.6944940371
 30
0.0
  0
VERTEX
  5
20D
  8
0
  6
CONTINUOUS
 62
     7
 10
393.2227353766
 20
255.9638414663
 30
0.0
  0
VERTEX
  5
20E
  8
0
  6
CONTINUOUS
 62
     7
 10
393.1555371
 20
256.3707444948
 30
0.0
  0
VERTEX
  5
20F
  8
0
  6
CONTINUOUS
 62
     7
 10
393.0379550173
 20
256.7495498938
 30
0.0
  0
VERTEX
  5
210
  8
0
  6
CONTINUOUS
 62
     7
 10
392.878852339
 20
257.0955488962
 30
0.0
  0
VERTEX
  5
211
  8
0
  6
CONTINUOUS
 62
     7
 10
392.6870982363
 20
257.4061785025
 30
0.0
  0
VERTEX
  5
212
  8
0
  6
CONTINUOUS
 62
     7
 10
392.4706260874
 20
257.6815102381
 30
0.0
  0
VERTEX
  5
213
  8
0
  6
CONTINUOUS
 62
     7
 10
392.2347228243
 20
257.9246733469
 30
0.0
  0
VERTEX
  5
214
  8
0
  6
CONTINUOUS
 62
     7
 10
391.9801513865
 20
258.1415627283
 30
0.0
  0
VERTEX
  5
215
  8
0
  6
CONTINUOUS
 62
     7
 10
391.7010109141
 20
258.3404336256
 30
0.0
  0
VERTEX
  5
216
  8
0
  6
CONTINUOUS
 62
     7
 10
391.3790802672
 20
258.5327539724
 30
0.0
  0
VERTEX
  5
217
  8
0
  6
CONTINUOUS
 62
     7
 10
390.9936468317
 20
258.7252531332
 30
0.0
  0
VERTEX
  5
218
  8
0
  6
CONTINUOUS
 62
     7
 10
390.482000561
 20
258.9366112036
 30
0.0
  0
VERTEX
  5
219
  8
0
  6
CONTINUOUS
 62
     7
 10
389.9075131132
 20
259.1331694407
 30
0.0
  0
VERTEX
  5
21A
  8
0
  6
CONTINUOUS
 62
     7
 10
389.3325607493
 20
259.3001041693
 30
0.0
  0
VERTEX
  5
21B
  8
0
  6
CONTINUOUS
 62
     7
 10
388.6770229056
 20
259.4641719145
 30
0.0
  0
VERTEX
  5
21C
  8
0
  6
CONTINUOUS
 62
     7
 10
388.0028645708
 20
259.6106443686
 30
0.0
  0
VERTEX
  5
21D
  8
0
  6
CONTINUOUS
 62
     7
 10
387.3025695994
 20
259.7438071055
 30
0.0
  0
VERTEX
  5
21E
  8
0
  6
CONTINUOUS
 62
     7
 10
386.5902344897
 20
259.8624680323
 30
0.0
  0
VERTEX
  5
21F
  8
0
  6
CONTINUOUS
 62
     7
 10
385.826800318
 20
259.9737797064
 30
0.0
  0
VERTEX
  5
220
  8
0
  6
CONTINUOUS
 62
     7
 10
385.0301723196
 20
260.0749109072
 30
0.0
  0
VERTEX
  5
221
  8
0
  6
CONTINUOUS
 62
     7
 10
384.2039446547
 20
260.1654265207
 30
0.0
  0
VERTEX
  5
222
  8
0
  6
CONTINUOUS
 62
     7
 10
383.353004904
 20
260.2446828169
 30
0.0
  0
VERTEX
  5
223
  8
0
  6
CONTINUOUS
 62
     7
 10
382.4830989554
 20
260.3119645399
 30
0.0
  0
VERTEX
  5
224
  8
0
  6
CONTINUOUS
 62
     7
 10
381.6003601267
 20
260.3665862364
 30
0.0
  0
VERTEX
  5
225
  8
0
  6
CONTINUOUS
 62
     7
 10
380.7114402964
 20
260.4079637808
 30
0.0
  0
VERTEX
  5
226
  8
0
  6
CONTINUOUS
 62
     7
 10
379.8148612692
 20
260.436365394
 30
0.0
  0
VERTEX
  5
227
  8
0
  6
CONTINUOUS
 62
     7
 10
378.8995902254
 20
260.452136783
 30
0.0
  0
VERTEX
  5
228
  8
0
  6
CONTINUOUS
 62
     7
 10
378.2350759222
 20
260.4541037363
 30
0.0
  0
SEQEND
  5
262
  8
0
  6
CONTINUOUS
 62
     7
  0
ARC
  5
FC
  8
0
  6
CONTINUOUS
 62
     7
 10
337.9364056769
 20
205.3012619758
 30
0.0
 40
55.15425742299374
 50
89.689920985
 51
97.9477118465
  0
LINE
  5
FD
  8
0
  6
CONTINUOUS
 62
     7
 10
378.2350043966
 20
260.4562435431
 30
0.0
 11
338.2350038006
 21
260.4562435431
 31
0.0
  0
POLYLINE
  5
FE
  8
0
  6
CONTINUOUS
 62
     7
 66
     1
 10
0.0
 20
0.0
 30
0.0
  0
VERTEX
  5
229
  8
0
  6
CONTINUOUS
 62
     7
 10
378.2348732664
 20
255.0746951384
 30
0.0
  0
VERTEX
  5
22A
  8
0
  6
CONTINUOUS
 62
     7
 10
378.9627949907
 20
255.0711069388
 30
0.0
  0
VERTEX
  5
22B
  8
0
  6
CONTINUOUS
 62
     7
 10
379.8034648611
 20
255.0549123568
 30
0.0
  0
VERTEX
  5
22C
  8
0
  6
CONTINUOUS
 62
     7
 10
380.6327502444
 20
255.0267849249
 30
0.0
  0
VERTEX
  5
22D
  8
0
  6
CONTINUOUS
 62
     7
 10
381.4446668341
 20
254.9869511408
 30
0.0
  0
VERTEX
  5
22E
  8
0
  6
CONTINUOUS
 62
     7
 10
382.2337012007
 20
254.9361560625
 30
0.0
  0
VERTEX
  5
22F
  8
0
  6
CONTINUOUS
 62
     7
 10
383.0069462969
 20
254.8745546621
 30
0.0
  0
VERTEX
  5
230
  8
0
  6
CONTINUOUS
 62
     7
 10
383.7592582419
 20
254.8028383536
 30
0.0
  0
VERTEX
  5
231
  8
0
  6
CONTINUOUS
 62
     7
 10
384.4816963389
 20
254.7222111506
 30
0.0
  0
VERTEX
  5
232
  8
0
  6
CONTINUOUS
 62
     7
 10
385.1641158774
 20
254.6343121809
 30
0.0
  0
VERTEX
  5
233
  8
0
  6
CONTINUOUS
 62
     7
 10
385.7980828001
 20
254.5409534258
 30
0.0
  0
VERTEX
  5
234
  8
0
  6
CONTINUOUS
 62
     7
 10
386.3757888987
 20
254.4442031664
 30
0.0
  0
VERTEX
  5
235
  8
0
  6
CONTINUOUS
 62
     7
 10
386.8944506361
 20
254.3458853048
 30
0.0
  0
VERTEX
  5
236
  8
0
  6
CONTINUOUS
 62
     7
 10
387.371848078
 20
254.2438957972
 30
0.0
  0
VERTEX
  5
237
  8
0
  6
CONTINUOUS
 62
     7
 10
387.7868334963
 20
254.1437957567
 30
0.0
  0
VERTEX
  5
238
  8
0
  6
CONTINUOUS
 62
     7
 10
388.1363312914
 20
254.04836276
 30
0.0
  0
VERTEX
  5
239
  8
0
  6
CONTINUOUS
 62
     7
 10
388.4149710848
 20
253.9618346972
 30
0.0
  0
VERTEX
  5
23A
  8
0
  6
CONTINUOUS
 62
     7
 10
388.5989944651
 20
253.8968894762
 30
0.0
  0
VERTEX
  5
23B
  8
0
  6
CONTINUOUS
 62
     7
 10
388.7205402567
 20
253.8482997698
 30
0.0
  0
VERTEX
  5
23C
  8
0
  6
CONTINUOUS
 62
     7
 10
388.7836198523
 20
253.8196776194
 30
0.0
  0
VERTEX
  5
23D
  8
0
  6
CONTINUOUS
 62
     7
 10
388.791469784
 20
253.8157735151
 30
0.0
  0
SEQEND
  5
261
  8
0
  6
CONTINUOUS
 62
     7
  0
LINE
  5
FF
  8
0
  6
CONTINUOUS
 62
     7
 10
349.2350022509
 20
255.0762448591
 30
0.0
 11
378.2350043966
 21
255.0762448591
 31
0.0
  0
LINE
  5
100
  8
0
  6
CONTINUOUS
 62
     7
 10
349.2350022509
 20
254.9737546724
 30
0.0
 11
381.6496948912
 21
254.9737546724
 31
0.0
  0
ARC
  5
101
  8
0
  6
CONTINUOUS
 62
     7
 10
390.5450030615
 20
253.9737533947
 30
0.0
 40
2.690000000000055
 50
180.0
 51
270.0
  0
ARC
  5
102
  8
0
  6
CONTINUOUS
 62
     7
 10
390.5450030615
 20
253.9737533947
 30
0.0
 40
2.690000000000026
 50
270.0
 51
0.0
  0
LINE
  5
103
  8
0
  6
CONTINUOUS
 62
     7
 10
307.135002987
 20
232.6857421679
 30
0.0
 11
307.135002987
 21
232.4857447428
 31
0.0
  0
LINE
  5
104
  8
0
  6
CONTINUOUS
 62
     7
 10
307.135002987
 20
232.4857447428
 30
0.0
 11
306.3350032284
 21
232.4857447428
 31
0.0
  0
LINE
  5
105
  8
0
  6
CONTINUOUS
 62
     7
 10
306.3350032284
 20
232.4857447428
 30
0.0
 11
306.3350032284
 21
234.4857428354
 31
0.0
  0
ARC
  5
106
  8
0
  6
CONTINUOUS
 62
     7
 10
317.1350030615
 20
241.4857421202
 30
0.0
 40
0.2000000000000455
 50
0.0
 51
90.0
  0
ARC
  5
107
  8
0
  6
CONTINUOUS
 62
     7
 10
317.1350030615
 20
241.4857421202
 30
0.0
 40
1.0
 50
0.0
 51
90.0
  0
LINE
  5
108
  8
0
  6
CONTINUOUS
 62
     7
 10
318.1350029274
 20
234.4857428354
 30
0.0
 11
318.1350029274
 21
241.4857421202
 31
0.0
  0
LINE
  5
109
  8
0
  6
CONTINUOUS
 62
     7
 10
317.3350031688
 20
234.4857428354
 30
0.0
 11
317.3350031688
 21
241.4857421202
 31
0.0
  0
ARC
  5
10A
  8
0
  6
CONTINUOUS
 62
     7
 10
307.3350030615
 20
241.4857421202
 30
0.0
 40
1.0
 50
90.0
 51
180.0
  0
LINE
  5
10B
  8
0
  6
CONTINUOUS
 62
     7
 10
317.135003136
 20
241.6857395453
 30
0.0
 11
316.1350029721
 21
241.6857395453
 31
0.0
  0
LINE
  5
10C
  8
0
  6
CONTINUOUS
 62
     7
 10
308.1350031509
 20
241.6857395453
 30
0.0
 11
307.3350030198
 21
241.6857395453
 31
0.0
  0
LINE
  5
10D
  8
0
  6
CONTINUOUS
 62
     7
 10
307.135002987
 20
241.4857421202
 30
0.0
 11
307.135002987
 21
240.6857404989
 31
0.0
  0
ARC
  5
10E
  8
0
  6
CONTINUOUS
 62
     7
 10
307.3350030615
 20
241.4857421202
 30
0.0
 40
0.1999999999999886
 50
90.0
 51
180.0
  0
LINE
  5
10F
  8
0
  6
CONTINUOUS
 62
     7
 10
306.3350032284
 20
241.4857421202
 30
0.0
 11
306.3350032284
 21
234.4857428354
 31
0.0
  0
LINE
  5
110
  8
0
  6
CONTINUOUS
 62
     7
 10
317.135003136
 20
242.4857411665
 30
0.0
 11
307.3350030198
 21
242.4857411665
 31
0.0
  0
LINE
  5
111
  8
0
  6
CONTINUOUS
 62
     7
 10
318.1350029274
 20
234.4857428354
 30
0.0
 11
318.1350029274
 21
232.4857447428
 31
0.0
  0
LINE
  5
112
  8
0
  6
CONTINUOUS
 62
     7
 10
318.1350029274
 20
232.4857447428
 30
0.0
 11
317.3350031688
 21
232.4857447428
 31
0.0
  0
LINE
  5
113
  8
0
  6
CONTINUOUS
 62
     7
 10
317.3350031688
 20
232.4857447428
 30
0.0
 11
317.3350031688
 21
234.4857428354
 31
0.0
  0
POLYLINE
  5
114
  8
0
  6
CONTINUOUS
 62
     7
 66
     1
 10
0.0
 20
0.0
 30
0.0
  0
VERTEX
  5
23E
  8
0
  6
CONTINUOUS
 62
     7
 10
330.1859091236
 20
257.877836017
 30
0.0
  0
VERTEX
  5
23F
  8
0
  6
CONTINUOUS
 62
     7
 10
330.3558762386
 20
258.2423064989
 30
0.0
  0
VERTEX
  5
240
  8
0
  6
CONTINUOUS
 62
     7
 10
330.6034009173
 20
258.5805449766
 30
0.0
  0
VERTEX
  5
241
  8
0
  6
CONTINUOUS
 62
     7
 10
330.9954117253
 20
258.953568725
 30
0.0
  0
VERTEX
  5
242
  8
0
  6
CONTINUOUS
 62
     7
 10
331.4530278756
 20
259.269354133
 30
0.0
  0
VERTEX
  5
243
  8
0
  6
CONTINUOUS
 62
     7
 10
332.2270225002
 20
259.6479687971
 30
0.0
  0
VERTEX
  5
244
  8
0
  6
CONTINUOUS
 62
     7
 10
333.0611939742
 20
259.9257443232
 30
0.0
  0
SEQEND
  5
260
  8
0
  6
CONTINUOUS
 62
     7
  0
POLYLINE
  5
115
  8
0
  6
CONTINUOUS
 62
     7
 66
     1
 10
0.0
 20
0.0
 30
0.0
  0
VERTEX
  5
245
  8
0
  6
CONTINUOUS
 62
     7
 10
335.9684626772
 20
255.0883147997
 30
0.0
  0
VERTEX
  5
246
  8
0
  6
CONTINUOUS
 62
     7
 10
333.9370708182
 20
255.1450822634
 30
0.0
  0
VERTEX
  5
247
  8
0
  6
CONTINUOUS
 62
     7
 10
332.8462149217
 20
255.2732143683
 30
0.0
  0
VERTEX
  5
248
  8
0
  6
CONTINUOUS
 62
     7
 10
331.7862461521
 20
255.5464599413
 30
0.0
  0
VERTEX
  5
249
  8
0
  6
CONTINUOUS
 62
     7
 10
331.0949753239
 20
255.8701310438
 30
0.0
  0
VERTEX
  5
24A
  8
0
  6
CONTINUOUS
 62
     7
 10
330.779268892
 20
256.0915622992
 30
0.0
  0
VERTEX
  5
24B
  8
0
  6
CONTINUOUS
 62
     7
 10
330.502430649
 20
256.3589725775
 30
0.0
  0
VERTEX
  5
24C
  8
0
  6
CONTINUOUS
 62
     7
 10
330.2134256079
 20
256.8213854117
 30
0.0
  0
VERTEX
  5
24D
  8
0
  6
CONTINUOUS
 62
     7
 10
330.1017667367
 20
257.3584113402
 30
0.0
  0
VERTEX
  5
24E
  8
0
  6
CONTINUOUS
 62
     7
 10
330.1859091236
 20
257.877836017
 30
0.0
  0
SEQEND
  5
25F
  8
0
  6
CONTINUOUS
 62
     7
  0
LINE
  5
116
  8
0
  6
CONTINUOUS
 62
     7
 10
338.2350038006
 20
255.0967190546
 30
0.0
 11
335.9684626772
 21
255.0883147997
 31
0.0
  0
LINE
  5
117
  8
0
  6
CONTINUOUS
 62
     7
 10
349.2350022509
 20
255.0967190546
 30
0.0
 11
338.2350038006
 21
255.0967190546
 31
0.0
  0
ARC
  5
118
  8
0
  6
CONTINUOUS
 62
     7
 10
309.8409848193
 20
367.9752517209
 30
0.0
 40
120.0
 50
280.9468409701
 51
289.1646231125
  0
LINE
  5
119
  8
0
  6
CONTINUOUS
 62
     7
 10
332.6287637665
 20
250.1587961001
 30
0.0
 11
328.2158176615
 21
249.3052575869
 31
0.0
  0
ARC
  5
11A
  8
0
  6
CONTINUOUS
 62
     7
 10
329.7350030615
 20
241.4508245717
 30
0.0
 40
8.0
 50
100.9468409701
 51
180.0
  0
LINE
  5
11B
  8
0
  6
CONTINUOUS
 62
     7
 10
321.735003145
 20
241.4508257193
 30
0.0
 11
321.735003145
 21
240.6857404989
 31
0.0
  0
ARC
  5
11C
  8
0
  6
CONTINUOUS
 62
     7
 10
319.7350030615
 20
240.6857421202
 30
0.0
 40
2.0
 50
270.0
 51
0.0
  0
LINE
  5
11D
  8
0
  6
CONTINUOUS
 62
     7
 10
319.7350028171
 20
238.6857424063
 30
0.0
 11
318.1350029274
 21
238.6857424063
 31
0.0
  0
LINE
  5
11E
  8
0
  6
CONTINUOUS
 62
     7
 10
306.3350032284
 20
238.6857424063
 30
0.0
 11
305.5350030973
 21
238.6857424063
 31
0.0
  0
ARC
  5
11F
  8
0
  6
CONTINUOUS
 62
     7
 10
305.5350030615
 20
240.6857421202
 30
0.0
 40
2.0
 50
180.0
 51
270.0
  0
LINE
  5
120
  8
0
  6
CONTINUOUS
 62
     7
 10
303.5350027694
 20
240.6857404989
 30
0.0
 11
303.5350027694
 21
243.2467673105
 31
0.0
  0
ARC
  5
121
  8
0
  6
CONTINUOUS
 62
     7
 10
311.5350030615
 20
243.2467665705
 30
0.0
 40
8.0
 50
140.3596923241
 51
180.0
  0
ARC
  5
122
  8
0
  6
CONTINUOUS
 62
     7
 10
330.0165540209
 20
227.935585227
 30
0.0
 40
32.00000000000001
 50
91.4211498515
 51
140.3596923241
  0
LINE
  5
123
  8
0
  6
CONTINUOUS
 62
     7
 10
329.222915621
 20
259.9257443232
 30
0.0
 11
333.0611939742
 21
259.9257443232
 31
0.0
  0
LINE
  5
124
  8
0
  6
CONTINUOUS
 62
     7
 10
349.2350022509
 20
255.0967190546
 30
0.0
 11
349.2350022509
 21
254.625741033
 31
0.0
  0
LINE
  5
125
  8
0
  6
CONTINUOUS
 62
     7
 10
387.8550033285
 20
254.0904019159
 30
0.0
 11
387.8550033285
 21
253.9737556261
 31
0.0
  0
LINE
  5
126
  8
0
  6
CONTINUOUS
 62
     7
 10
393.2350020125
 20
253.9737556261
 30
0.0
 11
393.2350020125
 21
255.6915853304
 31
0.0
  0
LINE
  5
127
  8
0
  6
CONTINUOUS
 62
     7
 10
393.2350020125
 20
255.6915853304
 30
0.0
 11
393.2345609381
 21
255.7398412508
 31
0.0
  0
ARC
  5
128
  8
0
  6
CONTINUOUS
 62
     7
 10
308.1350030615
 20
240.6857421202
 30
0.0
 40
1.0
 50
90.0
 51
180.0
  0
LINE
  5
129
  8
0
  6
CONTINUOUS
 62
     7
 10
307.135002987
 20
232.6857421679
 30
0.0
 11
307.135002987
 21
240.6857404989
 31
0.0
  0
LINE
  5
12A
  8
0
  6
CONTINUOUS
 62
     7
 10
308.1350031509
 20
241.6857395453
 30
0.0
 11
316.1350029721
 21
241.6857395453
 31
0.0
  0
LINE
  5
12B
  8
0
  6
CONTINUOUS
 62
     7
 10
316.1350029721
 20
231.6857431215
 30
0.0
 11
308.1350031509
 21
231.6857431215
 31
0.0
  0
ARC
  5
12C
  8
0
  6
CONTINUOUS
 62
     7
 10
308.1350030615
 20
232.6857421202
 30
0.0
 40
1.0
 50
180.0
 51
270.0
  0
ARC
  5
12D
  8
0
  6
CONTINUOUS
 62
     7
 10
316.1350030615
 20
240.6857421202
 30
0.0
 40
1.0
 50
0.0
 51
90.0
  0
ARC
  5
12E
  8
0
  6
CONTINUOUS
 62
     7
 10
316.1350030615
 20
232.6857421202
 30
0.0
 40
1.0
 50
270.0
 51
0.0
  0
LINE
  5
12F
  8
0
  6
CONTINUOUS
 62
     7
 10
317.135003136
 20
240.6857404989
 30
0.0
 11
317.135003136
 21
232.6857421679
 31
0.0
  0
LINE
  5
130
  8
0
  6
CONTINUOUS
 62
     7
 10
304.1350032403
 20
166.4857421202
 30
0.0
 11
300.1350033297
 21
166.4857421202
 31
0.0
  0
LINE
  5
131
  8
0
  6
CONTINUOUS
 62
     7
 10
300.1350033297
 20
166.4857421202
 30
0.0
 11
300.1350033297
 21
167.6857421306
 31
0.0
  0
LINE
  5
132
  8
0
  6
CONTINUOUS
 62
     7
 10
300.1350033297
 20
167.6857421306
 30
0.0
 11
304.1350032403
 21
167.6857421306
 31
0.0
  0
LINE
  5
133
  8
0
  6
CONTINUOUS
 62
     7
 10
304.1350032403
 20
166.4857421202
 30
0.0
 11
306.1350031956
 21
166.4857421202
 31
0.0
  0
LINE
  5
134
  8
0
  6
CONTINUOUS
 62
     7
 10
304.1350032403
 20
167.6857421306
 30
0.0
 11
306.1350031956
 21
167.6857421306
 31
0.0
  0
LINE
  5
135
  8
0
  6
CONTINUOUS
 62
     7
 10
306.1350031956
 20
166.4857421202
 30
0.0
 11
333.5034246757
 21
166.4857421202
 31
0.0
  0
LINE
  5
136
  8
0
  6
CONTINUOUS
 62
     7
 10
333.5034246757
 20
167.6857421306
 30
0.0
 11
306.1350031956
 21
167.6857421306
 31
0.0
  0
LINE
  5
137
  8
0
  6
CONTINUOUS
 62
     7
 10
336.1350025251
 20
167.6857421306
 30
0.0
 11
336.1350025251
 21
166.4857421202
 31
0.0
  0
LINE
  5
138
  8
0
  6
CONTINUOUS
 62
     7
 10
336.1350025251
 20
166.4857421202
 30
0.0
 11
333.5034246757
 21
166.4857421202
 31
0.0
  0
LINE
  5
139
  8
0
  6
CONTINUOUS
 62
     7
 10
333.5034246757
 20
167.6857421306
 30
0.0
 11
336.1350025251
 21
167.6857421306
 31
0.0
  0
LINE
  5
13A
  8
0
  6
CONTINUOUS
 62
     7
 10
307.135002987
 20
167.6857421306
 30
0.0
 11
307.135002987
 21
232.4857447428
 31
0.0
  0
LINE
  5
13B
  8
0
  6
CONTINUOUS
 62
     7
 10
317.135003136
 20
232.6857421679
 30
0.0
 11
317.135003136
 21
167.6857421306
 31
0.0
  0
ARC
  5
13C
  8
0
  6
CONTINUOUS
 62
     7
 10
98.9377137075
 20
39.4764525271
 30
0.0
 40
14.86825280728333
 50
270.8244948462
 51
0.4742558757
  0
ARC
  5
13D
  8
0
  6
CONTINUOUS
 62
     7
 10
48.5696040293
 20
39.4729828158
 30
0.0
 40
14.86657497474978
 50
179.512892172
 51
269.323417898
  0
ARC
  5
13E
  8
0
  6
CONTINUOUS
 62
     7
 10
98.9265375647
 20
79.6879350415
 30
0.0
 40
14.87763350840321
 50
359.6598827063
 51
32.6990667389
  0
ARC
  5
13F
  8
0
  6
CONTINUOUS
 62
     7
 10
48.6734864883
 20
79.6554247784
 30
0.0
 40
14.9752481932159
 50
147.3881243277
 51
180.2162386816
  0
ARC
  5
140
  8
0
  6
CONTINUOUS
 62
     7
 10
48.4977242775
 20
79.8925914
 30
0.0
 40
14.69879197530873
 50
90.6991896742
 51
141.1138697876
  0
ARC
  5
141
  8
0
  6
CONTINUOUS
 62
     7
 10
99.0134171728
 20
79.915927395
 30
0.0
 40
14.67822632540675
 50
38.7741646745
 51
89.7632229624
  0
LINE
  5
142
  8
0
  6
CONTINUOUS
 62
     7
 10
33.6952931883
 20
79.5995807058
 30
0.0
 11
33.6952931883
 21
39.5995801098
 31
0.0
  0
LINE
  5
143
  8
0
  6
CONTINUOUS
 62
     7
 10
113.8128079178
 20
39.5995801098
 30
0.0
 11
113.8128079178
 21
79.5995807058
 31
0.0
  0
ARC
  5
144
  8
0
  6
CONTINUOUS
 62
     7
 10
218.9377186075
 20
39.476445051
 30
0.0
 40
14.86824528724576
 50
270.8244832704
 51
0.4742849259
  0
ARC
  5
145
  8
0
  6
CONTINUOUS
 62
     7
 10
168.5696050783
 20
39.472988002
 30
0.0
 40
14.86658015187284
 50
179.5129123301
 51
269.3234209822
  0
ARC
  5
146
  8
0
  6
CONTINUOUS
 62
     7
 10
218.9266053834
 20
79.6879605207
 30
0.0
 40
14.87756166995756
 50
359.6597829379
 51
32.6991277419
  0
ARC
  5
147
  8
0
  6
CONTINUOUS
 62
     7
 10
168.6736213028
 20
79.6553747207
 30
0.0
 40
14.97538848031622
 50
147.3882403755
 51
180.2160451339
  0
ARC
  5
148
  8
0
  6
CONTINUOUS
 62
     7
 10
168.4977304434
 20
79.8925762512
 30
0.0
 40
14.69880721282072
 50
90.699217633
 51
141.1138418288
  0
ARC
  5
149
  8
0
  6
CONTINUOUS
 62
     7
 10
219.0134201773
 20
79.9159392441
 30
0.0
 40
14.67821447142606
 50
38.7741425168
 51
89.7632275192
  0
LINE
  5
14A
  8
0
  6
CONTINUOUS
 62
     7
 10
153.6952949764
 20
79.5995807058
 30
0.0
 11
153.6952949764
 21
39.5995801098
 31
0.0
  0
LINE
  5
14B
  8
0
  6
CONTINUOUS
 62
     7
 10
233.8128097059
 20
39.5995801098
 30
0.0
 11
233.8128097059
 21
79.5995807058
 31
0.0
  0
POLYLINE
  5
14C
  8
0
  6
CONTINUOUS
 62
     7
 66
     1
 10
0.0
 20
0.0
 30
0.0
  0
VERTEX
  5
24F
  8
0
  6
CONTINUOUS
 62
     7
 10
37.0540506842
 20
86.242813409
 30
0.0
  0
VERTEX
  5
250
  8
0
  6
CONTINUOUS
 62
     7
 10
36.5184433462
 20
85.5385800606
 30
0.0
  0
VERTEX
  5
251
  8
0
  6
CONTINUOUS
 62
     7
 10
36.0540516378
 20
84.7733905322
 30
0.0
  0
SEQEND
  5
25E
  8
0
  6
CONTINUOUS
 62
     7
  0
LINE
  5
14D
  8
0
  6
CONTINUOUS
 62
     7
 10
48.4098322393
 20
94.5942422158
 30
0.0
 11
48.5333688261
 21
94.5995813018
 31
0.0
  0
ARC
  5
14E
  8
0
  6
CONTINUOUS
 62
     7
 10
48.8936365954
 20
79.6934111986
 30
0.0
 40
10.07562997172435
 50
100.5231352619
 51
180.5335814189
  0
LINE
  5
14F
  8
0
  6
CONTINUOUS
 62
     7
 10
99.085978389
 20
24.6059661514
 30
0.0
 11
98.97473228
 21
24.5995824939
 31
0.0
  0
ARC
  5
150
  8
0
  6
CONTINUOUS
 62
     7
 10
98.6144784216
 20
39.5057450438
 30
0.0
 40
10.07561908403454
 50
280.5230835409
 51
0.5336080021
  0
POLYLINE
  5
151
  8
0
  6
CONTINUOUS
 62
     7
 66
     1
 10
0.0
 20
0.0
 30
0.0
  0
VERTEX
  5
252
  8
0
  6
CONTINUOUS
 62
     7
 10
110.454051912
 20
86.242813409
 30
0.0
  0
VERTEX
  5
253
  8
0
  6
CONTINUOUS
 62
     7
 10
110.98965925
 20
85.5385800606
 30
0.0
  0
VERTEX
  5
254
  8
0
  6
CONTINUOUS
 62
     7
 10
111.4540509583
 20
84.7733905322
 30
0.0
  0
SEQEND
  5
25D
  8
0
  6
CONTINUOUS
 62
     7
  0
ARC
  5
152
  8
0
  6
CONTINUOUS
 62
     7
 10
98.6322104773
 20
79.7080226446
 30
0.0
 40
10.05803467908726
 50
359.3822465328
 51
79.5610367863
  0
LINE
  5
153
  8
0
  6
CONTINUOUS
 62
     7
 10
48.5333688261
 20
24.5995824939
 30
0.0
 11
48.4402306082
 21
24.6048336631
 31
0.0
  0
ARC
  5
154
  8
0
  6
CONTINUOUS
 62
     7
 10
48.8758845223
 20
39.4911351099
 30
0.0
 40
10.05802562587862
 50
179.3822285381
 51
259.5610799189
  0
LINE
  5
155
  8
0
  6
CONTINUOUS
 62
     7
 10
38.818443537
 20
79.5995807058
 30
0.0
 11
38.818443537
 21
39.5995801098
 31
0.0
  0
LINE
  5
156
  8
0
  6
CONTINUOUS
 62
     7
 10
108.6896605494
 20
39.5995801098
 30
0.0
 11
108.6896605494
 21
79.5995807058
 31
0.0
  0
LINE
  5
157
  8
0
  6
CONTINUOUS
 62
     7
 10
110.454051912
 20
88.6116688854
 30
0.0
 11
111.4540509583
 21
88.6116688854
 31
0.0
  0
LINE
  5
158
  8
0
  6
CONTINUOUS
 62
     7
 10
110.454051912
 20
112.4600982076
 30
0.0
 11
110.454051912
 21
88.6116688854
 31
0.0
  0
LINE
  5
159
  8
0
  6
CONTINUOUS
 62
     7
 10
111.4540509583
 20
112.4600982076
 30
0.0
 11
111.4540509583
 21
88.6116688854
 31
0.0
  0
LINE
  5
15A
  8
0
  6
CONTINUOUS
 62
     7
 10
37.0540506842
 20
88.6116688854
 30
0.0
 11
36.0540516378
 21
88.6116688854
 31
0.0
  0
LINE
  5
15B
  8
0
  6
CONTINUOUS
 62
     7
 10
36.0540516378
 20
112.4600982076
 30
0.0
 11
36.0540516378
 21
88.6116688854
 31
0.0
  0
LINE
  5
15C
  8
0
  6
CONTINUOUS
 62
     7
 10
37.0540506842
 20
112.4600982076
 30
0.0
 11
37.0540506842
 21
88.6116688854
 31
0.0
  0
LINE
  5
15D
  8
0
  6
CONTINUOUS
 62
     7
 10
110.454051912
 20
88.6116688854
 30
0.0
 11
110.454051912
 21
86.242813409
 31
0.0
  0
LINE
  5
15E
  8
0
  6
CONTINUOUS
 62
     7
 10
111.4540509583
 20
88.6116688854
 30
0.0
 11
111.4540509583
 21
84.7733905322
 31
0.0
  0
LINE
  5
15F
  8
0
  6
CONTINUOUS
 62
     7
 10
36.0540516378
 20
88.6116688854
 30
0.0
 11
36.0540516378
 21
84.7733905322
 31
0.0
  0
LINE
  5
160
  8
0
  6
CONTINUOUS
 62
     7
 10
37.0540506842
 20
88.6116688854
 30
0.0
 11
37.0540506842
 21
86.242813409
 31
0.0
  0
LINE
  5
161
  8
0
  6
CONTINUOUS
 62
     7
 10
47.0534987452
 20
29.599583686
 30
0.0
 11
100.4546053412
 21
29.599583686
 31
0.0
  0
LINE
  5
162
  8
0
  6
CONTINUOUS
 62
     7
 10
47.0534987452
 20
89.5995815999
 30
0.0
 11
100.4546053412
 21
89.5995815999
 31
0.0
  0
LINE
  5
163
  8
0
  6
CONTINUOUS
 62
     7
 10
48.5333688261
 20
94.5995813018
 30
0.0
 11
98.97473228
 21
94.5995813018
 31
0.0
  0
LINE
  5
164
  8
0
  6
CONTINUOUS
 62
     7
 10
98.97473228
 20
24.5995824939
 30
0.0
 11
48.5333688261
 21
24.5995824939
 31
0.0
  0
LINE
  5
165
  8
0
  6
CONTINUOUS
 62
     7
 10
37.0540506842
 20
114.299581737
 30
0.0
 11
36.0540516378
 21
114.299581737
 31
0.0
  0
LINE
  5
166
  8
0
  6
CONTINUOUS
 62
     7
 10
36.0540516378
 20
114.299581737
 30
0.0
 11
36.0540516378
 21
112.4600982076
 31
0.0
  0
LINE
  5
167
  8
0
  6
CONTINUOUS
 62
     7
 10
37.0540506842
 20
114.299581737
 30
0.0
 11
37.0540506842
 21
112.4600982076
 31
0.0
  0
LINE
  5
168
  8
0
  6
CONTINUOUS
 62
     7
 10
110.454051912
 20
114.299581737
 30
0.0
 11
111.4540509583
 21
114.299581737
 31
0.0
  0
LINE
  5
169
  8
0
  6
CONTINUOUS
 62
     7
 10
110.454051912
 20
114.299581737
 30
0.0
 11
110.454051912
 21
112.4600982076
 31
0.0
  0
LINE
  5
16A
  8
0
  6
CONTINUOUS
 62
     7
 10
111.4540509583
 20
114.299581737
 30
0.0
 11
111.4540509583
 21
112.4600982076
 31
0.0
  0
LINE
  5
16B
  8
0
  6
CONTINUOUS
 62
     7
 10
106.2540508511
 20
100.6995813704
 30
0.0
 11
106.2540508511
 21
110.4995814866
 31
0.0
  0
LINE
  5
16C
  8
0
  6
CONTINUOUS
 62
     7
 10
41.254050255
 20
100.6995813704
 30
0.0
 11
41.254050255
 21
110.4995814866
 31
0.0
  0
LINE
  5
16D
  8
0
  6
CONTINUOUS
 62
     7
 10
41.254050255
 20
111.499581278
 30
0.0
 11
37.0540506842
 21
111.499581278
 31
0.0
  0
LINE
  5
16E
  8
0
  6
CONTINUOUS
 62
     7
 10
41.254050255
 20
111.499581278
 30
0.0
 11
41.254050255
 21
110.4995814866
 31
0.0
  0
LINE
  5
16F
  8
0
  6
CONTINUOUS
 62
     7
 10
110.454051912
 20
111.499581278
 30
0.0
 11
106.2540508511
 21
111.499581278
 31
0.0
  0
LINE
  5
170
  8
0
  6
CONTINUOUS
 62
     7
 10
106.2540508511
 20
110.4995814866
 30
0.0
 11
106.2540508511
 21
111.499581278
 31
0.0
  0
LINE
  5
171
  8
0
  6
CONTINUOUS
 62
     7
 10
41.254050255
 20
99.699581579
 30
0.0
 11
37.0540506842
 21
99.699581579
 31
0.0
  0
LINE
  5
172
  8
0
  6
CONTINUOUS
 62
     7
 10
41.254050255
 20
100.6995813704
 30
0.0
 11
41.254050255
 21
99.699581579
 31
0.0
  0
LINE
  5
173
  8
0
  6
CONTINUOUS
 62
     7
 10
110.454051912
 20
99.699581579
 30
0.0
 11
106.2540508511
 21
99.699581579
 31
0.0
  0
LINE
  5
174
  8
0
  6
CONTINUOUS
 62
     7
 10
106.2540508511
 20
99.699581579
 30
0.0
 11
106.2540508511
 21
100.6995813704
 31
0.0
  0
LINE
  5
175
  8
0
  6
CONTINUOUS
 62
     7
 10
31.2540538313
 20
100.6995813704
 30
0.0
 11
31.2540538313
 21
110.4995814866
 31
0.0
  0
LINE
  5
176
  8
0
  6
CONTINUOUS
 62
     7
 10
116.2540517451
 20
111.499581278
 30
0.0
 11
111.4540509583
 21
111.499581278
 31
0.0
  0
LINE
  5
177
  8
0
  6
CONTINUOUS
 62
     7
 10
116.2540517451
 20
110.4995814866
 30
0.0
 11
116.2540517451
 21
111.499581278
 31
0.0
  0
LINE
  5
178
  8
0
  6
CONTINUOUS
 62
     7
 10
116.2540517451
 20
100.6995813704
 30
0.0
 11
116.2540517451
 21
110.4995814866
 31
0.0
  0
LINE
  5
179
  8
0
  6
CONTINUOUS
 62
     7
 10
31.2540538313
 20
110.4995814866
 30
0.0
 11
31.2540538313
 21
111.499581278
 31
0.0
  0
LINE
  5
17A
  8
0
  6
CONTINUOUS
 62
     7
 10
36.0540516378
 20
111.499581278
 30
0.0
 11
31.2540538313
 21
111.499581278
 31
0.0
  0
LINE
  5
17B
  8
0
  6
CONTINUOUS
 62
     7
 10
36.0540516378
 20
99.699581579
 30
0.0
 11
31.2540538313
 21
99.699581579
 31
0.0
  0
LINE
  5
17C
  8
0
  6
CONTINUOUS
 62
     7
 10
31.2540538313
 20
99.699581579
 30
0.0
 11
31.2540538313
 21
100.6995813704
 31
0.0
  0
LINE
  5
17D
  8
0
  6
CONTINUOUS
 62
     7
 10
116.2540517451
 20
99.699581579
 30
0.0
 11
111.4540509583
 21
99.699581579
 31
0.0
  0
LINE
  5
17E
  8
0
  6
CONTINUOUS
 62
     7
 10
116.2540517451
 20
99.699581579
 30
0.0
 11
116.2540517451
 21
100.6995813704
 31
0.0
  0
POLYLINE
  5
17F
  8
0
  6
CONTINUOUS
 62
     7
 66
     1
 10
0.0
 20
0.0
 30
0.0
  0
VERTEX
  5
255
  8
0
  6
CONTINUOUS
 62
     7
 10
157.0540509822
 20
86.242813409
 30
0.0
  0
VERTEX
  5
256
  8
0
  6
CONTINUOUS
 62
     7
 10
156.5184436442
 20
85.5385800606
 30
0.0
  0
VERTEX
  5
257
  8
0
  6
CONTINUOUS
 62
     7
 10
156.0540519359
 20
84.7733905322
 30
0.0
  0
SEQEND
  5
25C
  8
0
  6
CONTINUOUS
 62
     7
  0
LINE
  5
180
  8
0
  6
CONTINUOUS
 62
     7
 10
168.4098310473
 20
94.5942422158
 30
0.0
 11
168.5333706142
 21
94.5995813018
 31
0.0
  0
ARC
  5
181
  8
0
  6
CONTINUOUS
 62
     7
 10
168.893630419
 20
79.6934153032
 30
0.0
 40
10.07562502582504
 50
100.5231116577
 51
180.5336050231
  0
LINE
  5
182
  8
0
  6
CONTINUOUS
 62
     7
 10
219.0859801771
 20
24.6059661514
 30
0.0
 11
218.9747340681
 21
24.5995824939
 31
0.0
  0
ARC
  5
183
  8
0
  6
CONTINUOUS
 62
     7
 10
218.6144722452
 20
39.5057491485
 30
0.0
 40
10.07562402994024
 50
280.5231071452
 51
0.5335843978
  0
POLYLINE
  5
184
  8
0
  6
CONTINUOUS
 62
     7
 66
     1
 10
0.0
 20
0.0
 30
0.0
  0
VERTEX
  5
258
  8
0
  6
CONTINUOUS
 62
     7
 10
230.45405221
 20
86.242813409
 30
0.0
  0
VERTEX
  5
259
  8
0
  6
CONTINUOUS
 62
     7
 10
230.989659548
 20
85.5385800606
 30
0.0
  0
VERTEX
  5
25A
  8
0
  6
CONTINUOUS
 62
     7
 10
231.4540512564
 20
84.7733905322
 30
0.0
  0
SEQEND
  5
25B
  8
0
  6
CONTINUOUS
 62
     7
  0
ARC
  5
185
  8
0
  6
CONTINUOUS
 62
     7
 10
218.6322115734
 20
79.7080245289
 30
0.0
 40
10.05803241131265
 50
359.3822356586
 51
79.5610476606
  0
ARC
  5
186
  8
0
  6
CONTINUOUS
 62
     7
 10
168.8758856184
 20
39.4911369942
 30
0.0
 40
10.05802789364268
 50
179.3822394123
 51
259.5610690447
  0
LINE
  5
187
  8
0
  6
CONTINUOUS
 62
     7
 10
168.5333706142
 20
24.5995824939
 30
0.0
 11
168.4402323963
 21
24.6048336631
 31
0.0
  0
LINE
  5
188
  8
0
  6
CONTINUOUS
 62
     7
 10
158.8184423449
 20
79.5995807058
 30
0.0
 11
158.8184423449
 21
39.5995801098
 31
0.0
  0
LINE
  5
189
  8
0
  6
CONTINUOUS
 62
     7
 10
228.6896593573
 20
39.5995801098
 30
0.0
 11
228.6896593573
 21
79.5995807058
 31
0.0
  0
LINE
  5
18A
  8
0
  6
CONTINUOUS
 62
     7
 10
157.0540509822
 20
88.6116688854
 30
0.0
 11
156.0540519359
 21
88.6116688854
 31
0.0
  0
LINE
  5
18B
  8
0
  6
CONTINUOUS
 62
     7
 10
156.0540519359
 20
112.4600982076
 30
0.0
 11
156.0540519359
 21
88.6116688854
 31
0.0
  0
LINE
  5
18C
  8
0
  6
CONTINUOUS
 62
     7
 10
157.0540509822
 20
112.4600982076
 30
0.0
 11
157.0540509822
 21
88.6116688854
 31
0.0
  0
LINE
  5
18D
  8
0
  6
CONTINUOUS
 62
     7
 10
230.45405221
 20
88.6116688854
 30
0.0
 11
231.4540512564
 21
88.6116688854
 31
0.0
  0
LINE
  5
18E
  8
0
  6
CONTINUOUS
 62
     7
 10
231.4540512564
 20
112.4600982076
 30
0.0
 11
231.4540512564
 21
88.6116688854
 31
0.0
  0
LINE
  5
18F
  8
0
  6
CONTINUOUS
 62
     7
 10
230.45405221
 20
112.4600982076
 30
0.0
 11
230.45405221
 21
88.6116688854
 31
0.0
  0
LINE
  5
190
  8
0
  6
CONTINUOUS
 62
     7
 10
231.4540512564
 20
88.6116688854
 30
0.0
 11
231.4540512564
 21
84.7733905322
 31
0.0
  0
LINE
  5
191
  8
0
  6
CONTINUOUS
 62
     7
 10
230.45405221
 20
88.6116688854
 30
0.0
 11
230.45405221
 21
86.242813409
 31
0.0
  0
LINE
  5
192
  8
0
  6
CONTINUOUS
 62
     7
 10
156.0540519359
 20
88.6116688854
 30
0.0
 11
156.0540519359
 21
84.7733905322
 31
0.0
  0
LINE
  5
193
  8
0
  6
CONTINUOUS
 62
     7
 10
157.0540509822
 20
88.6116688854
 30
0.0
 11
157.0540509822
 21
86.242813409
 31
0.0
  0
LINE
  5
194
  8
0
  6
CONTINUOUS
 62
     7
 10
167.0534975531
 20
29.599583686
 30
0.0
 11
220.4546041491
 21
29.599583686
 31
0.0
  0
LINE
  5
195
  8
0
  6
CONTINUOUS
 62
     7
 10
167.0534975531
 20
89.5995815999
 30
0.0
 11
220.4546041491
 21
89.5995815999
 31
0.0
  0
LINE
  5
196
  8
0
  6
CONTINUOUS
 62
     7
 10
168.5333706142
 20
94.5995813018
 30
0.0
 11
218.9747340681
 21
94.5995813018
 31
0.0
  0
LINE
  5
197
  8
0
  6
CONTINUOUS
 62
     7
 10
218.9747340681
 20
24.5995824939
 30
0.0
 11
168.5333706142
 21
24.5995824939
 31
0.0
  0
LINE
  5
198
  8
0
  6
CONTINUOUS
 62
     7
 10
157.0540509822
 20
114.299581737
 30
0.0
 11
156.0540519359
 21
114.299581737
 31
0.0
  0
LINE
  5
199
  8
0
  6
CONTINUOUS
 62
     7
 10
156.0540519359
 20
114.299581737
 30
0.0
 11
156.0540519359
 21
112.4600982076
 31
0.0
  0
LINE
  5
19A
  8
0
  6
CONTINUOUS
 62
     7
 10
157.0540509822
 20
114.299581737
 30
0.0
 11
157.0540509822
 21
112.4600982076
 31
0.0
  0
LINE
  5
19B
  8
0
  6
CONTINUOUS
 62
     7
 10
230.45405221
 20
114.299581737
 30
0.0
 11
231.4540512564
 21
114.299581737
 31
0.0
  0
LINE
  5
19C
  8
0
  6
CONTINUOUS
 62
     7
 10
231.4540512564
 20
114.299581737
 30
0.0
 11
231.4540512564
 21
112.4600982076
 31
0.0
  0
LINE
  5
19D
  8
0
  6
CONTINUOUS
 62
     7
 10
230.45405221
 20
114.299581737
 30
0.0
 11
230.45405221
 21
112.4600982076
 31
0.0
  0
LINE
  5
19E
  8
0
  6
CONTINUOUS
 62
     7
 10
226.2540526392
 20
100.6995813704
 30
0.0
 11
226.2540526392
 21
110.4995814866
 31
0.0
  0
LINE
  5
19F
  8
0
  6
CONTINUOUS
 62
     7
 10
161.2540520432
 20
100.6995813704
 30
0.0
 11
161.2540520432
 21
110.4995814866
 31
0.0
  0
LINE
  5
1A0
  8
0
  6
CONTINUOUS
 62
     7
 10
161.2540520432
 20
111.499581278
 30
0.0
 11
157.0540509822
 21
111.499581278
 31
0.0
  0
LINE
  5
1A1
  8
0
  6
CONTINUOUS
 62
     7
 10
161.2540520432
 20
111.499581278
 30
0.0
 11
161.2540520432
 21
110.4995814866
 31
0.0
  0
LINE
  5
1A2
  8
0
  6
CONTINUOUS
 62
     7
 10
230.45405221
 20
111.499581278
 30
0.0
 11
226.2540526392
 21
111.499581278
 31
0.0
  0
LINE
  5
1A3
  8
0
  6
CONTINUOUS
 62
     7
 10
226.2540526392
 20
110.4995814866
 30
0.0
 11
226.2540526392
 21
111.499581278
 31
0.0
  0
LINE
  5
1A4
  8
0
  6
CONTINUOUS
 62
     7
 10
161.2540520432
 20
99.699581579
 30
0.0
 11
157.0540509822
 21
99.699581579
 31
0.0
  0
LINE
  5
1A5
  8
0
  6
CONTINUOUS
 62
     7
 10
161.2540520432
 20
100.6995813704
 30
0.0
 11
161.2540520432
 21
99.699581579
 31
0.0
  0
LINE
  5
1A6
  8
0
  6
CONTINUOUS
 62
     7
 10
230.45405221
 20
99.699581579
 30
0.0
 11
226.2540526392
 21
99.699581579
 31
0.0
  0
LINE
  5
1A7
  8
0
  6
CONTINUOUS
 62
     7
 10
226.2540526392
 20
99.699581579
 30
0.0
 11
226.2540526392
 21
100.6995813704
 31
0.0
  0
LINE
  5
1A8
  8
0
  6
CONTINUOUS
 62
     7
 10
236.2540490629
 20
100.6995813704
 30
0.0
 11
236.2540490629
 21
110.4995814866
 31
0.0
  0
LINE
  5
1A9
  8
0
  6
CONTINUOUS
 62
     7
 10
236.2540490629
 20
110.4995814866
 30
0.0
 11
236.2540490629
 21
111.499581278
 31
0.0
  0
LINE
  5
1AA
  8
0
  6
CONTINUOUS
 62
     7
 10
236.2540490629
 20
111.499581278
 30
0.0
 11
231.4540512564
 21
111.499581278
 31
0.0
  0
LINE
  5
1AB
  8
0
  6
CONTINUOUS
 62
     7
 10
151.2540511491
 20
100.6995813704
 30
0.0
 11
151.2540511491
 21
110.4995814866
 31
0.0
  0
LINE
  5
1AC
  8
0
  6
CONTINUOUS
 62
     7
 10
156.0540519359
 20
111.499581278
 30
0.0
 11
151.2540511491
 21
111.499581278
 31
0.0
  0
LINE
  5
1AD
  8
0
  6
CONTINUOUS
 62
     7
 10
151.2540511491
 20
110.4995814866
 30
0.0
 11
151.2540511491
 21
111.499581278
 31
0.0
  0
LINE
  5
1AE
  8
0
  6
CONTINUOUS
 62
     7
 10
236.2540490629
 20
99.699581579
 30
0.0
 11
231.4540512564
 21
99.699581579
 31
0.0
  0
LINE
  5
1AF
  8
0
  6
CONTINUOUS
 62
     7
 10
236.2540490629
 20
99.699581579
 30
0.0
 11
236.2540490629
 21
100.6995813704
 31
0.0
  0
LINE
  5
1B0
  8
0
  6
CONTINUOUS
 62
     7
 10
156.0540519359
 20
99.699581579
 30
0.0
 11
151.2540511491
 21
99.699581579
 31
0.0
  0
LINE
  5
1B1
  8
0
  6
CONTINUOUS
 62
     7
 10
151.2540511491
 20
99.699581579
 30
0.0
 11
151.2540511491
 21
100.6995813704
 31
0.0
  0
LINE
  5
1B2
  8
0
  6
CONTINUOUS
 62
     7
 10
237.3540527823
 20
110.2995814538
 30
0.0
 11
237.3540527823
 21
109.6995813555
 31
0.0
  0
ARC
  5
1B3
  8
0
  6
CONTINUOUS
 62
     7
 10
236.9540514471
 20
110.2995814449
 30
0.0
 40
0.4000000000000057
 50
0.0
 51
90.0
  0
LINE
  5
1B4
  8
0
  6
CONTINUOUS
 62
     7
 10
30.5540568831
 20
110.6995815194
 30
0.0
 11
31.2540538313
 21
110.6995815194
 31
0.0
  0
LINE
  5
1B5
  8
0
  6
CONTINUOUS
 62
     7
 10
41.254050255
 20
110.6995815194
 30
0.0
 11
106.2540508511
 21
110.6995815194
 31
0.0
  0
LINE
  5
1B6
  8
0
  6
CONTINUOUS
 62
     7
 10
116.2540517451
 20
110.6995815194
 30
0.0
 11
151.2540511491
 21
110.6995815194
 31
0.0
  0
LINE
  5
1B7
  8
0
  6
CONTINUOUS
 62
     7
 10
161.2540520432
 20
110.6995815194
 30
0.0
 11
226.2540526392
 21
110.6995815194
 31
0.0
  0
LINE
  5
1B8
  8
0
  6
CONTINUOUS
 62
     7
 10
236.2540490629
 20
110.6995815194
 30
0.0
 11
236.9540460112
 21
110.6995815194
 31
0.0
  0
LINE
  5
1B9
  8
0
  6
CONTINUOUS
 62
     7
 10
30.154050112
 20
109.6995813555
 30
0.0
 11
30.154050112
 21
110.2995814538
 31
0.0
  0
ARC
  5
1BA
  8
0
  6
CONTINUOUS
 62
     7
 10
30.5540514471
 20
110.2995814449
 30
0.0
 40
0.4000000000000057
 50
90.0
 51
180.0
  0
LINE
  5
1BB
  8
0
  6
CONTINUOUS
 62
     7
 10
30.154050112
 20
101.6995815343
 30
0.0
 11
30.154050112
 21
109.6995813555
 31
0.0
  0
LINE
  5
1BC
  8
0
  6
CONTINUOUS
 62
     7
 10
237.3540527823
 20
109.6995813555
 30
0.0
 11
237.3540527823
 21
101.6995815343
 31
0.0
  0
LINE
  5
1BD
  8
0
  6
CONTINUOUS
 62
     7
 10
236.9540460112
 20
100.6995813704
 30
0.0
 11
236.2540490629
 21
100.6995813704
 31
0.0
  0
LINE
  5
1BE
  8
0
  6
CONTINUOUS
 62
     7
 10
226.2540526392
 20
100.6995813704
 30
0.0
 11
161.2540520432
 21
100.6995813704
 31
0.0
  0
LINE
  5
1BF
  8
0
  6
CONTINUOUS
 62
     7
 10
151.2540511491
 20
100.6995813704
 30
0.0
 11
116.2540517451
 21
100.6995813704
 31
0.0
  0
LINE
  5
1C0
  8
0
  6
CONTINUOUS
 62
     7
 10
106.2540508511
 20
100.6995813704
 30
0.0
 11
41.254050255
 21
100.6995813704
 31
0.0
  0
LINE
  5
1C1
  8
0
  6
CONTINUOUS
 62
     7
 10
31.2540538313
 20
100.6995813704
 30
0.0
 11
30.5540568831
 21
100.6995813704
 31
0.0
  0
LINE
  5
1C2
  8
0
  6
CONTINUOUS
 62
     7
 10
237.3540527823
 20
101.6995815343
 30
0.0
 11
237.3540527823
 21
101.099581436
 31
0.0
  0
ARC
  5
1C3
  8
0
  6
CONTINUOUS
 62
     7
 10
236.9540514471
 20
101.0995814449
 30
0.0
 40
0.4000000000000057
 50
270.0
 51
0.0
  0
ARC
  5
1C4
  8
0
  6
CONTINUOUS
 62
     7
 10
30.5540514471
 20
101.0995814449
 30
0.0
 40
0.3999999999999986
 50
180.0
 51
270.0
  0
LINE
  5
1C5
  8
0
  6
CONTINUOUS
 62
     7
 10
30.154050112
 20
101.099581436
 30
0.0
 11
30.154050112
 21
101.6995815343
 31
0.0
  0
LINE
  5
1C6
  8
0
  6
CONTINUOUS
 62
     7
 10
220.7540519239
 20
111.6995813108
 30
0.0
 11
220.7540519239
 21
113.6995812661
 31
0.0
  0
LINE
  5
1C7
  8
0
  6
CONTINUOUS
 62
     7
 10
220.7540519239
 20
111.6995813108
 30
0.0
 11
220.7477993967
 21
110.6995815194
 31
0.0
  0
ARC
  5
1C8
  8
0
  6
CONTINUOUS
 62
     7
 10
140.7540514471
 20
111.6995814449
 30
0.0
 40
80.00000000000001
 50
347.6577971128
 51
352.0967922665
  0
ARC
  5
1C9
  8
0
  6
CONTINUOUS
 62
     7
 10
276.7540514471
 20
111.6995814449
 30
0.0
 40
80.00000000000006
 50
187.9032077335
 51
192.3422028872
  0
LINE
  5
1CA
  8
0
  6
CONTINUOUS
 62
     7
 10
196.7603034975
 20
110.6995815194
 30
0.0
 11
196.7540509703
 21
111.6995813108
 31
0.0
  0
LINE
  5
1CB
  8
0
  6
CONTINUOUS
 62
     7
 10
196.7540509703
 20
113.6995812661
 30
0.0
 11
196.7540509703
 21
111.6995813108
 31
0.0
  0
ARC
  5
1CC
  8
0
  6
CONTINUOUS
 62
     7
 10
200.7540514471
 20
113.6995814449
 30
0.0
 40
4.000000000000014
 50
90.0
 51
180.0
  0
LINE
  5
1CD
  8
0
  6
CONTINUOUS
 62
     7
 10
216.7540497782
 20
117.6995811767
 30
0.0
 11
200.754053116
 21
117.6995811767
 31
0.0
  0
CIRCLE
  5
1CE
  8
0
  6
CONTINUOUS
 62
     7
 10
216.7540514471
 20
113.6995814449
 30
0.0
 40
1.500000000000014
  0
CIRCLE
  5
1CF
  8
0
  6
CONTINUOUS
 62
     7
 10
200.7540514471
 20
113.6995814449
 30
0.0
 40
1.500000000000014
  0
ARC
  5
1D0
  8
0
  6
CONTINUOUS
 62
     7
 10
216.7540514471
 20
113.6995814449
 30
0.0
 40
4.000000000000014
 50
0.0
 51
90.0
  0
ARC
  5
1D1
  8
0
  6
CONTINUOUS
 62
     7
 10
126.7540514471
 20
111.6995814449
 30
0.0
 40
80.00000000000001
 50
187.9032077335
 51
192.3422028872
  0
LINE
  5
1D2
  8
0
  6
CONTINUOUS
 62
     7
 10
46.7603034975
 20
110.6995815194
 30
0.0
 11
46.7540509703
 21
111.6995813108
 31
0.0
  0
LINE
  5
1D3
  8
0
  6
CONTINUOUS
 62
     7
 10
46.7540509703
 20
113.6995812661
 30
0.0
 11
46.7540509703
 21
111.6995813108
 31
0.0
  0
LINE
  5
1D4
  8
0
  6
CONTINUOUS
 62
     7
 10
70.7540519239
 20
111.6995813108
 30
0.0
 11
70.7540519239
 21
113.6995812661
 31
0.0
  0
LINE
  5
1D5
  8
0
  6
CONTINUOUS
 62
     7
 10
70.7540519239
 20
111.6995813108
 30
0.0
 11
70.7477993967
 21
110.6995815194
 31
0.0
  0
ARC
  5
1D6
  8
0
  6
CONTINUOUS
 62
     7
 10
-9.2459485529
 20
111.6995814449
 30
0.0
 40
79.99999999999999
 50
347.6577971128
 51
352.0967922665
  0
CIRCLE
  5
1D7
  8
0
  6
CONTINUOUS
 62
     7
 10
50.7540514471
 20
113.6995814449
 30
0.0
 40
1.5
  0
CIRCLE
  5
1D8
  8
0
  6
CONTINUOUS
 62
     7
 10
66.7540514471
 20
113.6995814449
 30
0.0
 40
1.5
  0
ARC
  5
1D9
  8
0
  6
CONTINUOUS
 62
     7
 10
50.7540514471
 20
113.6995814449
 30
0.0
 40
4.000000000000014
 50
90.0
 51
180.0
  0
ARC
  5
1DA
  8
0
  6
CONTINUOUS
 62
     7
 10
66.7540514471
 20
113.6995814449
 30
0.0
 40
4.000000000000014
 50
0.0
 51
90.0
  0
LINE
  5
1DB
  8
0
  6
CONTINUOUS
 62
     7
 10
66.7540497782
 20
117.6995811767
 30
0.0
 11
50.754053116
 21
117.6995811767
 31
0.0
  0
ENDSEC
  0
EOF
