  0
SECTION
  2
HEADER
  9
$ACADVER
  1
AC1009
  9
$DWGCODEPAGE
  3
ansi_1252
  9
$INSBASE
 10
0.0
 20
0.0
 30
0.0
  9
$EXTMIN
 10
0.0
 20
0.0
 30
0.0
  9
$EXTMAX
 10
420.0
 20
297.0
 30
0.0
  9
$LIMMIN
 10
0.0
 20
0.0
  9
$LIMMAX
 10
420.0
 20
297.0
  9
$ORTHOMODE
 70
     0
  9
$REGENMODE
 70
     1
  9
$FILLMODE
 70
     1
  9
$QTEXTMODE
 70
     0
  9
$MIRRTEXT
 70
     1
  9
$DRAGMODE
 70
     2
  9
$LTSCALE
 40
1.0
  9
$OSMODE
 70
    37
  9
$ATTMODE
 70
     1
  9
$TEXTSIZE
 40
3.5
  9
$TRACEWID
 40
1.0
  9
$TEXTSTYLE
  7
STANDARD
  9
$CLAYER
  8
0
  9
$CELTYPE
  6
BYLAYER
  9
$CECOLOR
 62
   256
  9
$DIMSCALE
 40
1.0
  9
$DIMASZ
 40
4.0
  9
$DIMEXO
 40
0.0
  9
$DIMDLI
 40
3.75
  9
$DIMRND
 40
0.0
  9
$DIMDLE
 40
0.0
  9
$DIMEXE
 40
2.0
  9
$DIMTP
 40
0.0
  9
$DIMTM
 40
0.0
  9
$DIMTXT
 40
3.5
  9
$DIMCEN
 40
2.5
  9
$DIMTSZ
 40
0.0
  9
$DIMTOL
 70
     0
  9
$DIMLIM
 70
     0
  9
$DIMTIH
 70
     1
  9
$DIMTOH
 70
     1
  9
$DIMSE1
 70
     0
  9
$DIMSE2
 70
     0
  9
$DIMTAD
 70
     1
  9
$DIMZIN
 70
     0
  9
$DIMBLK
  1

  9
$DIMASO
 70
     1
  9
$DIMSHO
 70
     1
  9
$DIMPOST
  1

  9
$DIMAPOST
  1

  9
$DIMALT
 70
     0
  9
$DIMALTD
 70
     3
  9
$DIMALTF
 40
0.0393700787
  9
$DIMLFAC
 40
5.0
  9
$DIMTOFL
 70
     1
  9
$DIMTVP
 40
0.0
  9
$DIMTIX
 70
     0
  9
$DIMSOXD
 70
     0
  9
$DIMSAH
 70
     0
  9
$DIMBLK1
  1

  9
$DIMBLK2
  1

  9
$DIMSTYLE
  2
ISO-25
  9
$DIMCLRD
 70
     0
  9
$DIMCLRE
 70
     0
  9
$DIMCLRT
 70
     0
  9
$DIMTFAC
 40
1.0
  9
$DIMGAP
 40
1.524
  9
$LUNITS
 70
     2
  9
$LUPREC
 70
     2
  9
$SKETCHINC
 40
1.0
  9
$FILLETRAD
 40
10.0
  9
$AUNITS
 70
     0
  9
$AUPREC
 70
     2
  9
$MENU
  1
.
  9
$ELEVATION
 40
0.0
  9
$PELEVATION
 40
0.0
  9
$THICKNESS
 40
0.0
  9
$LIMCHECK
 70
     0
  9
$CHAMFERA
 40
10.0
  9
$CHAMFERB
 40
10.0
  9
$SKPOLY
 70
     0
  9
$TDCREATE
 40
2457802.371503877
  9
$TDUPDATE
 40
2457802.371504074
  9
$TDINDWG
 40
0.0000000116
  9
$TDUSRTIMER
 40
0.0000000116
  9
$USRTIMER
 70
     1
  9
$ANGBASE
 50
0.0
  9
$ANGDIR
 70
     0
  9
$PDMODE
 70
     0
  9
$PDSIZE
 40
-1.0
  9
$PLINEWID
 40
0.0
  9
$COORDS
 70
     1
  9
$SPLFRAME
 70
     0
  9
$SPLINETYPE
 70
     6
  9
$SPLINESEGS
 70
     8
  9
$ATTDIA
 70
     0
  9
$ATTREQ
 70
     1
  9
$HANDLING
 70
     1
  9
$HANDSEED
  5
430
  9
$SURFTAB1
 70
     6
  9
$SURFTAB2
 70
     6
  9
$SURFTYPE
 70
     6
  9
$SURFU
 70
     6
  9
$SURFV
 70
     6
  9
$UCSNAME
  2

  9
$UCSORG
 10
0.0
 20
0.0
 30
0.0
  9
$UCSXDIR
 10
1.0
 20
0.0
 30
0.0
  9
$UCSYDIR
 10
0.0
 20
1.0
 30
0.0
  9
$PUCSNAME
  2

  9
$PUCSORG
 10
0.0
 20
0.0
 30
0.0
  9
$PUCSXDIR
 10
1.0
 20
0.0
 30
0.0
  9
$PUCSYDIR
 10
0.0
 20
1.0
 30
0.0
  9
$USERI1
 70
     0
  9
$USERI2
 70
     0
  9
$USERI3
 70
     0
  9
$USERI4
 70
     0
  9
$USERI5
 70
     0
  9
$USERR1
 40
0.0
  9
$USERR2
 40
0.0
  9
$USERR3
 40
0.0
  9
$USERR4
 40
0.0
  9
$USERR5
 40
0.0
  9
$WORLDVIEW
 70
     1
  9
$SHADEDGE
 70
     3
  9
$SHADEDIF
 70
    70
  9
$TILEMODE
 70
     1
  9
$MAXACTVP
 70
    64
  9
$PLIMCHECK
 70
     0
  9
$PEXTMIN
 10
1.0000000000E+20
 20
1.0000000000E+20
 30
1.0000000000E+20
  9
$PEXTMAX
 10
-1.0000000000E+20
 20
-1.0000000000E+20
 30
-1.0000000000E+20
  9
$PLIMMIN
 10
0.0
 20
0.0
  9
$PLIMMAX
 10
420.0
 20
297.0
  9
$UNITMODE
 70
     0
  9
$VISRETAIN
 70
     1
  9
$PLINEGEN
 70
     0
  9
$PSLTSCALE
 70
     1
  0
ENDSEC
  0
SECTION
  2
TABLES
  0
TABLE
  2
VPORT
 70
     1
  0
VPORT
  2
*ACTIVE
 70
     0
 10
0.0
 20
0.0
 11
1.0
 21
1.0
 12
210.0
 22
148.5
 13
0.0
 23
0.0
 14
10.0
 24
10.0
 15
10.0
 25
10.0
 16
0.0
 26
0.0
 36
1.0
 17
0.0
 27
0.0
 37
0.0
 40
297.0
 41
1.4141414141
 42
50.0
 43
0.0
 44
0.0
 50
0.0
 51
0.0
 71
     0
 72
  2000
 73
     1
 74
     3
 75
     0
 76
     0
 77
     0
 78
     0
  0
ENDTAB
  0
TABLE
  2
LTYPE
 70
     6
  0
LTYPE
  2
CONTINUOUS
 70
     0
  3
Solid line
 72
    65
 73
     0
 40
0.0
  0
LTYPE
  2
HIDDEN
 70
     0
  3
Hidden __ __ __ __ __ __ __ __ __ __ __ __ __ __
 72
    65
 73
     2
 40
1.905
 49
1.27
 49
-0.635
  0
LTYPE
  2
PHANTOM
 70
     0
  3
Phantom ______  __  __  ______  __  __  ______
 72
    65
 73
     6
 40
12.7
 49
6.35
 49
-1.27
 49
1.27
 49
-1.27
 49
1.27
 49
-1.27
  0
LTYPE
  2
CENTER
 70
     0
  3
Center ____ _ ____ _ ____ _ ____ _ ____ _ ____
 72
    65
 73
     4
 40
10.16
 49
6.35
 49
-1.27
 49
1.27
 49
-1.27
  0
LTYPE
  2
CENTERX2
 70
     0
  3
Center (2x) ________  __  ________  __  _____
 72
    65
 73
     4
 40
20.32
 49
12.7
 49
-2.54
 49
2.54
 49
-2.54
  0
LTYPE
  2
DOT2
 70
     0
  3
Dot (.5x) ........................................
 72
    65
 73
     2
 40
0.635
 49
0.0
 49
-0.635
  0
ENDTAB
  0
TABLE
  2
LAYER
 70
     2
  0
LAYER
  2
0
 70
     0
 62
     7
  6
CONTINUOUS
  0
LAYER
  2
FORMAT
 70
     0
 62
     7
  6
CONTINUOUS
  0
ENDTAB
  0
TABLE
  2
STYLE
 70
     1
  0
STYLE
  2
STANDARD
 70
     0
 40
0.0
 41
1.0
 50
0.0
 71
     0
 42
3.5
  3
txt
  4

  0
ENDTAB
  0
TABLE
  2
VIEW
 70
     0
  0
ENDTAB
  0
TABLE
  2
UCS
 70
     0
  0
ENDTAB
  0
TABLE
  2
APPID
 70
     1
  0
APPID
  2
ACAD
 70
     0
  0
ENDTAB
  0
TABLE
  2
DIMSTYLE
 70
     1
  0
DIMSTYLE
  2
ISO-25
 70
     0
  3

  4

  5

  6

  7

 40
1.0
 41
2.5
 42
0.625
 43
3.75
 44
1.25
 45
0.0
 46
0.0
 47
0.0
 48
0.0
140
2.5
141
2.5
142
0.0
143
0.0393700787
144
1.0
145
0.0
146
1.0
147
0.625
 71
     0
 72
     0
 73
     0
 74
     0
 75
     0
 76
     0
 77
     1
 78
     8
170
     0
171
     3
172
     1
173
     0
174
     0
175
     0
176
     0
177
     0
178
     0
  0
ENDTAB
  0
ENDSEC
  0
SECTION
  2
BLOCKS
  0
BLOCK
  8
0
  2
$MODEL_SPACE
 70
     0
 10
0.0
 20
0.0
 30
0.0
  3
$MODEL_SPACE
  1

  0
ENDBLK
  5
21
  8
0
  0
BLOCK
 67
     1
  8
0
  2
$PAPER_SPACE
 70
     0
 10
0.0
 20
0.0
 30
0.0
  3
$PAPER_SPACE
  1

  0
ENDBLK
  5
1D
 67
     1
  8
0
  0
ENDSEC
  0
SECTION
  2
ENTITIES
  0
ARC
  5
45
  8
0
  6
CONTINUOUS
 62
     7
 10
137.4200354374
 20
194.2841433334
 30
0.0
 40
15.10054150829812
 50
271.1941136686
 51
0.2074254998
  0
ARC
  5
46
  8
0
  6
CONTINUOUS
 62
     7
 10
87.5163302073
 20
194.2803172195
 30
0.0
 40
15.09768419967061
 50
179.7788293481
 51
268.8138990734
  0
LINE
  5
47
  8
0
  6
CONTINUOUS
 62
     7
 10
72.4104466236
 20
234.0409046702
 30
0.0
 11
72.4104466236
 21
194.3390614085
 31
0.0
  0
LINE
  5
48
  8
0
  6
CONTINUOUS
 62
     7
 10
152.5279583729
 20
194.3390614085
 30
0.0
 11
152.5279583729
 21
234.0409046702
 31
0.0
  0
POLYLINE
  5
49
  8
0
  6
CONTINUOUS
 62
     7
 66
     1
 10
0.0
 20
0.0
 30
0.0
  0
VERTEX
  5
1CF
  8
0
  6
CONTINUOUS
 62
     7
 10
87.2036608255
 20
179.1783577495
 30
0.0
  0
VERTEX
  5
1D0
  8
0
  6
CONTINUOUS
 62
     7
 10
88.9954673446
 20
179.1495448642
 30
0.0
  0
VERTEX
  5
1D1
  8
0
  6
CONTINUOUS
 62
     7
 10
92.4060406483
 20
179.1006571345
 30
0.0
  0
VERTEX
  5
1D2
  8
0
  6
CONTINUOUS
 62
     7
 10
95.823402921
 20
179.0594226413
 30
0.0
  0
VERTEX
  5
1D3
  8
0
  6
CONTINUOUS
 62
     7
 10
99.2463680304
 20
179.0258771472
 30
0.0
  0
VERTEX
  5
1D4
  8
0
  6
CONTINUOUS
 62
     7
 10
102.6737826264
 20
179.0000325732
 30
0.0
  0
VERTEX
  5
1D5
  8
0
  6
CONTINUOUS
 62
     7
 10
106.1044918693
 20
178.9818889194
 30
0.0
  0
VERTEX
  5
1D6
  8
0
  6
CONTINUOUS
 62
     7
 10
109.5373418501
 20
178.9714461856
 30
0.0
  0
VERTEX
  5
1D7
  8
0
  6
CONTINUOUS
 62
     7
 10
112.9711760062
 20
178.9687162929
 30
0.0
  0
VERTEX
  5
1D8
  8
0
  6
CONTINUOUS
 62
     7
 10
116.4048383332
 20
178.9736992412
 30
0.0
  0
VERTEX
  5
1D9
  8
0
  6
CONTINUOUS
 62
     7
 10
119.8371710575
 20
178.9863950305
 30
0.0
  0
VERTEX
  5
1DA
  8
0
  6
CONTINUOUS
 62
     7
 10
123.2670175231
 20
179.0067917399
 30
0.0
  0
VERTEX
  5
1DB
  8
0
  6
CONTINUOUS
 62
     7
 10
126.693223635
 20
179.0348893695
 30
0.0
  0
VERTEX
  5
1DC
  8
0
  6
CONTINUOUS
 62
     7
 10
130.1146345532
 20
179.0706879191
 30
0.0
  0
VERTEX
  5
1DD
  8
0
  6
CONTINUOUS
 62
     7
 10
133.5300999082
 20
179.1141516261
 30
0.0
  0
VERTEX
  5
1DE
  8
0
  6
CONTINUOUS
 62
     7
 10
136.75932459
 20
179.1624075465
 30
0.0
  0
VERTEX
  5
1DF
  8
0
  6
CONTINUOUS
 62
     7
 10
137.7347441709
 20
179.1783577495
 30
0.0
  0
SEQEND
  5
42F
  8
0
  6
CONTINUOUS
 62
     7
  0
ARC
  5
4A
  8
0
  6
CONTINUOUS
 62
     7
 10
86.9289407818
 20
234.4387131754
 30
0.0
 40
14.25372559924804
 50
88.5351387924
 51
113.3277248135
  0
ARC
  5
4B
  8
0
  6
CONTINUOUS
 62
     7
 10
138.0080560012
 20
234.4013104222
 30
0.0
 40
14.2923083901899
 50
66.7644782449
 51
91.4553543428
  0
POLYLINE
  5
4C
  8
0
  6
CONTINUOUS
 62
     7
 66
     1
 10
0.0
 20
0.0
 30
0.0
  0
VERTEX
  5
1E0
  8
0
  6
CONTINUOUS
 62
     7
 10
78.5927834309
 20
246.0415131145
 30
0.0
  0
VERTEX
  5
1E1
  8
0
  6
CONTINUOUS
 62
     7
 10
78.5473974741
 20
246.0116869502
 30
0.0
  0
VERTEX
  5
1E2
  8
0
  6
CONTINUOUS
 62
     7
 10
78.2156141794
 20
245.7607633166
 30
0.0
  0
SEQEND
  5
42E
  8
0
  6
CONTINUOUS
 62
     7
  0
ARC
  5
4D
  8
0
  6
CONTINUOUS
 62
     7
 10
86.9756608535
 20
234.1380806704
 30
0.0
 40
14.55832711012346
 50
128.4665915627
 51
180.3828711424
  0
ARC
  5
4E
  8
0
  6
CONTINUOUS
 62
     7
 10
137.9402168288
 20
234.133343439
 30
0.0
 40
14.57976237068453
 50
359.6361680626
 51
54.8680404427
  0
POLYLINE
  5
4F
  8
0
  6
CONTINUOUS
 62
     7
 66
     1
 10
0.0
 20
0.0
 30
0.0
  0
VERTEX
  5
1E3
  8
0
  6
CONTINUOUS
 62
     7
 10
137.6450242794
 20
248.6959463649
 30
0.0
  0
VERTEX
  5
1E4
  8
0
  6
CONTINUOUS
 62
     7
 10
135.8596848643
 20
248.667240768
 30
0.0
  0
VERTEX
  5
1E5
  8
0
  6
CONTINUOUS
 62
     7
 10
132.4614705837
 20
248.6185199313
 30
0.0
  0
VERTEX
  5
1E6
  8
0
  6
CONTINUOUS
 62
     7
 10
129.0563779271
 20
248.5774404101
 30
0.0
  0
VERTEX
  5
1E7
  8
0
  6
CONTINUOUS
 62
     7
 10
125.6455974973
 20
248.5440141253
 30
0.0
  0
VERTEX
  5
1E8
  8
0
  6
CONTINUOUS
 62
     7
 10
122.2302975452
 20
248.5182529979
 30
0.0
  0
VERTEX
  5
1E9
  8
0
  6
CONTINUOUS
 62
     7
 10
118.8116485572
 20
248.5001689486
 30
0.0
  0
VERTEX
  5
1EA
  8
0
  6
CONTINUOUS
 62
     7
 10
115.3908225096
 20
248.4897619777
 30
0.0
  0
VERTEX
  5
1EB
  8
0
  6
CONTINUOUS
 62
     7
 10
111.968990261
 20
248.4870440059
 30
0.0
  0
VERTEX
  5
1EC
  8
0
  6
CONTINUOUS
 62
     7
 10
108.5473245329
 20
248.4920150332
 30
0.0
  0
VERTEX
  5
1ED
  8
0
  6
CONTINUOUS
 62
     7
 10
105.1269987917
 20
248.5046631389
 30
0.0
  0
VERTEX
  5
1EE
  8
0
  6
CONTINUOUS
 62
     7
 10
101.7091850138
 20
248.5249883227
 30
0.0
  0
VERTEX
  5
1EF
  8
0
  6
CONTINUOUS
 62
     7
 10
98.295055548
 20
248.5529905848
 30
0.0
  0
VERTEX
  5
1F0
  8
0
  6
CONTINUOUS
 62
     7
 10
94.8857771552
 20
248.5886580043
 30
0.0
  0
VERTEX
  5
1F1
  8
0
  6
CONTINUOUS
 62
     7
 10
91.4825218118
 20
248.6319786601
 30
0.0
  0
VERTEX
  5
1F2
  8
0
  6
CONTINUOUS
 62
     7
 10
88.2650005019
 20
248.6800557666
 30
0.0
  0
VERTEX
  5
1F3
  8
0
  6
CONTINUOUS
 62
     7
 10
87.2933807171
 20
248.6959463649
 30
0.0
  0
SEQEND
  5
42D
  8
0
  6
CONTINUOUS
 62
     7
  0
POLYLINE
  5
50
  8
0
  6
CONTINUOUS
 62
     7
 66
     1
 10
0.0
 20
0.0
 30
0.0
  0
VERTEX
  5
1F4
  8
0
  6
CONTINUOUS
 62
     7
 10
149.3690254486
 20
156.8788892322
 30
0.0
  0
VERTEX
  5
1F5
  8
0
  6
CONTINUOUS
 62
     7
 10
149.3634673155
 20
156.8779236369
 30
0.0
  0
VERTEX
  5
1F6
  8
0
  6
CONTINUOUS
 62
     7
 10
149.3624123133
 20
156.877732902
 30
0.0
  0
SEQEND
  5
42C
  8
0
  6
CONTINUOUS
 62
     7
  0
POLYLINE
  5
51
  8
0
  6
CONTINUOUS
 62
     7
 66
     1
 10
0.0
 20
0.0
 30
0.0
  0
VERTEX
  5
1F7
  8
0
  6
CONTINUOUS
 62
     7
 10
75.5763175285
 20
156.8776434951
 30
0.0
  0
VERTEX
  5
1F8
  8
0
  6
CONTINUOUS
 62
     7
 10
75.5753251112
 20
156.8778282695
 30
0.0
  0
VERTEX
  5
1F9
  8
0
  6
CONTINUOUS
 62
     7
 10
75.5644085205
 20
156.8797117763
 30
0.0
  0
SEQEND
  5
42B
  8
0
  6
CONTINUOUS
 62
     7
  0
LINE
  5
52
  8
0
  6
CONTINUOUS
 62
     7
 10
75.576067189
 20
156.8777030997
 30
0.0
 11
75.568688134
 21
156.8790144019
 31
0.0
  0
ARC
  5
53
  8
0
  6
CONTINUOUS
 62
     7
 10
58.3854583505
 20
71.0366241931
 30
0.0
 40
82.16607885232607
 50
78.4982753699
 51
78.6264649151
  0
LINE
  5
54
  8
0
  6
CONTINUOUS
 62
     7
 10
74.5835127628
 20
151.5902465873
 30
0.0
 11
74.587980131
 21
151.5893584781
 31
0.0
  0
LINE
  5
55
  8
0
  6
CONTINUOUS
 62
     7
 10
150.2867313421
 20
151.5765196376
 30
0.0
 11
150.3433736361
 21
151.587945848
 31
0.0
  0
POLYLINE
  5
56
  8
0
  6
CONTINUOUS
 62
     7
 66
     1
 10
0.0
 20
0.0
 30
0.0
  0
VERTEX
  5
1FA
  8
0
  6
CONTINUOUS
 62
     7
 10
137.5029804504
 20
184.3271977
 30
0.0
  0
VERTEX
  5
1FB
  8
0
  6
CONTINUOUS
 62
     7
 10
138.343498329
 20
184.3488699489
 30
0.0
  0
VERTEX
  5
1FC
  8
0
  6
CONTINUOUS
 62
     7
 10
139.1697557962
 20
184.383237987
 30
0.0
  0
SEQEND
  5
42A
  8
0
  6
CONTINUOUS
 62
     7
  0
ARC
  5
57
  8
0
  6
CONTINUOUS
 62
     7
 10
137.1452858231
 20
194.4411106819
 30
0.0
 40
10.25959462245349
 50
281.3805498929
 51
0.210805118
  0
ARC
  5
58
  8
0
  6
CONTINUOUS
 62
     7
 10
88.4280501906
 20
238.6653247444
 30
0.0
 40
54.34719271829011
 50
267.1951940867
 51
268.9534616272
  0
ARC
  5
59
  8
0
  6
CONTINUOUS
 62
     7
 10
87.7805558226
 20
194.4308626847
 30
0.0
 40
10.24707423228372
 50
179.7316358646
 51
258.6770091245
  0
POLYLINE
  5
5A
  8
0
  6
CONTINUOUS
 62
     7
 66
     1
 10
0.0
 20
0.0
 30
0.0
  0
VERTEX
  5
1FD
  8
0
  6
CONTINUOUS
 62
     7
 10
85.7686492002
 20
184.383237987
 30
0.0
  0
VERTEX
  5
1FE
  8
0
  6
CONTINUOUS
 62
     7
 10
89.561610142
 20
184.320486217
 30
0.0
  0
VERTEX
  5
1FF
  8
0
  6
CONTINUOUS
 62
     7
 10
93.364441613
 20
184.2673427157
 30
0.0
  0
VERTEX
  5
200
  8
0
  6
CONTINUOUS
 62
     7
 10
97.1755059755
 20
184.2238313251
 30
0.0
  0
VERTEX
  5
201
  8
0
  6
CONTINUOUS
 62
     7
 10
100.9931603766
 20
184.1899639659
 30
0.0
  0
VERTEX
  5
202
  8
0
  6
CONTINUOUS
 62
     7
 10
104.815759728
 20
184.1657644801
 30
0.0
  0
VERTEX
  5
203
  8
0
  6
CONTINUOUS
 62
     7
 10
108.6416563338
 20
184.1512447886
 30
0.0
  0
VERTEX
  5
204
  8
0
  6
CONTINUOUS
 62
     7
 10
112.4692024982
 20
184.1464048915
 30
0.0
  0
VERTEX
  5
205
  8
0
  6
CONTINUOUS
 62
     7
 10
116.2967486626
 20
184.1512447886
 30
0.0
  0
VERTEX
  5
206
  8
0
  6
CONTINUOUS
 62
     7
 10
120.1226452685
 20
184.1657644801
 30
0.0
  0
VERTEX
  5
207
  8
0
  6
CONTINUOUS
 62
     7
 10
123.9452446199
 20
184.1899639659
 30
0.0
  0
VERTEX
  5
208
  8
0
  6
CONTINUOUS
 62
     7
 10
127.762899021
 20
184.2238313251
 30
0.0
  0
VERTEX
  5
209
  8
0
  6
CONTINUOUS
 62
     7
 10
131.5739633835
 20
184.2673427157
 30
0.0
  0
VERTEX
  5
20A
  8
0
  6
CONTINUOUS
 62
     7
 10
135.3767948544
 20
184.320486217
 30
0.0
  0
VERTEX
  5
20B
  8
0
  6
CONTINUOUS
 62
     7
 10
139.1697557962
 20
184.383237987
 30
0.0
  0
SEQEND
  5
429
  8
0
  6
CONTINUOUS
 62
     7
  0
LINE
  5
5B
  8
0
  6
CONTINUOUS
 62
     7
 10
77.533593992
 20
234.180713325
 30
0.0
 11
77.533593992
 21
194.4788581424
 31
0.0
  0
ARC
  5
5C
  8
0
  6
CONTINUOUS
 62
     7
 10
87.3167441494
 20
234.2756487574
 30
0.0
 40
9.783610771990945
 50
99.1043769416
 51
180.5559792896
  0
POLYLINE
  5
5D
  8
0
  6
CONTINUOUS
 62
     7
 66
     1
 10
0.0
 20
0.0
 30
0.0
  0
VERTEX
  5
20C
  8
0
  6
CONTINUOUS
 62
     7
 10
85.7686492002
 20
243.9360028796
 30
0.0
  0
VERTEX
  5
20D
  8
0
  6
CONTINUOUS
 62
     7
 10
89.561610142
 20
243.8732511096
 30
0.0
  0
VERTEX
  5
20E
  8
0
  6
CONTINUOUS
 62
     7
 10
93.364441613
 20
243.8201076083
 30
0.0
  0
VERTEX
  5
20F
  8
0
  6
CONTINUOUS
 62
     7
 10
97.1755059755
 20
243.7765962176
 30
0.0
  0
VERTEX
  5
210
  8
0
  6
CONTINUOUS
 62
     7
 10
100.9931603766
 20
243.7427407794
 30
0.0
  0
VERTEX
  5
211
  8
0
  6
CONTINUOUS
 62
     7
 10
104.815759728
 20
243.7185412936
 30
0.0
  0
VERTEX
  5
212
  8
0
  6
CONTINUOUS
 62
     7
 10
108.6416563338
 20
243.7040096812
 30
0.0
  0
VERTEX
  5
213
  8
0
  6
CONTINUOUS
 62
     7
 10
112.4692024982
 20
243.6991697841
 30
0.0
  0
VERTEX
  5
214
  8
0
  6
CONTINUOUS
 62
     7
 10
116.2967486626
 20
243.7040096812
 30
0.0
  0
VERTEX
  5
215
  8
0
  6
CONTINUOUS
 62
     7
 10
120.1226452685
 20
243.7185412936
 30
0.0
  0
VERTEX
  5
216
  8
0
  6
CONTINUOUS
 62
     7
 10
123.9452446199
 20
243.7427407794
 30
0.0
  0
VERTEX
  5
217
  8
0
  6
CONTINUOUS
 62
     7
 10
127.762899021
 20
243.7765962176
 30
0.0
  0
VERTEX
  5
218
  8
0
  6
CONTINUOUS
 62
     7
 10
131.5739633835
 20
243.8201076083
 30
0.0
  0
VERTEX
  5
219
  8
0
  6
CONTINUOUS
 62
     7
 10
135.3767948544
 20
243.8732511096
 30
0.0
  0
VERTEX
  5
21A
  8
0
  6
CONTINUOUS
 62
     7
 10
139.1697557962
 20
243.9360028796
 30
0.0
  0
SEQEND
  5
428
  8
0
  6
CONTINUOUS
 62
     7
  0
ARC
  5
5E
  8
0
  6
CONTINUOUS
 62
     7
 10
137.6330884944
 20
234.2852955553
 30
0.0
 40
9.772282141696795
 50
359.3868131615
 51
80.9528306073
  0
LINE
  5
5F
  8
0
  6
CONTINUOUS
 62
     7
 10
147.4048110044
 20
194.4788581424
 30
0.0
 11
147.4048110044
 21
234.180713325
 31
0.0
  0
POLYLINE
  5
60
  8
0
  6
CONTINUOUS
 62
     7
 66
     1
 10
0.0
 20
0.0
 30
0.0
  0
VERTEX
  5
21B
  8
0
  6
CONTINUOUS
 62
     7
 10
87.435424546
 20
184.3271977
 30
0.0
  0
VERTEX
  5
21C
  8
0
  6
CONTINUOUS
 62
     7
 10
91.2681984103
 20
184.2682487063
 30
0.0
  0
VERTEX
  5
21D
  8
0
  6
CONTINUOUS
 62
     7
 10
95.1102527178
 20
184.2190748744
 30
0.0
  0
VERTEX
  5
21E
  8
0
  6
CONTINUOUS
 62
     7
 10
98.9599095977
 20
184.179711967
 30
0.0
  0
VERTEX
  5
21F
  8
0
  6
CONTINUOUS
 62
     7
 10
102.8154800034
 20
184.150183826
 30
0.0
  0
VERTEX
  5
220
  8
0
  6
CONTINUOUS
 62
     7
 10
106.6752778686
 20
184.1304785304
 30
0.0
  0
VERTEX
  5
221
  8
0
  6
CONTINUOUS
 62
     7
 10
110.5376122839
 20
184.1206318431
 30
0.0
  0
VERTEX
  5
222
  8
0
  6
CONTINUOUS
 62
     7
 10
114.4007927126
 20
184.1206318431
 30
0.0
  0
VERTEX
  5
223
  8
0
  6
CONTINUOUS
 62
     7
 10
118.2631271279
 20
184.1304785304
 30
0.0
  0
VERTEX
  5
224
  8
0
  6
CONTINUOUS
 62
     7
 10
122.1229249931
 20
184.150183826
 30
0.0
  0
VERTEX
  5
225
  8
0
  6
CONTINUOUS
 62
     7
 10
125.9784953988
 20
184.179711967
 30
0.0
  0
VERTEX
  5
226
  8
0
  6
CONTINUOUS
 62
     7
 10
129.8281522787
 20
184.2190748744
 30
0.0
  0
VERTEX
  5
227
  8
0
  6
CONTINUOUS
 62
     7
 10
133.6702065862
 20
184.2682487063
 30
0.0
  0
VERTEX
  5
228
  8
0
  6
CONTINUOUS
 62
     7
 10
137.5029804504
 20
184.3271977
 30
0.0
  0
SEQEND
  5
427
  8
0
  6
CONTINUOUS
 62
     7
  0
ARC
  5
61
  8
0
  6
CONTINUOUS
 62
     7
 10
85.5046183988
 20
236.8019283912
 30
0.0
 40
11.53015475365061
 50
111.5475430071
 51
126.7247218963
  0
ARC
  5
62
  8
0
  6
CONTINUOUS
 62
     7
 10
139.048490326
 20
236.0319766183
 30
0.0
 40
12.38098184039868
 50
54.0747924108
 51
68.1455166041
  0
LINE
  5
63
  8
0
  6
CONTINUOUS
 62
     7
 10
130.4692032135
 20
137.7501851611
 30
0.0
 11
130.4692032135
 21
130.9501833014
 31
0.0
  0
ARC
  5
64
  8
0
  6
CONTINUOUS
 62
     7
 10
127.4692024982
 20
130.9501825862
 30
0.0
 40
3.000000000000014
 50
270.0
 51
0.0
  0
LINE
  5
65
  8
0
  6
CONTINUOUS
 62
     7
 10
127.4692030943
 20
127.950180202
 30
0.0
 11
97.4692019022
 21
127.950180202
 31
0.0
  0
ARC
  5
66
  8
0
  6
CONTINUOUS
 62
     7
 10
97.4692024982
 20
130.9501825862
 30
0.0
 40
3.0
 50
180.0
 51
270.0
  0
LINE
  5
67
  8
0
  6
CONTINUOUS
 62
     7
 10
94.469201783
 20
137.7501851611
 30
0.0
 11
94.469201783
 21
130.9501833014
 31
0.0
  0
CIRCLE
  5
68
  8
0
  6
CONTINUOUS
 62
     7
 10
97.4692024982
 20
132.1501825862
 30
0.0
 40
1.100000000000023
  0
CIRCLE
  5
69
  8
0
  6
CONTINUOUS
 62
     7
 10
127.4692024982
 20
132.1501825862
 30
0.0
 40
1.100000000000023
  0
LINE
  5
6A
  8
0
  6
CONTINUOUS
 62
     7
 10
130.4692032135
 20
138.7501842074
 30
0.0
 11
94.469201783
 21
138.7501842074
 31
0.0
  0
LINE
  5
6B
  8
0
  6
CONTINUOUS
 62
     7
 10
94.469201783
 20
138.7501842074
 30
0.0
 11
94.469201783
 21
137.7501851611
 31
0.0
  0
LINE
  5
6C
  8
0
  6
CONTINUOUS
 62
     7
 10
130.4692032135
 20
138.7501842074
 30
0.0
 11
130.4692032135
 21
137.7501851611
 31
0.0
  0
LINE
  5
6D
  8
0
  6
CONTINUOUS
 62
     7
 10
115.4692024312
 20
144.6949428611
 30
0.0
 11
115.4692024312
 21
138.7501842074
 31
0.0
  0
LINE
  5
6E
  8
0
  6
CONTINUOUS
 62
     7
 10
109.4692025653
 20
144.6949428611
 30
0.0
 11
109.4692025653
 21
138.7501842074
 31
0.0
  0
LINE
  5
6F
  8
0
  6
CONTINUOUS
 62
     7
 10
109.4692025653
 20
147.7720445685
 30
0.0
 11
109.4692025653
 21
144.6949428611
 31
0.0
  0
LINE
  5
70
  8
0
  6
CONTINUOUS
 62
     7
 10
115.4692024312
 20
147.7720445685
 30
0.0
 11
115.4692024312
 21
144.6949428611
 31
0.0
  0
LINE
  5
71
  8
0
  6
CONTINUOUS
 62
     7
 10
109.4692025653
 20
169.1220647387
 30
0.0
 11
109.4692025653
 21
153.1527465873
 31
0.0
  0
LINE
  5
72
  8
0
  6
CONTINUOUS
 62
     7
 10
115.4692024312
 20
169.1220647387
 30
0.0
 11
115.4692024312
 21
153.1527465873
 31
0.0
  0
LINE
  5
73
  8
0
  6
CONTINUOUS
 62
     7
 10
109.4692025653
 20
172.8861338191
 30
0.0
 11
109.4692025653
 21
169.1220647387
 31
0.0
  0
LINE
  5
74
  8
0
  6
CONTINUOUS
 62
     7
 10
115.4692024312
 20
172.8861338191
 30
0.0
 11
115.4692024312
 21
169.1220647387
 31
0.0
  0
LINE
  5
75
  8
0
  6
CONTINUOUS
 62
     7
 10
115.4692024312
 20
172.8861338191
 30
0.0
 11
115.4692024312
 21
178.9723402553
 31
0.0
  0
LINE
  5
76
  8
0
  6
CONTINUOUS
 62
     7
 10
109.4692025653
 20
172.8861338191
 30
0.0
 11
109.4692025653
 21
178.9716488414
 31
0.0
  0
LINE
  5
77
  8
0
  6
CONTINUOUS
 62
     7
 10
115.8834869361
 20
64.1501825966
 30
0.0
 11
119.6421334839
 21
64.1501825966
 31
0.0
  0
LINE
  5
78
  8
0
  6
CONTINUOUS
 62
     7
 10
119.6421334839
 20
62.9501825862
 30
0.0
 11
115.8834869361
 21
62.9501825862
 31
0.0
  0
LINE
  5
79
  8
0
  6
CONTINUOUS
 62
     7
 10
105.2962715126
 20
64.1501825966
 30
0.0
 11
109.0549180603
 21
64.1501825966
 31
0.0
  0
LINE
  5
7A
  8
0
  6
CONTINUOUS
 62
     7
 10
109.0549180603
 20
62.9501825862
 30
0.0
 11
105.2962715126
 21
62.9501825862
 31
0.0
  0
LINE
  5
7B
  8
0
  6
CONTINUOUS
 62
     7
 10
109.0549180603
 20
64.1501825966
 30
0.0
 11
115.8834869361
 21
64.1501825966
 31
0.0
  0
LINE
  5
7C
  8
0
  6
CONTINUOUS
 62
     7
 10
109.0549180603
 20
62.9501825862
 30
0.0
 11
115.8834869361
 21
62.9501825862
 31
0.0
  0
LINE
  5
7D
  8
0
  6
CONTINUOUS
 62
     7
 10
124.46920223
 20
62.9501825862
 30
0.0
 11
124.46920223
 21
64.1501825966
 31
0.0
  0
LINE
  5
7E
  8
0
  6
CONTINUOUS
 62
     7
 10
124.46920223
 20
64.1501825966
 30
0.0
 11
119.6421334839
 21
64.1501825966
 31
0.0
  0
LINE
  5
7F
  8
0
  6
CONTINUOUS
 62
     7
 10
119.6421334839
 20
62.9501825862
 30
0.0
 11
124.46920223
 21
62.9501825862
 31
0.0
  0
LINE
  5
80
  8
0
  6
CONTINUOUS
 62
     7
 10
100.4692027665
 20
62.9501825862
 30
0.0
 11
100.4692027665
 21
64.1501825966
 31
0.0
  0
LINE
  5
81
  8
0
  6
CONTINUOUS
 62
     7
 10
105.2962715126
 20
64.1501825966
 30
0.0
 11
100.4692027665
 21
64.1501825966
 31
0.0
  0
LINE
  5
82
  8
0
  6
CONTINUOUS
 62
     7
 10
100.4692027665
 20
62.9501825862
 30
0.0
 11
105.2962715126
 21
62.9501825862
 31
0.0
  0
LINE
  5
83
  8
0
  6
CONTINUOUS
 62
     7
 10
107.4692024237
 20
64.1501825966
 30
0.0
 11
107.4692024237
 21
127.950180202
 31
0.0
  0
LINE
  5
84
  8
0
  6
CONTINUOUS
 62
     7
 10
68.8692035473
 20
129.1501826339
 30
0.0
 11
68.8692035473
 21
137.1501809649
 31
0.0
  0
LINE
  5
85
  8
0
  6
CONTINUOUS
 62
     7
 10
68.8692035473
 20
137.1501809649
 30
0.0
 11
68.8692035473
 21
137.7501851611
 31
0.0
  0
ARC
  5
86
  8
0
  6
CONTINUOUS
 62
     7
 10
69.2692024982
 20
137.7501825862
 30
0.0
 40
0.3999999999999915
 50
90.0
 51
180.0
  0
LINE
  5
87
  8
0
  6
CONTINUOUS
 62
     7
 10
117.4692025727
 20
127.950180202
 30
0.0
 11
117.4692025727
 21
64.1501825966
 31
0.0
  0
LINE
  5
88
  8
0
  6
CONTINUOUS
 62
     7
 10
155.6692036188
 20
128.1501835875
 30
0.0
 11
128.5462351835
 21
128.1501835875
 31
0.0
  0
LINE
  5
89
  8
0
  6
CONTINUOUS
 62
     7
 10
156.0692014492
 20
137.7501851611
 30
0.0
 11
156.0692014492
 21
137.1501809649
 31
0.0
  0
ARC
  5
8A
  8
0
  6
CONTINUOUS
 62
     7
 10
155.6692024982
 20
137.7501825862
 30
0.0
 40
0.4000000000000057
 50
0.0
 51
90.0
  0
LINE
  5
8B
  8
0
  6
CONTINUOUS
 62
     7
 10
156.0692014492
 20
137.1501809649
 30
0.0
 11
156.0692014492
 21
129.1501826339
 31
0.0
  0
LINE
  5
8C
  8
0
  6
CONTINUOUS
 62
     7
 10
69.2692013777
 20
138.1501800113
 30
0.0
 11
69.9692013061
 21
138.1501800113
 31
0.0
  0
LINE
  5
8D
  8
0
  6
CONTINUOUS
 62
     7
 10
79.9692036903
 20
138.1501800113
 30
0.0
 11
94.469201783
 21
138.1501800113
 31
0.0
  0
LINE
  5
8E
  8
0
  6
CONTINUOUS
 62
     7
 10
130.4692032135
 20
138.1501800113
 30
0.0
 11
144.9692013061
 21
138.1501800113
 31
0.0
  0
LINE
  5
8F
  8
0
  6
CONTINUOUS
 62
     7
 10
154.9692036903
 20
138.1501800113
 30
0.0
 11
155.6692036188
 21
138.1501800113
 31
0.0
  0
LINE
  5
90
  8
0
  6
CONTINUOUS
 62
     7
 10
156.0692014492
 20
129.1501826339
 30
0.0
 11
156.0692014492
 21
128.5501843982
 31
0.0
  0
ARC
  5
91
  8
0
  6
CONTINUOUS
 62
     7
 10
155.6692024982
 20
128.5501825862
 30
0.0
 40
0.4000000000000057
 50
270.0
 51
0.0
  0
LINE
  5
92
  8
0
  6
CONTINUOUS
 62
     7
 10
68.8692035473
 20
128.5501843982
 30
0.0
 11
68.8692035473
 21
129.1501826339
 31
0.0
  0
ARC
  5
93
  8
0
  6
CONTINUOUS
 62
     7
 10
69.2692024982
 20
128.5501825862
 30
0.0
 40
0.4000000000000057
 50
180.0
 51
270.0
  0
LINE
  5
94
  8
0
  6
CONTINUOUS
 62
     7
 10
96.392169813
 20
128.1501835875
 30
0.0
 11
69.2692013777
 21
128.1501835875
 31
0.0
  0
ARC
  5
95
  8
0
  6
CONTINUOUS
 62
     7
 10
112.4692653574
 20
336.4377409602
 30
0.0
 40
183.3095434037166
 50
277.7930306306
 51
281.588802422
  0
ARC
  5
96
  8
0
  6
CONTINUOUS
 62
     7
 10
149.8379591311
 20
154.2306857067
 30
0.0
 40
2.690000000000022
 50
12.4186815058
 51
100.0467259555
  0
ARC
  5
97
  8
0
  6
CONTINUOUS
 62
     7
 10
112.4822776261
 20
336.3616925417
 30
0.0
 40
188.6124332347652
 50
277.7922471931
 51
281.5895468731
  0
ARC
  5
98
  8
0
  6
CONTINUOUS
 62
     7
 10
149.8379591311
 20
154.2306857067
 30
0.0
 40
2.690000000000002
 50
281.5900201068
 51
12.4186815058
  0
ARC
  5
99
  8
0
  6
CONTINUOUS
 62
     7
 10
75.1004458654
 20
154.2306857067
 30
0.0
 40
2.690000000000008
 50
80.0567778886
 51
167.5813184942
  0
ARC
  5
9A
  8
0
  6
CONTINUOUS
 62
     7
 10
112.4886459682
 20
336.5524528223
 30
0.0
 40
183.4258408268778
 50
258.4125298297
 51
262.2057911876
  0
ARC
  5
9B
  8
0
  6
CONTINUOUS
 62
     7
 10
112.488250347
 20
336.5497220509
 30
0.0
 40
188.8030819041681
 50
258.4124944315
 51
262.2058309307
  0
ARC
  5
9C
  8
0
  6
CONTINUOUS
 62
     7
 10
75.1004458654
 20
154.2306857067
 30
0.0
 40
2.690000000000009
 50
167.5813184942
 51
258.4099798932
  0
ARC
  5
9D
  8
0
  6
CONTINUOUS
 62
     7
 10
112.4692024982
 20
336.4381938607
 30
0.0
 40
183.31
 50
262.2069690737
 51
277.7930309263
  0
ARC
  5
9E
  8
0
  6
CONTINUOUS
 62
     7
 10
112.4692024982
 20
336.4381938607
 30
0.0
 40
188.69
 50
262.2069690737
 51
277.7930309263
  0
LINE
  5
9F
  8
0
  6
CONTINUOUS
 62
     7
 10
75.7692011393
 20
151.090181499
 30
0.0
 11
74.7692020929
 21
151.090181499
 31
0.0
  0
LINE
  5
A0
  8
0
  6
CONTINUOUS
 62
     7
 10
75.7692011393
 20
151.090181499
 30
0.0
 11
75.7692011393
 21
146.6232365661
 31
0.0
  0
LINE
  5
A1
  8
0
  6
CONTINUOUS
 62
     7
 10
74.7692020929
 20
151.090181499
 30
0.0
 11
74.7692020929
 21
146.6232365661
 31
0.0
  0
LINE
  5
A2
  8
0
  6
CONTINUOUS
 62
     7
 10
74.7692020929
 20
151.5611595206
 30
0.0
 11
74.7692020929
 21
151.090181499
 31
0.0
  0
LINE
  5
A3
  8
0
  6
CONTINUOUS
 62
     7
 10
75.7692011393
 20
151.3516551547
 30
0.0
 11
75.7692011393
 21
151.090181499
 31
0.0
  0
LINE
  5
A4
  8
0
  6
CONTINUOUS
 62
     7
 10
149.1692038572
 20
151.090181499
 30
0.0
 11
150.1692029036
 21
151.090181499
 31
0.0
  0
LINE
  5
A5
  8
0
  6
CONTINUOUS
 62
     7
 10
150.1692029036
 20
151.5611595206
 30
0.0
 11
150.1692029036
 21
151.090181499
 31
0.0
  0
LINE
  5
A6
  8
0
  6
CONTINUOUS
 62
     7
 10
149.1692038572
 20
151.3516313128
 30
0.0
 11
149.1692038572
 21
151.090181499
 31
0.0
  0
LINE
  5
A7
  8
0
  6
CONTINUOUS
 62
     7
 10
150.1692029036
 20
151.090181499
 30
0.0
 11
150.1692029036
 21
146.6232365661
 31
0.0
  0
LINE
  5
A8
  8
0
  6
CONTINUOUS
 62
     7
 10
149.1692038572
 20
151.090181499
 30
0.0
 11
149.1692038572
 21
146.6232365661
 31
0.0
  0
LINE
  5
A9
  8
0
  6
CONTINUOUS
 62
     7
 10
75.6408872402
 20
156.865835815
 30
0.0
 11
75.6448092258
 21
156.8650311522
 31
0.0
  0
LINE
  5
AA
  8
0
  6
CONTINUOUS
 62
     7
 10
149.2932858265
 20
156.8649655871
 30
0.0
 11
149.2975177563
 21
156.865835815
 31
0.0
  0
LINE
  5
AB
  8
0
  6
CONTINUOUS
 62
     7
 10
150.1692029036
 20
146.6232365661
 30
0.0
 11
150.1692029036
 21
145.7696980529
 31
0.0
  0
LINE
  5
AC
  8
0
  6
CONTINUOUS
 62
     7
 10
149.1692038572
 20
146.6232365661
 30
0.0
 11
149.1692038572
 21
145.7696980529
 31
0.0
  0
LINE
  5
AD
  8
0
  6
CONTINUOUS
 62
     7
 10
74.7692020929
 20
146.6232365661
 30
0.0
 11
74.7692020929
 21
145.7696980529
 31
0.0
  0
LINE
  5
AE
  8
0
  6
CONTINUOUS
 62
     7
 10
75.7692011393
 20
146.6232365661
 30
0.0
 11
75.7692011393
 21
145.7696980529
 31
0.0
  0
LINE
  5
AF
  8
0
  6
CONTINUOUS
 62
     7
 10
150.1692029036
 20
145.7696980529
 30
0.0
 11
150.1692029036
 21
137.9152661853
 31
0.0
  0
LINE
  5
B0
  8
0
  6
CONTINUOUS
 62
     7
 10
149.1692038572
 20
145.7696980529
 30
0.0
 11
149.1692038572
 21
137.9152661853
 31
0.0
  0
LINE
  5
B1
  8
0
  6
CONTINUOUS
 62
     7
 10
74.7692020929
 20
145.7696980529
 30
0.0
 11
74.7692020929
 21
137.9152661853
 31
0.0
  0
LINE
  5
B2
  8
0
  6
CONTINUOUS
 62
     7
 10
75.7692011393
 20
145.7696980529
 30
0.0
 11
75.7692011393
 21
137.9152661853
 31
0.0
  0
LINE
  5
B3
  8
0
  6
CONTINUOUS
 62
     7
 10
75.7692011393
 20
135.1501828723
 30
0.0
 11
74.7692020929
 21
135.1501828723
 31
0.0
  0
LINE
  5
B4
  8
0
  6
CONTINUOUS
 62
     7
 10
74.7692020929
 20
137.1501809649
 30
0.0
 11
74.7692020929
 21
135.1501828723
 31
0.0
  0
LINE
  5
B5
  8
0
  6
CONTINUOUS
 62
     7
 10
75.7692011393
 20
137.1501809649
 30
0.0
 11
75.7692011393
 21
135.1501828723
 31
0.0
  0
LINE
  5
B6
  8
0
  6
CONTINUOUS
 62
     7
 10
149.1692038572
 20
135.1501828723
 30
0.0
 11
150.1692029036
 21
135.1501828723
 31
0.0
  0
LINE
  5
B7
  8
0
  6
CONTINUOUS
 62
     7
 10
150.1692029036
 20
137.1501809649
 30
0.0
 11
150.1692029036
 21
135.1501828723
 31
0.0
  0
LINE
  5
B8
  8
0
  6
CONTINUOUS
 62
     7
 10
149.1692038572
 20
137.1501809649
 30
0.0
 11
149.1692038572
 21
135.1501828723
 31
0.0
  0
LINE
  5
B9
  8
0
  6
CONTINUOUS
 62
     7
 10
150.1692029036
 20
137.9152661853
 30
0.0
 11
150.1692029036
 21
137.1501809649
 31
0.0
  0
LINE
  5
BA
  8
0
  6
CONTINUOUS
 62
     7
 10
149.1692038572
 20
137.9152661853
 30
0.0
 11
149.1692038572
 21
137.1501809649
 31
0.0
  0
LINE
  5
BB
  8
0
  6
CONTINUOUS
 62
     7
 10
74.7692020929
 20
137.9152661853
 30
0.0
 11
74.7692020929
 21
137.1501809649
 31
0.0
  0
LINE
  5
BC
  8
0
  6
CONTINUOUS
 62
     7
 10
75.7692011393
 20
137.9152661853
 30
0.0
 11
75.7692011393
 21
137.1501809649
 31
0.0
  0
LINE
  5
BD
  8
0
  6
CONTINUOUS
 62
     7
 10
79.9692036903
 20
138.9501816325
 30
0.0
 11
75.7692011393
 21
138.9501816325
 31
0.0
  0
LINE
  5
BE
  8
0
  6
CONTINUOUS
 62
     7
 10
79.9692036903
 20
138.9501816325
 30
0.0
 11
79.9692036903
 21
137.9501825862
 31
0.0
  0
LINE
  5
BF
  8
0
  6
CONTINUOUS
 62
     7
 10
69.9692013061
 20
137.9501825862
 30
0.0
 11
69.9692013061
 21
138.9501816325
 31
0.0
  0
LINE
  5
C0
  8
0
  6
CONTINUOUS
 62
     7
 10
74.7692020929
 20
138.9501816325
 30
0.0
 11
69.9692013061
 21
138.9501816325
 31
0.0
  0
LINE
  5
C1
  8
0
  6
CONTINUOUS
 62
     7
 10
149.1692038572
 20
138.9501816325
 30
0.0
 11
144.9692013061
 21
138.9501816325
 31
0.0
  0
LINE
  5
C2
  8
0
  6
CONTINUOUS
 62
     7
 10
144.9692013061
 20
137.9501825862
 30
0.0
 11
144.9692013061
 21
138.9501816325
 31
0.0
  0
LINE
  5
C3
  8
0
  6
CONTINUOUS
 62
     7
 10
79.9692036903
 20
130.9501833014
 30
0.0
 11
79.9692036903
 21
137.9501825862
 31
0.0
  0
ARC
  5
C4
  8
0
  6
CONTINUOUS
 62
     7
 10
77.9692024982
 20
130.9501825862
 30
0.0
 40
2.0
 50
270.0
 51
0.0
  0
LINE
  5
C5
  8
0
  6
CONTINUOUS
 62
     7
 10
77.9692026174
 20
128.9501852088
 30
0.0
 11
71.969202379
 21
128.9501852088
 31
0.0
  0
ARC
  5
C6
  8
0
  6
CONTINUOUS
 62
     7
 10
71.9692024982
 20
130.9501825862
 30
0.0
 40
2.0
 50
180.0
 51
270.0
  0
LINE
  5
C7
  8
0
  6
CONTINUOUS
 62
     7
 10
69.9692013061
 20
130.9501833014
 30
0.0
 11
69.9692013061
 21
137.9501825862
 31
0.0
  0
CIRCLE
  5
C8
  8
0
  6
CONTINUOUS
 62
     7
 10
74.9692024982
 20
132.3501825862
 30
0.0
 40
1.0
  0
LINE
  5
C9
  8
0
  6
CONTINUOUS
 62
     7
 10
154.9692036903
 20
138.9501816325
 30
0.0
 11
150.1692029036
 21
138.9501816325
 31
0.0
  0
LINE
  5
CA
  8
0
  6
CONTINUOUS
 62
     7
 10
154.9692036903
 20
137.9501825862
 30
0.0
 11
154.9692036903
 21
138.9501816325
 31
0.0
  0
ARC
  5
CB
  8
0
  6
CONTINUOUS
 62
     7
 10
152.9692024982
 20
130.9501825862
 30
0.0
 40
2.0
 50
270.0
 51
0.0
  0
LINE
  5
CC
  8
0
  6
CONTINUOUS
 62
     7
 10
152.9692026174
 20
128.9501852088
 30
0.0
 11
146.969202379
 21
128.9501852088
 31
0.0
  0
ARC
  5
CD
  8
0
  6
CONTINUOUS
 62
     7
 10
146.9692024982
 20
130.9501825862
 30
0.0
 40
2.0
 50
180.0
 51
270.0
  0
LINE
  5
CE
  8
0
  6
CONTINUOUS
 62
     7
 10
144.9692013061
 20
137.9501825862
 30
0.0
 11
144.9692013061
 21
130.9501833014
 31
0.0
  0
CIRCLE
  5
CF
  8
0
  6
CONTINUOUS
 62
     7
 10
149.9692024982
 20
132.3501825862
 30
0.0
 40
1.0
  0
LINE
  5
D0
  8
0
  6
CONTINUOUS
 62
     7
 10
154.9692036903
 20
130.9501833014
 30
0.0
 11
154.9692036903
 21
137.9501825862
 31
0.0
  0
POLYLINE
  5
D1
  8
0
  6
CONTINUOUS
 62
     7
 66
     1
 10
0.0
 20
0.0
 30
0.0
  0
VERTEX
  5
229
  8
0
  6
CONTINUOUS
 62
     7
 10
262.5141217549
 20
234.3686586909
 30
0.0
  0
VERTEX
  5
22A
  8
0
  6
CONTINUOUS
 62
     7
 10
262.4200209219
 20
235.108614593
 30
0.0
  0
VERTEX
  5
22B
  8
0
  6
CONTINUOUS
 62
     7
 10
262.2912108142
 20
236.0172039561
 30
0.0
  0
VERTEX
  5
22C
  8
0
  6
CONTINUOUS
 62
     7
 10
262.1499865491
 20
236.9184857898
 30
0.0
  0
VERTEX
  5
22D
  8
0
  6
CONTINUOUS
 62
     7
 10
261.9971676905
 20
237.8066307597
 30
0.0
  0
VERTEX
  5
22E
  8
0
  6
CONTINUOUS
 62
     7
 10
261.8356212218
 20
238.6674529605
 30
0.0
  0
VERTEX
  5
22F
  8
0
  6
CONTINUOUS
 62
     7
 10
261.6645245988
 20
239.508355289
 30
0.0
  0
VERTEX
  5
230
  8
0
  6
CONTINUOUS
 62
     7
 10
261.4843874414
 20
240.3279191546
 30
0.0
  0
VERTEX
  5
231
  8
0
  6
CONTINUOUS
 62
     7
 10
261.2961738546
 20
241.1223298602
 30
0.0
  0
VERTEX
  5
232
  8
0
  6
CONTINUOUS
 62
     7
 10
261.1008062203
 20
241.8879753642
 30
0.0
  0
VERTEX
  5
233
  8
0
  6
CONTINUOUS
 62
     7
 10
260.8990787704
 20
242.6216250949
 30
0.0
  0
VERTEX
  5
234
  8
0
  6
CONTINUOUS
 62
     7
 10
260.691519006
 20
243.3207041316
 30
0.0
  0
VERTEX
  5
235
  8
0
  6
CONTINUOUS
 62
     7
 10
260.4783772666
 20
243.9830309443
 30
0.0
  0
VERTEX
  5
236
  8
0
  6
CONTINUOUS
 62
     7
 10
260.2625562985
 20
244.5994144969
 30
0.0
  0
VERTEX
  5
237
  8
0
  6
CONTINUOUS
 62
     7
 10
260.0390388806
 20
245.1827055507
 30
0.0
  0
VERTEX
  5
238
  8
0
  6
CONTINUOUS
 62
     7
 10
259.8020195205
 20
245.7415229373
 30
0.0
  0
VERTEX
  5
239
  8
0
  6
CONTINUOUS
 62
     7
 10
259.5422639687
 20
246.2841159396
 30
0.0
  0
VERTEX
  5
23A
  8
0
  6
CONTINUOUS
 62
     7
 10
259.2351420958
 20
246.8325263553
 30
0.0
  0
VERTEX
  5
23B
  8
0
  6
CONTINUOUS
 62
     7
 10
258.9833795268
 20
247.2095376544
 30
0.0
  0
VERTEX
  5
23C
  8
0
  6
CONTINUOUS
 62
     7
 10
258.7298705418
 20
247.5286251597
 30
0.0
  0
VERTEX
  5
23D
  8
0
  6
CONTINUOUS
 62
     7
 10
258.4812580783
 20
247.7899438434
 30
0.0
  0
VERTEX
  5
23E
  8
0
  6
CONTINUOUS
 62
     7
 10
258.2125454385
 20
248.0236059718
 30
0.0
  0
VERTEX
  5
23F
  8
0
  6
CONTINUOUS
 62
     7
 10
257.9180195172
 20
248.2304102473
 30
0.0
  0
VERTEX
  5
240
  8
0
  6
CONTINUOUS
 62
     7
 10
257.5932591398
 20
248.4077340655
 30
0.0
  0
VERTEX
  5
241
  8
0
  6
CONTINUOUS
 62
     7
 10
257.2385146458
 20
248.5489970736
 30
0.0
  0
VERTEX
  5
242
  8
0
  6
CONTINUOUS
 62
     7
 10
256.8585991104
 20
248.6463910632
 30
0.0
  0
VERTEX
  5
243
  8
0
  6
CONTINUOUS
 62
     7
 10
256.4615591605
 20
248.6932879977
 30
0.0
  0
VERTEX
  5
244
  8
0
  6
CONTINUOUS
 62
     7
 10
256.0130848725
 20
248.6811763339
 30
0.0
  0
VERTEX
  5
245
  8
0
  6
CONTINUOUS
 62
     7
 10
255.9601261456
 20
248.671603828
 30
0.0
  0
SEQEND
  5
426
  8
0
  6
CONTINUOUS
 62
     7
  0
POLYLINE
  5
D2
  8
0
  6
CONTINUOUS
 62
     7
 66
     1
 10
0.0
 20
0.0
 30
0.0
  0
VERTEX
  5
246
  8
0
  6
CONTINUOUS
 62
     7
 10
264.4913709898
 20
179.2052513652
 30
0.0
  0
VERTEX
  5
247
  8
0
  6
CONTINUOUS
 62
     7
 10
264.7580578167
 20
179.2433864169
 30
0.0
  0
VERTEX
  5
248
  8
0
  6
CONTINUOUS
 62
     7
 10
265.1537395258
 20
179.3596750789
 30
0.0
  0
VERTEX
  5
249
  8
0
  6
CONTINUOUS
 62
     7
 10
265.5153959234
 20
179.5225388103
 30
0.0
  0
VERTEX
  5
24A
  8
0
  6
CONTINUOUS
 62
     7
 10
265.8394246538
 20
179.7226316028
 30
0.0
  0
VERTEX
  5
24B
  8
0
  6
CONTINUOUS
 62
     7
 10
266.1243668933
 20
179.9508101039
 30
0.0
  0
VERTEX
  5
24C
  8
0
  6
CONTINUOUS
 62
     7
 10
266.3712687034
 20
180.1992184215
 30
0.0
  0
VERTEX
  5
24D
  8
0
  6
CONTINUOUS
 62
     7
 10
266.5838658054
 20
180.4630047374
 30
0.0
  0
VERTEX
  5
24E
  8
0
  6
CONTINUOUS
 62
     7
 10
266.7681186635
 20
180.742109447
 30
0.0
  0
VERTEX
  5
24F
  8
0
  6
CONTINUOUS
 62
     7
 10
266.9314860542
 20
181.0434109263
 30
0.0
  0
VERTEX
  5
250
  8
0
  6
CONTINUOUS
 62
     7
 10
267.083140387
 20
181.3863760524
 30
0.0
  0
VERTEX
  5
251
  8
0
  6
CONTINUOUS
 62
     7
 10
267.2272301454
 20
181.7923909717
 30
0.0
  0
VERTEX
  5
252
  8
0
  6
CONTINUOUS
 62
     7
 10
267.374658509
 20
182.3259836726
 30
0.0
  0
VERTEX
  5
253
  8
0
  6
CONTINUOUS
 62
     7
 10
267.4997403462
 20
182.9201466136
 30
0.0
  0
VERTEX
  5
254
  8
0
  6
CONTINUOUS
 62
     7
 10
267.5953633327
 20
183.5111624293
 30
0.0
  0
VERTEX
  5
255
  8
0
  6
CONTINUOUS
 62
     7
 10
267.6783143718
 20
184.1817981296
 30
0.0
  0
VERTEX
  5
256
  8
0
  6
CONTINUOUS
 62
     7
 10
267.7415399988
 20
184.8687893443
 30
0.0
  0
VERTEX
  5
257
  8
0
  6
CONTINUOUS
 62
     7
 10
267.7883624275
 20
185.5800873332
 30
0.0
  0
VERTEX
  5
258
  8
0
  6
CONTINUOUS
 62
     7
 10
267.8193277855
 20
186.3015777163
 30
0.0
  0
VERTEX
  5
259
  8
0
  6
CONTINUOUS
 62
     7
 10
267.8367718298
 20
187.0728856616
 30
0.0
  0
VERTEX
  5
25A
  8
0
  6
CONTINUOUS
 62
     7
 10
267.8400620062
 20
187.8759032779
 30
0.0
  0
VERTEX
  5
25B
  8
0
  6
CONTINUOUS
 62
     7
 10
267.8292124708
 20
188.7070066028
 30
0.0
  0
VERTEX
  5
25C
  8
0
  6
CONTINUOUS
 62
     7
 10
267.8041755397
 20
189.5612484508
 30
0.0
  0
VERTEX
  5
25D
  8
0
  6
CONTINUOUS
 62
     7
 10
267.7649400372
 20
190.4328829341
 30
0.0
  0
VERTEX
  5
25E
  8
0
  6
CONTINUOUS
 62
     7
 10
267.7115759988
 20
191.3156873279
 30
0.0
  0
VERTEX
  5
25F
  8
0
  6
CONTINUOUS
 62
     7
 10
267.6443158824
 20
192.2030335956
 30
0.0
  0
VERTEX
  5
260
  8
0
  6
CONTINUOUS
 62
     7
 10
267.5632386644
 20
193.0963880115
 30
0.0
  0
VERTEX
  5
261
  8
0
  6
CONTINUOUS
 62
     7
 10
267.4673459668
 20
194.006753593
 30
0.0
  0
VERTEX
  5
262
  8
0
  6
CONTINUOUS
 62
     7
 10
267.3883176584
 20
194.6665531688
 30
0.0
  0
SEQEND
  5
425
  8
0
  6
CONTINUOUS
 62
     7
  0
LINE
  5
D3
  8
0
  6
CONTINUOUS
 62
     7
 10
267.3904328782
 20
194.6668869548
 30
0.0
 11
262.5156595547
 21
234.3687421374
 31
0.0
  0
POLYLINE
  5
D4
  8
0
  6
CONTINUOUS
 62
     7
 66
     1
 10
0.0
 20
0.0
 30
0.0
  0
VERTEX
  5
263
  8
0
  6
CONTINUOUS
 62
     7
 10
262.0489805181
 20
194.0111762576
 30
0.0
  0
VERTEX
  5
264
  8
0
  6
CONTINUOUS
 62
     7
 10
262.1341317136
 20
193.2882434421
 30
0.0
  0
VERTEX
  5
265
  8
0
  6
CONTINUOUS
 62
     7
 10
262.2205077846
 20
192.4518710666
 30
0.0
  0
VERTEX
  5
266
  8
0
  6
CONTINUOUS
 62
     7
 10
262.2936560948
 20
191.6253334575
 30
0.0
  0
VERTEX
  5
267
  8
0
  6
CONTINUOUS
 62
     7
 10
262.3530670245
 20
190.8146149211
 30
0.0
  0
VERTEX
  5
268
  8
0
  6
CONTINUOUS
 62
     7
 10
262.3988106091
 20
190.0252706103
 30
0.0
  0
VERTEX
  5
269
  8
0
  6
CONTINUOUS
 62
     7
 10
262.4318986375
 20
189.250279098
 30
0.0
  0
VERTEX
  5
26A
  8
0
  6
CONTINUOUS
 62
     7
 10
262.4524041254
 20
188.4948379092
 30
0.0
  0
VERTEX
  5
26B
  8
0
  6
CONTINUOUS
 62
     7
 10
262.4604209502
 20
187.7679592662
 30
0.0
  0
VERTEX
  5
26C
  8
0
  6
CONTINUOUS
 62
     7
 10
262.4563439925
 20
187.0799190097
 30
0.0
  0
VERTEX
  5
26D
  8
0
  6
CONTINUOUS
 62
     7
 10
262.440939172
 20
186.4392882876
 30
0.0
  0
VERTEX
  5
26E
  8
0
  6
CONTINUOUS
 62
     7
 10
262.4153166253
 20
185.8541018062
 30
0.0
  0
VERTEX
  5
26F
  8
0
  6
CONTINUOUS
 62
     7
 10
262.3809426267
 20
185.3273278766
 30
0.0
  0
VERTEX
  5
270
  8
0
  6
CONTINUOUS
 62
     7
 10
262.3378916819
 20
184.8410493426
 30
0.0
  0
VERTEX
  5
271
  8
0
  6
CONTINUOUS
 62
     7
 10
262.2891097505
 20
184.4169622951
 30
0.0
  0
VERTEX
  5
272
  8
0
  6
CONTINUOUS
 62
     7
 10
262.2369854886
 20
184.0584403567
 30
0.0
  0
VERTEX
  5
273
  8
0
  6
CONTINUOUS
 62
     7
 10
262.185056432
 20
183.7713367038
 30
0.0
  0
VERTEX
  5
274
  8
0
  6
CONTINUOUS
 62
     7
 10
262.1430232365
 20
183.5807687335
 30
0.0
  0
VERTEX
  5
275
  8
0
  6
CONTINUOUS
 62
     7
 10
262.1096088726
 20
183.4542042308
 30
0.0
  0
VERTEX
  5
276
  8
0
  6
CONTINUOUS
 62
     7
 10
262.0888873179
 20
183.3881026797
 30
0.0
  0
VERTEX
  5
277
  8
0
  6
CONTINUOUS
 62
     7
 10
262.0859666903
 20
183.379841476
 30
0.0
  0
SEQEND
  5
424
  8
0
  6
CONTINUOUS
 62
     7
  0
POLYLINE
  5
D5
  8
0
  6
CONTINUOUS
 62
     7
 66
     1
 10
0.0
 20
0.0
 30
0.0
  0
VERTEX
  5
278
  8
0
  6
CONTINUOUS
 62
     7
 10
254.6362011869
 20
244.0398818545
 30
0.0
  0
VERTEX
  5
279
  8
0
  6
CONTINUOUS
 62
     7
 10
254.6349256475
 20
244.041479259
 30
0.0
  0
VERTEX
  5
27A
  8
0
  6
CONTINUOUS
 62
     7
 10
254.6602725227
 20
244.0013176494
 30
0.0
  0
VERTEX
  5
27B
  8
0
  6
CONTINUOUS
 62
     7
 10
254.7122164805
 20
243.9102536731
 30
0.0
  0
VERTEX
  5
27C
  8
0
  6
CONTINUOUS
 62
     7
 10
254.7891705472
 20
243.7613255076
 30
0.0
  0
VERTEX
  5
27D
  8
0
  6
CONTINUOUS
 62
     7
 10
254.8889531929
 20
243.549180656
 30
0.0
  0
VERTEX
  5
27E
  8
0
  6
CONTINUOUS
 62
     7
 10
255.0086139877
 20
243.2709819369
 30
0.0
  0
VERTEX
  5
27F
  8
0
  6
CONTINUOUS
 62
     7
 10
255.144593044
 20
242.9267651134
 30
0.0
  0
VERTEX
  5
280
  8
0
  6
CONTINUOUS
 62
     7
 10
255.2930190403
 20
242.5191289477
 30
0.0
  0
VERTEX
  5
281
  8
0
  6
CONTINUOUS
 62
     7
 10
255.4500102241
 20
242.0527106814
 30
0.0
  0
VERTEX
  5
282
  8
0
  6
CONTINUOUS
 62
     7
 10
255.6120171387
 20
241.5331131511
 30
0.0
  0
VERTEX
  5
283
  8
0
  6
CONTINUOUS
 62
     7
 10
255.7759522636
 20
240.9670836024
 30
0.0
  0
VERTEX
  5
284
  8
0
  6
CONTINUOUS
 62
     7
 10
255.9424071748
 20
240.3494364314
 30
0.0
  0
VERTEX
  5
285
  8
0
  6
CONTINUOUS
 62
     7
 10
256.1089246709
 20
239.6854645305
 30
0.0
  0
VERTEX
  5
286
  8
0
  6
CONTINUOUS
 62
     7
 10
256.2732919295
 20
238.9805561595
 30
0.0
  0
VERTEX
  5
287
  8
0
  6
CONTINUOUS
 62
     7
 10
256.4334421594
 20
238.2403618388
 30
0.0
  0
VERTEX
  5
288
  8
0
  6
CONTINUOUS
 62
     7
 10
256.5874605615
 20
237.4707347445
 30
0.0
  0
VERTEX
  5
289
  8
0
  6
CONTINUOUS
 62
     7
 10
256.7335709174
 20
236.6778141551
 30
0.0
  0
VERTEX
  5
28A
  8
0
  6
CONTINUOUS
 62
     7
 10
256.8700402219
 20
235.8687049441
 30
0.0
  0
VERTEX
  5
28B
  8
0
  6
CONTINUOUS
 62
     7
 10
256.9955720742
 20
235.0508219295
 30
0.0
  0
VERTEX
  5
28C
  8
0
  6
CONTINUOUS
 62
     7
 10
257.1106865246
 20
234.2210656695
 30
0.0
  0
VERTEX
  5
28D
  8
0
  6
CONTINUOUS
 62
     7
 10
257.1738197644
 20
233.7128049426
 30
0.0
  0
SEQEND
  5
423
  8
0
  6
CONTINUOUS
 62
     7
  0
LINE
  5
D6
  8
0
  6
CONTINUOUS
 62
     7
 10
257.1757613857
 20
233.713079124
 30
0.0
 11
262.0505347092
 21
194.0112358623
 31
0.0
  0
LINE
  5
D7
  8
0
  6
CONTINUOUS
 62
     7
 10
256.6583587963
 20
237.0859867625
 30
0.0
 11
262.3649521906
 21
190.6095034175
 31
0.0
  0
ARC
  5
D8
  8
0
  6
CONTINUOUS
 62
     7
 10
254.5812752951
 20
245.7969642383
 30
0.0
 40
2.690000000000007
 50
208.5742842993
 51
277.0
  0
ARC
  5
D9
  8
0
  6
CONTINUOUS
 62
     7
 10
254.5812752951
 20
245.7969642383
 30
0.0
 40
2.690000000000003
 50
97.0
 51
165.4352045702
  0
ARC
  5
DA
  8
0
  6
CONTINUOUS
 62
     7
 10
262.4564722659
 20
181.6586319192
 30
0.0
 40
2.689999999999988
 50
97.0
 51
165.4352045702
  0
ARC
  5
DB
  8
0
  6
CONTINUOUS
 62
     7
 10
262.4564722659
 20
181.6586319192
 30
0.0
 40
2.690000000000038
 50
208.5742842993
 51
277.0
  0
LINE
  5
DC
  8
0
  6
CONTINUOUS
 62
     7
 10
251.6778527934
 20
244.4329625659
 30
0.0
 11
252.2204219539
 21
244.4995767169
 31
0.0
  0
LINE
  5
DD
  8
0
  6
CONTINUOUS
 62
     7
 10
251.9766836603
 20
246.4846736484
 30
0.0
 11
251.4341144998
 21
246.4180475764
 31
0.0
  0
LINE
  5
DE
  8
0
  6
CONTINUOUS
 62
     7
 10
259.5530494292
 20
180.2946216159
 30
0.0
 11
260.0956200797
 21
180.3612476878
 31
0.0
  0
LINE
  5
DF
  8
0
  6
CONTINUOUS
 62
     7
 10
259.851880296
 20
182.3463326983
 30
0.0
 11
259.3093111355
 21
182.2797185473
 31
0.0
  0
POLYLINE
  5
E0
  8
0
  6
CONTINUOUS
 62
     7
 66
     1
 10
0.0
 20
0.0
 30
0.0
  0
VERTEX
  5
28E
  8
0
  6
CONTINUOUS
 62
     7
 10
356.9710626442
 20
152.1589345031
 30
0.0
  0
VERTEX
  5
28F
  8
0
  6
CONTINUOUS
 62
     7
 10
356.9657101471
 20
152.4282819324
 30
0.0
  0
VERTEX
  5
290
  8
0
  6
CONTINUOUS
 62
     7
 10
356.8985118706
 20
152.8351849608
 30
0.0
  0
VERTEX
  5
291
  8
0
  6
CONTINUOUS
 62
     7
 10
356.7809297879
 20
153.2139903598
 30
0.0
  0
VERTEX
  5
292
  8
0
  6
CONTINUOUS
 62
     7
 10
356.6218271096
 20
153.5599893622
 30
0.0
  0
VERTEX
  5
293
  8
0
  6
CONTINUOUS
 62
     7
 10
356.4300730069
 20
153.8706189685
 30
0.0
  0
VERTEX
  5
294
  8
0
  6
CONTINUOUS
 62
     7
 10
356.213600858
 20
154.1459507041
 30
0.0
  0
VERTEX
  5
295
  8
0
  6
CONTINUOUS
 62
     7
 10
355.9776975949
 20
154.3891138129
 30
0.0
  0
VERTEX
  5
296
  8
0
  6
CONTINUOUS
 62
     7
 10
355.723126157
 20
154.6060031943
 30
0.0
  0
VERTEX
  5
297
  8
0
  6
CONTINUOUS
 62
     7
 10
355.4439856846
 20
154.8048740916
 30
0.0
  0
VERTEX
  5
298
  8
0
  6
CONTINUOUS
 62
     7
 10
355.1220550377
 20
154.9971944385
 30
0.0
  0
VERTEX
  5
299
  8
0
  6
CONTINUOUS
 62
     7
 10
354.7366216023
 20
155.1896935992
 30
0.0
  0
VERTEX
  5
29A
  8
0
  6
CONTINUOUS
 62
     7
 10
354.2249753315
 20
155.4010516696
 30
0.0
  0
VERTEX
  5
29B
  8
0
  6
CONTINUOUS
 62
     7
 10
353.6504878838
 20
155.5976099067
 30
0.0
  0
VERTEX
  5
29C
  8
0
  6
CONTINUOUS
 62
     7
 10
353.0755355198
 20
155.7645446353
 30
0.0
  0
VERTEX
  5
29D
  8
0
  6
CONTINUOUS
 62
     7
 10
352.4199976761
 20
155.9286123805
 30
0.0
  0
VERTEX
  5
29E
  8
0
  6
CONTINUOUS
 62
     7
 10
351.7458393414
 20
156.0750848346
 30
0.0
  0
VERTEX
  5
29F
  8
0
  6
CONTINUOUS
 62
     7
 10
351.0455443699
 20
156.2082475715
 30
0.0
  0
VERTEX
  5
2A0
  8
0
  6
CONTINUOUS
 62
     7
 10
350.3332092602
 20
156.3269084983
 30
0.0
  0
VERTEX
  5
2A1
  8
0
  6
CONTINUOUS
 62
     7
 10
349.5697750885
 20
156.4382201724
 30
0.0
  0
VERTEX
  5
2A2
  8
0
  6
CONTINUOUS
 62
     7
 10
348.7731470902
 20
156.5393513732
 30
0.0
  0
VERTEX
  5
2A3
  8
0
  6
CONTINUOUS
 62
     7
 10
347.9469194252
 20
156.6298669868
 30
0.0
  0
VERTEX
  5
2A4
  8
0
  6
CONTINUOUS
 62
     7
 10
347.0959796746
 20
156.7091232829
 30
0.0
  0
VERTEX
  5
2A5
  8
0
  6
CONTINUOUS
 62
     7
 10
346.2260737259
 20
156.7764050059
 30
0.0
  0
VERTEX
  5
2A6
  8
0
  6
CONTINUOUS
 62
     7
 10
345.3433348973
 20
156.8310267024
 30
0.0
  0
VERTEX
  5
2A7
  8
0
  6
CONTINUOUS
 62
     7
 10
344.4544150669
 20
156.8724042468
 30
0.0
  0
VERTEX
  5
2A8
  8
0
  6
CONTINUOUS
 62
     7
 10
343.5578360398
 20
156.90080586
 30
0.0
  0
VERTEX
  5
2A9
  8
0
  6
CONTINUOUS
 62
     7
 10
342.642564996
 20
156.916577249
 30
0.0
  0
VERTEX
  5
2AA
  8
0
  6
CONTINUOUS
 62
     7
 10
341.9780506928
 20
156.9185442023
 30
0.0
  0
SEQEND
  5
422
  8
0
  6
CONTINUOUS
 62
     7
  0
ARC
  5
E1
  8
0
  6
CONTINUOUS
 62
     7
 10
301.6793804475
 20
101.7657024419
 30
0.0
 40
55.15425742299382
 50
89.689920985
 51
97.9477118465
  0
LINE
  5
E2
  8
0
  6
CONTINUOUS
 62
     7
 10
341.9779791672
 20
156.9206840091
 30
0.0
 11
301.9779785712
 21
156.9206840091
 31
0.0
  0
POLYLINE
  5
E3
  8
0
  6
CONTINUOUS
 62
     7
 66
     1
 10
0.0
 20
0.0
 30
0.0
  0
VERTEX
  5
2AB
  8
0
  6
CONTINUOUS
 62
     7
 10
341.977848037
 20
151.5391356044
 30
0.0
  0
VERTEX
  5
2AC
  8
0
  6
CONTINUOUS
 62
     7
 10
342.7057697613
 20
151.5355474048
 30
0.0
  0
VERTEX
  5
2AD
  8
0
  6
CONTINUOUS
 62
     7
 10
343.5464396317
 20
151.5193528228
 30
0.0
  0
VERTEX
  5
2AE
  8
0
  6
CONTINUOUS
 62
     7
 10
344.3757250149
 20
151.4912253909
 30
0.0
  0
VERTEX
  5
2AF
  8
0
  6
CONTINUOUS
 62
     7
 10
345.1876416047
 20
151.4513916068
 30
0.0
  0
VERTEX
  5
2B0
  8
0
  6
CONTINUOUS
 62
     7
 10
345.9766759713
 20
151.4005965285
 30
0.0
  0
VERTEX
  5
2B1
  8
0
  6
CONTINUOUS
 62
     7
 10
346.7499210675
 20
151.3389951282
 30
0.0
  0
VERTEX
  5
2B2
  8
0
  6
CONTINUOUS
 62
     7
 10
347.5022330124
 20
151.2672788196
 30
0.0
  0
VERTEX
  5
2B3
  8
0
  6
CONTINUOUS
 62
     7
 10
348.2246711094
 20
151.1866516166
 30
0.0
  0
VERTEX
  5
2B4
  8
0
  6
CONTINUOUS
 62
     7
 10
348.9070906479
 20
151.0987526469
 30
0.0
  0
VERTEX
  5
2B5
  8
0
  6
CONTINUOUS
 62
     7
 10
349.5410575707
 20
151.0053938918
 30
0.0
  0
VERTEX
  5
2B6
  8
0
  6
CONTINUOUS
 62
     7
 10
350.1187636692
 20
150.9086436324
 30
0.0
  0
VERTEX
  5
2B7
  8
0
  6
CONTINUOUS
 62
     7
 10
350.6374254067
 20
150.8103257709
 30
0.0
  0
VERTEX
  5
2B8
  8
0
  6
CONTINUOUS
 62
     7
 10
351.1148228485
 20
150.7083362632
 30
0.0
  0
VERTEX
  5
2B9
  8
0
  6
CONTINUOUS
 62
     7
 10
351.5298082669
 20
150.6082362227
 30
0.0
  0
VERTEX
  5
2BA
  8
0
  6
CONTINUOUS
 62
     7
 10
351.879306062
 20
150.512803226
 30
0.0
  0
VERTEX
  5
2BB
  8
0
  6
CONTINUOUS
 62
     7
 10
352.1579458554
 20
150.4262751632
 30
0.0
  0
VERTEX
  5
2BC
  8
0
  6
CONTINUOUS
 62
     7
 10
352.3419692356
 20
150.3613299422
 30
0.0
  0
VERTEX
  5
2BD
  8
0
  6
CONTINUOUS
 62
     7
 10
352.4635150273
 20
150.3127402358
 30
0.0
  0
VERTEX
  5
2BE
  8
0
  6
CONTINUOUS
 62
     7
 10
352.5265946228
 20
150.2841180854
 30
0.0
  0
VERTEX
  5
2BF
  8
0
  6
CONTINUOUS
 62
     7
 10
352.5344445546
 20
150.2802139812
 30
0.0
  0
SEQEND
  5
421
  8
0
  6
CONTINUOUS
 62
     7
  0
LINE
  5
E4
  8
0
  6
CONTINUOUS
 62
     7
 10
312.9779770214
 20
151.5406853251
 30
0.0
 11
341.9779791672
 21
151.5406853251
 31
0.0
  0
LINE
  5
E5
  8
0
  6
CONTINUOUS
 62
     7
 10
312.9779770214
 20
151.4381951385
 30
0.0
 11
345.3926696617
 21
151.4381951385
 31
0.0
  0
ARC
  5
E6
  8
0
  6
CONTINUOUS
 62
     7
 10
354.2879778321
 20
150.4381938607
 30
0.0
 40
2.689999999999998
 50
180.0
 51
270.0
  0
ARC
  5
E7
  8
0
  6
CONTINUOUS
 62
     7
 10
354.2879778321
 20
150.4381938607
 30
0.0
 40
2.690000000000055
 50
270.0
 51
0.0
  0
POLYLINE
  5
E8
  8
0
  6
CONTINUOUS
 62
     7
 66
     1
 10
0.0
 20
0.0
 30
0.0
  0
VERTEX
  5
2C0
  8
0
  6
CONTINUOUS
 62
     7
 10
254.9091040332
 20
243.1270128779
 30
0.0
  0
VERTEX
  5
2C1
  8
0
  6
CONTINUOUS
 62
     7
 10
254.9439533789
 20
243.1312924914
 30
0.0
  0
VERTEX
  5
2C2
  8
0
  6
CONTINUOUS
 62
     7
 10
255.0244971354
 20
243.1411868625
 30
0.0
  0
SEQEND
  5
420
  8
0
  6
CONTINUOUS
 62
     7
  0
POLYLINE
  5
E9
  8
0
  6
CONTINUOUS
 62
     7
 66
     1
 10
0.0
 20
0.0
 30
0.0
  0
VERTEX
  5
2C3
  8
0
  6
CONTINUOUS
 62
     7
 10
252.2190868099
 20
244.5102101855
 30
0.0
  0
VERTEX
  5
2C4
  8
0
  6
CONTINUOUS
 62
     7
 10
252.2226347763
 20
244.50359407
 30
0.0
  0
VERTEX
  5
2C5
  8
0
  6
CONTINUOUS
 62
     7
 10
252.1852447827
 20
244.5750361972
 30
0.0
  0
VERTEX
  5
2C6
  8
0
  6
CONTINUOUS
 62
     7
 10
252.1110817034
 20
244.7347408824
 30
0.0
  0
VERTEX
  5
2C7
  8
0
  6
CONTINUOUS
 62
     7
 10
252.0187302668
 20
244.9852592044
 30
0.0
  0
VERTEX
  5
2C8
  8
0
  6
CONTINUOUS
 62
     7
 10
251.939953788
 20
245.3012711101
 30
0.0
  0
VERTEX
  5
2C9
  8
0
  6
CONTINUOUS
 62
     7
 10
251.9139557321
 20
245.4694634967
 30
0.0
  0
SEQEND
  5
41F
  8
0
  6
CONTINUOUS
 62
     7
  0
POLYLINE
  5
EA
  8
0
  6
CONTINUOUS
 62
     7
 66
     1
 10
0.0
 20
0.0
 30
0.0
  0
VERTEX
  5
2CA
  8
0
  6
CONTINUOUS
 62
     7
 10
255.9584750969
 20
248.6762649112
 30
0.0
  0
VERTEX
  5
2CB
  8
0
  6
CONTINUOUS
 62
     7
 10
255.5066331465
 20
248.6207849078
 30
0.0
  0
VERTEX
  5
2CC
  8
0
  6
CONTINUOUS
 62
     7
 10
255.1240160305
 20
248.5738045268
 30
0.0
  0
VERTEX
  5
2CD
  8
0
  6
CONTINUOUS
 62
     7
 10
254.8107697804
 20
248.53534761
 30
0.0
  0
VERTEX
  5
2CE
  8
0
  6
CONTINUOUS
 62
     7
 10
254.567009135
 20
248.5054141574
 30
0.0
  0
VERTEX
  5
2CF
  8
0
  6
CONTINUOUS
 62
     7
 10
254.3928294618
 20
248.4840280108
 30
0.0
  0
VERTEX
  5
2D0
  8
0
  6
CONTINUOUS
 62
     7
 10
254.2882963259
 20
248.4711891704
 30
0.0
  0
VERTEX
  5
2D1
  8
0
  6
CONTINUOUS
 62
     7
 10
254.2534469802
 20
248.4669095569
 30
0.0
  0
SEQEND
  5
41E
  8
0
  6
CONTINUOUS
 62
     7
  0
ARC
  5
EB
  8
0
  6
CONTINUOUS
 62
     7
 10
254.6053308145
 20
245.8023022243
 30
0.0
 40
2.711877846188831
 50
165.6589414935
 51
187.0498969926
  0
POLYLINE
  5
EC
  8
0
  6
CONTINUOUS
 62
     7
 66
     1
 10
0.0
 20
0.0
 30
0.0
  0
VERTEX
  5
2D2
  8
0
  6
CONTINUOUS
 62
     7
 10
262.245331629
 20
184.3429094844
 30
0.0
  0
VERTEX
  5
2D3
  8
0
  6
CONTINUOUS
 62
     7
 10
262.1634929616
 20
184.3328601413
 30
0.0
  0
VERTEX
  5
2D4
  8
0
  6
CONTINUOUS
 62
     7
 10
262.1286436159
 20
184.3285805278
 30
0.0
  0
SEQEND
  5
41D
  8
0
  6
CONTINUOUS
 62
     7
  0
ARC
  5
ED
  8
0
  6
CONTINUOUS
 62
     7
 10
262.4815925094
 20
181.6639053816
 30
0.0
 40
2.712926520741159
 50
165.6631254354
 51
187.0459686315
  0
POLYLINE
  5
EE
  8
0
  6
CONTINUOUS
 62
     7
 66
     1
 10
0.0
 20
0.0
 30
0.0
  0
VERTEX
  5
2D5
  8
0
  6
CONTINUOUS
 62
     7
 10
262.7843006689
 20
178.9886838489
 30
0.0
  0
VERTEX
  5
2D6
  8
0
  6
CONTINUOUS
 62
     7
 10
262.8191500146
 20
178.9929634624
 30
0.0
  0
VERTEX
  5
2D7
  8
0
  6
CONTINUOUS
 62
     7
 10
262.9236846406
 20
179.0058023028
 30
0.0
  0
VERTEX
  5
2D8
  8
0
  6
CONTINUOUS
 62
     7
 10
263.0978643138
 20
179.0271884494
 30
0.0
  0
VERTEX
  5
2D9
  8
0
  6
CONTINUOUS
 62
     7
 10
263.3416234691
 20
179.0571099811
 30
0.0
  0
VERTEX
  5
2DA
  8
0
  6
CONTINUOUS
 62
     7
 10
263.6548704643
 20
179.0955788188
 30
0.0
  0
VERTEX
  5
2DB
  8
0
  6
CONTINUOUS
 62
     7
 10
264.0374868352
 20
179.1425591998
 30
0.0
  0
VERTEX
  5
2DC
  8
0
  6
CONTINUOUS
 62
     7
 10
264.4893287856
 20
179.1980392032
 30
0.0
  0
SEQEND
  5
41C
  8
0
  6
CONTINUOUS
 62
     7
  0
POLYLINE
  5
EF
  8
0
  6
CONTINUOUS
 62
     7
 66
     1
 10
0.0
 20
0.0
 30
0.0
  0
VERTEX
  5
2DD
  8
0
  6
CONTINUOUS
 62
     7
 10
260.0942849357
 20
180.3718811564
 30
0.0
  0
VERTEX
  5
2DE
  8
0
  6
CONTINUOUS
 62
     7
 10
260.0978314121
 20
180.3652531199
 30
0.0
  0
VERTEX
  5
2DF
  8
0
  6
CONTINUOUS
 62
     7
 10
260.0604414184
 20
180.4367071681
 30
0.0
  0
VERTEX
  5
2E0
  8
0
  6
CONTINUOUS
 62
     7
 10
259.9862798293
 20
180.5964118533
 30
0.0
  0
VERTEX
  5
2E1
  8
0
  6
CONTINUOUS
 62
     7
 10
259.8939269025
 20
180.8469301753
 30
0.0
  0
VERTEX
  5
2E2
  8
0
  6
CONTINUOUS
 62
     7
 10
259.8151504238
 20
181.162942081
 30
0.0
  0
VERTEX
  5
2E3
  8
0
  6
CONTINUOUS
 62
     7
 10
259.7891538579
 20
181.3311225467
 30
0.0
  0
SEQEND
  5
41B
  8
0
  6
CONTINUOUS
 62
     7
  0
LINE
  5
F0
  8
0
  6
CONTINUOUS
 62
     7
 10
264.4893287856
 20
179.1980392032
 30
0.0
 11
264.537173434
 21
179.2043572955
 31
0.0
  0
LINE
  5
F1
  8
0
  6
CONTINUOUS
 62
     7
 10
253.7184237678
 20
178.5807854228
 30
0.0
 11
245.3581853945
 21
246.6694599681
 31
0.0
  0
POLYLINE
  5
F2
  8
0
  6
CONTINUOUS
 62
     7
 66
     1
 10
0.0
 20
0.0
 30
0.0
  0
VERTEX
  5
2E4
  8
0
  6
CONTINUOUS
 62
     7
 10
254.7109692533
 20
178.7026650004
 30
0.0
  0
VERTEX
  5
2E5
  8
0
  6
CONTINUOUS
 62
     7
 10
254.5173331339
 20
178.6788827472
 30
0.0
  0
VERTEX
  5
2E6
  8
0
  6
CONTINUOUS
 62
     7
 10
254.3311386545
 20
178.6560184054
 30
0.0
  0
VERTEX
  5
2E7
  8
0
  6
CONTINUOUS
 62
     7
 10
254.1595398624
 20
178.634954124
 30
0.0
  0
VERTEX
  5
2E8
  8
0
  6
CONTINUOUS
 62
     7
 10
254.0091335018
 20
178.616488605
 30
0.0
  0
VERTEX
  5
2E9
  8
0
  6
CONTINUOUS
 62
     7
 10
253.8856982429
 20
178.6013251834
 30
0.0
  0
VERTEX
  5
2EA
  8
0
  6
CONTINUOUS
 62
     7
 10
253.7939771254
 20
178.5900718265
 30
0.0
  0
VERTEX
  5
2EB
  8
0
  6
CONTINUOUS
 62
     7
 10
253.7374942739
 20
178.5831338458
 30
0.0
  0
VERTEX
  5
2EC
  8
0
  6
CONTINUOUS
 62
     7
 10
253.7184237678
 20
178.5807854228
 30
0.0
  0
SEQEND
  5
41A
  8
0
  6
CONTINUOUS
 62
     7
  0
POLYLINE
  5
F3
  8
0
  6
CONTINUOUS
 62
     7
 66
     1
 10
0.0
 20
0.0
 30
0.0
  0
VERTEX
  5
2ED
  8
0
  6
CONTINUOUS
 62
     7
 10
245.3581853945
 20
246.6694599681
 30
0.0
  0
VERTEX
  5
2EE
  8
0
  6
CONTINUOUS
 62
     7
 10
245.3772588808
 20
246.6717964702
 30
0.0
  0
VERTEX
  5
2EF
  8
0
  6
CONTINUOUS
 62
     7
 10
245.4337402422
 20
246.6787344508
 30
0.0
  0
VERTEX
  5
2F0
  8
0
  6
CONTINUOUS
 62
     7
 10
245.5254598696
 20
246.6899997287
 30
0.0
  0
VERTEX
  5
2F1
  8
0
  6
CONTINUOUS
 62
     7
 10
245.6488951285
 20
246.7051512294
 30
0.0
  0
VERTEX
  5
2F2
  8
0
  6
CONTINUOUS
 62
     7
 10
245.7993044693
 20
246.7236167483
 30
0.0
  0
VERTEX
  5
2F3
  8
0
  6
CONTINUOUS
 62
     7
 10
245.9709002812
 20
246.7446929507
 30
0.0
  0
VERTEX
  5
2F4
  8
0
  6
CONTINUOUS
 62
     7
 10
246.1570962508
 20
246.7675453715
 30
0.0
  0
VERTEX
  5
2F5
  8
0
  6
CONTINUOUS
 62
     7
 10
246.3507338602
 20
246.7913276248
 30
0.0
  0
SEQEND
  5
419
  8
0
  6
CONTINUOUS
 62
     7
  0
LINE
  5
F4
  8
0
  6
CONTINUOUS
 62
     7
 10
258.6811541755
 20
179.1901356273
 30
0.0
 11
254.7109692533
 21
178.7026650004
 31
0.0
  0
LINE
  5
F5
  8
0
  6
CONTINUOUS
 62
     7
 10
250.3209158022
 20
247.2787982516
 30
0.0
 11
246.3507338602
 21
246.7913276248
 31
0.0
  0
LINE
  5
F6
  8
0
  6
CONTINUOUS
 62
     7
 10
251.3134627778
 20
247.4006778293
 30
0.0
 11
259.673699661
 21
179.312003284
 31
0.0
  0
POLYLINE
  5
F7
  8
0
  6
CONTINUOUS
 62
     7
 66
     1
 10
0.0
 20
0.0
 30
0.0
  0
VERTEX
  5
2F6
  8
0
  6
CONTINUOUS
 62
     7
 10
259.673699661
 20
179.312003284
 30
0.0
  0
VERTEX
  5
2F7
  8
0
  6
CONTINUOUS
 62
     7
 10
259.6546291549
 20
179.3096667819
 30
0.0
  0
VERTEX
  5
2F8
  8
0
  6
CONTINUOUS
 62
     7
 10
259.5981477935
 20
179.3027288012
 30
0.0
  0
VERTEX
  5
2F9
  8
0
  6
CONTINUOUS
 62
     7
 10
259.506426676
 20
179.2914635234
 30
0.0
  0
VERTEX
  5
2FA
  8
0
  6
CONTINUOUS
 62
     7
 10
259.382989927
 20
179.2763120227
 30
0.0
  0
VERTEX
  5
2FB
  8
0
  6
CONTINUOUS
 62
     7
 10
259.2325835664
 20
179.2578465037
 30
0.0
  0
VERTEX
  5
2FC
  8
0
  6
CONTINUOUS
 62
     7
 10
259.0609847743
 20
179.2367703013
 30
0.0
  0
VERTEX
  5
2FD
  8
0
  6
CONTINUOUS
 62
     7
 10
258.8747902949
 20
179.2139178805
 30
0.0
  0
VERTEX
  5
2FE
  8
0
  6
CONTINUOUS
 62
     7
 10
258.6811541755
 20
179.1901356273
 30
0.0
  0
SEQEND
  5
418
  8
0
  6
CONTINUOUS
 62
     7
  0
POLYLINE
  5
F8
  8
0
  6
CONTINUOUS
 62
     7
 66
     1
 10
0.0
 20
0.0
 30
0.0
  0
VERTEX
  5
2FF
  8
0
  6
CONTINUOUS
 62
     7
 10
250.3209158022
 20
247.2787982516
 30
0.0
  0
VERTEX
  5
300
  8
0
  6
CONTINUOUS
 62
     7
 10
250.5145534117
 20
247.3025805049
 30
0.0
  0
VERTEX
  5
301
  8
0
  6
CONTINUOUS
 62
     7
 10
250.7007493813
 20
247.3254448466
 30
0.0
  0
VERTEX
  5
302
  8
0
  6
CONTINUOUS
 62
     7
 10
250.8723451931
 20
247.3465091281
 30
0.0
  0
VERTEX
  5
303
  8
0
  6
CONTINUOUS
 62
     7
 10
251.0227530439
 20
247.364974647
 30
0.0
  0
VERTEX
  5
304
  8
0
  6
CONTINUOUS
 62
     7
 10
251.1461897929
 20
247.3801380687
 30
0.0
  0
VERTEX
  5
305
  8
0
  6
CONTINUOUS
 62
     7
 10
251.2379109104
 20
247.3913914256
 30
0.0
  0
VERTEX
  5
306
  8
0
  6
CONTINUOUS
 62
     7
 10
251.2943922717
 20
247.3983294063
 30
0.0
  0
VERTEX
  5
307
  8
0
  6
CONTINUOUS
 62
     7
 10
251.3134627778
 20
247.4006778293
 30
0.0
  0
SEQEND
  5
417
  8
0
  6
CONTINUOUS
 62
     7
  0
ARC
  5
F9
  8
0
  6
CONTINUOUS
 62
     7
 10
271.2779778321
 20
137.7501825862
 30
0.0
 40
0.4000000000000057
 50
90.0
 51
180.0
  0
LINE
  5
FA
  8
0
  6
CONTINUOUS
 62
     7
 10
270.8779777576
 20
127.950180202
 30
0.0
 11
270.2779776592
 21
127.950180202
 31
0.0
  0
LINE
  5
FB
  8
0
  6
CONTINUOUS
 62
     7
 10
270.8779777576
 20
128.9501852088
 30
0.0
 11
270.8779777576
 21
127.950180202
 31
0.0
  0
LINE
  5
FC
  8
0
  6
CONTINUOUS
 62
     7
 10
270.2779776592
 20
127.950180202
 30
0.0
 11
270.2779776592
 21
128.9501852088
 31
0.0
  0
LINE
  5
FD
  8
0
  6
CONTINUOUS
 62
     7
 10
281.877977698
 20
127.950180202
 30
0.0
 11
281.2779779721
 21
127.950180202
 31
0.0
  0
LINE
  5
FE
  8
0
  6
CONTINUOUS
 62
     7
 10
281.877977698
 20
128.9501852088
 30
0.0
 11
281.877977698
 21
127.950180202
 31
0.0
  0
LINE
  5
FF
  8
0
  6
CONTINUOUS
 62
     7
 10
281.2779779721
 20
127.950180202
 30
0.0
 11
281.2779779721
 21
128.9501852088
 31
0.0
  0
LINE
  5
100
  8
0
  6
CONTINUOUS
 62
     7
 10
254.4924586255
 20
172.2767836146
 30
0.0
 11
253.7184237678
 21
178.5807854228
 31
0.0
  0
POLYLINE
  5
101
  8
0
  6
CONTINUOUS
 62
     7
 66
     1
 10
0.0
 20
0.0
 30
0.0
  0
VERTEX
  5
308
  8
0
  6
CONTINUOUS
 62
     7
 10
254.7109692533
 20
178.7026650004
 30
0.0
  0
VERTEX
  5
309
  8
0
  6
CONTINUOUS
 62
     7
 10
254.5173331339
 20
178.6788827472
 30
0.0
  0
VERTEX
  5
30A
  8
0
  6
CONTINUOUS
 62
     7
 10
254.3311386545
 20
178.6560184054
 30
0.0
  0
VERTEX
  5
30B
  8
0
  6
CONTINUOUS
 62
     7
 10
254.1595398624
 20
178.634954124
 30
0.0
  0
VERTEX
  5
30C
  8
0
  6
CONTINUOUS
 62
     7
 10
254.0091335018
 20
178.616488605
 30
0.0
  0
VERTEX
  5
30D
  8
0
  6
CONTINUOUS
 62
     7
 10
253.8856982429
 20
178.6013251834
 30
0.0
  0
VERTEX
  5
30E
  8
0
  6
CONTINUOUS
 62
     7
 10
253.7939771254
 20
178.5900718265
 30
0.0
  0
VERTEX
  5
30F
  8
0
  6
CONTINUOUS
 62
     7
 10
253.7374942739
 20
178.5831338458
 30
0.0
  0
VERTEX
  5
310
  8
0
  6
CONTINUOUS
 62
     7
 10
253.7184237678
 20
178.5807854228
 30
0.0
  0
SEQEND
  5
416
  8
0
  6
CONTINUOUS
 62
     7
  0
ARC
  5
102
  8
0
  6
CONTINUOUS
 62
     7
 10
273.3508348152
 20
174.592302739
 30
0.0
 40
19.00000000000002
 50
187.0
 51
203.0
  0
LINE
  5
103
  8
0
  6
CONTINUOUS
 62
     7
 10
269.2779778678
 20
127.950180202
 30
0.0
 11
265.2779779572
 21
127.950180202
 31
0.0
  0
LINE
  5
104
  8
0
  6
CONTINUOUS
 62
     7
 10
255.8612420399
 20
167.1684152179
 30
0.0
 11
263.2445409138
 21
149.7744506888
 31
0.0
  0
LINE
  5
105
  8
0
  6
CONTINUOUS
 62
     7
 10
260.4477345188
 20
173.0080014758
 30
0.0
 11
259.673699661
 21
179.312003284
 31
0.0
  0
POLYLINE
  5
106
  8
0
  6
CONTINUOUS
 62
     7
 66
     1
 10
0.0
 20
0.0
 30
0.0
  0
VERTEX
  5
311
  8
0
  6
CONTINUOUS
 62
     7
 10
259.673699661
 20
179.312003284
 30
0.0
  0
VERTEX
  5
312
  8
0
  6
CONTINUOUS
 62
     7
 10
259.6546291549
 20
179.3096667819
 30
0.0
  0
VERTEX
  5
313
  8
0
  6
CONTINUOUS
 62
     7
 10
259.5981477935
 20
179.3027288012
 30
0.0
  0
VERTEX
  5
314
  8
0
  6
CONTINUOUS
 62
     7
 10
259.506426676
 20
179.2914635234
 30
0.0
  0
VERTEX
  5
315
  8
0
  6
CONTINUOUS
 62
     7
 10
259.382989927
 20
179.2763120227
 30
0.0
  0
VERTEX
  5
316
  8
0
  6
CONTINUOUS
 62
     7
 10
259.2325835664
 20
179.2578465037
 30
0.0
  0
VERTEX
  5
317
  8
0
  6
CONTINUOUS
 62
     7
 10
259.0609847743
 20
179.2367703013
 30
0.0
  0
VERTEX
  5
318
  8
0
  6
CONTINUOUS
 62
     7
 10
258.8747902949
 20
179.2139178805
 30
0.0
  0
VERTEX
  5
319
  8
0
  6
CONTINUOUS
 62
     7
 10
258.6811541755
 20
179.1901356273
 30
0.0
  0
SEQEND
  5
415
  8
0
  6
CONTINUOUS
 62
     7
  0
ARC
  5
107
  8
0
  6
CONTINUOUS
 62
     7
 10
273.3508348152
 20
174.592302739
 30
0.0
 40
13.00000000000002
 50
187.0
 51
203.0
  0
LINE
  5
108
  8
0
  6
CONTINUOUS
 62
     7
 10
261.3842710097
 20
169.5127970271
 30
0.0
 11
268.7675698836
 21
152.1188384585
 31
0.0
  0
LINE
  5
109
  8
0
  6
CONTINUOUS
 62
     7
 10
264.2779781659
 20
144.6949428611
 30
0.0
 11
264.2779781659
 21
127.950180202
 31
0.0
  0
LINE
  5
10A
  8
0
  6
CONTINUOUS
 62
     7
 10
265.2779779572
 20
127.950180202
 30
0.0
 11
264.2779781659
 21
127.950180202
 31
0.0
  0
ARC
  5
10B
  8
0
  6
CONTINUOUS
 62
     7
 10
251.2779778321
 20
144.6949457954
 30
0.0
 40
13.0
 50
0.0
 51
23.0
  0
LINE
  5
10C
  8
0
  6
CONTINUOUS
 62
     7
 10
270.2779776592
 20
127.950180202
 30
0.0
 11
269.2779778678
 21
127.950180202
 31
0.0
  0
ARC
  5
10D
  8
0
  6
CONTINUOUS
 62
     7
 10
251.2779778321
 20
144.6949457954
 30
0.0
 40
18.99999999999999
 50
4.1945718162
 51
23.0
  0
LINE
  5
10E
  8
0
  6
CONTINUOUS
 62
     7
 10
271.8779779215
 20
138.1501800113
 30
0.0
 11
279.8779777427
 21
138.1501800113
 31
0.0
  0
LINE
  5
10F
  8
0
  6
CONTINUOUS
 62
     7
 10
270.8779777576
 20
129.1501826339
 30
0.0
 11
270.8779777576
 21
137.1501809649
 31
0.0
  0
ARC
  5
110
  8
0
  6
CONTINUOUS
 62
     7
 10
271.8779778321
 20
137.1501825862
 30
0.0
 40
1.0
 50
90.0
 51
180.0
  0
ARC
  5
111
  8
0
  6
CONTINUOUS
 62
     7
 10
271.8779778321
 20
129.1501825862
 30
0.0
 40
1.0
 50
180.0
 51
270.0
  0
LINE
  5
112
  8
0
  6
CONTINUOUS
 62
     7
 10
279.8779777427
 20
128.1501835875
 30
0.0
 11
271.8779779215
 21
128.1501835875
 31
0.0
  0
LINE
  5
113
  8
0
  6
CONTINUOUS
 62
     7
 10
280.8779779066
 20
137.1501809649
 30
0.0
 11
280.8779779066
 21
129.1501826339
 31
0.0
  0
ARC
  5
114
  8
0
  6
CONTINUOUS
 62
     7
 10
279.8779778321
 20
137.1501825862
 30
0.0
 40
1.0
 50
0.0
 51
90.0
  0
ARC
  5
115
  8
0
  6
CONTINUOUS
 62
     7
 10
279.8779778321
 20
129.1501825862
 30
0.0
 40
1.0
 50
270.0
 51
0.0
  0
LINE
  5
116
  8
0
  6
CONTINUOUS
 62
     7
 10
263.8779781003
 20
62.9501825862
 30
0.0
 11
263.8779781003
 21
64.1501825966
 31
0.0
  0
LINE
  5
117
  8
0
  6
CONTINUOUS
 62
     7
 10
263.8779781003
 20
64.1501825966
 30
0.0
 11
267.8779780109
 21
64.1501825966
 31
0.0
  0
LINE
  5
118
  8
0
  6
CONTINUOUS
 62
     7
 10
267.8779780109
 20
62.9501825862
 30
0.0
 11
263.8779781003
 21
62.9501825862
 31
0.0
  0
LINE
  5
119
  8
0
  6
CONTINUOUS
 62
     7
 10
267.8779780109
 20
64.1501825966
 30
0.0
 11
269.8779779662
 21
64.1501825966
 31
0.0
  0
LINE
  5
11A
  8
0
  6
CONTINUOUS
 62
     7
 10
267.8779780109
 20
62.9501825862
 30
0.0
 11
269.8779779662
 21
62.9501825862
 31
0.0
  0
LINE
  5
11B
  8
0
  6
CONTINUOUS
 62
     7
 10
297.2463994462
 20
64.1501825966
 30
0.0
 11
269.8779779662
 21
64.1501825966
 31
0.0
  0
LINE
  5
11C
  8
0
  6
CONTINUOUS
 62
     7
 10
269.8779779662
 20
62.9501825862
 30
0.0
 11
297.2463994462
 21
62.9501825862
 31
0.0
  0
LINE
  5
11D
  8
0
  6
CONTINUOUS
 62
     7
 10
299.8779772956
 20
64.1501825966
 30
0.0
 11
299.8779772956
 21
62.9501825862
 31
0.0
  0
LINE
  5
11E
  8
0
  6
CONTINUOUS
 62
     7
 10
297.2463994462
 20
64.1501825966
 30
0.0
 11
299.8779772956
 21
64.1501825966
 31
0.0
  0
LINE
  5
11F
  8
0
  6
CONTINUOUS
 62
     7
 10
299.8779772956
 20
62.9501825862
 30
0.0
 11
297.2463994462
 21
62.9501825862
 31
0.0
  0
LINE
  5
120
  8
0
  6
CONTINUOUS
 62
     7
 10
270.8779777576
 20
64.1501825966
 30
0.0
 11
270.8779777576
 21
127.950180202
 31
0.0
  0
LINE
  5
121
  8
0
  6
CONTINUOUS
 62
     7
 10
280.8779779066
 20
129.1501826339
 30
0.0
 11
280.8779779066
 21
64.1501825966
 31
0.0
  0
ARC
  5
122
  8
0
  6
CONTINUOUS
 62
     7
 10
280.8779778321
 20
137.9501825862
 30
0.0
 40
0.1999999999999886
 50
0.0
 51
90.0
  0
LINE
  5
123
  8
0
  6
CONTINUOUS
 62
     7
 10
280.8779779066
 20
138.1501800113
 30
0.0
 11
279.8779777427
 21
138.1501800113
 31
0.0
  0
LINE
  5
124
  8
0
  6
CONTINUOUS
 62
     7
 10
271.8779779215
 20
138.1501800113
 30
0.0
 11
271.0779777903
 21
138.1501800113
 31
0.0
  0
ARC
  5
125
  8
0
  6
CONTINUOUS
 62
     7
 10
271.0779778321
 20
137.9501825862
 30
0.0
 40
0.1999999999999886
 50
90.0
 51
180.0
  0
LINE
  5
126
  8
0
  6
CONTINUOUS
 62
     7
 10
270.8779777576
 20
137.9501825862
 30
0.0
 11
270.8779777576
 21
137.1501809649
 31
0.0
  0
LINE
  5
127
  8
0
  6
CONTINUOUS
 62
     7
 10
280.8779779066
 20
138.9501816325
 30
0.0
 11
271.0779777903
 21
138.9501816325
 31
0.0
  0
ARC
  5
128
  8
0
  6
CONTINUOUS
 62
     7
 10
280.8779778321
 20
137.9501825862
 30
0.0
 40
1.0
 50
0.0
 51
90.0
  0
LINE
  5
129
  8
0
  6
CONTINUOUS
 62
     7
 10
281.877977698
 20
130.9501833014
 30
0.0
 11
281.877977698
 21
137.9501825862
 31
0.0
  0
LINE
  5
12A
  8
0
  6
CONTINUOUS
 62
     7
 10
281.0779779394
 20
130.9501833014
 30
0.0
 11
281.0779779394
 21
137.9501825862
 31
0.0
  0
LINE
  5
12B
  8
0
  6
CONTINUOUS
 62
     7
 10
270.077977999
 20
137.9501825862
 30
0.0
 11
270.077977999
 21
130.9501833014
 31
0.0
  0
ARC
  5
12C
  8
0
  6
CONTINUOUS
 62
     7
 10
271.0779778321
 20
137.9501825862
 30
0.0
 40
1.0
 50
90.0
 51
180.0
  0
LINE
  5
12D
  8
0
  6
CONTINUOUS
 62
     7
 10
270.8779777576
 20
129.1501826339
 30
0.0
 11
270.8779777576
 21
128.9501852088
 31
0.0
  0
LINE
  5
12E
  8
0
  6
CONTINUOUS
 62
     7
 10
270.8779777576
 20
128.9501852088
 30
0.0
 11
270.077977999
 21
128.9501852088
 31
0.0
  0
LINE
  5
12F
  8
0
  6
CONTINUOUS
 62
     7
 10
270.077977999
 20
128.9501852088
 30
0.0
 11
270.077977999
 21
130.9501833014
 31
0.0
  0
LINE
  5
130
  8
0
  6
CONTINUOUS
 62
     7
 10
281.877977698
 20
130.9501833014
 30
0.0
 11
281.877977698
 21
128.9501852088
 31
0.0
  0
LINE
  5
131
  8
0
  6
CONTINUOUS
 62
     7
 10
281.877977698
 20
128.9501852088
 30
0.0
 11
281.0779779394
 21
128.9501852088
 31
0.0
  0
LINE
  5
132
  8
0
  6
CONTINUOUS
 62
     7
 10
281.0779779394
 20
128.9501852088
 30
0.0
 11
281.0779779394
 21
130.9501833014
 31
0.0
  0
POLYLINE
  5
133
  8
0
  6
CONTINUOUS
 62
     7
 66
     1
 10
0.0
 20
0.0
 30
0.0
  0
VERTEX
  5
31A
  8
0
  6
CONTINUOUS
 62
     7
 10
293.9288838942
 20
154.3422764831
 30
0.0
  0
VERTEX
  5
31B
  8
0
  6
CONTINUOUS
 62
     7
 10
294.0988510091
 20
154.7067469649
 30
0.0
  0
VERTEX
  5
31C
  8
0
  6
CONTINUOUS
 62
     7
 10
294.3463756878
 20
155.0449854426
 30
0.0
  0
VERTEX
  5
31D
  8
0
  6
CONTINUOUS
 62
     7
 10
294.7383864958
 20
155.418009191
 30
0.0
  0
VERTEX
  5
31E
  8
0
  6
CONTINUOUS
 62
     7
 10
295.1960026462
 20
155.7337945991
 30
0.0
  0
VERTEX
  5
31F
  8
0
  6
CONTINUOUS
 62
     7
 10
295.9699972708
 20
156.1124092631
 30
0.0
  0
VERTEX
  5
320
  8
0
  6
CONTINUOUS
 62
     7
 10
296.8041687448
 20
156.3901847892
 30
0.0
  0
SEQEND
  5
414
  8
0
  6
CONTINUOUS
 62
     7
  0
POLYLINE
  5
134
  8
0
  6
CONTINUOUS
 62
     7
 66
     1
 10
0.0
 20
0.0
 30
0.0
  0
VERTEX
  5
321
  8
0
  6
CONTINUOUS
 62
     7
 10
299.7114374478
 20
151.5527552657
 30
0.0
  0
VERTEX
  5
322
  8
0
  6
CONTINUOUS
 62
     7
 10
297.6800455887
 20
151.6095227294
 30
0.0
  0
VERTEX
  5
323
  8
0
  6
CONTINUOUS
 62
     7
 10
296.5891896922
 20
151.7376548343
 30
0.0
  0
VERTEX
  5
324
  8
0
  6
CONTINUOUS
 62
     7
 10
295.5292209227
 20
152.0109004073
 30
0.0
  0
VERTEX
  5
325
  8
0
  6
CONTINUOUS
 62
     7
 10
294.8379500945
 20
152.3345715098
 30
0.0
  0
VERTEX
  5
326
  8
0
  6
CONTINUOUS
 62
     7
 10
294.5222436626
 20
152.5560027652
 30
0.0
  0
VERTEX
  5
327
  8
0
  6
CONTINUOUS
 62
     7
 10
294.2454054196
 20
152.8234130435
 30
0.0
  0
VERTEX
  5
328
  8
0
  6
CONTINUOUS
 62
     7
 10
293.9564003785
 20
153.2858258777
 30
0.0
  0
VERTEX
  5
329
  8
0
  6
CONTINUOUS
 62
     7
 10
293.8447415073
 20
153.8228518062
 30
0.0
  0
VERTEX
  5
32A
  8
0
  6
CONTINUOUS
 62
     7
 10
293.9288838942
 20
154.3422764831
 30
0.0
  0
SEQEND
  5
413
  8
0
  6
CONTINUOUS
 62
     7
  0
LINE
  5
135
  8
0
  6
CONTINUOUS
 62
     7
 10
301.9779785712
 20
151.5611595206
 30
0.0
 11
299.7114374478
 21
151.5527552657
 31
0.0
  0
LINE
  5
136
  8
0
  6
CONTINUOUS
 62
     7
 10
312.9779770214
 20
151.5611595206
 30
0.0
 11
301.9779785712
 21
151.5611595206
 31
0.0
  0
ARC
  5
137
  8
0
  6
CONTINUOUS
 62
     7
 10
273.5839595898
 20
264.4396921869
 30
0.0
 40
120.0
 50
280.9468409701
 51
289.1646231125
  0
LINE
  5
138
  8
0
  6
CONTINUOUS
 62
     7
 10
296.3717385371
 20
146.6232365661
 30
0.0
 11
291.9587924321
 21
145.7696980529
 31
0.0
  0
ARC
  5
139
  8
0
  6
CONTINUOUS
 62
     7
 10
293.4779778321
 20
137.9152650378
 30
0.0
 40
8.000000000000057
 50
100.9468409701
 51
180.0
  0
LINE
  5
13A
  8
0
  6
CONTINUOUS
 62
     7
 10
285.4779779155
 20
137.9152661853
 30
0.0
 11
285.4779779155
 21
137.1501809649
 31
0.0
  0
ARC
  5
13B
  8
0
  6
CONTINUOUS
 62
     7
 10
283.4779778321
 20
137.1501825862
 30
0.0
 40
2.0
 50
270.0
 51
0.0
  0
LINE
  5
13C
  8
0
  6
CONTINUOUS
 62
     7
 10
283.4779775877
 20
135.1501828723
 30
0.0
 11
281.877977698
 21
135.1501828723
 31
0.0
  0
LINE
  5
13D
  8
0
  6
CONTINUOUS
 62
     7
 10
270.077977999
 20
135.1501828723
 30
0.0
 11
269.2779778678
 21
135.1501828723
 31
0.0
  0
ARC
  5
13E
  8
0
  6
CONTINUOUS
 62
     7
 10
269.2779778321
 20
137.1501825862
 30
0.0
 40
2.0
 50
180.0
 51
270.0
  0
LINE
  5
13F
  8
0
  6
CONTINUOUS
 62
     7
 10
267.27797754
 20
137.1501809649
 30
0.0
 11
267.27797754
 21
139.7112077765
 31
0.0
  0
ARC
  5
140
  8
0
  6
CONTINUOUS
 62
     7
 10
275.2779778321
 20
139.7112070366
 30
0.0
 40
8.000000000000057
 50
140.3596923241
 51
180.0
  0
ARC
  5
141
  8
0
  6
CONTINUOUS
 62
     7
 10
293.7595287915
 20
124.4000256931
 30
0.0
 40
31.99999999999998
 50
91.4211498515
 51
140.3596923241
  0
LINE
  5
142
  8
0
  6
CONTINUOUS
 62
     7
 10
292.9658903916
 20
156.3901847892
 30
0.0
 11
296.8041687448
 21
156.3901847892
 31
0.0
  0
LINE
  5
143
  8
0
  6
CONTINUOUS
 62
     7
 10
312.9779770214
 20
151.5611595206
 30
0.0
 11
312.9779770214
 21
151.090181499
 31
0.0
  0
LINE
  5
144
  8
0
  6
CONTINUOUS
 62
     7
 10
351.5979780991
 20
150.554842382
 30
0.0
 11
351.5979780991
 21
150.4381960921
 31
0.0
  0
LINE
  5
145
  8
0
  6
CONTINUOUS
 62
     7
 10
356.977976783
 20
150.4381960921
 30
0.0
 11
356.977976783
 21
152.1560257964
 31
0.0
  0
LINE
  5
146
  8
0
  6
CONTINUOUS
 62
     7
 10
356.977976783
 20
152.1560257964
 30
0.0
 11
356.9775357087
 21
152.2042817168
 31
0.0
  0
POLYLINE
  5
147
  8
0
  6
CONTINUOUS
 62
     7
 66
     1
 10
0.0
 20
0.0
 30
0.0
  0
VERTEX
  5
32B
  8
0
  6
CONTINUOUS
 62
     7
 10
86.8864359653
 20
-30.1764062597
 30
0.0
  0
VERTEX
  5
32C
  8
0
  6
CONTINUOUS
 62
     7
 10
86.0903354681
 20
-30.2883810355
 30
0.0
  0
VERTEX
  5
32D
  8
0
  6
CONTINUOUS
 62
     7
 10
85.1836504734
 20
-30.4281777694
 30
0.0
  0
VERTEX
  5
32E
  8
0
  6
CONTINUOUS
 62
     7
 10
84.2864068544
 20
-30.5789611294
 30
0.0
  0
VERTEX
  5
32F
  8
0
  6
CONTINUOUS
 62
     7
 10
83.4032329119
 20
-30.7400769546
 30
0.0
  0
VERTEX
  5
330
  8
0
  6
CONTINUOUS
 62
     7
 10
82.5487198627
 20
-30.9083349063
 30
0.0
  0
VERTEX
  5
331
  8
0
  6
CONTINUOUS
 62
     7
 10
81.7097755468
 20
-31.0856170012
 30
0.0
  0
VERTEX
  5
332
  8
0
  6
CONTINUOUS
 62
     7
 10
80.8877023256
 20
-31.2714642837
 30
0.0
  0
VERTEX
  5
333
  8
0
  6
CONTINUOUS
 62
     7
 10
80.0886007345
 20
-31.46441942
 30
0.0
  0
VERTEX
  5
334
  8
0
  6
CONTINUOUS
 62
     7
 10
79.3183150089
 20
-31.6630250766
 30
0.0
  0
VERTEX
  5
335
  8
0
  6
CONTINUOUS
 62
     7
 10
78.582096318
 20
-31.8659371688
 30
0.0
  0
VERTEX
  5
336
  8
0
  6
CONTINUOUS
 62
     7
 10
77.8841497696
 20
-32.0721290066
 30
0.0
  0
VERTEX
  5
337
  8
0
  6
CONTINUOUS
 62
     7
 10
77.2299500502
 20
-32.2797707273
 30
0.0
  0
VERTEX
  5
338
  8
0
  6
CONTINUOUS
 62
     7
 10
76.6307683981
 20
-32.484344299
 30
0.0
  0
VERTEX
  5
339
  8
0
  6
CONTINUOUS
 62
     7
 10
76.0465653933
 20
-32.7002844765
 30
0.0
  0
VERTEX
  5
33A
  8
0
  6
CONTINUOUS
 62
     7
 10
75.493130306
 20
-32.9243353559
 30
0.0
  0
VERTEX
  5
33B
  8
0
  6
CONTINUOUS
 62
     7
 10
74.9628099001
 20
-33.1634632303
 30
0.0
  0
VERTEX
  5
33C
  8
0
  6
CONTINUOUS
 62
     7
 10
74.4368585146
 20
-33.4355703546
 30
0.0
  0
VERTEX
  5
33D
  8
0
  6
CONTINUOUS
 62
     7
 10
73.995152334
 20
-33.7063780977
 30
0.0
  0
VERTEX
  5
33E
  8
0
  6
CONTINUOUS
 62
     7
 10
73.6905249155
 20
-33.9283979489
 30
0.0
  0
VERTEX
  5
33F
  8
0
  6
CONTINUOUS
 62
     7
 10
73.4309973515
 20
-34.151429589
 30
0.0
  0
VERTEX
  5
340
  8
0
  6
CONTINUOUS
 62
     7
 10
73.1966855324
 20
-34.3915439202
 30
0.0
  0
VERTEX
  5
341
  8
0
  6
CONTINUOUS
 62
     7
 10
72.9842486179
 20
-34.656291361
 30
0.0
  0
VERTEX
  5
342
  8
0
  6
CONTINUOUS
 62
     7
 10
72.7946402824
 20
-34.95232677
 30
0.0
  0
VERTEX
  5
343
  8
0
  6
CONTINUOUS
 62
     7
 10
72.6340176857
 20
-35.281880851
 30
0.0
  0
VERTEX
  5
344
  8
0
  6
CONTINUOUS
 62
     7
 10
72.5111665523
 20
-35.6419659211
 30
0.0
  0
VERTEX
  5
345
  8
0
  6
CONTINUOUS
 62
     7
 10
72.4345239199
 20
-36.0253668382
 30
0.0
  0
VERTEX
  5
346
  8
0
  6
CONTINUOUS
 62
     7
 10
72.4121483362
 20
-36.3913304164
 30
0.0
  0
SEQEND
  5
412
  8
0
  6
CONTINUOUS
 62
     7
  0
POLYLINE
  5
148
  8
0
  6
CONTINUOUS
 62
     7
 66
     1
 10
0.0
 20
0.0
 30
0.0
  0
VERTEX
  5
347
  8
0
  6
CONTINUOUS
 62
     7
 10
152.5223793781
 20
-36.4041185929
 30
0.0
  0
VERTEX
  5
348
  8
0
  6
CONTINUOUS
 62
     7
 10
152.5259735382
 20
-36.330858524
 30
0.0
  0
VERTEX
  5
349
  8
0
  6
CONTINUOUS
 62
     7
 10
152.4887832201
 20
-35.9320006325
 30
0.0
  0
VERTEX
  5
34A
  8
0
  6
CONTINUOUS
 62
     7
 10
152.4018528259
 20
-35.557589586
 30
0.0
  0
VERTEX
  5
34B
  8
0
  6
CONTINUOUS
 62
     7
 10
152.2737505234
 20
-35.2128646328
 30
0.0
  0
VERTEX
  5
34C
  8
0
  6
CONTINUOUS
 62
     7
 10
152.1133276022
 20
-34.9009818389
 30
0.0
  0
VERTEX
  5
34D
  8
0
  6
CONTINUOUS
 62
     7
 10
151.9286277092
 20
-34.622219856
 30
0.0
  0
VERTEX
  5
34E
  8
0
  6
CONTINUOUS
 62
     7
 10
151.7250689066
 20
-34.3733689739
 30
0.0
  0
VERTEX
  5
34F
  8
0
  6
CONTINUOUS
 62
     7
 10
151.5034826792
 20
-34.1479233458
 30
0.0
  0
VERTEX
  5
350
  8
0
  6
CONTINUOUS
 62
     7
 10
151.2583555973
 20
-33.9367321684
 30
0.0
  0
VERTEX
  5
351
  8
0
  6
CONTINUOUS
 62
     7
 10
150.9721400536
 20
-33.7260327293
 30
0.0
  0
VERTEX
  5
352
  8
0
  6
CONTINUOUS
 62
     7
 10
150.5991431272
 20
-33.4917894556
 30
0.0
  0
VERTEX
  5
353
  8
0
  6
CONTINUOUS
 62
     7
 10
150.1193227566
 20
-33.2345417692
 30
0.0
  0
VERTEX
  5
354
  8
0
  6
CONTINUOUS
 62
     7
 10
149.5879950321
 20
-32.986947055
 30
0.0
  0
VERTEX
  5
355
  8
0
  6
CONTINUOUS
 62
     7
 10
149.050858835
 20
-32.7633029773
 30
0.0
  0
VERTEX
  5
356
  8
0
  6
CONTINUOUS
 62
     7
 10
148.4326960838
 20
-32.5295693232
 30
0.0
  0
VERTEX
  5
357
  8
0
  6
CONTINUOUS
 62
     7
 10
147.7945270336
 20
-32.3084122493
 30
0.0
  0
VERTEX
  5
358
  8
0
  6
CONTINUOUS
 62
     7
 10
147.1316637791
 20
-32.0959410622
 30
0.0
  0
VERTEX
  5
359
  8
0
  6
CONTINUOUS
 62
     7
 10
146.4445265329
 20
-31.8910754277
 30
0.0
  0
VERTEX
  5
35A
  8
0
  6
CONTINUOUS
 62
     7
 10
145.7114430464
 20
-31.6870517089
 30
0.0
  0
VERTEX
  5
35B
  8
0
  6
CONTINUOUS
 62
     7
 10
144.9452402389
 20
-31.487672682
 30
0.0
  0
VERTEX
  5
35C
  8
0
  6
CONTINUOUS
 62
     7
 10
144.1483976639
 20
-31.2936521127
 30
0.0
  0
VERTEX
  5
35D
  8
0
  6
CONTINUOUS
 62
     7
 10
143.324083308
 20
-31.105940695
 30
0.0
  0
VERTEX
  5
35E
  8
0
  6
CONTINUOUS
 62
     7
 10
142.4759658373
 20
-30.9256232335
 30
0.0
  0
VERTEX
  5
35F
  8
0
  6
CONTINUOUS
 62
     7
 10
141.6079851187
 20
-30.7538232758
 30
0.0
  0
VERTEX
  5
360
  8
0
  6
CONTINUOUS
 62
     7
 10
140.7243045366
 20
-30.5916673495
 30
0.0
  0
VERTEX
  5
361
  8
0
  6
CONTINUOUS
 62
     7
 10
139.8345055378
 20
-30.4409882976
 30
0.0
  0
VERTEX
  5
362
  8
0
  6
CONTINUOUS
 62
     7
 10
138.9329614437
 20
-30.3007296278
 30
0.0
  0
VERTEX
  5
363
  8
0
  6
CONTINUOUS
 62
     7
 10
138.0520494974
 20
-30.1755956366
 30
0.0
  0
SEQEND
  5
411
  8
0
  6
CONTINUOUS
 62
     7
  0
ARC
  5
149
  8
0
  6
CONTINUOUS
 62
     7
 10
112.346761325
 20
-217.2679342384
 30
0.0
 40
188.817430577799
 50
90.2489000752
 51
97.7494231048
  0
ARC
  5
14A
  8
0
  6
CONTINUOUS
 62
     7
 10
112.6760430827
 20
-216.3594443313
 30
0.0
 40
187.9058612011238
 50
82.2387238284
 51
89.7798291344
  0
POLYLINE
  5
14B
  8
0
  6
CONTINUOUS
 62
     7
 66
     1
 10
0.0
 20
0.0
 30
0.0
  0
VERTEX
  5
364
  8
0
  6
CONTINUOUS
 62
     7
 10
77.0052554405
 20
-38.1654060437
 30
0.0
  0
VERTEX
  5
365
  8
0
  6
CONTINUOUS
 62
     7
 10
77.0037802256
 20
-38.1665355517
 30
0.0
  0
VERTEX
  5
366
  8
0
  6
CONTINUOUS
 62
     7
 10
77.0441921747
 20
-38.1419322445
 30
0.0
  0
VERTEX
  5
367
  8
0
  6
CONTINUOUS
 62
     7
 10
77.1356346405
 20
-38.0914575412
 30
0.0
  0
VERTEX
  5
368
  8
0
  6
CONTINUOUS
 62
     7
 10
77.2848518885
 20
-38.0165613248
 30
0.0
  0
VERTEX
  5
369
  8
0
  6
CONTINUOUS
 62
     7
 10
77.4969073332
 20
-37.9192582323
 30
0.0
  0
VERTEX
  5
36A
  8
0
  6
CONTINUOUS
 62
     7
 10
77.7744444406
 20
-37.8021932198
 30
0.0
  0
VERTEX
  5
36B
  8
0
  6
CONTINUOUS
 62
     7
 10
78.1176211632
 20
-37.6684627487
 30
0.0
  0
VERTEX
  5
36C
  8
0
  6
CONTINUOUS
 62
     7
 10
78.5244824684
 20
-37.5213331534
 30
0.0
  0
VERTEX
  5
36D
  8
0
  6
CONTINUOUS
 62
     7
 10
78.9915742672
 20
-37.3640186145
 30
0.0
  0
VERTEX
  5
36E
  8
0
  6
CONTINUOUS
 62
     7
 10
79.514205674
 20
-37.1996185734
 30
0.0
  0
VERTEX
  5
36F
  8
0
  6
CONTINUOUS
 62
     7
 10
80.0894888437
 20
-37.03056937
 30
0.0
  0
VERTEX
  5
370
  8
0
  6
CONTINUOUS
 62
     7
 10
80.6984039343
 20
-36.8630043222
 30
0.0
  0
VERTEX
  5
371
  8
0
  6
CONTINUOUS
 62
     7
 10
81.3590439356
 20
-36.6923815562
 30
0.0
  0
VERTEX
  5
372
  8
0
  6
CONTINUOUS
 62
     7
 10
82.0645185507
 20
-36.5214279844
 30
0.0
  0
VERTEX
  5
373
  8
0
  6
CONTINUOUS
 62
     7
 10
82.807493428
 20
-36.3527289583
 30
0.0
  0
VERTEX
  5
374
  8
0
  6
CONTINUOUS
 62
     7
 10
83.5799457825
 20
-36.1887923433
 30
0.0
  0
VERTEX
  5
375
  8
0
  6
CONTINUOUS
 62
     7
 10
84.3720617092
 20
-36.0322496845
 30
0.0
  0
VERTEX
  5
376
  8
0
  6
CONTINUOUS
 62
     7
 10
85.1753088034
 20
-35.8851826741
 30
0.0
  0
VERTEX
  5
377
  8
0
  6
CONTINUOUS
 62
     7
 10
85.9859558142
 20
-35.7483140184
 30
0.0
  0
VERTEX
  5
378
  8
0
  6
CONTINUOUS
 62
     7
 10
86.8150325811
 20
-35.6197184874
 30
0.0
  0
VERTEX
  5
379
  8
0
  6
CONTINUOUS
 62
     7
 10
87.6108946598
 20
-35.5070061042
 30
0.0
  0
SEQEND
  5
410
  8
0
  6
CONTINUOUS
 62
     7
  0
POLYLINE
  5
14C
  8
0
  6
CONTINUOUS
 62
     7
 66
     1
 10
0.0
 20
0.0
 30
0.0
  0
VERTEX
  5
37A
  8
0
  6
CONTINUOUS
 62
     7
 10
137.3275610006
 20
-35.5073801233
 30
0.0
  0
VERTEX
  5
37B
  8
0
  6
CONTINUOUS
 62
     7
 10
137.987521509
 20
-35.59947526
 30
0.0
  0
VERTEX
  5
37C
  8
0
  6
CONTINUOUS
 62
     7
 10
138.8249518669
 20
-35.7276952817
 30
0.0
  0
VERTEX
  5
37D
  8
0
  6
CONTINUOUS
 62
     7
 10
139.6541299618
 20
-35.8661196186
 30
0.0
  0
VERTEX
  5
37E
  8
0
  6
CONTINUOUS
 62
     7
 10
140.4685857094
 20
-36.0136455848
 30
0.0
  0
VERTEX
  5
37F
  8
0
  6
CONTINUOUS
 62
     7
 10
141.257402519
 20
-36.1678428008
 30
0.0
  0
VERTEX
  5
380
  8
0
  6
CONTINUOUS
 62
     7
 10
142.0255454576
 20
-36.3291031672
 30
0.0
  0
VERTEX
  5
381
  8
0
  6
CONTINUOUS
 62
     7
 10
142.769187907
 20
-36.4962480022
 30
0.0
  0
VERTEX
  5
382
  8
0
  6
CONTINUOUS
 62
     7
 10
143.482321719
 20
-36.6675204589
 30
0.0
  0
VERTEX
  5
383
  8
0
  6
CONTINUOUS
 62
     7
 10
144.1589268244
 20
-36.8409893467
 30
0.0
  0
VERTEX
  5
384
  8
0
  6
CONTINUOUS
 62
     7
 10
144.7932185924
 20
-37.0145878746
 30
0.0
  0
VERTEX
  5
385
  8
0
  6
CONTINUOUS
 62
     7
 10
145.3795763052
 20
-37.186074908
 30
0.0
  0
VERTEX
  5
386
  8
0
  6
CONTINUOUS
 62
     7
 10
145.9129693306
 20
-37.3531064941
 30
0.0
  0
VERTEX
  5
387
  8
0
  6
CONTINUOUS
 62
     7
 10
146.3922949827
 20
-37.5141478135
 30
0.0
  0
VERTEX
  5
388
  8
0
  6
CONTINUOUS
 62
     7
 10
146.8184622324
 20
-37.6682511522
 30
0.0
  0
VERTEX
  5
389
  8
0
  6
CONTINUOUS
 62
     7
 10
147.1842410362
 20
-37.8113365724
 30
0.0
  0
VERTEX
  5
38A
  8
0
  6
CONTINUOUS
 62
     7
 10
147.4828513658
 20
-37.9385686471
 30
0.0
  0
VERTEX
  5
38B
  8
0
  6
CONTINUOUS
 62
     7
 10
147.6870628393
 20
-38.0336767985
 30
0.0
  0
VERTEX
  5
38C
  8
0
  6
CONTINUOUS
 62
     7
 10
147.828436116
 20
-38.105789478
 30
0.0
  0
VERTEX
  5
38D
  8
0
  6
CONTINUOUS
 62
     7
 10
147.9106249607
 20
-38.1519875481
 30
0.0
  0
VERTEX
  5
38E
  8
0
  6
CONTINUOUS
 62
     7
 10
147.9400428331
 20
-38.170222099
 30
0.0
  0
VERTEX
  5
38F
  8
0
  6
CONTINUOUS
 62
     7
 10
147.9378434217
 20
-38.1686202242
 30
0.0
  0
SEQEND
  5
40F
  8
0
  6
CONTINUOUS
 62
     7
  0
LINE
  5
14D
  8
0
  6
CONTINUOUS
 62
     7
 10
111.4692025206
 20
-28.1101248218
 30
0.0
 11
111.4692025206
 21
-28.4680969073
 31
0.0
  0
LINE
  5
14E
  8
0
  6
CONTINUOUS
 62
     7
 10
113.4692024759
 20
-28.4680969073
 30
0.0
 11
113.4692024759
 21
-28.1101248218
 31
0.0
  0
ARC
  5
14F
  8
0
  6
CONTINUOUS
 62
     7
 10
112.4692024982
 20
-218.5168603629
 30
0.0
 40
184.691467016849
 50
82.2647823914
 51
97.7352176086
  0
LINE
  5
150
  8
0
  6
CONTINUOUS
 62
     7
 10
72.4104466236
 20
-36.3998509004
 30
0.0
 11
72.4104466236
 21
-41.274624969
 31
0.0
  0
LINE
  5
151
  8
0
  6
CONTINUOUS
 62
     7
 10
152.5279583729
 20
-41.274624969
 30
0.0
 11
152.5279583729
 21
-36.3998509004
 31
0.0
  0
POLYLINE
  5
152
  8
0
  6
CONTINUOUS
 62
     7
 66
     1
 10
0.0
 20
0.0
 30
0.0
  0
VERTEX
  5
390
  8
0
  6
CONTINUOUS
 62
     7
 10
137.3277398146
 20
-43.381446506
 30
0.0
  0
VERTEX
  5
391
  8
0
  6
CONTINUOUS
 62
     7
 10
138.104388336
 20
-43.4856518163
 30
0.0
  0
VERTEX
  5
392
  8
0
  6
CONTINUOUS
 62
     7
 10
138.9868172205
 20
-43.6004242851
 30
0.0
  0
VERTEX
  5
393
  8
0
  6
CONTINUOUS
 62
     7
 10
139.8587527073
 20
-43.7102249815
 30
0.0
  0
VERTEX
  5
394
  8
0
  6
CONTINUOUS
 62
     7
 10
140.7162430084
 20
-43.8144817008
 30
0.0
  0
VERTEX
  5
395
  8
0
  6
CONTINUOUS
 62
     7
 10
141.5521266258
 20
-43.9120016052
 30
0.0
  0
VERTEX
  5
396
  8
0
  6
CONTINUOUS
 62
     7
 10
142.3735620773
 20
-44.0033174111
 30
0.0
  0
VERTEX
  5
397
  8
0
  6
CONTINUOUS
 62
     7
 10
143.1797476805
 20
-44.087882991
 30
0.0
  0
VERTEX
  5
398
  8
0
  6
CONTINUOUS
 62
     7
 10
143.9642669952
 20
-44.1644876255
 30
0.0
  0
VERTEX
  5
399
  8
0
  6
CONTINUOUS
 62
     7
 10
144.7210522688
 20
-44.2319608285
 30
0.0
  0
VERTEX
  5
39A
  8
0
  6
CONTINUOUS
 62
     7
 10
145.4447748459
 20
-44.2891909732
 30
0.0
  0
VERTEX
  5
39B
  8
0
  6
CONTINUOUS
 62
     7
 10
146.131360749
 20
-44.3351178421
 30
0.0
  0
VERTEX
  5
39C
  8
0
  6
CONTINUOUS
 62
     7
 10
146.7795493401
 20
-44.3687527432
 30
0.0
  0
VERTEX
  5
39D
  8
0
  6
CONTINUOUS
 62
     7
 10
147.397592882
 20
-44.3893826558
 30
0.0
  0
VERTEX
  5
39E
  8
0
  6
CONTINUOUS
 62
     7
 10
147.9905786312
 20
-44.3952261462
 30
0.0
  0
VERTEX
  5
39F
  8
0
  6
CONTINUOUS
 62
     7
 10
148.5670449532
 20
-44.3828164591
 30
0.0
  0
VERTEX
  5
3A0
  8
0
  6
CONTINUOUS
 62
     7
 10
149.1489919222
 20
-44.3440287365
 30
0.0
  0
VERTEX
  5
3A1
  8
0
  6
CONTINUOUS
 62
     7
 10
149.7117312944
 20
-44.2684321656
 30
0.0
  0
VERTEX
  5
3A2
  8
0
  6
CONTINUOUS
 62
     7
 10
150.0776620901
 20
-44.1898426964
 30
0.0
  0
VERTEX
  5
3A3
  8
0
  6
CONTINUOUS
 62
     7
 10
150.4153104818
 20
-44.0892158999
 30
0.0
  0
VERTEX
  5
3A4
  8
0
  6
CONTINUOUS
 62
     7
 10
150.7282080448
 20
-43.9654125823
 30
0.0
  0
VERTEX
  5
3A5
  8
0
  6
CONTINUOUS
 62
     7
 10
151.0299654997
 20
-43.811288382
 30
0.0
  0
VERTEX
  5
3A6
  8
0
  6
CONTINUOUS
 62
     7
 10
151.3229223288
 20
-43.6205289318
 30
0.0
  0
VERTEX
  5
3A7
  8
0
  6
CONTINUOUS
 62
     7
 10
151.6034396685
 20
-43.388184066
 30
0.0
  0
VERTEX
  5
3A8
  8
0
  6
CONTINUOUS
 62
     7
 10
151.86293445
 20
-43.1128113522
 30
0.0
  0
VERTEX
  5
3A9
  8
0
  6
CONTINUOUS
 62
     7
 10
152.0909073151
 20
-42.7970401003
 30
0.0
  0
VERTEX
  5
3AA
  8
0
  6
CONTINUOUS
 62
     7
 10
152.277672509
 20
-42.4467339172
 30
0.0
  0
VERTEX
  5
3AB
  8
0
  6
CONTINUOUS
 62
     7
 10
152.4274440802
 20
-42.0280358746
 30
0.0
  0
VERTEX
  5
3AC
  8
0
  6
CONTINUOUS
 62
     7
 10
152.4532648123
 20
-41.8941765084
 30
0.0
  0
SEQEND
  5
40E
  8
0
  6
CONTINUOUS
 62
     7
  0
POLYLINE
  5
153
  8
0
  6
CONTINUOUS
 62
     7
 66
     1
 10
0.0
 20
0.0
 30
0.0
  0
VERTEX
  5
3AD
  8
0
  6
CONTINUOUS
 62
     7
 10
72.4799992836
 20
-41.8948500409
 30
0.0
  0
VERTEX
  5
3AE
  8
0
  6
CONTINUOUS
 62
     7
 10
72.4809440172
 20
-41.9013603582
 30
0.0
  0
VERTEX
  5
3AF
  8
0
  6
CONTINUOUS
 62
     7
 10
72.6037772692
 20
-42.3067769958
 30
0.0
  0
VERTEX
  5
3B0
  8
0
  6
CONTINUOUS
 62
     7
 10
72.7769436634
 20
-42.6756880238
 30
0.0
  0
VERTEX
  5
3B1
  8
0
  6
CONTINUOUS
 62
     7
 10
72.9904743231
 20
-43.0037482633
 30
0.0
  0
VERTEX
  5
3B2
  8
0
  6
CONTINUOUS
 62
     7
 10
73.2344242132
 20
-43.2887359514
 30
0.0
  0
VERTEX
  5
3B3
  8
0
  6
CONTINUOUS
 62
     7
 10
73.4991165197
 20
-43.5303351833
 30
0.0
  0
VERTEX
  5
3B4
  8
0
  6
CONTINUOUS
 62
     7
 10
73.7761052645
 20
-43.7304436221
 30
0.0
  0
VERTEX
  5
3B5
  8
0
  6
CONTINUOUS
 62
     7
 10
74.0598978794
 20
-43.8932701005
 30
0.0
  0
VERTEX
  5
3B6
  8
0
  6
CONTINUOUS
 62
     7
 10
74.3498416937
 20
-44.0247139885
 30
0.0
  0
VERTEX
  5
3B7
  8
0
  6
CONTINUOUS
 62
     7
 10
74.6531220472
 20
-44.1315977826
 30
0.0
  0
VERTEX
  5
3B8
  8
0
  6
CONTINUOUS
 62
     7
 10
74.9866487778
 20
-44.2198417141
 30
0.0
  0
VERTEX
  5
3B9
  8
0
  6
CONTINUOUS
 62
     7
 10
75.3438236511
 20
-44.287609215
 30
0.0
  0
VERTEX
  5
3BA
  8
0
  6
CONTINUOUS
 62
     7
 10
75.8093925512
 20
-44.3450904443
 30
0.0
  0
VERTEX
  5
3BB
  8
0
  6
CONTINUOUS
 62
     7
 10
76.4758708275
 20
-44.3857929661
 30
0.0
  0
VERTEX
  5
3BC
  8
0
  6
CONTINUOUS
 62
     7
 10
77.0492228067
 20
-44.3947046055
 30
0.0
  0
VERTEX
  5
3BD
  8
0
  6
CONTINUOUS
 62
     7
 10
77.629864434
 20
-44.3868479683
 30
0.0
  0
VERTEX
  5
3BE
  8
0
  6
CONTINUOUS
 62
     7
 10
78.2876702345
 20
-44.362860079
 30
0.0
  0
VERTEX
  5
3BF
  8
0
  6
CONTINUOUS
 62
     7
 10
78.9615990913
 20
-44.3256094112
 30
0.0
  0
VERTEX
  5
3C0
  8
0
  6
CONTINUOUS
 62
     7
 10
79.6649517811
 20
-44.2764825179
 30
0.0
  0
VERTEX
  5
3C1
  8
0
  6
CONTINUOUS
 62
     7
 10
80.4000260628
 20
-44.2165478124
 30
0.0
  0
VERTEX
  5
3C2
  8
0
  6
CONTINUOUS
 62
     7
 10
81.165302018
 20
-44.1466844632
 30
0.0
  0
VERTEX
  5
3C3
  8
0
  6
CONTINUOUS
 62
     7
 10
81.958332876
 20
-44.0677254452
 30
0.0
  0
VERTEX
  5
3C4
  8
0
  6
CONTINUOUS
 62
     7
 10
82.7758105791
 20
-43.9805275752
 30
0.0
  0
VERTEX
  5
3C5
  8
0
  6
CONTINUOUS
 62
     7
 10
83.6138995684
 20
-43.8859722568
 30
0.0
  0
VERTEX
  5
3C6
  8
0
  6
CONTINUOUS
 62
     7
 10
84.4684752024
 20
-43.7849595203
 30
0.0
  0
VERTEX
  5
3C7
  8
0
  6
CONTINUOUS
 62
     7
 10
85.3338601387
 20
-43.678598757
 30
0.0
  0
VERTEX
  5
3C8
  8
0
  6
CONTINUOUS
 62
     7
 10
86.2053366697
 20
-43.5678399159
 30
0.0
  0
VERTEX
  5
3C9
  8
0
  6
CONTINUOUS
 62
     7
 10
87.084913472
 20
-43.4524438335
 30
0.0
  0
VERTEX
  5
3CA
  8
0
  6
CONTINUOUS
 62
     7
 10
87.6107247866
 20
-43.3813004746
 30
0.0
  0
SEQEND
  5
40D
  8
0
  6
CONTINUOUS
 62
     7
  0
POLYLINE
  5
154
  8
0
  6
CONTINUOUS
 62
     7
 66
     1
 10
0.0
 20
0.0
 30
0.0
  0
VERTEX
  5
3CB
  8
0
  6
CONTINUOUS
 62
     7
 10
152.4667563236
 20
-41.8242431237
 30
0.0
  0
VERTEX
  5
3CC
  8
0
  6
CONTINUOUS
 62
     7
 10
152.5092514551
 20
-41.6039443566
 30
0.0
  0
VERTEX
  5
3CD
  8
0
  6
CONTINUOUS
 62
     7
 10
152.5232674873
 20
-41.2754788055
 30
0.0
  0
SEQEND
  5
40C
  8
0
  6
CONTINUOUS
 62
     7
  0
POLYLINE
  5
155
  8
0
  6
CONTINUOUS
 62
     7
 66
     1
 10
0.0
 20
0.0
 30
0.0
  0
VERTEX
  5
3CE
  8
0
  6
CONTINUOUS
 62
     7
 10
72.4185975588
 20
-41.2682591929
 30
0.0
  0
VERTEX
  5
3CF
  8
0
  6
CONTINUOUS
 62
     7
 10
72.418177346
 20
-41.4681076064
 30
0.0
  0
VERTEX
  5
3D0
  8
0
  6
CONTINUOUS
 62
     7
 10
72.4799992836
 20
-41.8948500409
 30
0.0
  0
SEQEND
  5
40B
  8
0
  6
CONTINUOUS
 62
     7
  0
ARC
  5
156
  8
0
  6
CONTINUOUS
 62
     7
 10
112.4692024982
 20
-226.391989933
 30
0.0
 40
184.6913998231537
 50
82.26477956
 51
97.73522044
  0
ARC
  5
157
  8
0
  6
CONTINUOUS
 62
     7
 10
137.6528625271
 20
-118.6552448483
 30
0.0
 40
14.86825590731787
 50
270.8245009774
 51
0.4742439197
  0
ARC
  5
158
  8
0
  6
CONTINUOUS
 62
     7
 10
87.284754279
 20
-118.6587148475
 30
0.0
 40
14.86657772581386
 50
179.5129030109
 51
269.3234303013
  0
ARC
  5
159
  8
0
  6
CONTINUOUS
 62
     7
 10
137.6417077725
 20
-78.4437596797
 30
0.0
 40
14.87761379013336
 50
359.6598601843
 51
32.699089261
  0
ARC
  5
15A
  8
0
  6
CONTINUOUS
 62
     7
 10
87.3887351392
 20
-78.4763096896
 30
0.0
 40
14.97534924019666
 50
147.3882171823
 51
180.2161070771
  0
ARC
  5
15B
  8
0
  6
CONTINUOUS
 62
     7
 10
87.2128820906
 20
-78.239124201
 30
0.0
 40
14.69880721282063
 50
90.699217633
 51
141.1138418288
  0
ARC
  5
15C
  8
0
  6
CONTINUOUS
 62
     7
 10
137.7285665739
 20
-78.2157783525
 30
0.0
 40
14.67823162505245
 50
38.7741745702
 51
89.7632189336
  0
LINE
  5
15D
  8
0
  6
CONTINUOUS
 62
     7
 10
72.4104466236
 20
-78.5321197464
 30
0.0
 11
72.4104466236
 21
-118.5321203424
 31
0.0
  0
LINE
  5
15E
  8
0
  6
CONTINUOUS
 62
     7
 10
152.5279583729
 20
-118.5321203424
 30
0.0
 11
152.5279583729
 21
-78.5321197464
 31
0.0
  0
ARC
  5
15F
  8
0
  6
CONTINUOUS
 62
     7
 10
112.476820011
 20
-22.2342719195
 30
0.0
 40
6.286235465925808
 50
261.304747261
 51
278.4275782342
  0
LINE
  5
160
  8
0
  6
CONTINUOUS
 62
     7
 10
114.4692024535
 20
-27.8676039531
 30
0.0
 11
110.4692025429
 21
-27.8676039531
 31
0.0
  0
POLYLINE
  5
161
  8
0
  6
CONTINUOUS
 62
     7
 66
     1
 10
0.0
 20
0.0
 30
0.0
  0
VERTEX
  5
3D1
  8
0
  6
CONTINUOUS
 62
     7
 10
112.4692024982
 20
-27.988255675
 30
0.0
  0
VERTEX
  5
3D2
  8
0
  6
CONTINUOUS
 62
     7
 10
112.1994057291
 20
-27.9927751972
 30
0.0
  0
VERTEX
  5
3D3
  8
0
  6
CONTINUOUS
 62
     7
 10
111.9496185652
 20
-28.0059969975
 30
0.0
  0
VERTEX
  5
3D4
  8
0
  6
CONTINUOUS
 62
     7
 10
111.7383665259
 20
-28.0269420697
 30
0.0
  0
VERTEX
  5
3D5
  8
0
  6
CONTINUOUS
 62
     7
 10
111.5813172742
 20
-28.0540562226
 30
0.0
  0
VERTEX
  5
3D6
  8
0
  6
CONTINUOUS
 62
     7
 10
111.4901184424
 20
-28.0853292896
 30
0.0
  0
VERTEX
  5
3D7
  8
0
  6
CONTINUOUS
 62
     7
 10
111.4692025206
 20
-28.1101248218
 30
0.0
  0
SEQEND
  5
40A
  8
0
  6
CONTINUOUS
 62
     7
  0
POLYLINE
  5
162
  8
0
  6
CONTINUOUS
 62
     7
 66
     1
 10
0.0
 20
0.0
 30
0.0
  0
VERTEX
  5
3D8
  8
0
  6
CONTINUOUS
 62
     7
 10
113.4692024759
 20
-28.1101248218
 30
0.0
  0
VERTEX
  5
3D9
  8
0
  6
CONTINUOUS
 62
     7
 10
113.4482865541
 20
-28.0853292896
 30
0.0
  0
VERTEX
  5
3DA
  8
0
  6
CONTINUOUS
 62
     7
 10
113.3570877223
 20
-28.0540562226
 30
0.0
  0
VERTEX
  5
3DB
  8
0
  6
CONTINUOUS
 62
     7
 10
113.2000384706
 20
-28.0269420697
 30
0.0
  0
VERTEX
  5
3DC
  8
0
  6
CONTINUOUS
 62
     7
 10
112.9887864313
 20
-28.0059969975
 30
0.0
  0
VERTEX
  5
3DD
  8
0
  6
CONTINUOUS
 62
     7
 10
112.7389992674
 20
-27.9927751972
 30
0.0
  0
VERTEX
  5
3DE
  8
0
  6
CONTINUOUS
 62
     7
 10
112.4692024982
 20
-27.988255675
 30
0.0
  0
SEQEND
  5
409
  8
0
  6
CONTINUOUS
 62
     7
  0
ARC
  5
163
  8
0
  6
CONTINUOUS
 62
     7
 10
110.4654872224
 20
-26.8713192121
 30
0.0
 40
0.9962916685299708
 50
180.214955812
 51
270.2136650234
  0
LINE
  5
164
  8
0
  6
CONTINUOUS
 62
     7
 10
109.4692025653
 20
-26.8750569775
 30
0.0
 11
109.4692025653
 21
-22.9048750355
 31
0.0
  0
ARC
  5
165
  8
0
  6
CONTINUOUS
 62
     7
 10
110.465490827
 20
-22.9086149368
 30
0.0
 40
0.9962952811582718
 50
89.7865430513
 51
179.7849221292
  0
LINE
  5
166
  8
0
  6
CONTINUOUS
 62
     7
 10
110.4692025429
 20
-21.9123265697
 30
0.0
 11
114.4692024535
 21
-21.9123265697
 31
0.0
  0
ARC
  5
167
  8
0
  6
CONTINUOUS
 62
     7
 10
114.4729141695
 20
-22.9086149368
 30
0.0
 40
0.9962952811582718
 50
0.2150778708
 51
90.2134569487
  0
LINE
  5
168
  8
0
  6
CONTINUOUS
 62
     7
 10
115.4692024312
 20
-22.9048750355
 30
0.0
 11
115.4692024312
 21
-26.8750569775
 31
0.0
  0
ARC
  5
169
  8
0
  6
CONTINUOUS
 62
     7
 10
114.4729177741
 20
-26.8713192121
 30
0.0
 40
0.9962916685299789
 50
269.7863349766
 51
359.785044188
  0
LINE
  5
16A
  8
0
  6
CONTINUOUS
 62
     7
 10
115.4692024312
 20
-26.8750569775
 30
0.0
 11
115.4692024312
 21
-28.4700996234
 31
0.0
  0
LINE
  5
16B
  8
0
  6
CONTINUOUS
 62
     7
 10
109.4692025653
 20
-28.4746280863
 30
0.0
 11
109.4692025653
 21
-26.8750569775
 31
0.0
  0
POLYLINE
  5
16C
  8
0
  6
CONTINUOUS
 62
     7
 66
     1
 10
0.0
 20
0.0
 30
0.0
  0
VERTEX
  5
3DF
  8
0
  6
CONTINUOUS
 62
     7
 10
139.1697557962
 20
-42.246003355
 30
0.0
  0
VERTEX
  5
3E0
  8
0
  6
CONTINUOUS
 62
     7
 10
140.2509095467
 20
-42.3753513946
 30
0.0
  0
VERTEX
  5
3E1
  8
0
  6
CONTINUOUS
 62
     7
 10
141.299697975
 20
-42.4912511362
 30
0.0
  0
VERTEX
  5
3E2
  8
0
  6
CONTINUOUS
 62
     7
 10
142.2965379751
 20
-42.5908341064
 30
0.0
  0
VERTEX
  5
3E3
  8
0
  6
CONTINUOUS
 62
     7
 10
143.2314606703
 20
-42.6721296265
 30
0.0
  0
VERTEX
  5
3E4
  8
0
  6
CONTINUOUS
 62
     7
 10
144.096774081
 20
-42.7336133077
 30
0.0
  0
VERTEX
  5
3E5
  8
0
  6
CONTINUOUS
 62
     7
 10
144.8767872847
 20
-42.7731334223
 30
0.0
  0
VERTEX
  5
3E6
  8
0
  6
CONTINUOUS
 62
     7
 10
145.5670776165
 20
-42.7889800622
 30
0.0
  0
VERTEX
  5
3E7
  8
0
  6
CONTINUOUS
 62
     7
 10
146.1582692659
 20
-42.7800557568
 30
0.0
  0
VERTEX
  5
3E8
  8
0
  6
CONTINUOUS
 62
     7
 10
146.6399433411
 20
-42.7456050171
 30
0.0
  0
VERTEX
  5
3E9
  8
0
  6
CONTINUOUS
 62
     7
 10
147.0094921387
 20
-42.684007342
 30
0.0
  0
VERTEX
  5
3EA
  8
0
  6
CONTINUOUS
 62
     7
 10
147.2602786816
 20
-42.5958349361
 30
0.0
  0
VERTEX
  5
3EB
  8
0
  6
CONTINUOUS
 62
     7
 10
147.3879279888
 20
-42.4822657361
 30
0.0
  0
VERTEX
  5
3EC
  8
0
  6
CONTINUOUS
 62
     7
 10
147.4048110044
 20
-42.4131973638
 30
0.0
  0
SEQEND
  5
408
  8
0
  6
CONTINUOUS
 62
     7
  0
ARC
  5
16D
  8
0
  6
CONTINUOUS
 62
     7
 10
112.4692024982
 20
-226.0842264423
 30
0.0
 40
185.7670902348652
 50
81.7361790473
 51
98.2638209527
  0
POLYLINE
  5
16E
  8
0
  6
CONTINUOUS
 62
     7
 66
     1
 10
0.0
 20
0.0
 30
0.0
  0
VERTEX
  5
3ED
  8
0
  6
CONTINUOUS
 62
     7
 10
77.533593992
 20
-42.4131973638
 30
0.0
  0
VERTEX
  5
3EE
  8
0
  6
CONTINUOUS
 62
     7
 10
77.5976809061
 20
-42.540730442
 30
0.0
  0
VERTEX
  5
3EF
  8
0
  6
CONTINUOUS
 62
     7
 10
77.7877005136
 20
-42.6430284037
 30
0.0
  0
VERTEX
  5
3F0
  8
0
  6
CONTINUOUS
 62
     7
 10
78.1002851522
 20
-42.7185199215
 30
0.0
  0
VERTEX
  5
3F1
  8
0
  6
CONTINUOUS
 62
     7
 10
78.5343529976
 20
-42.7665813817
 30
0.0
  0
VERTEX
  5
3F2
  8
0
  6
CONTINUOUS
 62
     7
 10
79.0845962561
 20
-42.7880040361
 30
0.0
  0
VERTEX
  5
3F3
  8
0
  6
CONTINUOUS
 62
     7
 10
79.7410341299
 20
-42.7832915439
 30
0.0
  0
VERTEX
  5
3F4
  8
0
  6
CONTINUOUS
 62
     7
 10
80.4944010771
 20
-42.7533826782
 30
0.0
  0
VERTEX
  5
3F5
  8
0
  6
CONTINUOUS
 62
     7
 10
81.3402148283
 20
-42.700060363
 30
0.0
  0
VERTEX
  5
3F6
  8
0
  6
CONTINUOUS
 62
     7
 10
82.2626890934
 20
-42.6254226818
 30
0.0
  0
VERTEX
  5
3F7
  8
0
  6
CONTINUOUS
 62
     7
 10
83.2445087231
 20
-42.53197899
 30
0.0
  0
VERTEX
  5
3F8
  8
0
  6
CONTINUOUS
 62
     7
 10
84.2839839256
 20
-42.4211478784
 30
0.0
  0
VERTEX
  5
3F9
  8
0
  6
CONTINUOUS
 62
     7
 10
85.3614600695
 20
-42.2958134665
 30
0.0
  0
VERTEX
  5
3FA
  8
0
  6
CONTINUOUS
 62
     7
 10
85.7686492002
 20
-42.246003355
 30
0.0
  0
SEQEND
  5
407
  8
0
  6
CONTINUOUS
 62
     7
  0
LINE
  5
16F
  8
0
  6
CONTINUOUS
 62
     7
 10
77.533593992
 20
-37.9037833764
 30
0.0
 11
77.533593992
 21
-42.4131973638
 31
0.0
  0
LINE
  5
170
  8
0
  6
CONTINUOUS
 62
     7
 10
147.4048110044
 20
-42.4131973638
 30
0.0
 11
147.4048110044
 21
-37.905318196
 31
0.0
  0
POLYLINE
  5
171
  8
0
  6
CONTINUOUS
 62
     7
 66
     1
 10
0.0
 20
0.0
 30
0.0
  0
VERTEX
  5
3FB
  8
0
  6
CONTINUOUS
 62
     7
 10
152.5279583729
 20
-41.274624969
 30
0.0
  0
VERTEX
  5
3FC
  8
0
  6
CONTINUOUS
 62
     7
 10
152.5257410801
 20
-41.3830137803
 30
0.0
  0
VERTEX
  5
3FD
  8
0
  6
CONTINUOUS
 62
     7
 10
152.4650188482
 20
-41.8488076879
 30
0.0
  0
SEQEND
  5
406
  8
0
  6
CONTINUOUS
 62
     7
  0
LINE
  5
172
  8
0
  6
CONTINUOUS
 62
     7
 10
109.4692025653
 20
-41.7271926059
 30
0.0
 11
109.4692025653
 21
-44.4012067272
 31
0.0
  0
LINE
  5
173
  8
0
  6
CONTINUOUS
 62
     7
 10
115.4692024312
 20
-41.7317210688
 30
0.0
 11
115.4692024312
 21
-44.4012067272
 31
0.0
  0
LINE
  5
174
  8
0
  6
CONTINUOUS
 62
     7
 10
114.4692024535
 20
-46.8321188344
 30
0.0
 11
110.4692025429
 21
-46.8321188344
 31
0.0
  0
ARC
  5
175
  8
0
  6
CONTINUOUS
 62
     7
 10
110.4692024982
 20
-45.8321190073
 30
0.0
 40
1.000000000000007
 50
180.0
 51
270.0
  0
LINE
  5
176
  8
0
  6
CONTINUOUS
 62
     7
 10
109.4692025653
 20
-44.4012067272
 30
0.0
 11
109.4692025653
 21
-45.8321190431
 31
0.0
  0
ARC
  5
177
  8
0
  6
CONTINUOUS
 62
     7
 10
114.4692024982
 20
-45.8321190073
 30
0.0
 40
1.000000000000007
 50
270.0
 51
0.0
  0
LINE
  5
178
  8
0
  6
CONTINUOUS
 62
     7
 10
115.4692024312
 20
-44.4012067272
 30
0.0
 11
115.4692024312
 21
-45.8321190431
 31
0.0
  0
LINE
  5
179
  8
0
  6
CONTINUOUS
 62
     7
 10
94.469201783
 20
-47.8321189984
 30
0.0
 11
94.469201783
 21
-57.4321190818
 31
0.0
  0
LINE
  5
17A
  8
0
  6
CONTINUOUS
 62
     7
 10
130.4692032135
 20
-47.8321189984
 30
0.0
 11
130.4692032135
 21
-57.4321190818
 31
0.0
  0
LINE
  5
17B
  8
0
  6
CONTINUOUS
 62
     7
 10
130.4692032135
 20
-58.4321188732
 30
0.0
 11
94.469201783
 21
-58.4321188732
 31
0.0
  0
LINE
  5
17C
  8
0
  6
CONTINUOUS
 62
     7
 10
94.469201783
 20
-57.4321190818
 30
0.0
 11
94.469201783
 21
-58.4321188732
 31
0.0
  0
LINE
  5
17D
  8
0
  6
CONTINUOUS
 62
     7
 10
130.4692032135
 20
-57.4321190818
 30
0.0
 11
130.4692032135
 21
-58.4321188732
 31
0.0
  0
LINE
  5
17E
  8
0
  6
CONTINUOUS
 62
     7
 10
110.4692025429
 20
-46.8321188344
 30
0.0
 11
94.469201783
 21
-46.8321188344
 31
0.0
  0
LINE
  5
17F
  8
0
  6
CONTINUOUS
 62
     7
 10
130.4692032135
 20
-46.8321188344
 30
0.0
 11
114.4692024535
 21
-46.8321188344
 31
0.0
  0
LINE
  5
180
  8
0
  6
CONTINUOUS
 62
     7
 10
94.469201783
 20
-46.8321188344
 30
0.0
 11
94.469201783
 21
-47.8321189984
 31
0.0
  0
LINE
  5
181
  8
0
  6
CONTINUOUS
 62
     7
 10
130.4692032135
 20
-46.8321188344
 30
0.0
 11
130.4692032135
 21
-47.8321189984
 31
0.0
  0
LINE
  5
182
  8
0
  6
CONTINUOUS
 62
     7
 10
69.2692013777
 20
-47.4321189328
 30
0.0
 11
69.9692013061
 21
-47.4321189328
 31
0.0
  0
LINE
  5
183
  8
0
  6
CONTINUOUS
 62
     7
 10
79.9692036903
 20
-47.4321189328
 30
0.0
 11
94.469201783
 21
-47.4321189328
 31
0.0
  0
LINE
  5
184
  8
0
  6
CONTINUOUS
 62
     7
 10
130.4692032135
 20
-47.4321189328
 30
0.0
 11
144.9692013061
 21
-47.4321189328
 31
0.0
  0
LINE
  5
185
  8
0
  6
CONTINUOUS
 62
     7
 10
154.9692036903
 20
-47.4321189328
 30
0.0
 11
155.6692036188
 21
-47.4321189328
 31
0.0
  0
LINE
  5
186
  8
0
  6
CONTINUOUS
 62
     7
 10
156.0692014492
 20
-47.8321189984
 30
0.0
 11
156.0692014492
 21
-48.4321190967
 31
0.0
  0
ARC
  5
187
  8
0
  6
CONTINUOUS
 62
     7
 10
155.6692024982
 20
-47.8321190073
 30
0.0
 40
0.4000000000000057
 50
0.0
 51
90.0
  0
LINE
  5
188
  8
0
  6
CONTINUOUS
 62
     7
 10
156.0692014492
 20
-48.4321190967
 30
0.0
 11
156.0692014492
 21
-56.4321189179
 31
0.0
  0
LINE
  5
189
  8
0
  6
CONTINUOUS
 62
     7
 10
68.8692035473
 20
-56.4321189179
 30
0.0
 11
68.8692035473
 21
-48.4321190967
 31
0.0
  0
LINE
  5
18A
  8
0
  6
CONTINUOUS
 62
     7
 10
68.8692035473
 20
-48.4321190967
 30
0.0
 11
68.8692035473
 21
-47.8321189984
 31
0.0
  0
ARC
  5
18B
  8
0
  6
CONTINUOUS
 62
     7
 10
69.2692024982
 20
-47.8321190073
 30
0.0
 40
0.3999999999999986
 50
90.0
 51
180.0
  0
LINE
  5
18C
  8
0
  6
CONTINUOUS
 62
     7
 10
68.8692035473
 20
-57.0321190162
 30
0.0
 11
68.8692035473
 21
-56.4321189179
 31
0.0
  0
ARC
  5
18D
  8
0
  6
CONTINUOUS
 62
     7
 10
69.2692024982
 20
-57.0321190073
 30
0.0
 40
0.3999999999999986
 50
180.0
 51
270.0
  0
LINE
  5
18E
  8
0
  6
CONTINUOUS
 62
     7
 10
156.0692014492
 20
-56.4321189179
 30
0.0
 11
156.0692014492
 21
-57.0321190162
 31
0.0
  0
ARC
  5
18F
  8
0
  6
CONTINUOUS
 62
     7
 10
155.6692024982
 20
-57.0321190073
 30
0.0
 40
0.4000000000000057
 50
270.0
 51
0.0
  0
LINE
  5
190
  8
0
  6
CONTINUOUS
 62
     7
 10
155.6692036188
 20
-57.4321190818
 30
0.0
 11
154.9692036903
 21
-57.4321190818
 31
0.0
  0
LINE
  5
191
  8
0
  6
CONTINUOUS
 62
     7
 10
144.9692013061
 20
-57.4321190818
 30
0.0
 11
130.4692032135
 21
-57.4321190818
 31
0.0
  0
LINE
  5
192
  8
0
  6
CONTINUOUS
 62
     7
 10
94.469201783
 20
-57.4321190818
 30
0.0
 11
79.9692036903
 21
-57.4321190818
 31
0.0
  0
LINE
  5
193
  8
0
  6
CONTINUOUS
 62
     7
 10
69.9692013061
 20
-57.4321190818
 30
0.0
 11
69.2692013777
 21
-57.4321190818
 31
0.0
  0
CIRCLE
  5
194
  8
0
  6
CONTINUOUS
 62
     7
 10
120.4692024982
 20
-44.4321190073
 30
0.0
 40
1.5
  0
CIRCLE
  5
195
  8
0
  6
CONTINUOUS
 62
     7
 10
104.4692024982
 20
-44.4321190073
 30
0.0
 40
1.499999999999993
  0
ARC
  5
196
  8
0
  6
CONTINUOUS
 62
     7
 10
180.4692024982
 20
-46.4321190073
 30
0.0
 40
80.00000000000001
 50
188.6269265587
 51
192.3422028872
  0
LINE
  5
197
  8
0
  6
CONTINUOUS
 62
     7
 10
100.4702026344
 20
-46.8321188344
 30
0.0
 11
100.4692027665
 21
-46.4321191414
 31
0.0
  0
LINE
  5
198
  8
0
  6
CONTINUOUS
 62
     7
 10
100.4692027665
 20
-44.4321191861
 30
0.0
 11
100.4692027665
 21
-46.4321191414
 31
0.0
  0
ARC
  5
199
  8
0
  6
CONTINUOUS
 62
     7
 10
104.4692024982
 20
-44.4321190073
 30
0.0
 40
4.0
 50
143.0078465574
 51
180.0
  0
ARC
  5
19A
  8
0
  6
CONTINUOUS
 62
     7
 10
120.4692024982
 20
-44.4321190073
 30
0.0
 40
4.000000000000014
 50
0.0
 51
37.0933047126
  0
LINE
  5
19B
  8
0
  6
CONTINUOUS
 62
     7
 10
124.46920223
 20
-46.4321191414
 30
0.0
 11
124.46920223
 21
-44.4321191861
 31
0.0
  0
LINE
  5
19C
  8
0
  6
CONTINUOUS
 62
     7
 10
124.46920223
 20
-46.4321191414
 30
0.0
 11
124.4682023621
 21
-46.8321188344
 31
0.0
  0
ARC
  5
19D
  8
0
  6
CONTINUOUS
 62
     7
 10
44.4692024982
 20
-46.4321190073
 30
0.0
 40
80.0
 50
347.6577971128
 51
351.3730734413
  0
POLYLINE
  5
19E
  8
0
  6
CONTINUOUS
 62
     7
 66
     1
 10
0.0
 20
0.0
 30
0.0
  0
VERTEX
  5
3FE
  8
0
  6
CONTINUOUS
 62
     7
 10
75.7692011393
 20
-71.8888870432
 30
0.0
  0
VERTEX
  5
3FF
  8
0
  6
CONTINUOUS
 62
     7
 10
75.2335938013
 20
-72.5931203916
 30
0.0
  0
VERTEX
  5
400
  8
0
  6
CONTINUOUS
 62
     7
 10
74.7692020929
 20
-73.35830992
 30
0.0
  0
SEQEND
  5
405
  8
0
  6
CONTINUOUS
 62
     7
  0
LINE
  5
19F
  8
0
  6
CONTINUOUS
 62
     7
 10
87.1249826944
 20
-63.5374582364
 30
0.0
 11
87.2485192812
 21
-63.5321191503
 31
0.0
  0
ARC
  5
1A0
  8
0
  6
CONTINUOUS
 62
     7
 10
87.6087793502
 20
-78.4382829123
 30
0.0
 40
10.07562233077794
 50
100.5230987956
 51
180.5336178852
  0
LINE
  5
1A1
  8
0
  6
CONTINUOUS
 62
     7
 10
137.8011288441
 20
-133.5257343008
 30
0.0
 11
137.6898857153
 21
-133.5321179583
 31
0.0
  0
ARC
  5
1A2
  8
0
  6
CONTINUOUS
 62
     7
 10
137.3296315927
 20
-118.625957645
 30
0.0
 40
10.07561638898618
 50
280.5230706788
 51
0.5336208642
  0
POLYLINE
  5
1A3
  8
0
  6
CONTINUOUS
 62
     7
 66
     1
 10
0.0
 20
0.0
 30
0.0
  0
VERTEX
  5
401
  8
0
  6
CONTINUOUS
 62
     7
 10
149.1692038572
 20
-71.8888870432
 30
0.0
  0
VERTEX
  5
402
  8
0
  6
CONTINUOUS
 62
     7
 10
149.7048111952
 20
-72.5931203916
 30
0.0
  0
VERTEX
  5
403
  8
0
  6
CONTINUOUS
 62
     7
 10
150.1692029036
 20
-73.35830992
 30
0.0
  0
SEQEND
  5
404
  8
0
  6
CONTINUOUS
 62
     7
  0
ARC
  5
1A4
  8
0
  6
CONTINUOUS
 62
     7
 10
137.3473609324
 20
-78.4236778076
 30
0.0
 40
10.05803467908726
 50
359.3822465328
 51
79.5610367863
  0
LINE
  5
1A5
  8
0
  6
CONTINUOUS
 62
     7
 10
87.2485192812
 20
-133.5321179583
 30
0.0
 11
87.1553840435
 21
-133.526866789
 31
0.0
  0
ARC
  5
1A6
  8
0
  6
CONTINUOUS
 62
     7
 10
87.5910372656
 20
-118.640563458
 30
0.0
 40
10.05802789364268
 50
179.3822394123
 51
259.5610690447
  0
LINE
  5
1A7
  8
0
  6
CONTINUOUS
 62
     7
 10
77.533593992
 20
-78.5321197464
 30
0.0
 11
77.533593992
 21
-118.5321203424
 31
0.0
  0
LINE
  5
1A8
  8
0
  6
CONTINUOUS
 62
     7
 10
147.4048110044
 20
-118.5321203424
 30
0.0
 11
147.4048110044
 21
-78.5321197464
 31
0.0
  0
LINE
  5
1A9
  8
0
  6
CONTINUOUS
 62
     7
 10
75.7692011393
 20
-69.5200315668
 30
0.0
 11
74.7692020929
 21
-69.5200315668
 31
0.0
  0
LINE
  5
1AA
  8
0
  6
CONTINUOUS
 62
     7
 10
74.7692020929
 20
-45.6716022446
 30
0.0
 11
74.7692020929
 21
-69.5200315668
 31
0.0
  0
LINE
  5
1AB
  8
0
  6
CONTINUOUS
 62
     7
 10
75.7692011393
 20
-45.6716022446
 30
0.0
 11
75.7692011393
 21
-69.5200315668
 31
0.0
  0
LINE
  5
1AC
  8
0
  6
CONTINUOUS
 62
     7
 10
149.1692038572
 20
-69.5200315668
 30
0.0
 11
150.1692029036
 21
-69.5200315668
 31
0.0
  0
LINE
  5
1AD
  8
0
  6
CONTINUOUS
 62
     7
 10
150.1692029036
 20
-45.6716022446
 30
0.0
 11
150.1692029036
 21
-69.5200315668
 31
0.0
  0
LINE
  5
1AE
  8
0
  6
CONTINUOUS
 62
     7
 10
149.1692038572
 20
-45.6716022446
 30
0.0
 11
149.1692038572
 21
-69.5200315668
 31
0.0
  0
LINE
  5
1AF
  8
0
  6
CONTINUOUS
 62
     7
 10
150.1692029036
 20
-69.5200315668
 30
0.0
 11
150.1692029036
 21
-73.35830992
 31
0.0
  0
LINE
  5
1B0
  8
0
  6
CONTINUOUS
 62
     7
 10
149.1692038572
 20
-69.5200315668
 30
0.0
 11
149.1692038572
 21
-71.8888870432
 31
0.0
  0
LINE
  5
1B1
  8
0
  6
CONTINUOUS
 62
     7
 10
74.7692020929
 20
-69.5200315668
 30
0.0
 11
74.7692020929
 21
-73.35830992
 31
0.0
  0
LINE
  5
1B2
  8
0
  6
CONTINUOUS
 62
     7
 10
75.7692011393
 20
-69.5200315668
 30
0.0
 11
75.7692011393
 21
-71.8888870432
 31
0.0
  0
LINE
  5
1B3
  8
0
  6
CONTINUOUS
 62
     7
 10
85.7686492002
 20
-128.5321167662
 30
0.0
 11
139.1697557962
 21
-128.5321167662
 31
0.0
  0
LINE
  5
1B4
  8
0
  6
CONTINUOUS
 62
     7
 10
85.7686492002
 20
-68.5321188523
 30
0.0
 11
139.1697557962
 21
-68.5321188523
 31
0.0
  0
LINE
  5
1B5
  8
0
  6
CONTINUOUS
 62
     7
 10
87.2485192812
 20
-63.5321191503
 30
0.0
 11
137.6898857153
 21
-63.5321191503
 31
0.0
  0
LINE
  5
1B6
  8
0
  6
CONTINUOUS
 62
     7
 10
137.6898857153
 20
-133.5321179583
 30
0.0
 11
87.2485192812
 21
-133.5321179583
 31
0.0
  0
LINE
  5
1B7
  8
0
  6
CONTINUOUS
 62
     7
 10
150.1692029036
 20
-44.1291182293
 30
0.0
 11
150.1692029036
 21
-45.6716022446
 31
0.0
  0
LINE
  5
1B8
  8
0
  6
CONTINUOUS
 62
     7
 10
149.1692038572
 20
-44.3284592583
 30
0.0
 11
149.1692038572
 21
-45.6716022446
 31
0.0
  0
LINE
  5
1B9
  8
0
  6
CONTINUOUS
 62
     7
 10
74.7692020929
 20
-44.1288723602
 30
0.0
 11
74.7692020929
 21
-45.6716022446
 31
0.0
  0
LINE
  5
1BA
  8
0
  6
CONTINUOUS
 62
     7
 10
75.7692011393
 20
-44.3269751026
 30
0.0
 11
75.7692011393
 21
-45.6716022446
 31
0.0
  0
LINE
  5
1BB
  8
0
  6
CONTINUOUS
 62
     7
 10
144.9692013061
 20
-57.4321190818
 30
0.0
 11
144.9692013061
 21
-47.6321189656
 31
0.0
  0
LINE
  5
1BC
  8
0
  6
CONTINUOUS
 62
     7
 10
79.9692036903
 20
-57.4321190818
 30
0.0
 11
79.9692036903
 21
-47.6321189656
 31
0.0
  0
LINE
  5
1BD
  8
0
  6
CONTINUOUS
 62
     7
 10
149.1692038572
 20
-46.6321191742
 30
0.0
 11
144.9692013061
 21
-46.6321191742
 31
0.0
  0
LINE
  5
1BE
  8
0
  6
CONTINUOUS
 62
     7
 10
144.9692013061
 20
-47.6321189656
 30
0.0
 11
144.9692013061
 21
-46.6321191742
 31
0.0
  0
LINE
  5
1BF
  8
0
  6
CONTINUOUS
 62
     7
 10
149.1692038572
 20
-58.4321188732
 30
0.0
 11
144.9692013061
 21
-58.4321188732
 31
0.0
  0
LINE
  5
1C0
  8
0
  6
CONTINUOUS
 62
     7
 10
144.9692013061
 20
-58.4321188732
 30
0.0
 11
144.9692013061
 21
-57.4321190818
 31
0.0
  0
LINE
  5
1C1
  8
0
  6
CONTINUOUS
 62
     7
 10
79.9692036903
 20
-58.4321188732
 30
0.0
 11
75.7692011393
 21
-58.4321188732
 31
0.0
  0
LINE
  5
1C2
  8
0
  6
CONTINUOUS
 62
     7
 10
79.9692036903
 20
-57.4321190818
 30
0.0
 11
79.9692036903
 21
-58.4321188732
 31
0.0
  0
LINE
  5
1C3
  8
0
  6
CONTINUOUS
 62
     7
 10
79.9692036903
 20
-46.6321191742
 30
0.0
 11
75.7692011393
 21
-46.6321191742
 31
0.0
  0
LINE
  5
1C4
  8
0
  6
CONTINUOUS
 62
     7
 10
79.9692036903
 20
-46.6321191742
 30
0.0
 11
79.9692036903
 21
-47.6321189656
 31
0.0
  0
LINE
  5
1C5
  8
0
  6
CONTINUOUS
 62
     7
 10
154.9692036903
 20
-57.4321190818
 30
0.0
 11
154.9692036903
 21
-47.6321189656
 31
0.0
  0
LINE
  5
1C6
  8
0
  6
CONTINUOUS
 62
     7
 10
69.9692013061
 20
-57.4321190818
 30
0.0
 11
69.9692013061
 21
-47.6321189656
 31
0.0
  0
LINE
  5
1C7
  8
0
  6
CONTINUOUS
 62
     7
 10
154.9692036903
 20
-46.6321191742
 30
0.0
 11
150.1692029036
 21
-46.6321191742
 31
0.0
  0
LINE
  5
1C8
  8
0
  6
CONTINUOUS
 62
     7
 10
154.9692036903
 20
-47.6321189656
 30
0.0
 11
154.9692036903
 21
-46.6321191742
 31
0.0
  0
LINE
  5
1C9
  8
0
  6
CONTINUOUS
 62
     7
 10
74.7692020929
 20
-46.6321191742
 30
0.0
 11
69.9692013061
 21
-46.6321191742
 31
0.0
  0
LINE
  5
1CA
  8
0
  6
CONTINUOUS
 62
     7
 10
69.9692013061
 20
-47.6321189656
 30
0.0
 11
69.9692013061
 21
-46.6321191742
 31
0.0
  0
LINE
  5
1CB
  8
0
  6
CONTINUOUS
 62
     7
 10
154.9692036903
 20
-58.4321188732
 30
0.0
 11
150.1692029036
 21
-58.4321188732
 31
0.0
  0
LINE
  5
1CC
  8
0
  6
CONTINUOUS
 62
     7
 10
154.9692036903
 20
-58.4321188732
 30
0.0
 11
154.9692036903
 21
-57.4321190818
 31
0.0
  0
LINE
  5
1CD
  8
0
  6
CONTINUOUS
 62
     7
 10
74.7692020929
 20
-58.4321188732
 30
0.0
 11
69.9692013061
 21
-58.4321188732
 31
0.0
  0
LINE
  5
1CE
  8
0
  6
CONTINUOUS
 62
     7
 10
69.9692013061
 20
-58.4321188732
 30
0.0
 11
69.9692013061
 21
-57.4321190818
 31
0.0
  0
ENDSEC
  0
EOF
