  0
SECTION
  2
HEADER
  9
$ACADVER
  1
AC1009
  9
$DWGCODEPAGE
  3
ansi_1252
  9
$INSBASE
 10
0.0
 20
0.0
 30
0.0
  9
$EXTMIN
 10
0.0
 20
0.0
 30
0.0
  9
$EXTMAX
 10
420.0
 20
297.0
 30
0.0
  9
$LIMMIN
 10
0.0
 20
0.0
  9
$LIMMAX
 10
420.0
 20
297.0
  9
$ORTHOMODE
 70
     0
  9
$REGENMODE
 70
     1
  9
$FILLMODE
 70
     1
  9
$QTEXTMODE
 70
     0
  9
$MIRRTEXT
 70
     1
  9
$DRAGMODE
 70
     2
  9
$LTSCALE
 40
1.0
  9
$OSMODE
 70
    37
  9
$ATTMODE
 70
     1
  9
$TEXTSIZE
 40
3.5
  9
$TRACEWID
 40
1.0
  9
$TEXTSTYLE
  7
STANDARD
  9
$CLAYER
  8
0
  9
$CELTYPE
  6
BYLAYER
  9
$CECOLOR
 62
   256
  9
$DIMSCALE
 40
1.0
  9
$DIMASZ
 40
4.0
  9
$DIMEXO
 40
0.0
  9
$DIMDLI
 40
3.75
  9
$DIMRND
 40
0.0
  9
$DIMDLE
 40
0.0
  9
$DIMEXE
 40
2.0
  9
$DIMTP
 40
0.0
  9
$DIMTM
 40
0.0
  9
$DIMTXT
 40
3.5
  9
$DIMCEN
 40
2.5
  9
$DIMTSZ
 40
0.0
  9
$DIMTOL
 70
     0
  9
$DIMLIM
 70
     0
  9
$DIMTIH
 70
     1
  9
$DIMTOH
 70
     1
  9
$DIMSE1
 70
     0
  9
$DIMSE2
 70
     0
  9
$DIMTAD
 70
     1
  9
$DIMZIN
 70
     0
  9
$DIMBLK
  1

  9
$DIMASO
 70
     1
  9
$DIMSHO
 70
     1
  9
$DIMPOST
  1

  9
$DIMAPOST
  1

  9
$DIMALT
 70
     0
  9
$DIMALTD
 70
     3
  9
$DIMALTF
 40
0.0393700787
  9
$DIMLFAC
 40
5.0
  9
$DIMTOFL
 70
     1
  9
$DIMTVP
 40
0.0
  9
$DIMTIX
 70
     0
  9
$DIMSOXD
 70
     0
  9
$DIMSAH
 70
     0
  9
$DIMBLK1
  1

  9
$DIMBLK2
  1

  9
$DIMSTYLE
  2
ISO-25
  9
$DIMCLRD
 70
     0
  9
$DIMCLRE
 70
     0
  9
$DIMCLRT
 70
     0
  9
$DIMTFAC
 40
1.0
  9
$DIMGAP
 40
1.524
  9
$LUNITS
 70
     2
  9
$LUPREC
 70
     2
  9
$SKETCHINC
 40
1.0
  9
$FILLETRAD
 40
10.0
  9
$AUNITS
 70
     0
  9
$AUPREC
 70
     2
  9
$MENU
  1
.
  9
$ELEVATION
 40
0.0
  9
$PELEVATION
 40
0.0
  9
$THICKNESS
 40
0.0
  9
$LIMCHECK
 70
     0
  9
$CHAMFERA
 40
10.0
  9
$CHAMFERB
 40
10.0
  9
$SKPOLY
 70
     0
  9
$TDCREATE
 40
2457801.653411088
  9
$TDUPDATE
 40
2457801.653411296
  9
$TDINDWG
 40
0.0000000116
  9
$TDUSRTIMER
 40
0.0000000116
  9
$USRTIMER
 70
     1
  9
$ANGBASE
 50
0.0
  9
$ANGDIR
 70
     0
  9
$PDMODE
 70
     0
  9
$PDSIZE
 40
-1.0
  9
$PLINEWID
 40
0.0
  9
$COORDS
 70
     1
  9
$SPLFRAME
 70
     0
  9
$SPLINETYPE
 70
     6
  9
$SPLINESEGS
 70
     8
  9
$ATTDIA
 70
     0
  9
$ATTREQ
 70
     1
  9
$HANDLING
 70
     1
  9
$HANDSEED
  5
582
  9
$SURFTAB1
 70
     6
  9
$SURFTAB2
 70
     6
  9
$SURFTYPE
 70
     6
  9
$SURFU
 70
     6
  9
$SURFV
 70
     6
  9
$UCSNAME
  2

  9
$UCSORG
 10
0.0
 20
0.0
 30
0.0
  9
$UCSXDIR
 10
1.0
 20
0.0
 30
0.0
  9
$UCSYDIR
 10
0.0
 20
1.0
 30
0.0
  9
$PUCSNAME
  2

  9
$PUCSORG
 10
0.0
 20
0.0
 30
0.0
  9
$PUCSXDIR
 10
1.0
 20
0.0
 30
0.0
  9
$PUCSYDIR
 10
0.0
 20
1.0
 30
0.0
  9
$USERI1
 70
     0
  9
$USERI2
 70
     0
  9
$USERI3
 70
     0
  9
$USERI4
 70
     0
  9
$USERI5
 70
     0
  9
$USERR1
 40
0.0
  9
$USERR2
 40
0.0
  9
$USERR3
 40
0.0
  9
$USERR4
 40
0.0
  9
$USERR5
 40
0.0
  9
$WORLDVIEW
 70
     1
  9
$SHADEDGE
 70
     3
  9
$SHADEDIF
 70
    70
  9
$TILEMODE
 70
     1
  9
$MAXACTVP
 70
    64
  9
$PLIMCHECK
 70
     0
  9
$PEXTMIN
 10
1.0000000000E+20
 20
1.0000000000E+20
 30
1.0000000000E+20
  9
$PEXTMAX
 10
-1.0000000000E+20
 20
-1.0000000000E+20
 30
-1.0000000000E+20
  9
$PLIMMIN
 10
0.0
 20
0.0
  9
$PLIMMAX
 10
420.0
 20
297.0
  9
$UNITMODE
 70
     0
  9
$VISRETAIN
 70
     1
  9
$PLINEGEN
 70
     0
  9
$PSLTSCALE
 70
     1
  0
ENDSEC
  0
SECTION
  2
TABLES
  0
TABLE
  2
VPORT
 70
     1
  0
VPORT
  2
*ACTIVE
 70
     0
 10
0.0
 20
0.0
 11
1.0
 21
1.0
 12
210.0
 22
148.5
 13
0.0
 23
0.0
 14
10.0
 24
10.0
 15
10.0
 25
10.0
 16
0.0
 26
0.0
 36
1.0
 17
0.0
 27
0.0
 37
0.0
 40
297.0
 41
1.4141414141
 42
50.0
 43
0.0
 44
0.0
 50
0.0
 51
0.0
 71
     0
 72
  2000
 73
     1
 74
     3
 75
     0
 76
     0
 77
     0
 78
     0
  0
ENDTAB
  0
TABLE
  2
LTYPE
 70
     6
  0
LTYPE
  2
CONTINUOUS
 70
     0
  3
Solid line
 72
    65
 73
     0
 40
0.0
  0
LTYPE
  2
HIDDEN
 70
     0
  3
Hidden __ __ __ __ __ __ __ __ __ __ __ __ __ __
 72
    65
 73
     2
 40
1.905
 49
1.27
 49
-0.635
  0
LTYPE
  2
PHANTOM
 70
     0
  3
Phantom ______  __  __  ______  __  __  ______
 72
    65
 73
     6
 40
12.7
 49
6.35
 49
-1.27
 49
1.27
 49
-1.27
 49
1.27
 49
-1.27
  0
LTYPE
  2
CENTER
 70
     0
  3
Center ____ _ ____ _ ____ _ ____ _ ____ _ ____
 72
    65
 73
     4
 40
10.16
 49
6.35
 49
-1.27
 49
1.27
 49
-1.27
  0
LTYPE
  2
CENTERX2
 70
     0
  3
Center (2x) ________  __  ________  __  _____
 72
    65
 73
     4
 40
20.32
 49
12.7
 49
-2.54
 49
2.54
 49
-2.54
  0
LTYPE
  2
DOT2
 70
     0
  3
Dot (.5x) ........................................
 72
    65
 73
     2
 40
0.635
 49
0.0
 49
-0.635
  0
ENDTAB
  0
TABLE
  2
LAYER
 70
     2
  0
LAYER
  2
0
 70
     0
 62
     7
  6
CONTINUOUS
  0
LAYER
  2
FORMAT
 70
     0
 62
     7
  6
CONTINUOUS
  0
ENDTAB
  0
TABLE
  2
STYLE
 70
     1
  0
STYLE
  2
STANDARD
 70
     0
 40
0.0
 41
1.0
 50
0.0
 71
     0
 42
3.5
  3
txt
  4

  0
ENDTAB
  0
TABLE
  2
VIEW
 70
     0
  0
ENDTAB
  0
TABLE
  2
UCS
 70
     0
  0
ENDTAB
  0
TABLE
  2
APPID
 70
     1
  0
APPID
  2
ACAD
 70
     0
  0
ENDTAB
  0
TABLE
  2
DIMSTYLE
 70
     1
  0
DIMSTYLE
  2
ISO-25
 70
     0
  3

  4

  5

  6

  7

 40
1.0
 41
2.5
 42
0.625
 43
3.75
 44
1.25
 45
0.0
 46
0.0
 47
0.0
 48
0.0
140
2.5
141
2.5
142
0.0
143
0.0393700787
144
1.0
145
0.0
146
1.0
147
0.625
 71
     0
 72
     0
 73
     0
 74
     0
 75
     0
 76
     0
 77
     1
 78
     8
170
     0
171
     3
172
     1
173
     0
174
     0
175
     0
176
     0
177
     0
178
     0
  0
ENDTAB
  0
ENDSEC
  0
SECTION
  2
BLOCKS
  0
BLOCK
  8
0
  2
$MODEL_SPACE
 70
     0
 10
0.0
 20
0.0
 30
0.0
  3
$MODEL_SPACE
  1

  0
ENDBLK
  5
21
  8
0
  0
BLOCK
 67
     1
  8
0
  2
$PAPER_SPACE
 70
     0
 10
0.0
 20
0.0
 30
0.0
  3
$PAPER_SPACE
  1

  0
ENDBLK
  5
1D
 67
     1
  8
0
  0
ENDSEC
  0
SECTION
  2
ENTITIES
  0
POLYLINE
  5
45
  8
0
  6
CONTINUOUS
 62
     7
 66
     1
 10
0.0
 20
0.0
 30
0.0
  0
VERTEX
  5
275
  8
0
  6
CONTINUOUS
 62
     7
 10
69.2544696185
 20
224.8000620533
 30
0.0
  0
VERTEX
  5
276
  8
0
  6
CONTINUOUS
 62
     7
 10
71.0453507755
 20
224.779474609
 30
0.0
  0
VERTEX
  5
277
  8
0
  6
CONTINUOUS
 62
     7
 10
74.4541880939
 20
224.7445224453
 30
0.0
  0
VERTEX
  5
278
  8
0
  6
CONTINUOUS
 62
     7
 10
77.8698203418
 20
224.715053909
 30
0.0
  0
VERTEX
  5
279
  8
0
  6
CONTINUOUS
 62
     7
 10
81.2910673473
 20
224.6910689999
 30
0.0
  0
VERTEX
  5
27A
  8
0
  6
CONTINUOUS
 62
     7
 10
84.7167727802
 20
224.67259156
 30
0.0
  0
VERTEX
  5
27B
  8
0
  6
CONTINUOUS
 62
     7
 10
88.1457803104
 20
224.6596215893
 30
0.0
  0
VERTEX
  5
27C
  8
0
  6
CONTINUOUS
 62
     7
 10
91.5769336078
 20
224.6521590878
 30
0.0
  0
VERTEX
  5
27D
  8
0
  6
CONTINUOUS
 62
     7
 10
95.0090763423
 20
224.6502159764
 30
0.0
  0
VERTEX
  5
27E
  8
0
  6
CONTINUOUS
 62
     7
 10
98.4410521838
 20
224.6537684132
 30
0.0
  0
VERTEX
  5
27F
  8
0
  6
CONTINUOUS
 62
     7
 10
101.8716928813
 20
224.6628521611
 30
0.0
  0
VERTEX
  5
280
  8
0
  6
CONTINUOUS
 62
     7
 10
105.2998421047
 20
224.6774314572
 30
0.0
  0
VERTEX
  5
281
  8
0
  6
CONTINUOUS
 62
     7
 10
108.7243435237
 20
224.6975182225
 30
0.0
  0
VERTEX
  5
282
  8
0
  6
CONTINUOUS
 62
     7
 10
112.1440408084
 20
224.723100536
 30
0.0
  0
VERTEX
  5
283
  8
0
  6
CONTINUOUS
 62
     7
 10
115.5577835891
 20
224.7541783978
 30
0.0
  0
VERTEX
  5
284
  8
0
  6
CONTINUOUS
 62
     7
 10
118.7853631828
 20
224.7886656453
 30
0.0
  0
VERTEX
  5
285
  8
0
  6
CONTINUOUS
 62
     7
 10
119.7600004527
 20
224.8000620533
 30
0.0
  0
SEQEND
  5
581
  8
0
  6
CONTINUOUS
 62
     7
  0
ARC
  5
46
  8
0
  6
CONTINUOUS
 62
     7
 10
69.141777851
 20
215.4998411051
 30
0.0
 40
14.6892403783437
 50
117.9336749953
 51
180.358079055
  0
ARC
  5
47
  8
0
  6
CONTINUOUS
 62
     7
 10
119.9018946836
 20
215.5182310149
 30
0.0
 40
14.65733392400878
 50
359.5662242332
 51
61.8683188179
  0
ARC
  5
48
  8
0
  6
CONTINUOUS
 62
     7
 10
68.9732169114
 20
216.2839669095
 30
0.0
 40
8.51450628273059
 50
88.109619515
 51
112.7582697413
  0
ARC
  5
49
  8
0
  6
CONTINUOUS
 62
     7
 10
120.0443050623
 20
216.3938338093
 30
0.0
 40
8.406821314160856
 50
67.889503335
 51
91.9316759964
  0
POLYLINE
  5
4A
  8
0
  6
CONTINUOUS
 62
     7
 66
     1
 10
0.0
 20
0.0
 30
0.0
  0
VERTEX
  5
286
  8
0
  6
CONTINUOUS
 62
     7
 10
119.6958300922
 20
230.1796792675
 30
0.0
  0
VERTEX
  5
287
  8
0
  6
CONTINUOUS
 62
     7
 10
117.9095682952
 20
230.159139507
 30
0.0
  0
VERTEX
  5
288
  8
0
  6
CONTINUOUS
 62
     7
 10
114.5096120689
 20
230.1242827107
 30
0.0
  0
VERTEX
  5
289
  8
0
  6
CONTINUOUS
 62
     7
 10
111.1027953479
 20
230.0948856999
 30
0.0
  0
VERTEX
  5
28A
  8
0
  6
CONTINUOUS
 62
     7
 10
107.6902863834
 20
230.0709723164
 30
0.0
  0
VERTEX
  5
28B
  8
0
  6
CONTINUOUS
 62
     7
 10
104.2732832286
 20
230.0525425602
 30
0.0
  0
VERTEX
  5
28C
  8
0
  6
CONTINUOUS
 62
     7
 10
100.8529302928
 20
230.0395964314
 30
0.0
  0
VERTEX
  5
28D
  8
0
  6
CONTINUOUS
 62
     7
 10
97.430407748
 20
230.0321577717
 30
0.0
  0
VERTEX
  5
28E
  8
0
  6
CONTINUOUS
 62
     7
 10
94.0068838451
 20
230.0302146603
 30
0.0
  0
VERTEX
  5
28F
  8
0
  6
CONTINUOUS
 62
     7
 10
90.5835149143
 20
230.0337670971
 30
0.0
  0
VERTEX
  5
290
  8
0
  6
CONTINUOUS
 62
     7
 10
87.1614930484
 20
230.0428150822
 30
0.0
  0
VERTEX
  5
291
  8
0
  6
CONTINUOUS
 62
     7
 10
83.7419864986
 20
230.0573586155
 30
0.0
  0
VERTEX
  5
292
  8
0
  6
CONTINUOUS
 62
     7
 10
80.3261515949
 20
230.0773976971
 30
0.0
  0
VERTEX
  5
293
  8
0
  6
CONTINUOUS
 62
     7
 10
76.9151565883
 20
230.102920406
 30
0.0
  0
VERTEX
  5
294
  8
0
  6
CONTINUOUS
 62
     7
 10
73.5101816509
 20
230.1339029004
 30
0.0
  0
VERTEX
  5
295
  8
0
  6
CONTINUOUS
 62
     7
 10
70.2910063121
 20
230.1683067013
 30
0.0
  0
VERTEX
  5
296
  8
0
  6
CONTINUOUS
 62
     7
 10
69.3186399791
 20
230.1796792675
 30
0.0
  0
SEQEND
  5
580
  8
0
  6
CONTINUOUS
 62
     7
  0
ARC
  5
4B
  8
0
  6
CONTINUOUS
 62
     7
 10
120.0107463925
 20
216.4746390282
 30
0.0
 40
13.70358294408735
 50
74.2381513478
 51
91.3150114338
  0
ARC
  5
4C
  8
0
  6
CONTINUOUS
 62
     7
 10
68.9942624214
 20
216.3493420913
 30
0.0
 40
13.82728166746178
 50
88.6547728797
 51
105.7866992158
  0
ARC
  5
4D
  8
0
  6
CONTINUOUS
 62
     7
 10
119.9081773429
 20
215.5171416266
 30
0.0
 40
9.272520287125165
 50
359.3257551278
 51
69.1493049079
  0
ARC
  5
4E
  8
0
  6
CONTINUOUS
 62
     7
 10
69.1239567648
 20
215.505259059
 30
0.0
 40
9.292317097997953
 50
111.7578923922
 51
180.5966699591
  0
LINE
  5
4F
  8
0
  6
CONTINUOUS
 62
     7
 10
54.4484732005
 20
215.4075263668
 30
0.0
 11
54.4484732005
 21
175.5597470929
 31
0.0
  0
LINE
  5
50
  8
0
  6
CONTINUOUS
 62
     7
 10
134.5659909103
 20
175.5597470929
 30
0.0
 11
134.5659909103
 21
215.4075263668
 31
0.0
  0
POLYLINE
  5
51
  8
0
  6
CONTINUOUS
 62
     7
 66
     1
 10
0.0
 20
0.0
 30
0.0
  0
VERTEX
  5
297
  8
0
  6
CONTINUOUS
 62
     7
 10
69.2544696185
 20
160.4259608914
 30
0.0
  0
VERTEX
  5
298
  8
0
  6
CONTINUOUS
 62
     7
 10
71.0453507755
 20
160.4053674866
 30
0.0
  0
VERTEX
  5
299
  8
0
  6
CONTINUOUS
 62
     7
 10
74.4541880939
 20
160.3704212834
 30
0.0
  0
VERTEX
  5
29A
  8
0
  6
CONTINUOUS
 62
     7
 10
77.8698203418
 20
160.340952747
 30
0.0
  0
VERTEX
  5
29B
  8
0
  6
CONTINUOUS
 62
     7
 10
81.2910673473
 20
160.3169737984
 30
0.0
  0
VERTEX
  5
29C
  8
0
  6
CONTINUOUS
 62
     7
 10
84.7167727802
 20
160.2984963585
 30
0.0
  0
VERTEX
  5
29D
  8
0
  6
CONTINUOUS
 62
     7
 10
88.1457803104
 20
160.2855204274
 30
0.0
  0
VERTEX
  5
29E
  8
0
  6
CONTINUOUS
 62
     7
 10
91.5769336078
 20
160.2780579258
 30
0.0
  0
VERTEX
  5
29F
  8
0
  6
CONTINUOUS
 62
     7
 10
95.0090763423
 20
160.276108854
 30
0.0
  0
VERTEX
  5
2A0
  8
0
  6
CONTINUOUS
 62
     7
 10
98.4410521838
 20
160.2796732117
 30
0.0
  0
VERTEX
  5
2A1
  8
0
  6
CONTINUOUS
 62
     7
 10
101.8716928813
 20
160.2887450386
 30
0.0
  0
VERTEX
  5
2A2
  8
0
  6
CONTINUOUS
 62
     7
 10
105.2998421047
 20
160.3033302952
 30
0.0
  0
VERTEX
  5
2A3
  8
0
  6
CONTINUOUS
 62
     7
 10
108.7243435237
 20
160.3234170605
 30
0.0
  0
VERTEX
  5
2A4
  8
0
  6
CONTINUOUS
 62
     7
 10
112.1440408084
 20
160.348999374
 30
0.0
  0
VERTEX
  5
2A5
  8
0
  6
CONTINUOUS
 62
     7
 10
115.5577835891
 20
160.3800712754
 30
0.0
  0
VERTEX
  5
2A6
  8
0
  6
CONTINUOUS
 62
     7
 10
118.7853631828
 20
160.4145644833
 30
0.0
  0
VERTEX
  5
2A7
  8
0
  6
CONTINUOUS
 62
     7
 10
119.7600004527
 20
160.4259608914
 30
0.0
  0
SEQEND
  5
57F
  8
0
  6
CONTINUOUS
 62
     7
  0
ARC
  5
52
  8
0
  6
CONTINUOUS
 62
     7
 10
69.4142380824
 20
175.2648964317
 30
0.0
 40
14.83227452165629
 50
218.476651032
 51
269.3847506501
  0
ARC
  5
53
  8
0
  6
CONTINUOUS
 62
     7
 10
119.6017941682
 20
175.2605123288
 30
0.0
 40
14.82858456126354
 50
270.6098497141
 51
321.4778640649
  0
LINE
  5
54
  8
0
  6
CONTINUOUS
 62
     7
 10
59.8284718845
 20
175.5597470929
 30
0.0
 11
59.8284718845
 21
215.4075263668
 31
0.0
  0
LINE
  5
55
  8
0
  6
CONTINUOUS
 62
     7
 10
129.1859922263
 20
215.4075263668
 30
0.0
 11
129.1859922263
 21
175.5597470929
 31
0.0
  0
ARC
  5
56
  8
0
  6
CONTINUOUS
 62
     7
 10
119.4306909964
 20
175.5300926402
 30
0.0
 40
15.1294569683692
 50
327.6393240361
 51
0.1104515678
  0
ARC
  5
57
  8
0
  6
CONTINUOUS
 62
     7
 10
69.411429325
 20
175.485678005
 30
0.0
 40
14.95605850544818
 50
179.7162445257
 51
212.5691631278
  0
POLYLINE
  5
58
  8
0
  6
CONTINUOUS
 62
     7
 66
     1
 10
0.0
 20
0.0
 30
0.0
  0
VERTEX
  5
2A8
  8
0
  6
CONTINUOUS
 62
     7
 10
119.6958300922
 20
165.8055781056
 30
0.0
  0
VERTEX
  5
2A9
  8
0
  6
CONTINUOUS
 62
     7
 10
117.9095682952
 20
165.785038345
 30
0.0
  0
VERTEX
  5
2AA
  8
0
  6
CONTINUOUS
 62
     7
 10
114.5096120689
 20
165.7501815487
 30
0.0
  0
VERTEX
  5
2AB
  8
0
  6
CONTINUOUS
 62
     7
 10
111.1027953479
 20
165.7207845379
 30
0.0
  0
VERTEX
  5
2AC
  8
0
  6
CONTINUOUS
 62
     7
 10
107.6902863834
 20
165.6968711544
 30
0.0
  0
VERTEX
  5
2AD
  8
0
  6
CONTINUOUS
 62
     7
 10
104.2732832286
 20
165.6784413983
 30
0.0
  0
VERTEX
  5
2AE
  8
0
  6
CONTINUOUS
 62
     7
 10
100.8529302928
 20
165.6654952694
 30
0.0
  0
VERTEX
  5
2AF
  8
0
  6
CONTINUOUS
 62
     7
 10
97.430407748
 20
165.6580566098
 30
0.0
  0
VERTEX
  5
2B0
  8
0
  6
CONTINUOUS
 62
     7
 10
94.0068838451
 20
165.6561134983
 30
0.0
  0
VERTEX
  5
2B1
  8
0
  6
CONTINUOUS
 62
     7
 10
90.5835149143
 20
165.6596659352
 30
0.0
  0
VERTEX
  5
2B2
  8
0
  6
CONTINUOUS
 62
     7
 10
87.1614930484
 20
165.6687139203
 30
0.0
  0
VERTEX
  5
2B3
  8
0
  6
CONTINUOUS
 62
     7
 10
83.7419864986
 20
165.6832574536
 30
0.0
  0
VERTEX
  5
2B4
  8
0
  6
CONTINUOUS
 62
     7
 10
80.3261515949
 20
165.7032965351
 30
0.0
  0
VERTEX
  5
2B5
  8
0
  6
CONTINUOUS
 62
     7
 10
76.9151565883
 20
165.7288073231
 30
0.0
  0
VERTEX
  5
2B6
  8
0
  6
CONTINUOUS
 62
     7
 10
73.5101816509
 20
165.7598017384
 30
0.0
  0
VERTEX
  5
2B7
  8
0
  6
CONTINUOUS
 62
     7
 10
70.2910063121
 20
165.7942055394
 30
0.0
  0
VERTEX
  5
2B8
  8
0
  6
CONTINUOUS
 62
     7
 10
69.3186399791
 20
165.8055781056
 30
0.0
  0
SEQEND
  5
57E
  8
0
  6
CONTINUOUS
 62
     7
  0
ARC
  5
59
  8
0
  6
CONTINUOUS
 62
     7
 10
69.505780243
 20
175.4793976162
 30
0.0
 40
9.670913223167682
 50
179.5279154729
 51
268.886476674
  0
ARC
  5
5A
  8
0
  6
CONTINUOUS
 62
     7
 10
119.511915791
 20
175.4816256145
 30
0.0
 40
9.670560727062329
 50
271.0897849666
 51
0.4550162368
  0
POLYLINE
  5
5B
  8
0
  6
CONTINUOUS
 62
     7
 66
     1
 10
0.0
 20
0.0
 30
0.0
  0
VERTEX
  5
2B9
  8
0
  6
CONTINUOUS
 62
     7
 10
371.4070556018
 20
156.8088589837
 30
0.0
  0
VERTEX
  5
2BA
  8
0
  6
CONTINUOUS
 62
     7
 10
371.4015004489
 20
156.8078993489
 30
0.0
  0
VERTEX
  5
2BB
  8
0
  6
CONTINUOUS
 62
     7
 10
371.4004037235
 20
156.8076966931
 30
0.0
  0
SEQEND
  5
57D
  8
0
  6
CONTINUOUS
 62
     7
  0
POLYLINE
  5
5C
  8
0
  6
CONTINUOUS
 62
     7
 66
     1
 10
0.0
 20
0.0
 30
0.0
  0
VERTEX
  5
2BC
  8
0
  6
CONTINUOUS
 62
     7
 10
297.6143476817
 20
156.807619207
 30
0.0
  0
VERTEX
  5
2BD
  8
0
  6
CONTINUOUS
 62
     7
 10
297.6133582446
 20
156.807798021
 30
0.0
  0
VERTEX
  5
2BE
  8
0
  6
CONTINUOUS
 62
     7
 10
297.6024386737
 20
156.8096874882
 30
0.0
  0
SEQEND
  5
57C
  8
0
  6
CONTINUOUS
 62
     7
  0
LINE
  5
5D
  8
0
  6
CONTINUOUS
 62
     7
 10
297.6141390655
 20
156.8076668908
 30
0.0
 11
297.6067182872
 21
156.8089841534
 31
0.0
  0
ARC
  5
5E
  8
0
  6
CONTINUOUS
 62
     7
 10
280.0125638359
 20
68.9233795375
 30
0.0
 40
84.25020616136912
 50
78.5014989714
 51
78.6265146546
  0
LINE
  5
5F
  8
0
  6
CONTINUOUS
 62
     7
 10
296.621542916
 20
151.5202222992
 30
0.0
 11
296.6260132644
 21
151.5193282296
 31
0.0
  0
LINE
  5
60
  8
0
  6
CONTINUOUS
 62
     7
 10
372.3247644756
 20
151.5064893891
 30
0.0
 11
372.381400809
 21
151.5179155995
 31
0.0
  0
POLYLINE
  5
61
  8
0
  6
CONTINUOUS
 62
     7
 66
     1
 10
0.0
 20
0.0
 30
0.0
  0
VERTEX
  5
2BF
  8
0
  6
CONTINUOUS
 62
     7
 10
189.2544684264
 20
224.8000620533
 30
0.0
  0
VERTEX
  5
2C0
  8
0
  6
CONTINUOUS
 62
     7
 10
191.0453540537
 20
224.779474609
 30
0.0
  0
VERTEX
  5
2C1
  8
0
  6
CONTINUOUS
 62
     7
 10
194.4541854117
 20
224.7445224453
 30
0.0
  0
VERTEX
  5
2C2
  8
0
  6
CONTINUOUS
 62
     7
 10
197.8698206398
 20
224.715053909
 30
0.0
  0
VERTEX
  5
2C3
  8
0
  6
CONTINUOUS
 62
     7
 10
201.2910691354
 20
224.6910689999
 30
0.0
  0
VERTEX
  5
2C4
  8
0
  6
CONTINUOUS
 62
     7
 10
204.7167753134
 20
224.67259156
 30
0.0
  0
VERTEX
  5
2C5
  8
0
  6
CONTINUOUS
 62
     7
 10
208.1457843337
 20
224.6596215893
 30
0.0
  0
VERTEX
  5
2C6
  8
0
  6
CONTINUOUS
 62
     7
 10
211.5769385624
 20
224.6521590878
 30
0.0
  0
VERTEX
  5
2C7
  8
0
  6
CONTINUOUS
 62
     7
 10
215.0090796206
 20
224.6502159764
 30
0.0
  0
VERTEX
  5
2C8
  8
0
  6
CONTINUOUS
 62
     7
 10
218.4410491291
 20
224.6537684132
 30
0.0
  0
VERTEX
  5
2C9
  8
0
  6
CONTINUOUS
 62
     7
 10
221.8716879639
 20
224.6628521611
 30
0.0
  0
VERTEX
  5
2CA
  8
0
  6
CONTINUOUS
 62
     7
 10
225.2998371873
 20
224.6774314572
 30
0.0
  0
VERTEX
  5
2CB
  8
0
  6
CONTINUOUS
 62
     7
 10
228.7243393514
 20
224.6975182225
 30
0.0
  0
VERTEX
  5
2CC
  8
0
  6
CONTINUOUS
 62
     7
 10
232.1440396163
 20
224.723100536
 30
0.0
  0
VERTEX
  5
2CD
  8
0
  6
CONTINUOUS
 62
     7
 10
235.5577838871
 20
224.7541783978
 30
0.0
  0
VERTEX
  5
2CE
  8
0
  6
CONTINUOUS
 62
     7
 10
238.7853605006
 20
224.7886656453
 30
0.0
  0
VERTEX
  5
2CF
  8
0
  6
CONTINUOUS
 62
     7
 10
239.7599992606
 20
224.8000620533
 30
0.0
  0
SEQEND
  5
57B
  8
0
  6
CONTINUOUS
 62
     7
  0
ARC
  5
62
  8
0
  6
CONTINUOUS
 62
     7
 10
189.1417825621
 20
215.4998393589
 30
0.0
 40
14.68924329032805
 50
117.9336818774
 51
180.3580721729
  0
ARC
  5
63
  8
0
  6
CONTINUOUS
 62
     7
 10
239.9018964717
 20
215.5182310149
 30
0.0
 40
14.65733392400902
 50
359.5662242332
 51
61.8683188179
  0
ARC
  5
64
  8
0
  6
CONTINUOUS
 62
     7
 10
188.9732115004
 20
216.2840047324
 30
0.0
 40
8.514468619577087
 50
88.1095827446
 51
112.7583235274
  0
ARC
  5
65
  8
0
  6
CONTINUOUS
 62
     7
 10
240.0443093233
 20
216.393863079
 30
0.0
 40
8.406792144415032
 50
67.889462682
 51
91.9316995647
  0
POLYLINE
  5
66
  8
0
  6
CONTINUOUS
 62
     7
 66
     1
 10
0.0
 20
0.0
 30
0.0
  0
VERTEX
  5
2D0
  8
0
  6
CONTINUOUS
 62
     7
 10
239.6958318803
 20
230.1796792675
 30
0.0
  0
VERTEX
  5
2D1
  8
0
  6
CONTINUOUS
 62
     7
 10
237.9095715735
 20
230.159139507
 30
0.0
  0
VERTEX
  5
2D2
  8
0
  6
CONTINUOUS
 62
     7
 10
234.509613857
 20
230.1242827107
 30
0.0
  0
VERTEX
  5
2D3
  8
0
  6
CONTINUOUS
 62
     7
 10
231.1027896855
 20
230.0948856999
 30
0.0
  0
VERTEX
  5
2D4
  8
0
  6
CONTINUOUS
 62
     7
 10
227.6902896616
 20
230.0709723164
 30
0.0
  0
VERTEX
  5
2D5
  8
0
  6
CONTINUOUS
 62
     7
 10
224.2732790563
 20
230.0525425602
 30
0.0
  0
VERTEX
  5
2D6
  8
0
  6
CONTINUOUS
 62
     7
 10
220.8529276106
 20
230.0395964314
 30
0.0
  0
VERTEX
  5
2D7
  8
0
  6
CONTINUOUS
 62
     7
 10
217.4304043207
 20
230.0321577717
 30
0.0
  0
VERTEX
  5
2D8
  8
0
  6
CONTINUOUS
 62
     7
 10
214.0068781361
 20
230.0302146603
 30
0.0
  0
VERTEX
  5
2D9
  8
0
  6
CONTINUOUS
 62
     7
 10
210.5835193101
 20
230.0337670971
 30
0.0
  0
VERTEX
  5
2DA
  8
0
  6
CONTINUOUS
 62
     7
 10
207.1614985618
 20
230.0428150822
 30
0.0
  0
VERTEX
  5
2DB
  8
0
  6
CONTINUOUS
 62
     7
 10
203.7419867966
 20
230.0573586155
 30
0.0
  0
VERTEX
  5
2DC
  8
0
  6
CONTINUOUS
 62
     7
 10
200.3261518929
 20
230.0773976971
 30
0.0
  0
VERTEX
  5
2DD
  8
0
  6
CONTINUOUS
 62
     7
 10
196.9151613567
 20
230.102920406
 30
0.0
  0
VERTEX
  5
2DE
  8
0
  6
CONTINUOUS
 62
     7
 10
193.5101819489
 20
230.1339029004
 30
0.0
  0
VERTEX
  5
2DF
  8
0
  6
CONTINUOUS
 62
     7
 10
190.2910081003
 20
230.1683067013
 30
0.0
  0
VERTEX
  5
2E0
  8
0
  6
CONTINUOUS
 62
     7
 10
189.3186358068
 20
230.1796792675
 30
0.0
  0
SEQEND
  5
57A
  8
0
  6
CONTINUOUS
 62
     7
  0
ARC
  5
67
  8
0
  6
CONTINUOUS
 62
     7
 10
240.0107395813
 20
216.4745730122
 30
0.0
 40
13.70364881378252
 50
74.2381917225
 51
91.3149816118
  0
ARC
  5
68
  8
0
  6
CONTINUOUS
 62
     7
 10
188.9942707034
 20
216.3492437911
 30
0.0
 40
13.82737964819395
 50
88.6548340344
 51
105.7866380611
  0
ARC
  5
69
  8
0
  6
CONTINUOUS
 62
     7
 10
239.9081826356
 20
215.5171460399
 30
0.0
 40
9.272513854756467
 50
359.3257273882
 51
69.1493326474
  0
ARC
  5
6A
  8
0
  6
CONTINUOUS
 62
     7
 10
189.1239406565
 20
215.5052710499
 30
0.0
 40
9.292299327417137
 50
111.7578173119
 51
180.5967450394
  0
LINE
  5
6B
  8
0
  6
CONTINUOUS
 62
     7
 10
254.5659897182
 20
175.5597470929
 30
0.0
 11
254.5659897182
 21
215.4075263668
 31
0.0
  0
LINE
  5
6C
  8
0
  6
CONTINUOUS
 62
     7
 10
174.4484779689
 20
215.4075263668
 30
0.0
 11
174.4484779689
 21
175.5597470929
 31
0.0
  0
POLYLINE
  5
6D
  8
0
  6
CONTINUOUS
 62
     7
 66
     1
 10
0.0
 20
0.0
 30
0.0
  0
VERTEX
  5
2E1
  8
0
  6
CONTINUOUS
 62
     7
 10
189.2544684264
 20
160.4259608914
 30
0.0
  0
VERTEX
  5
2E2
  8
0
  6
CONTINUOUS
 62
     7
 10
191.0453540537
 20
160.4053674866
 30
0.0
  0
VERTEX
  5
2E3
  8
0
  6
CONTINUOUS
 62
     7
 10
194.4541854117
 20
160.3704212834
 30
0.0
  0
VERTEX
  5
2E4
  8
0
  6
CONTINUOUS
 62
     7
 10
197.8698206398
 20
160.340952747
 30
0.0
  0
VERTEX
  5
2E5
  8
0
  6
CONTINUOUS
 62
     7
 10
201.2910691354
 20
160.3169737984
 30
0.0
  0
VERTEX
  5
2E6
  8
0
  6
CONTINUOUS
 62
     7
 10
204.7167753134
 20
160.2984963585
 30
0.0
  0
VERTEX
  5
2E7
  8
0
  6
CONTINUOUS
 62
     7
 10
208.1457843337
 20
160.2855204274
 30
0.0
  0
VERTEX
  5
2E8
  8
0
  6
CONTINUOUS
 62
     7
 10
211.5769385624
 20
160.2780579258
 30
0.0
  0
VERTEX
  5
2E9
  8
0
  6
CONTINUOUS
 62
     7
 10
215.0090796206
 20
160.276108854
 30
0.0
  0
VERTEX
  5
2EA
  8
0
  6
CONTINUOUS
 62
     7
 10
218.4410491291
 20
160.2796732117
 30
0.0
  0
VERTEX
  5
2EB
  8
0
  6
CONTINUOUS
 62
     7
 10
221.8716879639
 20
160.2887450386
 30
0.0
  0
VERTEX
  5
2EC
  8
0
  6
CONTINUOUS
 62
     7
 10
225.2998371873
 20
160.3033302952
 30
0.0
  0
VERTEX
  5
2ED
  8
0
  6
CONTINUOUS
 62
     7
 10
228.7243393514
 20
160.3234170605
 30
0.0
  0
VERTEX
  5
2EE
  8
0
  6
CONTINUOUS
 62
     7
 10
232.1440396163
 20
160.348999374
 30
0.0
  0
VERTEX
  5
2EF
  8
0
  6
CONTINUOUS
 62
     7
 10
235.5577838871
 20
160.3800712754
 30
0.0
  0
VERTEX
  5
2F0
  8
0
  6
CONTINUOUS
 62
     7
 10
238.7853605006
 20
160.4145644833
 30
0.0
  0
VERTEX
  5
2F1
  8
0
  6
CONTINUOUS
 62
     7
 10
239.7599992606
 20
160.4259608914
 30
0.0
  0
SEQEND
  5
579
  8
0
  6
CONTINUOUS
 62
     7
  0
ARC
  5
6E
  8
0
  6
CONTINUOUS
 62
     7
 10
189.4142498473
 20
175.2649290077
 30
0.0
 40
14.83230726688554
 50
218.4767112409
 51
269.3846904411
  0
ARC
  5
6F
  8
0
  6
CONTINUOUS
 62
     7
 10
239.6017943508
 20
175.2605095158
 30
0.0
 40
14.82858173378821
 50
270.6098445185
 51
321.4778692604
  0
LINE
  5
70
  8
0
  6
CONTINUOUS
 62
     7
 10
179.8284766528
 20
175.5597470929
 30
0.0
 11
179.8284766528
 21
215.4075263668
 31
0.0
  0
LINE
  5
71
  8
0
  6
CONTINUOUS
 62
     7
 10
249.1859910343
 20
215.4075263668
 30
0.0
 11
249.1859910343
 21
175.5597470929
 31
0.0
  0
ARC
  5
72
  8
0
  6
CONTINUOUS
 62
     7
 10
239.4306614234
 20
175.530101707
 30
0.0
 40
15.12948831199441
 50
327.6393586013
 51
0.1104170026
  0
ARC
  5
73
  8
0
  6
CONTINUOUS
 62
     7
 10
189.4114219598
 20
175.4856799787
 30
0.0
 40
14.9560493424181
 50
179.716251913
 51
212.5691945225
  0
POLYLINE
  5
74
  8
0
  6
CONTINUOUS
 62
     7
 66
     1
 10
0.0
 20
0.0
 30
0.0
  0
VERTEX
  5
2F2
  8
0
  6
CONTINUOUS
 62
     7
 10
239.6958318803
 20
165.8055781056
 30
0.0
  0
VERTEX
  5
2F3
  8
0
  6
CONTINUOUS
 62
     7
 10
237.9095715735
 20
165.785038345
 30
0.0
  0
VERTEX
  5
2F4
  8
0
  6
CONTINUOUS
 62
     7
 10
234.509613857
 20
165.7501815487
 30
0.0
  0
VERTEX
  5
2F5
  8
0
  6
CONTINUOUS
 62
     7
 10
231.1027896855
 20
165.7207845379
 30
0.0
  0
VERTEX
  5
2F6
  8
0
  6
CONTINUOUS
 62
     7
 10
227.6902896616
 20
165.6968711544
 30
0.0
  0
VERTEX
  5
2F7
  8
0
  6
CONTINUOUS
 62
     7
 10
224.2732790563
 20
165.6784413983
 30
0.0
  0
VERTEX
  5
2F8
  8
0
  6
CONTINUOUS
 62
     7
 10
220.8529276106
 20
165.6654952694
 30
0.0
  0
VERTEX
  5
2F9
  8
0
  6
CONTINUOUS
 62
     7
 10
217.4304043207
 20
165.6580566098
 30
0.0
  0
VERTEX
  5
2FA
  8
0
  6
CONTINUOUS
 62
     7
 10
214.0068781361
 20
165.6561134983
 30
0.0
  0
VERTEX
  5
2FB
  8
0
  6
CONTINUOUS
 62
     7
 10
210.5835193101
 20
165.6596659352
 30
0.0
  0
VERTEX
  5
2FC
  8
0
  6
CONTINUOUS
 62
     7
 10
207.1614985618
 20
165.6687139203
 30
0.0
  0
VERTEX
  5
2FD
  8
0
  6
CONTINUOUS
 62
     7
 10
203.7419867966
 20
165.6832574536
 30
0.0
  0
VERTEX
  5
2FE
  8
0
  6
CONTINUOUS
 62
     7
 10
200.3261518929
 20
165.7032965351
 30
0.0
  0
VERTEX
  5
2FF
  8
0
  6
CONTINUOUS
 62
     7
 10
196.9151613567
 20
165.7288073231
 30
0.0
  0
VERTEX
  5
300
  8
0
  6
CONTINUOUS
 62
     7
 10
193.5101819489
 20
165.7598017384
 30
0.0
  0
VERTEX
  5
301
  8
0
  6
CONTINUOUS
 62
     7
 10
190.2910081003
 20
165.7942055394
 30
0.0
  0
VERTEX
  5
302
  8
0
  6
CONTINUOUS
 62
     7
 10
189.3186358068
 20
165.8055781056
 30
0.0
  0
SEQEND
  5
578
  8
0
  6
CONTINUOUS
 62
     7
  0
ARC
  5
75
  8
0
  6
CONTINUOUS
 62
     7
 10
189.505779151
 20
175.479397771
 30
0.0
 40
9.67091332193654
 50
179.5279163947
 51
268.8864937524
  0
ARC
  5
76
  8
0
  6
CONTINUOUS
 62
     7
 10
239.5119074428
 20
175.4816355374
 30
0.0
 40
9.67057078427099
 50
271.0898262389
 51
0.454956971
  0
LINE
  5
77
  8
0
  6
CONTINUOUS
 62
     7
 10
255.9072342965
 20
156.7201553513
 30
0.0
 11
252.5072333667
 21
156.7201553513
 31
0.0
  0
LINE
  5
78
  8
0
  6
CONTINUOUS
 62
     7
 10
252.5072333667
 20
156.3201545407
 30
0.0
 11
252.2072342489
 21
156.3201545407
 31
0.0
  0
LINE
  5
79
  8
0
  6
CONTINUOUS
 62
     7
 10
251.2072352025
 20
156.3201545407
 30
0.0
 11
235.1072338674
 21
156.3201545407
 31
0.0
  0
LINE
  5
7A
  8
0
  6
CONTINUOUS
 62
     7
 10
235.1072338674
 20
144.3201540638
 30
0.0
 11
252.5072333667
 21
144.3201540638
 31
0.0
  0
LINE
  5
7B
  8
0
  6
CONTINUOUS
 62
     7
 10
135.9072325084
 20
156.7201553513
 30
0.0
 11
132.5072345588
 21
156.7201553513
 31
0.0
  0
LINE
  5
7C
  8
0
  6
CONTINUOUS
 62
     7
 10
132.5072345588
 20
156.3201545407
 30
0.0
 11
132.2072324607
 21
156.3201545407
 31
0.0
  0
LINE
  5
7D
  8
0
  6
CONTINUOUS
 62
     7
 10
131.2072334144
 20
156.3201545407
 30
0.0
 11
115.1072320792
 21
156.3201545407
 31
0.0
  0
LINE
  5
7E
  8
0
  6
CONTINUOUS
 62
     7
 10
115.1072320792
 20
144.3201540638
 30
0.0
 11
132.5072345588
 21
144.3201540638
 31
0.0
  0
LINE
  5
7F
  8
0
  6
CONTINUOUS
 62
     7
 10
375.9072301242
 20
156.7201553513
 30
0.0
 11
372.7036831233
 21
156.7201553513
 31
0.0
  0
LINE
  5
80
  8
0
  6
CONTINUOUS
 62
     7
 10
368.9332482669
 20
156.3201545407
 30
0.0
 11
355.1072356555
 21
156.3201545407
 31
0.0
  0
LINE
  5
81
  8
0
  6
CONTINUOUS
 62
     7
 10
355.1072356555
 20
144.3201540638
 30
0.0
 11
372.5072381351
 21
144.3201540638
 31
0.0
  0
LINE
  5
82
  8
0
  6
CONTINUOUS
 62
     7
 10
56.507229552
 20
156.7201553513
 30
0.0
 11
53.1072375629
 21
156.7201553513
 31
0.0
  0
LINE
  5
83
  8
0
  6
CONTINUOUS
 62
     7
 10
56.507229552
 20
144.3201540638
 30
0.0
 11
73.9072320316
 21
144.3201540638
 31
0.0
  0
LINE
  5
84
  8
0
  6
CONTINUOUS
 62
     7
 10
73.9072320316
 20
156.3201545407
 30
0.0
 11
57.8072306964
 21
156.3201545407
 31
0.0
  0
LINE
  5
85
  8
0
  6
CONTINUOUS
 62
     7
 10
56.8072316501
 20
156.3201545407
 30
0.0
 11
56.507229552
 21
156.3201545407
 31
0.0
  0
LINE
  5
86
  8
0
  6
CONTINUOUS
 62
     7
 10
176.5072343204
 20
156.7201553513
 30
0.0
 11
173.1072333906
 21
156.7201553513
 31
0.0
  0
LINE
  5
87
  8
0
  6
CONTINUOUS
 62
     7
 10
176.5072343204
 20
144.3201540638
 30
0.0
 11
193.9072338197
 21
144.3201540638
 31
0.0
  0
LINE
  5
88
  8
0
  6
CONTINUOUS
 62
     7
 10
193.9072338197
 20
156.3201545407
 30
0.0
 11
177.8072324846
 21
156.3201545407
 31
0.0
  0
LINE
  5
89
  8
0
  6
CONTINUOUS
 62
     7
 10
176.8072334382
 20
156.3201545407
 30
0.0
 11
176.5072343204
 21
156.3201545407
 31
0.0
  0
LINE
  5
8A
  8
0
  6
CONTINUOUS
 62
     7
 10
296.3107821796
 20
156.7201553513
 30
0.0
 11
293.1072351787
 21
156.7201553513
 31
0.0
  0
LINE
  5
8B
  8
0
  6
CONTINUOUS
 62
     7
 10
296.5072331283
 20
144.3201540638
 30
0.0
 11
313.9072356078
 21
144.3201540638
 31
0.0
  0
LINE
  5
8C
  8
0
  6
CONTINUOUS
 62
     7
 10
313.9072356078
 20
156.3201545407
 30
0.0
 11
300.0812229965
 21
156.3201545407
 31
0.0
  0
LINE
  5
8D
  8
0
  6
CONTINUOUS
 62
     7
 10
76.0929462764
 20
64.9201546465
 30
0.0
 11
82.9215166423
 21
64.9201546465
 31
0.0
  0
LINE
  5
8E
  8
0
  6
CONTINUOUS
 62
     7
 10
76.0929462764
 20
63.720154636
 30
0.0
 11
82.9215166423
 21
63.720154636
 31
0.0
  0
LINE
  5
8F
  8
0
  6
CONTINUOUS
 62
     7
 10
86.6801617
 20
63.720154636
 30
0.0
 11
82.9215166423
 21
63.720154636
 31
0.0
  0
LINE
  5
90
  8
0
  6
CONTINUOUS
 62
     7
 10
82.9215166423
 20
64.9201546465
 30
0.0
 11
86.6801617
 21
64.9201546465
 31
0.0
  0
LINE
  5
91
  8
0
  6
CONTINUOUS
 62
     7
 10
76.0929462764
 20
63.720154636
 30
0.0
 11
72.3343012187
 21
63.720154636
 31
0.0
  0
LINE
  5
92
  8
0
  6
CONTINUOUS
 62
     7
 10
72.3343012187
 20
64.9201546465
 30
0.0
 11
76.0929462764
 21
64.9201546465
 31
0.0
  0
LINE
  5
93
  8
0
  6
CONTINUOUS
 62
     7
 10
342.3343059871
 20
64.9201546465
 30
0.0
 11
346.0929510448
 21
64.9201546465
 31
0.0
  0
LINE
  5
94
  8
0
  6
CONTINUOUS
 62
     7
 10
346.0929510448
 20
63.720154636
 30
0.0
 11
342.3343059871
 21
63.720154636
 31
0.0
  0
LINE
  5
95
  8
0
  6
CONTINUOUS
 62
     7
 10
352.9215214107
 20
64.9201546465
 30
0.0
 11
356.6801664684
 21
64.9201546465
 31
0.0
  0
LINE
  5
96
  8
0
  6
CONTINUOUS
 62
     7
 10
356.6801664684
 20
63.720154636
 30
0.0
 11
352.9215214107
 21
63.720154636
 31
0.0
  0
LINE
  5
97
  8
0
  6
CONTINUOUS
 62
     7
 10
346.0929510448
 20
64.9201546465
 30
0.0
 11
352.9215214107
 21
64.9201546465
 31
0.0
  0
LINE
  5
98
  8
0
  6
CONTINUOUS
 62
     7
 10
346.0929510448
 20
63.720154636
 30
0.0
 11
352.9215214107
 21
63.720154636
 31
0.0
  0
LINE
  5
99
  8
0
  6
CONTINUOUS
 62
     7
 10
91.5072319362
 20
63.720154636
 30
0.0
 11
91.5072319362
 21
64.9201546465
 31
0.0
  0
LINE
  5
9A
  8
0
  6
CONTINUOUS
 62
     7
 10
86.6801617
 20
63.720154636
 30
0.0
 11
91.5072319362
 21
63.720154636
 31
0.0
  0
LINE
  5
9B
  8
0
  6
CONTINUOUS
 62
     7
 10
91.5072319362
 20
64.9201546465
 30
0.0
 11
86.6801617
 21
64.9201546465
 31
0.0
  0
LINE
  5
9C
  8
0
  6
CONTINUOUS
 62
     7
 10
67.5072309825
 20
63.720154636
 30
0.0
 11
67.5072309825
 21
64.9201546465
 31
0.0
  0
LINE
  5
9D
  8
0
  6
CONTINUOUS
 62
     7
 10
67.5072309825
 20
63.720154636
 30
0.0
 11
72.3343012187
 21
63.720154636
 31
0.0
  0
LINE
  5
9E
  8
0
  6
CONTINUOUS
 62
     7
 10
72.3343012187
 20
64.9201546465
 30
0.0
 11
67.5072309825
 21
64.9201546465
 31
0.0
  0
LINE
  5
9F
  8
0
  6
CONTINUOUS
 62
     7
 10
361.5072367046
 20
63.720154636
 30
0.0
 11
361.5072367046
 21
64.9201546465
 31
0.0
  0
LINE
  5
A0
  8
0
  6
CONTINUOUS
 62
     7
 10
361.5072367046
 20
64.9201546465
 30
0.0
 11
356.6801664684
 21
64.9201546465
 31
0.0
  0
LINE
  5
A1
  8
0
  6
CONTINUOUS
 62
     7
 10
356.6801664684
 20
63.720154636
 30
0.0
 11
361.5072367046
 21
63.720154636
 31
0.0
  0
LINE
  5
A2
  8
0
  6
CONTINUOUS
 62
     7
 10
337.5072357509
 20
63.720154636
 30
0.0
 11
337.5072357509
 21
64.9201546465
 31
0.0
  0
LINE
  5
A3
  8
0
  6
CONTINUOUS
 62
     7
 10
342.3343059871
 20
64.9201546465
 30
0.0
 11
337.5072357509
 21
64.9201546465
 31
0.0
  0
LINE
  5
A4
  8
0
  6
CONTINUOUS
 62
     7
 10
337.5072357509
 20
63.720154636
 30
0.0
 11
342.3343059871
 21
63.720154636
 31
0.0
  0
POLYLINE
  5
A5
  8
0
  6
CONTINUOUS
 62
     7
 66
     1
 10
0.0
 20
0.0
 30
0.0
  0
VERTEX
  5
303
  8
0
  6
CONTINUOUS
 62
     7
 10
354.5072314594
 20
128.9201556374
 30
0.0
  0
VERTEX
  5
304
  8
0
  6
CONTINUOUS
 62
     7
 10
354.4880149219
 20
128.9393721749
 30
0.0
  0
VERTEX
  5
305
  8
0
  6
CONTINUOUS
 62
     7
 10
354.431116328
 20
128.9962767292
 30
0.0
  0
VERTEX
  5
306
  8
0
  6
CONTINUOUS
 62
     7
 10
354.3387052867
 20
129.0886877705
 30
0.0
  0
VERTEX
  5
307
  8
0
  6
CONTINUOUS
 62
     7
 10
354.2143461559
 20
129.2130469014
 30
0.0
  0
VERTEX
  5
308
  8
0
  6
CONTINUOUS
 62
     7
 10
354.062807307
 20
129.3645857502
 30
0.0
  0
VERTEX
  5
309
  8
0
  6
CONTINUOUS
 62
     7
 10
353.8899180744
 20
129.5374690224
 30
0.0
  0
VERTEX
  5
30A
  8
0
  6
CONTINUOUS
 62
     7
 10
353.7023184154
 20
129.7250627209
 30
0.0
  0
VERTEX
  5
30B
  8
0
  6
CONTINUOUS
 62
     7
 10
353.507232413
 20
129.9201546837
 30
0.0
  0
SEQEND
  5
577
  8
0
  6
CONTINUOUS
 62
     7
  0
LINE
  5
A6
  8
0
  6
CONTINUOUS
 62
     7
 10
377.7072307918
 20
128.9201556374
 30
0.0
 11
374.7790095661
 21
128.9201556374
 31
0.0
  0
LINE
  5
A7
  8
0
  6
CONTINUOUS
 62
     7
 10
367.2354576442
 20
128.9201556374
 30
0.0
 11
354.5072314594
 21
128.9201556374
 31
0.0
  0
CIRCLE
  5
A8
  8
0
  6
CONTINUOUS
 62
     7
 10
252.0072338435
 20
133.120154636
 30
0.0
 40
1.049999999999983
  0
CIRCLE
  5
A9
  8
0
  6
CONTINUOUS
 62
     7
 10
297.0072338435
 20
133.120154636
 30
0.0
 40
1.050000000000011
  0
CIRCLE
  5
AA
  8
0
  6
CONTINUOUS
 62
     7
 10
132.0072338435
 20
133.120154636
 30
0.0
 40
1.049999999999983
  0
CIRCLE
  5
AB
  8
0
  6
CONTINUOUS
 62
     7
 10
57.0072338435
 20
133.120154636
 30
0.0
 40
1.049999999999997
  0
CIRCLE
  5
AC
  8
0
  6
CONTINUOUS
 62
     7
 10
372.0072338435
 20
133.120154636
 30
0.0
 40
1.049999999999955
  0
CIRCLE
  5
AD
  8
0
  6
CONTINUOUS
 62
     7
 10
177.0072338435
 20
133.120154636
 30
0.0
 40
1.050000000000011
  0
LINE
  5
AE
  8
0
  6
CONTINUOUS
 62
     7
 10
50.9072301242
 20
137.9201530148
 30
0.0
 11
50.9072301242
 21
138.520157211
 31
0.0
  0
ARC
  5
AF
  8
0
  6
CONTINUOUS
 62
     7
 10
51.3072338435
 20
138.520154636
 30
0.0
 40
0.4000000000000057
 50
90.0
 51
180.0
  0
LINE
  5
B0
  8
0
  6
CONTINUOUS
 62
     7
 10
378.1072375629
 20
129.9201546837
 30
0.0
 11
378.1072375629
 21
129.320156448
 31
0.0
  0
ARC
  5
B1
  8
0
  6
CONTINUOUS
 62
     7
 10
377.7072338435
 20
129.320154636
 30
0.0
 40
0.4000000000000341
 50
270.0
 51
0.0
  0
LINE
  5
B2
  8
0
  6
CONTINUOUS
 62
     7
 10
51.3072368953
 20
138.9201520611
 30
0.0
 11
53.1072375629
 21
138.9201520611
 31
0.0
  0
LINE
  5
B3
  8
0
  6
CONTINUOUS
 62
     7
 10
62.9072306011
 20
138.9201520611
 30
0.0
 11
126.1072335098
 21
138.9201520611
 31
0.0
  0
LINE
  5
B4
  8
0
  6
CONTINUOUS
 62
     7
 10
135.9072325084
 20
138.9201520611
 30
0.0
 11
173.1072333906
 21
138.9201520611
 31
0.0
  0
LINE
  5
B5
  8
0
  6
CONTINUOUS
 62
     7
 10
182.9072323892
 20
138.9201520611
 30
0.0
 11
246.1072352979
 21
138.9201520611
 31
0.0
  0
LINE
  5
B6
  8
0
  6
CONTINUOUS
 62
     7
 10
255.9072342965
 20
138.9201520611
 30
0.0
 11
293.1072351787
 21
138.9201520611
 31
0.0
  0
LINE
  5
B7
  8
0
  6
CONTINUOUS
 62
     7
 10
302.9072341773
 20
138.9201520611
 30
0.0
 11
366.107237086
 21
138.9201520611
 31
0.0
  0
LINE
  5
B8
  8
0
  6
CONTINUOUS
 62
     7
 10
375.9072301242
 20
138.9201520611
 30
0.0
 11
377.7072307918
 21
138.9201520611
 31
0.0
  0
LINE
  5
B9
  8
0
  6
CONTINUOUS
 62
     7
 10
344.5072290752
 20
64.9201546465
 30
0.0
 11
344.5072290752
 21
128.9201556374
 31
0.0
  0
POLYLINE
  5
BA
  8
0
  6
CONTINUOUS
 62
     7
 66
     1
 10
0.0
 20
0.0
 30
0.0
  0
VERTEX
  5
30C
  8
0
  6
CONTINUOUS
 62
     7
 10
345.5072281215
 20
129.9201546837
 30
0.0
  0
VERTEX
  5
30D
  8
0
  6
CONTINUOUS
 62
     7
 10
345.3121421192
 20
129.7250627209
 30
0.0
  0
VERTEX
  5
30E
  8
0
  6
CONTINUOUS
 62
     7
 10
345.1245543811
 20
129.5374690224
 30
0.0
  0
VERTEX
  5
30F
  8
0
  6
CONTINUOUS
 62
     7
 10
344.9516651485
 20
129.3645857502
 30
0.0
  0
VERTEX
  5
310
  8
0
  6
CONTINUOUS
 62
     7
 10
344.8001262996
 20
129.2130469014
 30
0.0
  0
VERTEX
  5
311
  8
0
  6
CONTINUOUS
 62
     7
 10
344.6757671687
 20
129.0886877705
 30
0.0
  0
VERTEX
  5
312
  8
0
  6
CONTINUOUS
 62
     7
 10
344.5833561275
 20
128.9962767292
 30
0.0
  0
VERTEX
  5
313
  8
0
  6
CONTINUOUS
 62
     7
 10
344.5264456127
 20
128.9393721749
 30
0.0
  0
VERTEX
  5
314
  8
0
  6
CONTINUOUS
 62
     7
 10
344.5072290752
 20
128.9201556374
 30
0.0
  0
SEQEND
  5
576
  8
0
  6
CONTINUOUS
 62
     7
  0
POLYLINE
  5
BB
  8
0
  6
CONTINUOUS
 62
     7
 66
     1
 10
0.0
 20
0.0
 30
0.0
  0
VERTEX
  5
315
  8
0
  6
CONTINUOUS
 62
     7
 10
74.5072362277
 20
128.9201556374
 30
0.0
  0
VERTEX
  5
316
  8
0
  6
CONTINUOUS
 62
     7
 10
74.5264527652
 20
128.9393721749
 30
0.0
  0
VERTEX
  5
317
  8
0
  6
CONTINUOUS
 62
     7
 10
74.5833513591
 20
128.9962767292
 30
0.0
  0
VERTEX
  5
318
  8
0
  6
CONTINUOUS
 62
     7
 10
74.6757624004
 20
129.0886877705
 30
0.0
  0
VERTEX
  5
319
  8
0
  6
CONTINUOUS
 62
     7
 10
74.8001215312
 20
129.2130469014
 30
0.0
  0
VERTEX
  5
31A
  8
0
  6
CONTINUOUS
 62
     7
 10
74.9516603801
 20
129.3645857502
 30
0.0
  0
VERTEX
  5
31B
  8
0
  6
CONTINUOUS
 62
     7
 10
75.1245496127
 20
129.5374690224
 30
0.0
  0
VERTEX
  5
31C
  8
0
  6
CONTINUOUS
 62
     7
 10
75.3121492717
 20
129.7250627209
 30
0.0
  0
VERTEX
  5
31D
  8
0
  6
CONTINUOUS
 62
     7
 10
75.5072352741
 20
129.9201546837
 30
0.0
  0
SEQEND
  5
575
  8
0
  6
CONTINUOUS
 62
     7
  0
LINE
  5
BC
  8
0
  6
CONTINUOUS
 62
     7
 10
74.5072362277
 20
128.9201556374
 30
0.0
 11
61.7790100429
 21
128.9201556374
 31
0.0
  0
LINE
  5
BD
  8
0
  6
CONTINUOUS
 62
     7
 10
54.235458121
 20
128.9201556374
 30
0.0
 11
51.3072368953
 21
128.9201556374
 31
0.0
  0
LINE
  5
BE
  8
0
  6
CONTINUOUS
 62
     7
 10
74.5072362277
 20
64.9201546465
 30
0.0
 11
74.5072362277
 21
128.9201556374
 31
0.0
  0
ARC
  5
BF
  8
0
  6
CONTINUOUS
 62
     7
 10
377.7072338435
 20
138.520154636
 30
0.0
 40
0.4000000000000341
 50
0.0
 51
90.0
  0
LINE
  5
C0
  8
0
  6
CONTINUOUS
 62
     7
 10
378.1072375629
 20
138.520157211
 30
0.0
 11
378.1072375629
 21
137.9201530148
 31
0.0
  0
POLYLINE
  5
C1
  8
0
  6
CONTINUOUS
 62
     7
 66
     1
 10
0.0
 20
0.0
 30
0.0
  0
VERTEX
  5
31E
  8
0
  6
CONTINUOUS
 62
     7
 10
83.5072395656
 20
129.9201546837
 30
0.0
  0
VERTEX
  5
31F
  8
0
  6
CONTINUOUS
 62
     7
 10
83.7023255679
 20
129.7250627209
 30
0.0
  0
VERTEX
  5
320
  8
0
  6
CONTINUOUS
 62
     7
 10
83.889913306
 20
129.5374690224
 30
0.0
  0
VERTEX
  5
321
  8
0
  6
CONTINUOUS
 62
     7
 10
84.0628025386
 20
129.3645857502
 30
0.0
  0
VERTEX
  5
322
  8
0
  6
CONTINUOUS
 62
     7
 10
84.2143413875
 20
129.2130469014
 30
0.0
  0
VERTEX
  5
323
  8
0
  6
CONTINUOUS
 62
     7
 10
84.3387005184
 20
129.0886877705
 30
0.0
  0
VERTEX
  5
324
  8
0
  6
CONTINUOUS
 62
     7
 10
84.4311115596
 20
128.9962767292
 30
0.0
  0
VERTEX
  5
325
  8
0
  6
CONTINUOUS
 62
     7
 10
84.4880220744
 20
128.9393721749
 30
0.0
  0
VERTEX
  5
326
  8
0
  6
CONTINUOUS
 62
     7
 10
84.5072386119
 20
128.9201556374
 30
0.0
  0
SEQEND
  5
574
  8
0
  6
CONTINUOUS
 62
     7
  0
LINE
  5
C2
  8
0
  6
CONTINUOUS
 62
     7
 10
84.5072386119
 20
128.9201556374
 30
0.0
 11
84.5072386119
 21
64.9201546465
 31
0.0
  0
LINE
  5
C3
  8
0
  6
CONTINUOUS
 62
     7
 10
50.9072301242
 20
129.9201546837
 30
0.0
 11
50.9072301242
 21
137.9201530148
 31
0.0
  0
LINE
  5
C4
  8
0
  6
CONTINUOUS
 62
     7
 10
50.9072301242
 20
129.320156448
 30
0.0
 11
50.9072301242
 21
129.9201546837
 31
0.0
  0
ARC
  5
C5
  8
0
  6
CONTINUOUS
 62
     7
 10
51.3072338435
 20
129.320154636
 30
0.0
 40
0.3999999999999844
 50
180.0
 51
270.0
  0
LINE
  5
C6
  8
0
  6
CONTINUOUS
 62
     7
 10
378.1072375629
 20
137.9201530148
 30
0.0
 11
378.1072375629
 21
129.9201546837
 31
0.0
  0
LINE
  5
C7
  8
0
  6
CONTINUOUS
 62
     7
 10
354.5072314594
 20
128.9201556374
 30
0.0
 11
354.5072314594
 21
64.9201546465
 31
0.0
  0
LINE
  5
C8
  8
0
  6
CONTINUOUS
 62
     7
 10
344.5072290752
 20
128.9201556374
 30
0.0
 11
301.7790136192
 21
128.9201556374
 31
0.0
  0
LINE
  5
C9
  8
0
  6
CONTINUOUS
 62
     7
 10
294.2354557369
 20
128.9201556374
 30
0.0
 11
254.7790137384
 21
128.9201556374
 31
0.0
  0
LINE
  5
CA
  8
0
  6
CONTINUOUS
 62
     7
 10
247.2354528758
 20
128.9201556374
 30
0.0
 11
181.7790148113
 21
128.9201556374
 31
0.0
  0
LINE
  5
CB
  8
0
  6
CONTINUOUS
 62
     7
 10
174.2354539487
 20
128.9201556374
 30
0.0
 11
134.7790119502
 21
128.9201556374
 31
0.0
  0
LINE
  5
CC
  8
0
  6
CONTINUOUS
 62
     7
 10
127.2354540679
 20
128.9201556374
 30
0.0
 11
84.5072386119
 21
128.9201556374
 31
0.0
  0
LINE
  5
CD
  8
0
  6
CONTINUOUS
 62
     7
 10
57.8072306964
 20
186.2441776921
 30
0.0
 11
56.8072316501
 21
186.2441776921
 31
0.0
  0
LINE
  5
CE
  8
0
  6
CONTINUOUS
 62
     7
 10
57.8072306964
 20
186.2441776921
 30
0.0
 11
57.8072306964
 21
151.0981558491
 31
0.0
  0
LINE
  5
CF
  8
0
  6
CONTINUOUS
 62
     7
 10
56.8072316501
 20
186.2441776921
 30
0.0
 11
56.8072316501
 21
151.0981558491
 31
0.0
  0
LINE
  5
D0
  8
0
  6
CONTINUOUS
 62
     7
 10
131.2072334144
 20
186.2441776921
 30
0.0
 11
132.2072324607
 21
186.2441776921
 31
0.0
  0
LINE
  5
D1
  8
0
  6
CONTINUOUS
 62
     7
 10
131.2072334144
 20
186.2441776921
 30
0.0
 11
131.2072334144
 21
151.0981558491
 31
0.0
  0
LINE
  5
D2
  8
0
  6
CONTINUOUS
 62
     7
 10
132.2072324607
 20
186.2441776921
 30
0.0
 11
132.2072324607
 21
151.0981558491
 31
0.0
  0
ARC
  5
D3
  8
0
  6
CONTINUOUS
 62
     7
 10
67.6233424321
 20
219.2391456525
 30
0.0
 40
10.66455063496746
 50
102.9877920793
 51
120.0658006673
  0
ARC
  5
D4
  8
0
  6
CONTINUOUS
 62
     7
 10
120.47466655
 20
216.8772750725
 30
0.0
 40
13.19194355272421
 50
61.338370766
 51
75.6468401221
  0
ARC
  5
D5
  8
0
  6
CONTINUOUS
 62
     7
 10
57.137989696
 20
216.6234608619
 30
0.0
 40
30.34004237754326
 50
269.3753662162
 51
271.2639334671
  0
ARC
  5
D6
  8
0
  6
CONTINUOUS
 62
     7
 10
131.8764759306
 20
216.6237325581
 30
0.0
 40
30.3403140410931
 50
268.7360749887
 51
270.624625328
  0
LINE
  5
D7
  8
0
  6
CONTINUOUS
 62
     7
 10
57.8072306964
 20
186.2908004452
 30
0.0
 11
57.8072306964
 21
186.2441776921
 31
0.0
  0
LINE
  5
D8
  8
0
  6
CONTINUOUS
 62
     7
 10
56.8072316501
 20
186.2852214505
 30
0.0
 11
56.8072316501
 21
186.2441776921
 31
0.0
  0
LINE
  5
D9
  8
0
  6
CONTINUOUS
 62
     7
 10
131.2072334144
 20
186.2908004452
 30
0.0
 11
131.2072334144
 21
186.2441776921
 31
0.0
  0
LINE
  5
DA
  8
0
  6
CONTINUOUS
 62
     7
 10
132.2072324607
 20
186.2852214505
 30
0.0
 11
132.2072324607
 21
186.2441776921
 31
0.0
  0
ARC
  5
DB
  8
0
  6
CONTINUOUS
 62
     7
 10
334.5245181575
 20
336.2667552672
 30
0.0
 40
183.2071848725065
 50
277.7919748279
 51
281.5898572225
  0
ARC
  5
DC
  8
0
  6
CONTINUOUS
 62
     7
 10
371.8759904764
 20
154.1606577565
 30
0.0
 40
2.690000000000023
 50
12.4186815058
 51
100.0467259538
  0
ARC
  5
DD
  8
0
  6
CONTINUOUS
 62
     7
 10
334.5071090176
 20
336.3693032779
 30
0.0
 40
188.6911405135129
 50
277.7930209078
 51
281.5887330874
  0
ARC
  5
DE
  8
0
  6
CONTINUOUS
 62
     7
 10
371.8759904764
 20
154.1606577565
 30
0.0
 40
2.690000000000026
 50
281.5900201068
 51
12.4186815058
  0
ARC
  5
DF
  8
0
  6
CONTINUOUS
 62
     7
 10
334.505976417
 20
336.3609503124
 30
0.0
 40
188.6826775900551
 50
258.4109200711
 51
262.2070503025
  0
ARC
  5
E0
  8
0
  6
CONTINUOUS
 62
     7
 10
297.1384772107
 20
154.1606577565
 30
0.0
 40
2.690000000000015
 50
167.5813184942
 51
258.4099798932
  0
ARC
  5
E1
  8
0
  6
CONTINUOUS
 62
     7
 10
297.1384772107
 20
154.1606577565
 30
0.0
 40
2.690000000000001
 50
80.0567778902
 51
167.5813184942
  0
ARC
  5
E2
  8
0
  6
CONTINUOUS
 62
     7
 10
334.523450684
 20
336.463028961
 30
0.0
 40
183.4061887606455
 50
258.4122996017
 51
262.2059683307
  0
ARC
  5
E3
  8
0
  6
CONTINUOUS
 62
     7
 10
334.5072338435
 20
336.3681659106
 30
0.0
 40
188.6900000000006
 50
262.2069690737
 51
277.7930309263
  0
ARC
  5
E4
  8
0
  6
CONTINUOUS
 62
     7
 10
334.5072338435
 20
336.3681659106
 30
0.0
 40
183.3100000000006
 50
262.2069690737
 51
277.7930309263
  0
LINE
  5
E5
  8
0
  6
CONTINUOUS
 62
     7
 10
371.2072369907
 20
151.020157211
 30
0.0
 11
372.207236037
 21
151.020157211
 31
0.0
  0
LINE
  5
E6
  8
0
  6
CONTINUOUS
 62
     7
 10
371.2072369907
 20
151.2817441155
 30
0.0
 11
371.2072369907
 21
151.020157211
 31
0.0
  0
LINE
  5
E7
  8
0
  6
CONTINUOUS
 62
     7
 10
372.207236037
 20
151.4911292721
 30
0.0
 11
372.207236037
 21
151.020157211
 31
0.0
  0
LINE
  5
E8
  8
0
  6
CONTINUOUS
 62
     7
 10
297.8072342727
 20
151.281750076
 30
0.0
 11
297.8072342727
 21
151.020157211
 31
0.0
  0
LINE
  5
E9
  8
0
  6
CONTINUOUS
 62
     7
 10
297.8072342727
 20
151.020157211
 30
0.0
 11
296.8072352264
 21
151.020157211
 31
0.0
  0
LINE
  5
EA
  8
0
  6
CONTINUOUS
 62
     7
 10
296.8072352264
 20
151.4911292721
 30
0.0
 11
296.8072352264
 21
151.020157211
 31
0.0
  0
LINE
  5
EB
  8
0
  6
CONTINUOUS
 62
     7
 10
371.2072369907
 20
151.020157211
 30
0.0
 11
371.2072369907
 21
144.4612561394
 31
0.0
  0
LINE
  5
EC
  8
0
  6
CONTINUOUS
 62
     7
 10
372.207236037
 20
151.020157211
 30
0.0
 11
372.207236037
 21
144.4612561394
 31
0.0
  0
LINE
  5
ED
  8
0
  6
CONTINUOUS
 62
     7
 10
297.8072342727
 20
151.020157211
 30
0.0
 11
297.8072342727
 21
144.4612561394
 31
0.0
  0
LINE
  5
EE
  8
0
  6
CONTINUOUS
 62
     7
 10
296.8072352264
 20
151.020157211
 30
0.0
 11
296.8072352264
 21
144.4612561394
 31
0.0
  0
LINE
  5
EF
  8
0
  6
CONTINUOUS
 62
     7
 10
297.6789173934
 20
156.7958115269
 30
0.0
 11
297.6828751418
 21
156.7949949433
 31
0.0
  0
LINE
  5
F0
  8
0
  6
CONTINUOUS
 62
     7
 10
371.3313219402
 20
156.7949412991
 30
0.0
 11
371.3355538699
 21
156.7958115269
 31
0.0
  0
LINE
  5
F1
  8
0
  6
CONTINUOUS
 62
     7
 10
177.8072324846
 20
186.2441776921
 30
0.0
 11
176.8072334382
 21
186.2441776921
 31
0.0
  0
LINE
  5
F2
  8
0
  6
CONTINUOUS
 62
     7
 10
177.8072324846
 20
186.2441776921
 30
0.0
 11
177.8072324846
 21
151.0981558491
 31
0.0
  0
LINE
  5
F3
  8
0
  6
CONTINUOUS
 62
     7
 10
176.8072334382
 20
186.2441776921
 30
0.0
 11
176.8072334382
 21
151.0981558491
 31
0.0
  0
LINE
  5
F4
  8
0
  6
CONTINUOUS
 62
     7
 10
251.2072352025
 20
186.2441776921
 30
0.0
 11
252.2072342489
 21
186.2441776921
 31
0.0
  0
LINE
  5
F5
  8
0
  6
CONTINUOUS
 62
     7
 10
251.2072352025
 20
186.2441776921
 30
0.0
 11
251.2072352025
 21
151.0981558491
 31
0.0
  0
LINE
  5
F6
  8
0
  6
CONTINUOUS
 62
     7
 10
252.2072342489
 20
186.2441776921
 30
0.0
 11
252.2072342489
 21
151.0981558491
 31
0.0
  0
ARC
  5
F7
  8
0
  6
CONTINUOUS
 62
     7
 10
187.6233286504
 20
219.2391515739
 30
0.0
 40
10.66454069603996
 50
102.9877021175
 51
120.0657719251
  0
ARC
  5
F8
  8
0
  6
CONTINUOUS
 62
     7
 10
240.4746979069
 20
216.8773576718
 30
0.0
 40
13.19185546281052
 50
61.3383227431
 51
75.6468881451
  0
ARC
  5
F9
  8
0
  6
CONTINUOUS
 62
     7
 10
177.1379915747
 20
216.6234446245
 30
0.0
 40
30.34002614205136
 50
269.3753657109
 51
271.2639339724
  0
ARC
  5
FA
  8
0
  6
CONTINUOUS
 62
     7
 10
251.8764761123
 20
216.6234446245
 30
0.0
 40
30.34002614205258
 50
268.7360660276
 51
270.6246342891
  0
LINE
  5
FB
  8
0
  6
CONTINUOUS
 62
     7
 10
251.2072352025
 20
186.2908004452
 30
0.0
 11
251.2072352025
 21
186.2441776921
 31
0.0
  0
LINE
  5
FC
  8
0
  6
CONTINUOUS
 62
     7
 10
252.2072342489
 20
186.2852214505
 30
0.0
 11
252.2072342489
 21
186.2441776921
 31
0.0
  0
LINE
  5
FD
  8
0
  6
CONTINUOUS
 62
     7
 10
177.8072324846
 20
186.2908004452
 30
0.0
 11
177.8072324846
 21
186.2441776921
 31
0.0
  0
LINE
  5
FE
  8
0
  6
CONTINUOUS
 62
     7
 10
176.8072334382
 20
186.2852214505
 30
0.0
 11
176.8072334382
 21
186.2441776921
 31
0.0
  0
LINE
  5
FF
  8
0
  6
CONTINUOUS
 62
     7
 10
252.5072333667
 20
156.7201553513
 30
0.0
 11
252.5072333667
 21
147.562920921
 31
0.0
  0
LINE
  5
100
  8
0
  6
CONTINUOUS
 62
     7
 10
255.9072342965
 20
156.7201553513
 30
0.0
 11
255.9072342965
 21
147.562920921
 31
0.0
  0
LINE
  5
101
  8
0
  6
CONTINUOUS
 62
     7
 10
235.1072338674
 20
156.3201545407
 30
0.0
 11
235.1072338674
 21
144.3201540638
 31
0.0
  0
LINE
  5
102
  8
0
  6
CONTINUOUS
 62
     7
 10
246.1072352979
 20
138.720154636
 30
0.0
 11
246.1072352979
 21
139.7201536824
 31
0.0
  0
LINE
  5
103
  8
0
  6
CONTINUOUS
 62
     7
 10
246.1072352979
 20
139.7201536824
 30
0.0
 11
255.9072342965
 21
139.7201536824
 31
0.0
  0
LINE
  5
104
  8
0
  6
CONTINUOUS
 62
     7
 10
255.9072342965
 20
139.7201536824
 30
0.0
 11
255.9072342965
 21
138.720154636
 31
0.0
  0
ARC
  5
105
  8
0
  6
CONTINUOUS
 62
     7
 10
253.9072338435
 20
130.720154636
 30
0.0
 40
2.000000000000028
 50
270.0
 51
0.0
  0
LINE
  5
106
  8
0
  6
CONTINUOUS
 62
     7
 10
253.9072332237
 20
128.7201522519
 30
0.0
 11
248.1072333906
 21
128.7201522519
 31
0.0
  0
CIRCLE
  5
107
  8
0
  6
CONTINUOUS
 62
     7
 10
252.0072338435
 20
133.120154636
 30
0.0
 40
1.100000000000051
  0
LINE
  5
108
  8
0
  6
CONTINUOUS
 62
     7
 10
246.1072352979
 20
130.720156305
 30
0.0
 11
246.1072352979
 21
138.720154636
 31
0.0
  0
ARC
  5
109
  8
0
  6
CONTINUOUS
 62
     7
 10
248.1072338435
 20
130.720154636
 30
0.0
 40
2.000000000000028
 50
180.0
 51
270.0
  0
LINE
  5
10A
  8
0
  6
CONTINUOUS
 62
     7
 10
255.9072342965
 20
130.720156305
 30
0.0
 11
255.9072342965
 21
138.720154636
 31
0.0
  0
LINE
  5
10B
  8
0
  6
CONTINUOUS
 62
     7
 10
252.5072333667
 20
143.2547448803
 30
0.0
 11
252.5072333667
 21
147.562920921
 31
0.0
  0
LINE
  5
10C
  8
0
  6
CONTINUOUS
 62
     7
 10
255.9072342965
 20
147.562920921
 30
0.0
 11
255.9072342965
 21
143.2547448803
 31
0.0
  0
LINE
  5
10D
  8
0
  6
CONTINUOUS
 62
     7
 10
252.5072333667
 20
143.2547448803
 30
0.0
 11
252.5072333667
 21
139.7201536824
 31
0.0
  0
LINE
  5
10E
  8
0
  6
CONTINUOUS
 62
     7
 10
255.9072342965
 20
143.2547448803
 30
0.0
 11
255.9072342965
 21
139.7201536824
 31
0.0
  0
LINE
  5
10F
  8
0
  6
CONTINUOUS
 62
     7
 10
135.9072325084
 20
156.7201553513
 30
0.0
 11
135.9072325084
 21
147.562920921
 31
0.0
  0
LINE
  5
110
  8
0
  6
CONTINUOUS
 62
     7
 10
132.5072345588
 20
156.7201553513
 30
0.0
 11
132.5072345588
 21
147.562920921
 31
0.0
  0
LINE
  5
111
  8
0
  6
CONTINUOUS
 62
     7
 10
115.1072320792
 20
156.3201545407
 30
0.0
 11
115.1072320792
 21
144.3201540638
 31
0.0
  0
LINE
  5
112
  8
0
  6
CONTINUOUS
 62
     7
 10
126.1072335098
 20
138.720154636
 30
0.0
 11
126.1072335098
 21
139.7201536824
 31
0.0
  0
LINE
  5
113
  8
0
  6
CONTINUOUS
 62
     7
 10
126.1072335098
 20
139.7201536824
 30
0.0
 11
135.9072325084
 21
139.7201536824
 31
0.0
  0
LINE
  5
114
  8
0
  6
CONTINUOUS
 62
     7
 10
135.9072325084
 20
139.7201536824
 30
0.0
 11
135.9072325084
 21
138.720154636
 31
0.0
  0
CIRCLE
  5
115
  8
0
  6
CONTINUOUS
 62
     7
 10
132.0072338435
 20
133.120154636
 30
0.0
 40
1.099999999999994
  0
ARC
  5
116
  8
0
  6
CONTINUOUS
 62
     7
 10
133.9072338435
 20
130.720154636
 30
0.0
 40
2.000000000000028
 50
270.0
 51
0.0
  0
LINE
  5
117
  8
0
  6
CONTINUOUS
 62
     7
 10
133.9072344158
 20
128.7201522519
 30
0.0
 11
128.1072316024
 21
128.7201522519
 31
0.0
  0
LINE
  5
118
  8
0
  6
CONTINUOUS
 62
     7
 10
126.1072335098
 20
130.720156305
 30
0.0
 11
126.1072335098
 21
138.720154636
 31
0.0
  0
ARC
  5
119
  8
0
  6
CONTINUOUS
 62
     7
 10
128.1072338435
 20
130.720154636
 30
0.0
 40
2.000000000000028
 50
180.0
 51
270.0
  0
LINE
  5
11A
  8
0
  6
CONTINUOUS
 62
     7
 10
135.9072325084
 20
130.720156305
 30
0.0
 11
135.9072325084
 21
138.720154636
 31
0.0
  0
LINE
  5
11B
  8
0
  6
CONTINUOUS
 62
     7
 10
135.9072325084
 20
147.562920921
 30
0.0
 11
135.9072325084
 21
143.2547448803
 31
0.0
  0
LINE
  5
11C
  8
0
  6
CONTINUOUS
 62
     7
 10
132.5072345588
 20
143.2547448803
 30
0.0
 11
132.5072345588
 21
147.562920921
 31
0.0
  0
LINE
  5
11D
  8
0
  6
CONTINUOUS
 62
     7
 10
135.9072325084
 20
143.2547448803
 30
0.0
 11
135.9072325084
 21
139.7201536824
 31
0.0
  0
LINE
  5
11E
  8
0
  6
CONTINUOUS
 62
     7
 10
132.5072345588
 20
143.2547448803
 30
0.0
 11
132.5072345588
 21
139.7201536824
 31
0.0
  0
LINE
  5
11F
  8
0
  6
CONTINUOUS
 62
     7
 10
375.9072301242
 20
156.7201553513
 30
0.0
 11
375.9072301242
 21
147.562920921
 31
0.0
  0
LINE
  5
120
  8
0
  6
CONTINUOUS
 62
     7
 10
372.5072381351
 20
151.54576885
 30
0.0
 11
372.5072381351
 21
147.562920921
 31
0.0
  0
LINE
  5
121
  8
0
  6
CONTINUOUS
 62
     7
 10
355.1072356555
 20
156.3201545407
 30
0.0
 11
355.1072356555
 21
154.2193351914
 31
0.0
  0
LINE
  5
122
  8
0
  6
CONTINUOUS
 62
     7
 10
355.1072356555
 20
148.806029432
 30
0.0
 11
355.1072356555
 21
144.3201540638
 31
0.0
  0
CIRCLE
  5
123
  8
0
  6
CONTINUOUS
 62
     7
 10
372.0072338435
 20
133.120154636
 30
0.0
 40
1.099999999999966
  0
ARC
  5
124
  8
0
  6
CONTINUOUS
 62
     7
 10
373.9072338435
 20
130.720154636
 30
0.0
 40
2.000000000000028
 50
270.0
 51
0.0
  0
LINE
  5
125
  8
0
  6
CONTINUOUS
 62
     7
 10
373.9072320316
 20
128.7201522519
 30
0.0
 11
368.1072351787
 21
128.7201522519
 31
0.0
  0
LINE
  5
126
  8
0
  6
CONTINUOUS
 62
     7
 10
366.107237086
 20
130.720156305
 30
0.0
 11
366.107237086
 21
138.720154636
 31
0.0
  0
ARC
  5
127
  8
0
  6
CONTINUOUS
 62
     7
 10
368.1072338435
 20
130.720154636
 30
0.0
 40
2.000000000000028
 50
180.0
 51
270.0
  0
LINE
  5
128
  8
0
  6
CONTINUOUS
 62
     7
 10
375.9072301242
 20
130.720156305
 30
0.0
 11
375.9072301242
 21
138.720154636
 31
0.0
  0
LINE
  5
129
  8
0
  6
CONTINUOUS
 62
     7
 10
366.107237086
 20
138.720154636
 30
0.0
 11
366.107237086
 21
139.7201536824
 31
0.0
  0
LINE
  5
12A
  8
0
  6
CONTINUOUS
 62
     7
 10
366.107237086
 20
139.7201536824
 30
0.0
 11
375.9072301242
 21
139.7201536824
 31
0.0
  0
LINE
  5
12B
  8
0
  6
CONTINUOUS
 62
     7
 10
375.9072301242
 20
139.7201536824
 30
0.0
 11
375.9072301242
 21
138.720154636
 31
0.0
  0
LINE
  5
12C
  8
0
  6
CONTINUOUS
 62
     7
 10
372.5072381351
 20
143.2547448803
 30
0.0
 11
372.5072381351
 21
147.562920921
 31
0.0
  0
LINE
  5
12D
  8
0
  6
CONTINUOUS
 62
     7
 10
375.9072301242
 20
147.562920921
 30
0.0
 11
375.9072301242
 21
143.2547448803
 31
0.0
  0
LINE
  5
12E
  8
0
  6
CONTINUOUS
 62
     7
 10
372.5072381351
 20
143.2547448803
 30
0.0
 11
372.5072381351
 21
139.7201536824
 31
0.0
  0
LINE
  5
12F
  8
0
  6
CONTINUOUS
 62
     7
 10
375.9072301242
 20
143.2547448803
 30
0.0
 11
375.9072301242
 21
139.7201536824
 31
0.0
  0
LINE
  5
130
  8
0
  6
CONTINUOUS
 62
     7
 10
56.507229552
 20
156.7201553513
 30
0.0
 11
56.507229552
 21
147.562920921
 31
0.0
  0
LINE
  5
131
  8
0
  6
CONTINUOUS
 62
     7
 10
53.1072375629
 20
156.7201553513
 30
0.0
 11
53.1072375629
 21
147.562920921
 31
0.0
  0
LINE
  5
132
  8
0
  6
CONTINUOUS
 62
     7
 10
73.9072320316
 20
156.3201545407
 30
0.0
 11
73.9072320316
 21
144.3201540638
 31
0.0
  0
CIRCLE
  5
133
  8
0
  6
CONTINUOUS
 62
     7
 10
57.0072338435
 20
133.120154636
 30
0.0
 40
1.099999999999987
  0
ARC
  5
134
  8
0
  6
CONTINUOUS
 62
     7
 10
60.9072338435
 20
130.720154636
 30
0.0
 40
2.000000000000028
 50
270.0
 51
0.0
  0
LINE
  5
135
  8
0
  6
CONTINUOUS
 62
     7
 10
60.9072325084
 20
128.7201522519
 30
0.0
 11
55.1072356555
 21
128.7201522519
 31
0.0
  0
ARC
  5
136
  8
0
  6
CONTINUOUS
 62
     7
 10
55.1072338435
 20
130.720154636
 30
0.0
 40
2.000000000000028
 50
180.0
 51
270.0
  0
LINE
  5
137
  8
0
  6
CONTINUOUS
 62
     7
 10
62.9072306011
 20
138.720154636
 30
0.0
 11
62.9072306011
 21
130.720156305
 31
0.0
  0
LINE
  5
138
  8
0
  6
CONTINUOUS
 62
     7
 10
53.1072375629
 20
130.720156305
 30
0.0
 11
53.1072375629
 21
138.720154636
 31
0.0
  0
LINE
  5
139
  8
0
  6
CONTINUOUS
 62
     7
 10
53.1072375629
 20
139.7201536824
 30
0.0
 11
62.9072306011
 21
139.7201536824
 31
0.0
  0
LINE
  5
13A
  8
0
  6
CONTINUOUS
 62
     7
 10
62.9072306011
 20
139.7201536824
 30
0.0
 11
62.9072306011
 21
138.720154636
 31
0.0
  0
LINE
  5
13B
  8
0
  6
CONTINUOUS
 62
     7
 10
53.1072375629
 20
138.720154636
 30
0.0
 11
53.1072375629
 21
139.7201536824
 31
0.0
  0
LINE
  5
13C
  8
0
  6
CONTINUOUS
 62
     7
 10
56.507229552
 20
147.562920921
 30
0.0
 11
56.507229552
 21
143.2547448803
 31
0.0
  0
LINE
  5
13D
  8
0
  6
CONTINUOUS
 62
     7
 10
53.1072375629
 20
143.2547448803
 30
0.0
 11
53.1072375629
 21
147.562920921
 31
0.0
  0
LINE
  5
13E
  8
0
  6
CONTINUOUS
 62
     7
 10
56.507229552
 20
143.2547448803
 30
0.0
 11
56.507229552
 21
139.7201536824
 31
0.0
  0
LINE
  5
13F
  8
0
  6
CONTINUOUS
 62
     7
 10
53.1072375629
 20
143.2547448803
 30
0.0
 11
53.1072375629
 21
139.7201536824
 31
0.0
  0
LINE
  5
140
  8
0
  6
CONTINUOUS
 62
     7
 10
176.5072343204
 20
156.7201553513
 30
0.0
 11
176.5072343204
 21
147.562920921
 31
0.0
  0
LINE
  5
141
  8
0
  6
CONTINUOUS
 62
     7
 10
173.1072333906
 20
156.7201553513
 30
0.0
 11
173.1072333906
 21
147.562920921
 31
0.0
  0
LINE
  5
142
  8
0
  6
CONTINUOUS
 62
     7
 10
193.9072338197
 20
156.3201545407
 30
0.0
 11
193.9072338197
 21
144.3201540638
 31
0.0
  0
CIRCLE
  5
143
  8
0
  6
CONTINUOUS
 62
     7
 10
177.0072338435
 20
133.120154636
 30
0.0
 40
1.100000000000023
  0
ARC
  5
144
  8
0
  6
CONTINUOUS
 62
     7
 10
180.9072338435
 20
130.720154636
 30
0.0
 40
2.000000000000028
 50
270.0
 51
0.0
  0
LINE
  5
145
  8
0
  6
CONTINUOUS
 62
     7
 10
180.9072342965
 20
128.7201522519
 30
0.0
 11
175.1072344634
 21
128.7201522519
 31
0.0
  0
ARC
  5
146
  8
0
  6
CONTINUOUS
 62
     7
 10
175.1072338435
 20
130.720154636
 30
0.0
 40
2.000000000000028
 50
180.0
 51
270.0
  0
LINE
  5
147
  8
0
  6
CONTINUOUS
 62
     7
 10
182.9072323892
 20
138.720154636
 30
0.0
 11
182.9072323892
 21
130.720156305
 31
0.0
  0
LINE
  5
148
  8
0
  6
CONTINUOUS
 62
     7
 10
173.1072333906
 20
130.720156305
 30
0.0
 11
173.1072333906
 21
138.720154636
 31
0.0
  0
LINE
  5
149
  8
0
  6
CONTINUOUS
 62
     7
 10
173.1072333906
 20
139.7201536824
 30
0.0
 11
182.9072323892
 21
139.7201536824
 31
0.0
  0
LINE
  5
14A
  8
0
  6
CONTINUOUS
 62
     7
 10
182.9072323892
 20
139.7201536824
 30
0.0
 11
182.9072323892
 21
138.720154636
 31
0.0
  0
LINE
  5
14B
  8
0
  6
CONTINUOUS
 62
     7
 10
173.1072333906
 20
138.720154636
 30
0.0
 11
173.1072333906
 21
139.7201536824
 31
0.0
  0
LINE
  5
14C
  8
0
  6
CONTINUOUS
 62
     7
 10
176.5072343204
 20
147.562920921
 30
0.0
 11
176.5072343204
 21
143.2547448803
 31
0.0
  0
LINE
  5
14D
  8
0
  6
CONTINUOUS
 62
     7
 10
173.1072333906
 20
143.2547448803
 30
0.0
 11
173.1072333906
 21
147.562920921
 31
0.0
  0
LINE
  5
14E
  8
0
  6
CONTINUOUS
 62
     7
 10
176.5072343204
 20
143.2547448803
 30
0.0
 11
176.5072343204
 21
139.7201536824
 31
0.0
  0
LINE
  5
14F
  8
0
  6
CONTINUOUS
 62
     7
 10
173.1072333906
 20
143.2547448803
 30
0.0
 11
173.1072333906
 21
139.7201536824
 31
0.0
  0
LINE
  5
150
  8
0
  6
CONTINUOUS
 62
     7
 10
293.1072351787
 20
156.7201553513
 30
0.0
 11
293.1072351787
 21
147.562920921
 31
0.0
  0
LINE
  5
151
  8
0
  6
CONTINUOUS
 62
     7
 10
296.5072331283
 20
151.54576885
 30
0.0
 11
296.5072331283
 21
147.562920921
 31
0.0
  0
LINE
  5
152
  8
0
  6
CONTINUOUS
 62
     7
 10
313.9072356078
 20
156.3201545407
 30
0.0
 11
313.9072356078
 21
154.2193351914
 31
0.0
  0
LINE
  5
153
  8
0
  6
CONTINUOUS
 62
     7
 10
313.9072356078
 20
148.806029432
 30
0.0
 11
313.9072356078
 21
144.3201540638
 31
0.0
  0
LINE
  5
154
  8
0
  6
CONTINUOUS
 62
     7
 10
293.1072351787
 20
139.7201536824
 30
0.0
 11
302.9072341773
 21
139.7201536824
 31
0.0
  0
LINE
  5
155
  8
0
  6
CONTINUOUS
 62
     7
 10
302.9072341773
 20
139.7201536824
 30
0.0
 11
302.9072341773
 21
138.720154636
 31
0.0
  0
LINE
  5
156
  8
0
  6
CONTINUOUS
 62
     7
 10
293.1072351787
 20
138.720154636
 30
0.0
 11
293.1072351787
 21
139.7201536824
 31
0.0
  0
LINE
  5
157
  8
0
  6
CONTINUOUS
 62
     7
 10
300.9072360847
 20
128.7201522519
 30
0.0
 11
295.1072332713
 21
128.7201522519
 31
0.0
  0
CIRCLE
  5
158
  8
0
  6
CONTINUOUS
 62
     7
 10
297.0072338435
 20
133.120154636
 30
0.0
 40
1.099999999999966
  0
ARC
  5
159
  8
0
  6
CONTINUOUS
 62
     7
 10
295.1072338435
 20
130.720154636
 30
0.0
 40
2.000000000000028
 50
180.0
 51
270.0
  0
ARC
  5
15A
  8
0
  6
CONTINUOUS
 62
     7
 10
300.9072338435
 20
130.720154636
 30
0.0
 40
2.000000000000028
 50
270.0
 51
0.0
  0
LINE
  5
15B
  8
0
  6
CONTINUOUS
 62
     7
 10
302.9072341773
 20
138.720154636
 30
0.0
 11
302.9072341773
 21
130.720156305
 31
0.0
  0
LINE
  5
15C
  8
0
  6
CONTINUOUS
 62
     7
 10
293.1072351787
 20
130.720156305
 30
0.0
 11
293.1072351787
 21
138.720154636
 31
0.0
  0
LINE
  5
15D
  8
0
  6
CONTINUOUS
 62
     7
 10
293.1072351787
 20
143.2547448803
 30
0.0
 11
293.1072351787
 21
147.562920921
 31
0.0
  0
LINE
  5
15E
  8
0
  6
CONTINUOUS
 62
     7
 10
296.5072331283
 20
147.562920921
 30
0.0
 11
296.5072331283
 21
143.2547448803
 31
0.0
  0
LINE
  5
15F
  8
0
  6
CONTINUOUS
 62
     7
 10
293.1072351787
 20
143.2547448803
 30
0.0
 11
293.1072351787
 21
139.7201536824
 31
0.0
  0
LINE
  5
160
  8
0
  6
CONTINUOUS
 62
     7
 10
296.5072331283
 20
143.2547448803
 30
0.0
 11
296.5072331283
 21
139.7201536824
 31
0.0
  0
POLYLINE
  5
161
  8
0
  6
CONTINUOUS
 62
     7
 66
     1
 10
0.0
 20
0.0
 30
0.0
  0
VERTEX
  5
327
  8
0
  6
CONTINUOUS
 62
     7
 10
469.8174332073
 20
230.1630018879
 30
0.0
  0
VERTEX
  5
328
  8
0
  6
CONTINUOUS
 62
     7
 10
469.548644199
 20
230.1811336209
 30
0.0
  0
VERTEX
  5
329
  8
0
  6
CONTINUOUS
 62
     7
 10
469.1374317547
 20
230.1496623684
 30
0.0
  0
VERTEX
  5
32A
  8
0
  6
CONTINUOUS
 62
     7
 10
468.7498167893
 20
230.0655482937
 30
0.0
  0
VERTEX
  5
32B
  8
0
  6
CONTINUOUS
 62
     7
 10
468.3912676563
 20
229.9371956517
 30
0.0
  0
VERTEX
  5
32C
  8
0
  6
CONTINUOUS
 62
     7
 10
468.0651117852
 20
229.7732471157
 30
0.0
  0
VERTEX
  5
32D
  8
0
  6
CONTINUOUS
 62
     7
 10
467.7719567707
 20
229.5815943409
 30
0.0
  0
VERTEX
  5
32E
  8
0
  6
CONTINUOUS
 62
     7
 10
467.5091626858
 20
229.3677805592
 30
0.0
  0
VERTEX
  5
32F
  8
0
  6
CONTINUOUS
 62
     7
 10
467.2709070882
 20
229.1330813099
 30
0.0
  0
VERTEX
  5
330
  8
0
  6
CONTINUOUS
 62
     7
 10
467.0484666517
 20
228.8723467518
 30
0.0
  0
VERTEX
  5
331
  8
0
  6
CONTINUOUS
 62
     7
 10
466.8288190654
 20
228.5683988263
 30
0.0
  0
VERTEX
  5
332
  8
0
  6
CONTINUOUS
 62
     7
 10
466.6034617266
 20
228.2012103726
 30
0.0
  0
VERTEX
  5
333
  8
0
  6
CONTINUOUS
 62
     7
 10
466.3483154764
 20
227.7099250485
 30
0.0
  0
VERTEX
  5
334
  8
0
  6
CONTINUOUS
 62
     7
 10
466.1024336508
 20
227.1547554661
 30
0.0
  0
VERTEX
  5
335
  8
0
  6
CONTINUOUS
 62
     7
 10
465.886022131
 20
226.5965460469
 30
0.0
  0
VERTEX
  5
336
  8
0
  6
CONTINUOUS
 62
     7
 10
465.665449555
 20
225.9577988316
 30
0.0
  0
VERTEX
  5
337
  8
0
  6
CONTINUOUS
 62
     7
 10
465.4607733516
 20
225.298976772
 30
0.0
  0
VERTEX
  5
338
  8
0
  6
CONTINUOUS
 62
     7
 10
465.2670858698
 20
224.6129511525
 30
0.0
  0
VERTEX
  5
339
  8
0
  6
CONTINUOUS
 62
     7
 10
465.0867902478
 20
223.91366946
 30
0.0
  0
VERTEX
  5
33A
  8
0
  6
CONTINUOUS
 62
     7
 10
464.9093638444
 20
223.1628416706
 30
0.0
  0
VERTEX
  5
33B
  8
0
  6
CONTINUOUS
 62
     7
 10
464.7391900923
 20
222.3780630757
 30
0.0
  0
VERTEX
  5
33C
  8
0
  6
CONTINUOUS
 62
     7
 10
464.5770066397
 20
221.56286227
 30
0.0
  0
VERTEX
  5
33D
  8
0
  6
CONTINUOUS
 62
     7
 10
464.4238872316
 20
220.7220672299
 30
0.0
  0
VERTEX
  5
33E
  8
0
  6
CONTINUOUS
 62
     7
 10
464.2810445782
 20
219.8613403965
 30
0.0
  0
VERTEX
  5
33F
  8
0
  6
CONTINUOUS
 62
     7
 10
464.1496954989
 20
218.986725681
 30
0.0
  0
VERTEX
  5
340
  8
0
  6
CONTINUOUS
 62
     7
 10
464.0309979012
 20
218.104791515
 30
0.0
  0
VERTEX
  5
341
  8
0
  6
CONTINUOUS
 62
     7
 10
463.9245628184
 20
217.2140954663
 30
0.0
  0
VERTEX
  5
342
  8
0
  6
CONTINUOUS
 62
     7
 10
463.8290841402
 20
216.303682201
 30
0.0
  0
VERTEX
  5
343
  8
0
  6
CONTINUOUS
 62
     7
 10
463.7692053141
 20
215.6418679882
 30
0.0
  0
SEQEND
  5
573
  8
0
  6
CONTINUOUS
 62
     7
  0
ARC
  5
162
  8
0
  6
CONTINUOUS
 62
     7
 10
513.3447437316
 20
170.746867151
 30
0.0
 40
53.30187497099318
 50
174.5666044052
 51
183.8213552243
  0
LINE
  5
163
  8
0
  6
CONTINUOUS
 62
     7
 10
463.7670665784
 20
215.6419752766
 30
0.0
 11
460.2808368197
 21
175.7941960026
 31
0.0
  0
POLYLINE
  5
164
  8
0
  6
CONTINUOUS
 62
     7
 66
     1
 10
0.0
 20
0.0
 30
0.0
  0
VERTEX
  5
344
  8
0
  6
CONTINUOUS
 62
     7
 10
469.1281263521
 20
215.1728151966
 30
0.0
  0
VERTEX
  5
345
  8
0
  6
CONTINUOUS
 62
     7
 10
469.1951428344
 20
215.8976553608
 30
0.0
  0
VERTEX
  5
346
  8
0
  6
CONTINUOUS
 62
     7
 10
469.2845460763
 20
216.7337177922
 30
0.0
  0
VERTEX
  5
347
  8
0
  6
CONTINUOUS
 62
     7
 10
469.3848428121
 20
217.5573943783
 30
0.0
  0
VERTEX
  5
348
  8
0
  6
CONTINUOUS
 62
     7
 10
469.4952887287
 20
218.3627484967
 30
0.0
  0
VERTEX
  5
349
  8
0
  6
CONTINUOUS
 62
     7
 10
469.6146574607
 20
219.1443561245
 30
0.0
  0
VERTEX
  5
34A
  8
0
  6
CONTINUOUS
 62
     7
 10
469.7434217473
 20
219.9092863728
 30
0.0
  0
VERTEX
  5
34B
  8
0
  6
CONTINUOUS
 62
     7
 10
469.8804297289
 20
220.6524847676
 30
0.0
  0
VERTEX
  5
34C
  8
0
  6
CONTINUOUS
 62
     7
 10
470.0237151971
 20
221.3651536633
 30
0.0
  0
VERTEX
  5
34D
  8
0
  6
CONTINUOUS
 62
     7
 10
470.1707546404
 20
222.0373152424
 30
0.0
  0
VERTEX
  5
34E
  8
0
  6
CONTINUOUS
 62
     7
 10
470.3190163514
 20
222.6607321431
 30
0.0
  0
VERTEX
  5
34F
  8
0
  6
CONTINUOUS
 62
     7
 10
470.4657465955
 20
223.2278107335
 30
0.0
  0
VERTEX
  5
350
  8
0
  6
CONTINUOUS
 62
     7
 10
470.6088927379
 20
223.7359284092
 30
0.0
  0
VERTEX
  5
351
  8
0
  6
CONTINUOUS
 62
     7
 10
470.7521037003
 20
224.2026208569
 30
0.0
  0
VERTEX
  5
352
  8
0
  6
CONTINUOUS
 62
     7
 10
470.8879929772
 20
224.6073006321
 30
0.0
  0
VERTEX
  5
353
  8
0
  6
CONTINUOUS
 62
     7
 10
471.0135203591
 20
224.9471543957
 30
0.0
  0
VERTEX
  5
354
  8
0
  6
CONTINUOUS
 62
     7
 10
471.1240072539
 20
225.2171872784
 30
0.0
  0
VERTEX
  5
355
  8
0
  6
CONTINUOUS
 62
     7
 10
471.2047424903
 20
225.3948448826
 30
0.0
  0
VERTEX
  5
356
  8
0
  6
CONTINUOUS
 62
     7
 10
471.2637406578
 20
225.5116938282
 30
0.0
  0
VERTEX
  5
357
  8
0
  6
CONTINUOUS
 62
     7
 10
471.2977525583
 20
225.5720494915
 30
0.0
  0
VERTEX
  5
358
  8
0
  6
CONTINUOUS
 62
     7
 10
471.3023287049
 20
225.579523914
 30
0.0
  0
SEQEND
  5
572
  8
0
  6
CONTINUOUS
 62
     7
  0
LINE
  5
165
  8
0
  6
CONTINUOUS
 62
     7
 10
466.5990776187
 20
186.2834333111
 30
0.0
 11
469.1265941402
 21
215.1730774571
 31
0.0
  0
LINE
  5
166
  8
0
  6
CONTINUOUS
 62
     7
 10
466.7011794439
 20
186.2745045353
 30
0.0
 11
469.5263058683
 21
218.5658453633
 31
0.0
  0
ARC
  5
167
  8
0
  6
CONTINUOUS
 62
     7
 10
471.2977777905
 20
227.3401512038
 30
0.0
 40
2.690000000000039
 50
355.0
 51
85.0
  0
ARC
  5
168
  8
0
  6
CONTINUOUS
 62
     7
 10
471.2977777905
 20
227.3401512038
 30
0.0
 40
2.690000000000178
 50
265.0
 51
355.0
  0
POLYLINE
  5
169
  8
0
  6
CONTINUOUS
 62
     7
 66
     1
 10
0.0
 20
0.0
 30
0.0
  0
VERTEX
  5
359
  8
0
  6
CONTINUOUS
 62
     7
 10
544.6006816616
 20
152.0889042546
 30
0.0
  0
VERTEX
  5
35A
  8
0
  6
CONTINUOUS
 62
     7
 10
544.5953232041
 20
152.3582516838
 30
0.0
  0
VERTEX
  5
35B
  8
0
  6
CONTINUOUS
 62
     7
 10
544.5281249275
 20
152.7651547123
 30
0.0
  0
VERTEX
  5
35C
  8
0
  6
CONTINUOUS
 62
     7
 10
544.4105488053
 20
153.1439660717
 30
0.0
  0
VERTEX
  5
35D
  8
0
  6
CONTINUOUS
 62
     7
 10
544.251446127
 20
153.4899650742
 30
0.0
  0
VERTEX
  5
35E
  8
0
  6
CONTINUOUS
 62
     7
 10
544.0596920243
 20
153.80058872
 30
0.0
  0
VERTEX
  5
35F
  8
0
  6
CONTINUOUS
 62
     7
 10
543.8432198754
 20
154.0759264161
 30
0.0
  0
VERTEX
  5
360
  8
0
  6
CONTINUOUS
 62
     7
 10
543.6073106518
 20
154.3190835644
 30
0.0
  0
VERTEX
  5
361
  8
0
  6
CONTINUOUS
 62
     7
 10
543.3527451744
 20
154.5359789063
 30
0.0
  0
VERTEX
  5
362
  8
0
  6
CONTINUOUS
 62
     7
 10
543.073604702
 20
154.7348438431
 30
0.0
  0
VERTEX
  5
363
  8
0
  6
CONTINUOUS
 62
     7
 10
542.7516740551
 20
154.9271701504
 30
0.0
  0
VERTEX
  5
364
  8
0
  6
CONTINUOUS
 62
     7
 10
542.3662406197
 20
155.1196633507
 30
0.0
  0
VERTEX
  5
365
  8
0
  6
CONTINUOUS
 62
     7
 10
541.8545943489
 20
155.3310214211
 30
0.0
  0
VERTEX
  5
366
  8
0
  6
CONTINUOUS
 62
     7
 10
541.2801069012
 20
155.5275796582
 30
0.0
  0
VERTEX
  5
367
  8
0
  6
CONTINUOUS
 62
     7
 10
540.7051485768
 20
155.6945203473
 30
0.0
  0
VERTEX
  5
368
  8
0
  6
CONTINUOUS
 62
     7
 10
540.0496166935
 20
155.858582132
 30
0.0
  0
VERTEX
  5
369
  8
0
  6
CONTINUOUS
 62
     7
 10
539.3754583588
 20
156.0050605465
 30
0.0
  0
VERTEX
  5
36A
  8
0
  6
CONTINUOUS
 62
     7
 10
538.6751633873
 20
156.138217323
 30
0.0
  0
VERTEX
  5
36B
  8
0
  6
CONTINUOUS
 62
     7
 10
537.9628223171
 20
156.2568782498
 30
0.0
  0
VERTEX
  5
36C
  8
0
  6
CONTINUOUS
 62
     7
 10
537.1993881455
 20
156.3681958844
 30
0.0
  0
VERTEX
  5
36D
  8
0
  6
CONTINUOUS
 62
     7
 10
536.4027661076
 20
156.4693211247
 30
0.0
  0
VERTEX
  5
36E
  8
0
  6
CONTINUOUS
 62
     7
 10
535.5765324822
 20
156.5598367382
 30
0.0
  0
VERTEX
  5
36F
  8
0
  6
CONTINUOUS
 62
     7
 10
534.725598692
 20
156.6390930344
 30
0.0
  0
VERTEX
  5
370
  8
0
  6
CONTINUOUS
 62
     7
 10
533.8556927433
 20
156.7063747574
 30
0.0
  0
VERTEX
  5
371
  8
0
  6
CONTINUOUS
 62
     7
 10
532.9729539147
 20
156.7609964539
 30
0.0
  0
VERTEX
  5
372
  8
0
  6
CONTINUOUS
 62
     7
 10
532.0840340843
 20
156.8023799588
 30
0.0
  0
VERTEX
  5
373
  8
0
  6
CONTINUOUS
 62
     7
 10
531.1874550572
 20
156.830781572
 30
0.0
  0
VERTEX
  5
374
  8
0
  6
CONTINUOUS
 62
     7
 10
530.2721840134
 20
156.8465470005
 30
0.0
  0
VERTEX
  5
375
  8
0
  6
CONTINUOUS
 62
     7
 10
529.6076697102
 20
156.8485199143
 30
0.0
  0
SEQEND
  5
571
  8
0
  6
CONTINUOUS
 62
     7
  0
ARC
  5
16A
  8
0
  6
CONTINUOUS
 62
     7
 10
489.2043062538
 20
103.5486554463
 30
0.0
 40
53.30199134570837
 50
89.5666054273
 51
98.8213361357
  0
LINE
  5
16B
  8
0
  6
CONTINUOUS
 62
     7
 10
529.6075981846
 20
156.850659721
 30
0.0
 11
489.6075946083
 21
156.850659721
 31
0.0
  0
POLYLINE
  5
16C
  8
0
  6
CONTINUOUS
 62
     7
 66
     1
 10
0.0
 20
0.0
 30
0.0
  0
VERTEX
  5
376
  8
0
  6
CONTINUOUS
 62
     7
 10
529.6074670544
 20
151.4691053559
 30
0.0
  0
VERTEX
  5
377
  8
0
  6
CONTINUOUS
 62
     7
 10
530.3353887787
 20
151.4655231167
 30
0.0
  0
VERTEX
  5
378
  8
0
  6
CONTINUOUS
 62
     7
 10
531.1760586491
 20
151.4493225743
 30
0.0
  0
VERTEX
  5
379
  8
0
  6
CONTINUOUS
 62
     7
 10
532.0053440323
 20
151.4212011029
 30
0.0
  0
VERTEX
  5
37A
  8
0
  6
CONTINUOUS
 62
     7
 10
532.817260622
 20
151.3813613583
 30
0.0
  0
VERTEX
  5
37B
  8
0
  6
CONTINUOUS
 62
     7
 10
533.6062890282
 20
151.3305722405
 30
0.0
  0
VERTEX
  5
37C
  8
0
  6
CONTINUOUS
 62
     7
 10
534.3795341244
 20
151.2689648796
 30
0.0
  0
VERTEX
  5
37D
  8
0
  6
CONTINUOUS
 62
     7
 10
535.1318520298
 20
151.1972545315
 30
0.0
  0
VERTEX
  5
37E
  8
0
  6
CONTINUOUS
 62
     7
 10
535.8542901268
 20
151.1166273285
 30
0.0
  0
VERTEX
  5
37F
  8
0
  6
CONTINUOUS
 62
     7
 10
536.5367096653
 20
151.0287283589
 30
0.0
  0
VERTEX
  5
380
  8
0
  6
CONTINUOUS
 62
     7
 10
537.1706765881
 20
150.9353636433
 30
0.0
  0
VERTEX
  5
381
  8
0
  6
CONTINUOUS
 62
     7
 10
537.7483826866
 20
150.8386193444
 30
0.0
  0
VERTEX
  5
382
  8
0
  6
CONTINUOUS
 62
     7
 10
538.2670444241
 20
150.7403014828
 30
0.0
  0
VERTEX
  5
383
  8
0
  6
CONTINUOUS
 62
     7
 10
538.7444418659
 20
150.6383119751
 30
0.0
  0
VERTEX
  5
384
  8
0
  6
CONTINUOUS
 62
     7
 10
539.1594272843
 20
150.5382059742
 30
0.0
  0
VERTEX
  5
385
  8
0
  6
CONTINUOUS
 62
     7
 10
539.5089250794
 20
150.442778938
 30
0.0
  0
VERTEX
  5
386
  8
0
  6
CONTINUOUS
 62
     7
 10
539.7875648728
 20
150.3562449147
 30
0.0
  0
VERTEX
  5
387
  8
0
  6
CONTINUOUS
 62
     7
 10
539.971588253
 20
150.2913056542
 30
0.0
  0
VERTEX
  5
388
  8
0
  6
CONTINUOUS
 62
     7
 10
540.0931340447
 20
150.2427159478
 30
0.0
  0
VERTEX
  5
389
  8
0
  6
CONTINUOUS
 62
     7
 10
540.1562136402
 20
150.2140878369
 30
0.0
  0
VERTEX
  5
38A
  8
0
  6
CONTINUOUS
 62
     7
 10
540.164063572
 20
150.2101837326
 30
0.0
  0
SEQEND
  5
570
  8
0
  6
CONTINUOUS
 62
     7
  0
LINE
  5
16D
  8
0
  6
CONTINUOUS
 62
     7
 10
500.6075960388
 20
151.4706550766
 30
0.0
 11
529.6075981846
 21
151.4706550766
 31
0.0
  0
LINE
  5
16E
  8
0
  6
CONTINUOUS
 62
     7
 10
500.6075960388
 20
151.3681648899
 30
0.0
 11
533.0222827187
 21
151.3681648899
 31
0.0
  0
ARC
  5
16F
  8
0
  6
CONTINUOUS
 62
     7
 10
541.9175958958
 20
150.3681659106
 30
0.0
 40
2.690000000000168
 50
180.0
 51
270.0
  0
ARC
  5
170
  8
0
  6
CONTINUOUS
 62
     7
 10
541.9175958958
 20
150.3681659106
 30
0.0
 40
2.690000000000055
 50
270.0
 51
0.0
  0
ARC
  5
171
  8
0
  6
CONTINUOUS
 62
     7
 10
460.5075958958
 20
137.920154636
 30
0.0
 40
1.000000000000057
 50
90.0
 51
180.0
  0
LINE
  5
172
  8
0
  6
CONTINUOUS
 62
     7
 10
460.5075959852
 20
138.9201520611
 30
0.0
 11
468.5075958064
 21
138.9201520611
 31
0.0
  0
ARC
  5
173
  8
0
  6
CONTINUOUS
 62
     7
 10
460.5075958958
 20
129.920154636
 30
0.0
 40
1.000000000000057
 50
180.0
 51
270.0
  0
LINE
  5
174
  8
0
  6
CONTINUOUS
 62
     7
 10
468.5075958064
 20
128.9201556374
 30
0.0
 11
460.5075959852
 21
128.9201556374
 31
0.0
  0
LINE
  5
175
  8
0
  6
CONTINUOUS
 62
     7
 10
459.5075958213
 20
129.9201546837
 30
0.0
 11
459.5075958213
 21
137.9201530148
 31
0.0
  0
ARC
  5
176
  8
0
  6
CONTINUOUS
 62
     7
 10
468.5075958958
 20
137.920154636
 30
0.0
 40
1.000000000000028
 50
0.0
 51
90.0
  0
LINE
  5
177
  8
0
  6
CONTINUOUS
 62
     7
 10
469.5075959703
 20
137.9201530148
 30
0.0
 11
469.5075959703
 21
129.9201546837
 31
0.0
  0
ARC
  5
178
  8
0
  6
CONTINUOUS
 62
     7
 10
468.5075958958
 20
129.920154636
 30
0.0
 40
1.0
 50
270.0
 51
0.0
  0
LINE
  5
179
  8
0
  6
CONTINUOUS
 62
     7
 10
452.507596164
 20
63.720154636
 30
0.0
 11
452.507596164
 21
64.9201546465
 31
0.0
  0
LINE
  5
17A
  8
0
  6
CONTINUOUS
 62
     7
 10
452.507596164
 20
64.9201546465
 30
0.0
 11
456.5075960746
 21
64.9201546465
 31
0.0
  0
LINE
  5
17B
  8
0
  6
CONTINUOUS
 62
     7
 10
456.5075960746
 20
63.720154636
 30
0.0
 11
452.507596164
 21
63.720154636
 31
0.0
  0
LINE
  5
17C
  8
0
  6
CONTINUOUS
 62
     7
 10
485.87601751
 20
64.9201546465
 30
0.0
 11
458.5075960299
 21
64.9201546465
 31
0.0
  0
LINE
  5
17D
  8
0
  6
CONTINUOUS
 62
     7
 10
458.5075960299
 20
63.720154636
 30
0.0
 11
485.87601751
 21
63.720154636
 31
0.0
  0
LINE
  5
17E
  8
0
  6
CONTINUOUS
 62
     7
 10
456.5075960746
 20
64.9201546465
 30
0.0
 11
458.5075960299
 21
64.9201546465
 31
0.0
  0
LINE
  5
17F
  8
0
  6
CONTINUOUS
 62
     7
 10
456.5075960746
 20
63.720154636
 30
0.0
 11
458.5075960299
 21
63.720154636
 31
0.0
  0
LINE
  5
180
  8
0
  6
CONTINUOUS
 62
     7
 10
488.5075953593
 20
64.9201546465
 30
0.0
 11
488.5075953593
 21
63.720154636
 31
0.0
  0
LINE
  5
181
  8
0
  6
CONTINUOUS
 62
     7
 10
485.87601751
 20
64.9201546465
 30
0.0
 11
488.5075953593
 21
64.9201546465
 31
0.0
  0
LINE
  5
182
  8
0
  6
CONTINUOUS
 62
     7
 10
488.5075953593
 20
63.720154636
 30
0.0
 11
485.87601751
 21
63.720154636
 31
0.0
  0
LINE
  5
183
  8
0
  6
CONTINUOUS
 62
     7
 10
459.5075958213
 20
64.9201546465
 30
0.0
 11
459.5075958213
 21
128.7201522519
 31
0.0
  0
LINE
  5
184
  8
0
  6
CONTINUOUS
 62
     7
 10
469.5075959703
 20
129.9201546837
 30
0.0
 11
469.5075959703
 21
64.9201546465
 31
0.0
  0
POLYLINE
  5
185
  8
0
  6
CONTINUOUS
 62
     7
 66
     1
 10
0.0
 20
0.0
 30
0.0
  0
VERTEX
  5
38B
  8
0
  6
CONTINUOUS
 62
     7
 10
462.1479091039
 20
167.5510047604
 30
0.0
  0
VERTEX
  5
38C
  8
0
  6
CONTINUOUS
 62
     7
 10
461.7996400958
 20
167.75208699
 30
0.0
  0
VERTEX
  5
38D
  8
0
  6
CONTINUOUS
 62
     7
 10
461.4842596268
 20
168.0281518628
 30
0.0
  0
VERTEX
  5
38E
  8
0
  6
CONTINUOUS
 62
     7
 10
461.146824508
 20
168.4511779477
 30
0.0
  0
VERTEX
  5
38F
  8
0
  6
CONTINUOUS
 62
     7
 10
460.8721204838
 20
168.9345835377
 30
0.0
  0
VERTEX
  5
390
  8
0
  6
CONTINUOUS
 62
     7
 10
460.6145647159
 20
169.5743201901
 30
0.0
  0
VERTEX
  5
391
  8
0
  6
CONTINUOUS
 62
     7
 10
460.4285795977
 20
170.2486871411
 30
0.0
  0
SEQEND
  5
56F
  8
0
  6
CONTINUOUS
 62
     7
  0
POLYLINE
  5
186
  8
0
  6
CONTINUOUS
 62
     7
 66
     1
 10
0.0
 20
0.0
 30
0.0
  0
VERTEX
  5
392
  8
0
  6
CONTINUOUS
 62
     7
 10
465.4308005972
 20
173.0684279133
 30
0.0
  0
VERTEX
  5
393
  8
0
  6
CONTINUOUS
 62
     7
 10
465.1972004948
 20
171.0497139622
 30
0.0
  0
VERTEX
  5
394
  8
0
  6
CONTINUOUS
 62
     7
 10
464.974482757
 20
169.97418391
 30
0.0
  0
VERTEX
  5
395
  8
0
  6
CONTINUOUS
 62
     7
 10
464.6098930542
 20
168.9420579602
 30
0.0
  0
VERTEX
  5
396
  8
0
  6
CONTINUOUS
 62
     7
 10
464.2272041216
 20
168.2816265751
 30
0.0
  0
VERTEX
  5
397
  8
0
  6
CONTINUOUS
 62
     7
 10
463.9791005095
 20
167.9864166905
 30
0.0
  0
VERTEX
  5
398
  8
0
  6
CONTINUOUS
 62
     7
 10
463.6885821624
 20
167.7339433361
 30
0.0
  0
VERTEX
  5
399
  8
0
  6
CONTINUOUS
 62
     7
 10
463.2027377179
 20
167.4863456417
 30
0.0
  0
VERTEX
  5
39A
  8
0
  6
CONTINUOUS
 62
     7
 10
462.6580252117
 20
167.4219130207
 30
0.0
  0
VERTEX
  5
39B
  8
0
  6
CONTINUOUS
 62
     7
 10
462.1479091039
 20
167.5510047604
 30
0.0
  0
SEQEND
  5
56E
  8
0
  6
CONTINUOUS
 62
     7
  0
LINE
  5
187
  8
0
  6
CONTINUOUS
 62
     7
 10
465.6199699072
 20
175.3270744015
 30
0.0
 11
465.4308005972
 21
173.0684279133
 31
0.0
  0
LINE
  5
188
  8
0
  6
CONTINUOUS
 62
     7
 10
466.5786831444
 20
186.2852214505
 30
0.0
 11
465.6199699072
 21
175.3270744015
 31
0.0
  0
ARC
  5
189
  8
0
  6
CONTINUOUS
 62
     7
 10
350.6962709308
 20
156.8791213772
 30
0.0
 40
120.0000000000007
 50
357.9188963395
 51
14.1646231125
  0
LINE
  5
18A
  8
0
  6
CONTINUOUS
 62
     7
 10
458.9463137826
 20
153.3063112427
 30
0.0
 11
460.4285795977
 21
170.2486871411
 31
0.0
  0
LINE
  5
18B
  8
0
  6
CONTINUOUS
 62
     7
 10
466.5786831444
 20
186.2852214505
 30
0.0
 11
467.0478663212
 21
186.2441776921
 31
0.0
  0
POLYLINE
  5
18C
  8
0
  6
CONTINUOUS
 62
     7
 66
     1
 10
0.0
 20
0.0
 30
0.0
  0
VERTEX
  5
39C
  8
0
  6
CONTINUOUS
 62
     7
 10
471.5322268
 20
230.0199149777
 30
0.0
  0
VERTEX
  5
39D
  8
0
  6
CONTINUOUS
 62
     7
 10
471.4972493043
 20
230.0229786564
 30
0.0
  0
VERTEX
  5
39E
  8
0
  6
CONTINUOUS
 62
     7
 10
471.3923309734
 20
230.0321577717
 30
0.0
  0
VERTEX
  5
39F
  8
0
  6
CONTINUOUS
 62
     7
 10
471.2175112953
 20
230.0474523236
 30
0.0
  0
VERTEX
  5
3A0
  8
0
  6
CONTINUOUS
 62
     7
 10
470.9728558352
 20
230.068850391
 30
0.0
  0
VERTEX
  5
3A1
  8
0
  6
CONTINUOUS
 62
     7
 10
470.6584569803
 20
230.0963638951
 30
0.0
  0
VERTEX
  5
3A2
  8
0
  6
CONTINUOUS
 62
     7
 10
470.2744335672
 20
230.1299570729
 30
0.0
  0
VERTEX
  5
3A3
  8
0
  6
CONTINUOUS
 62
     7
 10
469.8209308824
 20
230.1696299244
 30
0.0
  0
SEQEND
  5
56D
  8
0
  6
CONTINUOUS
 62
     7
  0
POLYLINE
  5
18D
  8
0
  6
CONTINUOUS
 62
     7
 66
     1
 10
0.0
 20
0.0
 30
0.0
  0
VERTEX
  5
3A4
  8
0
  6
CONTINUOUS
 62
     7
 10
470.9471222749
 20
224.6705530812
 30
0.0
  0
VERTEX
  5
3A5
  8
0
  6
CONTINUOUS
 62
     7
 10
471.0283514848
 20
224.6634482075
 30
0.0
  0
VERTEX
  5
3A6
  8
0
  6
CONTINUOUS
 62
     7
 10
471.0633289805
 20
224.6603845288
 30
0.0
  0
SEQEND
  5
56C
  8
0
  6
CONTINUOUS
 62
     7
  0
LINE
  5
18E
  8
0
  6
CONTINUOUS
 62
     7
 10
469.8209308824
 20
230.1696299244
 30
0.0
 11
469.7728183856
 21
230.173396938
 31
0.0
  0
POLYLINE
  5
18F
  8
0
  6
CONTINUOUS
 62
     7
 66
     1
 10
0.0
 20
0.0
 30
0.0
  0
VERTEX
  5
3A7
  8
0
  6
CONTINUOUS
 62
     7
 10
481.5585014215
 20
154.2722462346
 30
0.0
  0
VERTEX
  5
3A8
  8
0
  6
CONTINUOUS
 62
     7
 10
481.7284685364
 20
154.6367167164
 30
0.0
  0
VERTEX
  5
3A9
  8
0
  6
CONTINUOUS
 62
     7
 10
481.9759932151
 20
154.9749611546
 30
0.0
  0
VERTEX
  5
3AA
  8
0
  6
CONTINUOUS
 62
     7
 10
482.3680055132
 20
155.3479789425
 30
0.0
  0
VERTEX
  5
3AB
  8
0
  6
CONTINUOUS
 62
     7
 10
482.8256201735
 20
155.663770311
 30
0.0
  0
VERTEX
  5
3AC
  8
0
  6
CONTINUOUS
 62
     7
 10
483.4404733768
 20
155.9761046101
 30
0.0
  0
VERTEX
  5
3AD
  8
0
  6
CONTINUOUS
 62
     7
 10
484.0960708251
 20
156.2201558281
 30
0.0
  0
SEQEND
  5
56B
  8
0
  6
CONTINUOUS
 62
     7
  0
POLYLINE
  5
190
  8
0
  6
CONTINUOUS
 62
     7
 66
     1
 10
0.0
 20
0.0
 30
0.0
  0
VERTEX
  5
3AE
  8
0
  6
CONTINUOUS
 62
     7
 10
487.3410549751
 20
151.4827250172
 30
0.0
  0
VERTEX
  5
3AF
  8
0
  6
CONTINUOUS
 62
     7
 10
485.309663116
 20
151.5394924809
 30
0.0
  0
VERTEX
  5
3B0
  8
0
  6
CONTINUOUS
 62
     7
 10
484.2188072195
 20
151.6676245858
 30
0.0
  0
VERTEX
  5
3B1
  8
0
  6
CONTINUOUS
 62
     7
 10
483.1588399401
 20
151.9408701588
 30
0.0
  0
VERTEX
  5
3B2
  8
0
  6
CONTINUOUS
 62
     7
 10
482.4675676217
 20
152.2645472218
 30
0.0
  0
VERTEX
  5
3B3
  8
0
  6
CONTINUOUS
 62
     7
 10
482.1518611899
 20
152.4859725167
 30
0.0
  0
VERTEX
  5
3B4
  8
0
  6
CONTINUOUS
 62
     7
 10
481.875024437
 20
152.753382795
 30
0.0
  0
VERTEX
  5
3B5
  8
0
  6
CONTINUOUS
 62
     7
 10
481.5860179057
 20
153.2157956292
 30
0.0
  0
VERTEX
  5
3B6
  8
0
  6
CONTINUOUS
 62
     7
 10
481.4743590346
 20
153.7528215577
 30
0.0
  0
VERTEX
  5
3B7
  8
0
  6
CONTINUOUS
 62
     7
 10
481.5585014215
 20
154.2722462346
 30
0.0
  0
SEQEND
  5
56A
  8
0
  6
CONTINUOUS
 62
     7
  0
LINE
  5
191
  8
0
  6
CONTINUOUS
 62
     7
 10
489.6075946083
 20
151.4911292721
 30
0.0
 11
487.3410549751
 21
151.4827250172
 31
0.0
  0
LINE
  5
192
  8
0
  6
CONTINUOUS
 62
     7
 10
500.6075960388
 20
151.4911292721
 30
0.0
 11
489.6075946083
 21
151.4911292721
 31
0.0
  0
LINE
  5
193
  8
0
  6
CONTINUOUS
 62
     7
 10
470.6944615385
 20
156.2201558281
 30
0.0
 11
484.0960708251
 21
156.2201558281
 31
0.0
  0
LINE
  5
194
  8
0
  6
CONTINUOUS
 62
     7
 10
500.6075960388
 20
151.4911292721
 30
0.0
 11
500.6075960388
 21
151.020157211
 31
0.0
  0
ARC
  5
195
  8
0
  6
CONTINUOUS
 62
     7
 10
461.2135776536
 20
264.3696642368
 30
0.0
 40
120.0000000000006
 50
273.9626587205
 51
289.1646231125
  0
LINE
  5
196
  8
0
  6
CONTINUOUS
 62
     7
 10
539.2275971165
 20
150.485730045
 30
0.0
 11
539.2275971165
 21
150.3681658436
 31
0.0
  0
LINE
  5
197
  8
0
  6
CONTINUOUS
 62
     7
 10
544.6075958004
 20
150.3681658436
 30
0.0
 11
544.6075958004
 21
152.0860015084
 31
0.0
  0
LINE
  5
198
  8
0
  6
CONTINUOUS
 62
     7
 10
544.6075958004
 20
152.0860015084
 30
0.0
 11
544.6071547261
 21
152.1342574288
 31
0.0
  0
LINE
  5
199
  8
0
  6
CONTINUOUS
 62
     7
 10
459.5075958213
 20
129.9201546837
 30
0.0
 11
459.5075958213
 21
128.7201522519
 31
0.0
  0
LINE
  5
19A
  8
0
  6
CONTINUOUS
 62
     7
 10
459.5075958213
 20
128.7201522519
 30
0.0
 11
458.7075960627
 21
128.7201522519
 31
0.0
  0
LINE
  5
19B
  8
0
  6
CONTINUOUS
 62
     7
 10
458.7075960627
 20
128.7201522519
 30
0.0
 11
458.7075960627
 21
130.720156305
 31
0.0
  0
LINE
  5
19C
  8
0
  6
CONTINUOUS
 62
     7
 10
469.7075960031
 20
130.720156305
 30
0.0
 11
469.7075960031
 21
138.520157211
 31
0.0
  0
ARC
  5
19D
  8
0
  6
CONTINUOUS
 62
     7
 10
469.3075958958
 20
138.520154636
 30
0.0
 40
0.4000000000000057
 50
0.0
 51
90.0
  0
ARC
  5
19E
  8
0
  6
CONTINUOUS
 62
     7
 10
459.9075958958
 20
138.520154636
 30
0.0
 40
0.4000000000000057
 50
90.0
 51
180.0
  0
LINE
  5
19F
  8
0
  6
CONTINUOUS
 62
     7
 10
458.7075960627
 20
135.7201574971
 30
0.0
 11
458.7075960627
 21
130.720156305
 31
0.0
  0
LINE
  5
1A0
  8
0
  6
CONTINUOUS
 62
     7
 10
458.7075960627
 20
135.7201574971
 30
0.0
 11
456.7596939197
 21
135.7201574971
 31
0.0
  0
ARC
  5
1A1
  8
0
  6
CONTINUOUS
 62
     7
 10
480.3166868049
 20
141.720154636
 30
0.0
 40
24.30909090909091
 50
151.3013359141
 51
194.2894890274
  0
ARC
  5
1A2
  8
0
  6
CONTINUOUS
 62
     7
 10
464.6075958958
 20
150.320154636
 30
0.0
 40
6.400000000000037
 50
334.4805415091
 51
151.3013359141
  0
ARC
  5
1A3
  8
0
  6
CONTINUOUS
 62
     7
 10
479.4075958958
 20
143.254745943
 30
0.0
 40
9.999999999999943
 50
154.4805415091
 51
180.0
  0
LINE
  5
1A4
  8
0
  6
CONTINUOUS
 62
     7
 10
469.4075957676
 20
143.2547448803
 30
0.0
 11
469.4075957676
 21
139.7201536824
 31
0.0
  0
ARC
  5
1A5
  8
0
  6
CONTINUOUS
 62
     7
 10
469.5075958958
 20
138.720154636
 30
0.0
 40
1.0
 50
0.0
 51
90.0
  0
LINE
  5
1A6
  8
0
  6
CONTINUOUS
 62
     7
 10
470.5075957617
 20
130.720156305
 30
0.0
 11
470.5075957617
 21
138.720154636
 31
0.0
  0
LINE
  5
1A7
  8
0
  6
CONTINUOUS
 62
     7
 10
459.5075958213
 20
138.520157211
 30
0.0
 11
459.5075958213
 21
137.9201530148
 31
0.0
  0
LINE
  5
1A8
  8
0
  6
CONTINUOUS
 62
     7
 10
469.3075959375
 20
138.9201520611
 30
0.0
 11
468.5075958064
 21
138.9201520611
 31
0.0
  0
LINE
  5
1A9
  8
0
  6
CONTINUOUS
 62
     7
 10
460.5075959852
 20
138.9201520611
 30
0.0
 11
459.9075958868
 21
138.9201520611
 31
0.0
  0
LINE
  5
1AA
  8
0
  6
CONTINUOUS
 62
     7
 10
469.5075959703
 20
139.7201536824
 30
0.0
 11
469.4075957676
 21
139.7201536824
 31
0.0
  0
LINE
  5
1AB
  8
0
  6
CONTINUOUS
 62
     7
 10
470.5075957617
 20
130.720156305
 30
0.0
 11
470.5075957617
 21
128.7201522519
 31
0.0
  0
LINE
  5
1AC
  8
0
  6
CONTINUOUS
 62
     7
 10
470.5075957617
 20
128.7201522519
 30
0.0
 11
469.7075960031
 21
128.7201522519
 31
0.0
  0
LINE
  5
1AD
  8
0
  6
CONTINUOUS
 62
     7
 10
469.7075960031
 20
128.7201522519
 30
0.0
 11
469.7075960031
 21
130.720156305
 31
0.0
  0
POLYLINE
  5
1AE
  8
0
  6
CONTINUOUS
 62
     7
 66
     1
 10
0.0
 20
0.0
 30
0.0
  0
VERTEX
  5
3B8
  8
0
  6
CONTINUOUS
 62
     7
 10
120.0913307521
 20
-55.3995872976
 30
0.0
  0
VERTEX
  5
3B9
  8
0
  6
CONTINUOUS
 62
     7
 10
120.8822843883
 20
-55.2886637987
 30
0.0
  0
VERTEX
  5
3BA
  8
0
  6
CONTINUOUS
 62
     7
 10
121.7827615592
 20
-55.1524388732
 30
0.0
  0
VERTEX
  5
3BB
  8
0
  6
CONTINUOUS
 62
     7
 10
122.6736602638
 20
-55.0075727643
 30
0.0
  0
VERTEX
  5
3BC
  8
0
  6
CONTINUOUS
 62
     7
 10
123.5501346443
 20
-54.8547717871
 30
0.0
  0
VERTEX
  5
3BD
  8
0
  6
CONTINUOUS
 62
     7
 10
124.3978736255
 20
-54.6970310749
 30
0.0
  0
VERTEX
  5
3BE
  8
0
  6
CONTINUOUS
 62
     7
 10
125.2298590991
 20
-54.5325721742
 30
0.0
  0
VERTEX
  5
3BF
  8
0
  6
CONTINUOUS
 62
     7
 10
126.0443506095
 20
-54.3619754853
 30
0.0
  0
VERTEX
  5
3C0
  8
0
  6
CONTINUOUS
 62
     7
 10
126.8350062225
 20
-54.1867355944
 30
0.0
  0
VERTEX
  5
3C1
  8
0
  6
CONTINUOUS
 62
     7
 10
127.5956806991
 20
-54.0083739104
 30
0.0
  0
VERTEX
  5
3C2
  8
0
  6
CONTINUOUS
 62
     7
 10
128.3207115981
 20
-53.8283540996
 30
0.0
  0
VERTEX
  5
3C3
  8
0
  6
CONTINUOUS
 62
     7
 10
129.0052769038
 20
-53.6479546817
 30
0.0
  0
VERTEX
  5
3C4
  8
0
  6
CONTINUOUS
 62
     7
 10
129.6443281028
 20
-53.4689056815
 30
0.0
  0
VERTEX
  5
3C5
  8
0
  6
CONTINUOUS
 62
     7
 10
130.2290496681
 20
-53.2945777418
 30
0.0
  0
VERTEX
  5
3C6
  8
0
  6
CONTINUOUS
 62
     7
 10
130.7934877727
 20
-53.1145404221
 30
0.0
  0
VERTEX
  5
3C7
  8
0
  6
CONTINUOUS
 62
     7
 10
131.3225982044
 20
-52.9322500469
 30
0.0
  0
VERTEX
  5
3C8
  8
0
  6
CONTINUOUS
 62
     7
 10
131.8216976974
 20
-52.7439299168
 30
0.0
  0
VERTEX
  5
3C9
  8
0
  6
CONTINUOUS
 62
     7
 10
132.3055443618
 20
-52.5391060056
 30
0.0
  0
VERTEX
  5
3CA
  8
0
  6
CONTINUOUS
 62
     7
 10
132.820301995
 20
-52.2818762006
 30
0.0
  0
VERTEX
  5
3CB
  8
0
  6
CONTINUOUS
 62
     7
 10
133.1079480502
 20
-52.1093520464
 30
0.0
  0
VERTEX
  5
3CC
  8
0
  6
CONTINUOUS
 62
     7
 10
133.3439526412
 20
-51.9443499984
 30
0.0
  0
VERTEX
  5
3CD
  8
0
  6
CONTINUOUS
 62
     7
 10
133.566236243
 20
-51.7622350844
 30
0.0
  0
VERTEX
  5
3CE
  8
0
  6
CONTINUOUS
 62
     7
 10
133.7784466598
 20
-51.55531756
 30
0.0
  0
VERTEX
  5
3CF
  8
0
  6
CONTINUOUS
 62
     7
 10
133.9815614078
 20
-51.3145468326
 30
0.0
  0
VERTEX
  5
3D0
  8
0
  6
CONTINUOUS
 62
     7
 10
134.1700670574
 20
-51.034133056
 30
0.0
  0
VERTEX
  5
3D1
  8
0
  6
CONTINUOUS
 62
     7
 10
134.3330559585
 20
-50.714924665
 30
0.0
  0
VERTEX
  5
3D2
  8
0
  6
CONTINUOUS
 62
     7
 10
134.4593045566
 20
-50.361954713
 30
0.0
  0
VERTEX
  5
3D3
  8
0
  6
CONTINUOUS
 62
     7
 10
134.5391688201
 20
-49.9843281822
 30
0.0
  0
VERTEX
  5
3D4
  8
0
  6
CONTINUOUS
 62
     7
 10
134.5651266429
 20
-49.6096070053
 30
0.0
  0
SEQEND
  5
569
  8
0
  6
CONTINUOUS
 62
     7
  0
POLYLINE
  5
1AF
  8
0
  6
CONTINUOUS
 62
     7
 66
     1
 10
0.0
 20
0.0
 30
0.0
  0
VERTEX
  5
3D5
  8
0
  6
CONTINUOUS
 62
     7
 10
54.4569847438
 20
-49.5930544229
 30
0.0
  0
VERTEX
  5
3D6
  8
0
  6
CONTINUOUS
 62
     7
 10
54.4573781345
 20
-49.8043037148
 30
0.0
  0
VERTEX
  5
3D7
  8
0
  6
CONTINUOUS
 62
     7
 10
54.5128581378
 20
-50.1876085194
 30
0.0
  0
VERTEX
  5
3D8
  8
0
  6
CONTINUOUS
 62
     7
 10
54.6148297641
 20
-50.5438014062
 30
0.0
  0
VERTEX
  5
3D9
  8
0
  6
CONTINUOUS
 62
     7
 10
54.7541735027
 20
-50.8675742092
 30
0.0
  0
VERTEX
  5
3DA
  8
0
  6
CONTINUOUS
 62
     7
 10
54.9209830615
 20
-51.1551673652
 30
0.0
  0
VERTEX
  5
3DB
  8
0
  6
CONTINUOUS
 62
     7
 10
55.1057097766
 20
-51.4058160724
 30
0.0
  0
VERTEX
  5
3DC
  8
0
  6
CONTINUOUS
 62
     7
 10
55.3005454395
 20
-51.6217506619
 30
0.0
  0
VERTEX
  5
3DD
  8
0
  6
CONTINUOUS
 62
     7
 10
55.5020329807
 20
-51.8088325055
 30
0.0
  0
VERTEX
  5
3DE
  8
0
  6
CONTINUOUS
 62
     7
 10
55.7125923488
 20
-51.9755329134
 30
0.0
  0
VERTEX
  5
3DF
  8
0
  6
CONTINUOUS
 62
     7
 10
55.9414622638
 20
-52.1317749413
 30
0.0
  0
VERTEX
  5
3E0
  8
0
  6
CONTINUOUS
 62
     7
 10
56.2109706256
 20
-52.2911491932
 30
0.0
  0
VERTEX
  5
3E1
  8
0
  6
CONTINUOUS
 62
     7
 10
56.5841672275
 20
-52.4810231419
 30
0.0
  0
VERTEX
  5
3E2
  8
0
  6
CONTINUOUS
 62
     7
 10
57.1256396625
 20
-52.716399649
 30
0.0
  0
VERTEX
  5
3E3
  8
0
  6
CONTINUOUS
 62
     7
 10
57.6192734096
 20
-52.9052845331
 30
0.0
  0
VERTEX
  5
3E4
  8
0
  6
CONTINUOUS
 62
     7
 10
58.1310984943
 20
-53.0840280594
 30
0.0
  0
VERTEX
  5
3E5
  8
0
  6
CONTINUOUS
 62
     7
 10
58.7221858356
 20
-53.2746981026
 30
0.0
  0
VERTEX
  5
3E6
  8
0
  6
CONTINUOUS
 62
     7
 10
59.340607867
 20
-53.4602533223
 30
0.0
  0
VERTEX
  5
3E7
  8
0
  6
CONTINUOUS
 62
     7
 10
59.9882123325
 20
-53.6422456743
 30
0.0
  0
VERTEX
  5
3E8
  8
0
  6
CONTINUOUS
 62
     7
 10
60.6618401859
 20
-53.8203011395
 30
0.0
  0
VERTEX
  5
3E9
  8
0
  6
CONTINUOUS
 62
     7
 10
61.3844511363
 20
-54.0004286112
 30
0.0
  0
VERTEX
  5
3EA
  8
0
  6
CONTINUOUS
 62
     7
 10
62.1417281482
 20
-54.1786546947
 30
0.0
  0
VERTEX
  5
3EB
  8
0
  6
CONTINUOUS
 62
     7
 10
62.9308101985
 20
-54.3540815951
 30
0.0
  0
VERTEX
  5
3EC
  8
0
  6
CONTINUOUS
 62
     7
 10
63.7481925342
 20
-54.5256446244
 30
0.0
  0
VERTEX
  5
3ED
  8
0
  6
CONTINUOUS
 62
     7
 10
64.5899174068
 20
-54.6922023537
 30
0.0
  0
VERTEX
  5
3EE
  8
0
  6
CONTINUOUS
 62
     7
 10
65.4518482539
 20
-54.8525999429
 30
0.0
  0
VERTEX
  5
3EF
  8
0
  6
CONTINUOUS
 62
     7
 10
66.3295147273
 20
-55.0056728663
 30
0.0
  0
VERTEX
  5
3F0
  8
0
  6
CONTINUOUS
 62
     7
 10
67.2130820606
 20
-55.1495882811
 30
0.0
  0
VERTEX
  5
3F1
  8
0
  6
CONTINUOUS
 62
     7
 10
68.108856425
 20
-55.2854436578
 30
0.0
  0
VERTEX
  5
3F2
  8
0
  6
CONTINUOUS
 62
     7
 10
68.9231035564
 20
-55.3999553563
 30
0.0
  0
SEQEND
  5
568
  8
0
  6
CONTINUOUS
 62
     7
  0
ARC
  5
1B0
  8
0
  6
CONTINUOUS
 62
     7
 10
94.5072320554
 20
132.2557801938
 30
0.0
 40
189.3926456764133
 50
262.2364761354
 51
277.7635238646
  0
POLYLINE
  5
1B1
  8
0
  6
CONTINUOUS
 62
     7
 66
     1
 10
0.0
 20
0.0
 30
0.0
  0
VERTEX
  5
3F3
  8
0
  6
CONTINUOUS
 62
     7
 10
130.201881871
 20
-47.5821707759
 30
0.0
  0
VERTEX
  5
3F4
  8
0
  6
CONTINUOUS
 62
     7
 10
130.2041647289
 20
-47.5807854918
 30
0.0
  0
VERTEX
  5
3F5
  8
0
  6
CONTINUOUS
 62
     7
 10
130.1671621654
 20
-47.599906429
 30
0.0
  0
VERTEX
  5
3F6
  8
0
  6
CONTINUOUS
 62
     7
 10
130.0796029422
 20
-47.6411845445
 30
0.0
  0
VERTEX
  5
3F7
  8
0
  6
CONTINUOUS
 62
     7
 10
129.9331781719
 20
-47.7043643198
 30
0.0
  0
VERTEX
  5
3F8
  8
0
  6
CONTINUOUS
 62
     7
 10
129.7226784084
 20
-47.7879507828
 30
0.0
  0
VERTEX
  5
3F9
  8
0
  6
CONTINUOUS
 62
     7
 10
129.4454929683
 20
-47.8898385435
 30
0.0
  0
VERTEX
  5
3FA
  8
0
  6
CONTINUOUS
 62
     7
 10
129.1018364284
 20
-48.0074176693
 30
0.0
  0
VERTEX
  5
3FB
  8
0
  6
CONTINUOUS
 62
     7
 10
128.6940870139
 20
-48.1378948444
 30
0.0
  0
VERTEX
  5
3FC
  8
0
  6
CONTINUOUS
 62
     7
 10
128.2260236594
 20
-48.2785316778
 30
0.0
  0
VERTEX
  5
3FD
  8
0
  6
CONTINUOUS
 62
     7
 10
127.7022120807
 20
-48.4267700592
 30
0.0
  0
VERTEX
  5
3FE
  8
0
  6
CONTINUOUS
 62
     7
 10
127.1285233352
 20
-48.5798612365
 30
0.0
  0
VERTEX
  5
3FF
  8
0
  6
CONTINUOUS
 62
     7
 10
126.5132126663
 20
-48.7348392734
 30
0.0
  0
VERTEX
  5
400
  8
0
  6
CONTINUOUS
 62
     7
 10
125.8539793346
 20
-48.8919317851
 30
0.0
  0
VERTEX
  5
401
  8
0
  6
CONTINUOUS
 62
     7
 10
125.1492497775
 20
-49.0508954169
 30
0.0
  0
VERTEX
  5
402
  8
0
  6
CONTINUOUS
 62
     7
 10
124.4061288688
 20
-49.2094433995
 30
0.0
  0
VERTEX
  5
403
  8
0
  6
CONTINUOUS
 62
     7
 10
123.6322936866
 20
-49.3653277995
 30
0.0
  0
VERTEX
  5
404
  8
0
  6
CONTINUOUS
 62
     7
 10
122.8370902393
 20
-49.5161610784
 30
0.0
  0
VERTEX
  5
405
  8
0
  6
CONTINUOUS
 62
     7
 10
122.0291731212
 20
-49.6599047573
 30
0.0
  0
VERTEX
  5
406
  8
0
  6
CONTINUOUS
 62
     7
 10
121.2149200294
 20
-49.7952354269
 30
0.0
  0
VERTEX
  5
407
  8
0
  6
CONTINUOUS
 62
     7
 10
120.3855571601
 20
-49.9237145426
 30
0.0
  0
VERTEX
  5
408
  8
0
  6
CONTINUOUS
 62
     7
 10
119.5422527644
 20
-50.0450530218
 30
0.0
  0
VERTEX
  5
409
  8
0
  6
CONTINUOUS
 62
     7
 10
119.364541516
 20
-50.0686849596
 30
0.0
  0
SEQEND
  5
567
  8
0
  6
CONTINUOUS
 62
     7
  0
POLYLINE
  5
1B2
  8
0
  6
CONTINUOUS
 62
     7
 66
     1
 10
0.0
 20
0.0
 30
0.0
  0
VERTEX
  5
40A
  8
0
  6
CONTINUOUS
 62
     7
 10
69.6501848552
 20
-50.0689569058
 30
0.0
  0
VERTEX
  5
40B
  8
0
  6
CONTINUOUS
 62
     7
 10
68.9847347591
 20
-49.9762338715
 30
0.0
  0
VERTEX
  5
40C
  8
0
  6
CONTINUOUS
 62
     7
 10
68.1410667751
 20
-49.8493465723
 30
0.0
  0
VERTEX
  5
40D
  8
0
  6
CONTINUOUS
 62
     7
 10
67.3055884692
 20
-49.7142606543
 30
0.0
  0
VERTEX
  5
40E
  8
0
  6
CONTINUOUS
 62
     7
 10
66.4845940921
 20
-49.572010258
 30
0.0
  0
VERTEX
  5
40F
  8
0
  6
CONTINUOUS
 62
     7
 10
65.6888840053
 20
-49.4248821529
 30
0.0
  0
VERTEX
  5
410
  8
0
  6
CONTINUOUS
 62
     7
 10
64.9136063907
 20
-49.2725077214
 30
0.0
  0
VERTEX
  5
411
  8
0
  6
CONTINUOUS
 62
     7
 10
64.1622660014
 20
-49.1159309761
 30
0.0
  0
VERTEX
  5
412
  8
0
  6
CONTINUOUS
 62
     7
 10
63.4405133579
 20
-48.956698099
 30
0.0
  0
VERTEX
  5
413
  8
0
  6
CONTINUOUS
 62
     7
 10
62.7543327663
 20
-48.7965544814
 30
0.0
  0
VERTEX
  5
414
  8
0
  6
CONTINUOUS
 62
     7
 10
62.1093270633
 20
-48.6372956203
 30
0.0
  0
VERTEX
  5
415
  8
0
  6
CONTINUOUS
 62
     7
 10
61.5109083507
 20
-48.4808280261
 30
0.0
  0
VERTEX
  5
416
  8
0
  6
CONTINUOUS
 62
     7
 10
60.9637853954
 20
-48.3290673362
 30
0.0
  0
VERTEX
  5
417
  8
0
  6
CONTINUOUS
 62
     7
 10
60.4697105739
 20
-48.1834541203
 30
0.0
  0
VERTEX
  5
418
  8
0
  6
CONTINUOUS
 62
     7
 10
60.0274202678
 20
-48.0445363222
 30
0.0
  0
VERTEX
  5
419
  8
0
  6
CONTINUOUS
 62
     7
 10
59.6436736438
 20
-47.9154566897
 30
0.0
  0
VERTEX
  5
41A
  8
0
  6
CONTINUOUS
 62
     7
 10
59.3255755756
 20
-47.8000952525
 30
0.0
  0
VERTEX
  5
41B
  8
0
  6
CONTINUOUS
 62
     7
 10
59.1027257297
 20
-47.7125879622
 30
0.0
  0
VERTEX
  5
41C
  8
0
  6
CONTINUOUS
 62
     7
 10
58.9447257373
 20
-47.6451955231
 30
0.0
  0
VERTEX
  5
41D
  8
0
  6
CONTINUOUS
 62
     7
 10
58.8490364406
 20
-47.6005482616
 30
0.0
  0
VERTEX
  5
41E
  8
0
  6
CONTINUOUS
 62
     7
 10
58.809530482
 20
-47.580320657
 30
0.0
  0
VERTEX
  5
41F
  8
0
  6
CONTINUOUS
 62
     7
 10
58.8123199794
 20
-47.5820137142
 30
0.0
  0
SEQEND
  5
566
  8
0
  6
CONTINUOUS
 62
     7
  0
ARC
  5
1B3
  8
0
  6
CONTINUOUS
 62
     7
 10
94.5072320554
 20
132.2558781043
 30
0.0
 40
184.0127435370977
 50
262.2364850334
 51
277.7635149666
  0
LINE
  5
1B4
  8
0
  6
CONTINUOUS
 62
     7
 10
54.4484732005
 20
-46.1096767465
 30
0.0
 11
54.4484732005
 21
-49.5959065052
 31
0.0
  0
LINE
  5
1B5
  8
0
  6
CONTINUOUS
 62
     7
 10
134.5659909103
 20
-49.5959065052
 30
0.0
 11
134.5659909103
 21
-46.1096767465
 31
0.0
  0
LINE
  5
1B6
  8
0
  6
CONTINUOUS
 62
     7
 10
131.2072334144
 20
-53.8453470113
 30
0.0
 11
132.2072324607
 21
-53.8453470113
 31
0.0
  0
LINE
  5
1B7
  8
0
  6
CONTINUOUS
 62
     7
 10
56.8072316501
 20
-53.8453470113
 30
0.0
 11
57.8072306964
 21
-53.8453470113
 31
0.0
  0
POLYLINE
  5
1B8
  8
0
  6
CONTINUOUS
 62
     7
 66
     1
 10
0.0
 20
0.0
 30
0.0
  0
VERTEX
  5
420
  8
0
  6
CONTINUOUS
 62
     7
 10
69.6499821994
 20
-44.437754819
 30
0.0
  0
VERTEX
  5
421
  8
0
  6
CONTINUOUS
 62
     7
 10
68.8793060634
 20
-44.3332488777
 30
0.0
  0
VERTEX
  5
422
  8
0
  6
CONTINUOUS
 62
     7
 10
68.0035946224
 20
-44.2158821167
 30
0.0
  0
VERTEX
  5
423
  8
0
  6
CONTINUOUS
 62
     7
 10
67.1386954639
 20
-44.1013082059
 30
0.0
  0
VERTEX
  5
424
  8
0
  6
CONTINUOUS
 62
     7
 10
66.2888166759
 20
-43.9901332499
 30
0.0
  0
VERTEX
  5
425
  8
0
  6
CONTINUOUS
 62
     7
 10
65.4607055042
 20
-43.8835713209
 30
0.0
  0
VERTEX
  5
426
  8
0
  6
CONTINUOUS
 62
     7
 10
64.6473882053
 20
-43.7810565473
 30
0.0
  0
VERTEX
  5
427
  8
0
  6
CONTINUOUS
 62
     7
 10
63.8502714488
 20
-43.6831693293
 30
0.0
  0
VERTEX
  5
428
  8
0
  6
CONTINUOUS
 62
     7
 10
63.0761024806
 20
-43.5911889316
 30
0.0
  0
VERTEX
  5
429
  8
0
  6
CONTINUOUS
 62
     7
 10
62.3314020488
 20
-43.5063569935
 30
0.0
  0
VERTEX
  5
42A
  8
0
  6
CONTINUOUS
 62
     7
 10
61.6220471713
 20
-43.4298391582
 30
0.0
  0
VERTEX
  5
42B
  8
0
  6
CONTINUOUS
 62
     7
 10
60.9530923221
 20
-43.3627064468
 30
0.0
  0
VERTEX
  5
42C
  8
0
  6
CONTINUOUS
 62
     7
 10
60.3258607242
 20
-43.3057538362
 30
0.0
  0
VERTEX
  5
42D
  8
0
  6
CONTINUOUS
 62
     7
 10
59.7318885181
 20
-43.2590074034
 30
0.0
  0
VERTEX
  5
42E
  8
0
  6
CONTINUOUS
 62
     7
 10
59.1699001643
 20
-43.2235083671
 30
0.0
  0
VERTEX
  5
42F
  8
0
  6
CONTINUOUS
 62
     7
 10
58.6356398914
 20
-43.2008343877
 30
0.0
  0
VERTEX
  5
430
  8
0
  6
CONTINUOUS
 62
     7
 10
58.1166622493
 20
-43.1940547319
 30
0.0
  0
VERTEX
  5
431
  8
0
  6
CONTINUOUS
 62
     7
 10
57.5754759166
 20
-43.2121846022
 30
0.0
  0
VERTEX
  5
432
  8
0
  6
CONTINUOUS
 62
     7
 10
57.2214004848
 20
-43.2455971034
 30
0.0
  0
VERTEX
  5
433
  8
0
  6
CONTINUOUS
 62
     7
 10
56.9223997447
 20
-43.2928699197
 30
0.0
  0
VERTEX
  5
434
  8
0
  6
CONTINUOUS
 62
     7
 10
56.6399333331
 20
-43.3581392409
 30
0.0
  0
VERTEX
  5
435
  8
0
  6
CONTINUOUS
 62
     7
 10
56.3636658046
 20
-43.4456116648
 30
0.0
  0
VERTEX
  5
436
  8
0
  6
CONTINUOUS
 62
     7
 10
56.0853836391
 20
-43.5620023997
 30
0.0
  0
VERTEX
  5
437
  8
0
  6
CONTINUOUS
 62
     7
 10
55.8025595996
 20
-43.7153387012
 30
0.0
  0
VERTEX
  5
438
  8
0
  6
CONTINUOUS
 62
     7
 10
55.5200335834
 20
-43.9123674424
 30
0.0
  0
VERTEX
  5
439
  8
0
  6
CONTINUOUS
 62
     7
 10
55.2493927333
 20
-44.1552936228
 30
0.0
  0
VERTEX
  5
43A
  8
0
  6
CONTINUOUS
 62
     7
 10
55.0029990527
 20
-44.4427314343
 30
0.0
  0
VERTEX
  5
43B
  8
0
  6
CONTINUOUS
 62
     7
 10
54.7928092334
 20
-44.7690636979
 30
0.0
  0
VERTEX
  5
43C
  8
0
  6
CONTINUOUS
 62
     7
 10
54.6279189441
 20
-45.1265410649
 30
0.0
  0
VERTEX
  5
43D
  8
0
  6
CONTINUOUS
 62
     7
 10
54.5165893886
 20
-45.5091879832
 30
0.0
  0
SEQEND
  5
565
  8
0
  6
CONTINUOUS
 62
     7
  0
POLYLINE
  5
1B9
  8
0
  6
CONTINUOUS
 62
     7
 66
     1
 10
0.0
 20
0.0
 30
0.0
  0
VERTEX
  5
43E
  8
0
  6
CONTINUOUS
 62
     7
 10
134.4941792342
 20
-45.5099883618
 30
0.0
  0
VERTEX
  5
43F
  8
0
  6
CONTINUOUS
 62
     7
 10
134.4058868739
 20
-45.1833249198
 30
0.0
  0
VERTEX
  5
440
  8
0
  6
CONTINUOUS
 62
     7
 10
134.2443523261
 20
-44.8138066696
 30
0.0
  0
VERTEX
  5
441
  8
0
  6
CONTINUOUS
 62
     7
 10
134.0411064479
 20
-44.4850075187
 30
0.0
  0
VERTEX
  5
442
  8
0
  6
CONTINUOUS
 62
     7
 10
133.8061985824
 20
-44.1994323524
 30
0.0
  0
VERTEX
  5
443
  8
0
  6
CONTINUOUS
 62
     7
 10
133.5500476215
 20
-43.9583244862
 30
0.0
  0
VERTEX
  5
444
  8
0
  6
CONTINUOUS
 62
     7
 10
133.2832035873
 20
-43.7611344399
 30
0.0
  0
VERTEX
  5
445
  8
0
  6
CONTINUOUS
 62
     7
 10
133.014535651
 20
-43.604693109
 30
0.0
  0
VERTEX
  5
446
  8
0
  6
CONTINUOUS
 62
     7
 10
132.7501771304
 20
-43.4838774742
 30
0.0
  0
VERTEX
  5
447
  8
0
  6
CONTINUOUS
 62
     7
 10
132.4905691001
 20
-43.3918743523
 30
0.0
  0
VERTEX
  5
448
  8
0
  6
CONTINUOUS
 62
     7
 10
132.2297868583
 20
-43.3219346346
 30
0.0
  0
VERTEX
  5
449
  8
0
  6
CONTINUOUS
 62
     7
 10
131.9537994716
 20
-43.2685251476
 30
0.0
  0
VERTEX
  5
44A
  8
0
  6
CONTINUOUS
 62
     7
 10
131.6357729289
 20
-43.2283147367
 30
0.0
  0
VERTEX
  5
44B
  8
0
  6
CONTINUOUS
 62
     7
 10
131.2604305599
 20
-43.2029652538
 30
0.0
  0
VERTEX
  5
44C
  8
0
  6
CONTINUOUS
 62
     7
 10
130.661135659
 20
-43.1955068501
 30
0.0
  0
VERTEX
  5
44D
  8
0
  6
CONTINUOUS
 62
     7
 10
130.1391897056
 20
-43.2099997194
 30
0.0
  0
VERTEX
  5
44E
  8
0
  6
CONTINUOUS
 62
     7
 10
129.6058592651
 20
-43.2377788367
 30
0.0
  0
VERTEX
  5
44F
  8
0
  6
CONTINUOUS
 62
     7
 10
128.9946851585
 20
-43.2808372321
 30
0.0
  0
VERTEX
  5
450
  8
0
  6
CONTINUOUS
 62
     7
 10
128.3616897914
 20
-43.3346181305
 30
0.0
  0
VERTEX
  5
451
  8
0
  6
CONTINUOUS
 62
     7
 10
127.7055201385
 20
-43.3977066668
 30
0.0
  0
VERTEX
  5
452
  8
0
  6
CONTINUOUS
 62
     7
 10
127.0070252273
 20
-43.4707450809
 30
0.0
  0
VERTEX
  5
453
  8
0
  6
CONTINUOUS
 62
     7
 10
126.2785193775
 20
-43.551809633
 30
0.0
  0
VERTEX
  5
454
  8
0
  6
CONTINUOUS
 62
     7
 10
125.5179700706
 20
-43.6405683996
 30
0.0
  0
VERTEX
  5
455
  8
0
  6
CONTINUOUS
 62
     7
 10
124.7287151668
 20
-43.7361697795
 30
0.0
  0
VERTEX
  5
456
  8
0
  6
CONTINUOUS
 62
     7
 10
123.9146945331
 20
-43.8377092721
 30
0.0
  0
VERTEX
  5
457
  8
0
  6
CONTINUOUS
 62
     7
 10
123.0801937434
 20
-43.9442447515
 30
0.0
  0
VERTEX
  5
458
  8
0
  6
CONTINUOUS
 62
     7
 10
122.229641423
 20
-44.054822916
 30
0.0
  0
VERTEX
  5
459
  8
0
  6
CONTINUOUS
 62
     7
 10
121.3706312034
 20
-44.1680527421
 30
0.0
  0
VERTEX
  5
45A
  8
0
  6
CONTINUOUS
 62
     7
 10
120.5030557964
 20
-44.2837490829
 30
0.0
  0
VERTEX
  5
45B
  8
0
  6
CONTINUOUS
 62
     7
 10
119.6285364482
 20
-44.4017375948
 30
0.0
  0
VERTEX
  5
45C
  8
0
  6
CONTINUOUS
 62
     7
 10
119.3643627021
 20
-44.4378013851
 30
0.0
  0
SEQEND
  5
564
  8
0
  6
CONTINUOUS
 62
     7
  0
LINE
  5
1BA
  8
0
  6
CONTINUOUS
 62
     7
 10
134.5058081004
 20
-45.572499478
 30
0.0
 11
134.4959077689
 21
-45.5101535784
 31
0.0
  0
POLYLINE
  5
1BB
  8
0
  6
CONTINUOUS
 62
     7
 66
     1
 10
0.0
 20
0.0
 30
0.0
  0
VERTEX
  5
45D
  8
0
  6
CONTINUOUS
 62
     7
 10
54.5209047649
 20
-45.5109934451
 30
0.0
  0
VERTEX
  5
45E
  8
0
  6
CONTINUOUS
 62
     7
 10
54.4667241428
 20
-45.7894788252
 30
0.0
  0
VERTEX
  5
45F
  8
0
  6
CONTINUOUS
 62
     7
 10
54.4533369396
 20
-46.1085435131
 30
0.0
  0
SEQEND
  5
563
  8
0
  6
CONTINUOUS
 62
     7
  0
ARC
  5
1BC
  8
0
  6
CONTINUOUS
 62
     7
 10
94.5072320554
 20
137.8878854492
 30
0.0
 40
184.0127468953662
 50
262.236485176
 51
277.763514824
  0
ARC
  5
1BD
  8
0
  6
CONTINUOUS
 62
     7
 10
359.6908841582
 20
-112.8797905438
 30
0.0
 40
14.86826436090094
 50
270.8245563239
 51
0.4742118724
  0
ARC
  5
1BE
  8
0
  6
CONTINUOUS
 62
     7
 10
309.3227897979
 20
-112.8832635312
 30
0.0
 40
14.86658304665941
 50
179.5129234497
 51
269.3234098625
  0
ARC
  5
1BF
  8
0
  6
CONTINUOUS
 62
     7
 10
359.6796855314
 20
-72.6683319407
 30
0.0
 40
14.87766607474724
 50
359.6599319319
 51
32.6990506551
  0
ARC
  5
1C0
  8
0
  6
CONTINUOUS
 62
     7
 10
309.4268125961
 20
-72.7008805179
 30
0.0
 40
14.97539647988795
 50
147.3882493518
 51
180.2160417858
  0
ARC
  5
1C1
  8
0
  6
CONTINUOUS
 62
     7
 10
309.2509068229
 20
-72.4636611624
 30
0.0
 40
14.69879094920744
 50
90.6992088923
 51
141.1138682701
  0
ARC
  5
1C2
  8
0
  6
CONTINUOUS
 62
     7
 10
359.766591536
 20
-72.4403515119
 30
0.0
 40
14.67825235431634
 50
38.7742057935
 51
89.7631990045
  0
LINE
  5
1C3
  8
0
  6
CONTINUOUS
 62
     7
 10
294.4484767768
 20
-72.7566707076
 30
0.0
 11
294.4484767768
 21
-112.7566742839
 31
0.0
  0
LINE
  5
1C4
  8
0
  6
CONTINUOUS
 62
     7
 10
374.5659944866
 20
-112.7566742839
 30
0.0
 11
374.5659944866
 21
-72.7566707076
 31
0.0
  0
POLYLINE
  5
1C5
  8
0
  6
CONTINUOUS
 62
     7
 66
     1
 10
0.0
 20
0.0
 30
0.0
  0
VERTEX
  5
460
  8
0
  6
CONTINUOUS
 62
     7
 10
240.09132956
 20
-55.3995872976
 30
0.0
  0
VERTEX
  5
461
  8
0
  6
CONTINUOUS
 62
     7
 10
240.8822861764
 20
-55.2886637987
 30
0.0
  0
VERTEX
  5
462
  8
0
  6
CONTINUOUS
 62
     7
 10
241.7827633474
 20
-55.1524388732
 30
0.0
  0
VERTEX
  5
463
  8
0
  6
CONTINUOUS
 62
     7
 10
242.6736620519
 20
-55.0075727643
 30
0.0
  0
VERTEX
  5
464
  8
0
  6
CONTINUOUS
 62
     7
 10
243.5501334522
 20
-54.8547717871
 30
0.0
  0
VERTEX
  5
465
  8
0
  6
CONTINUOUS
 62
     7
 10
244.3978754136
 20
-54.6970310749
 30
0.0
  0
VERTEX
  5
466
  8
0
  6
CONTINUOUS
 62
     7
 10
245.229857907
 20
-54.5325721742
 30
0.0
  0
VERTEX
  5
467
  8
0
  6
CONTINUOUS
 62
     7
 10
246.0443494174
 20
-54.3619754853
 30
0.0
  0
VERTEX
  5
468
  8
0
  6
CONTINUOUS
 62
     7
 10
246.8350050304
 20
-54.1867355944
 30
0.0
  0
VERTEX
  5
469
  8
0
  6
CONTINUOUS
 62
     7
 10
247.595679507
 20
-54.0083739104
 30
0.0
  0
VERTEX
  5
46A
  8
0
  6
CONTINUOUS
 62
     7
 10
248.320710406
 20
-53.8283540996
 30
0.0
  0
VERTEX
  5
46B
  8
0
  6
CONTINUOUS
 62
     7
 10
249.0052757118
 20
-53.6479546817
 30
0.0
  0
VERTEX
  5
46C
  8
0
  6
CONTINUOUS
 62
     7
 10
249.6443269107
 20
-53.4689056815
 30
0.0
  0
VERTEX
  5
46D
  8
0
  6
CONTINUOUS
 62
     7
 10
250.229048476
 20
-53.2945777418
 30
0.0
  0
VERTEX
  5
46E
  8
0
  6
CONTINUOUS
 62
     7
 10
250.7934895608
 20
-53.1145404221
 30
0.0
  0
VERTEX
  5
46F
  8
0
  6
CONTINUOUS
 62
     7
 10
251.3225999925
 20
-52.9322500469
 30
0.0
  0
VERTEX
  5
470
  8
0
  6
CONTINUOUS
 62
     7
 10
251.8216994855
 20
-52.7439299168
 30
0.0
  0
VERTEX
  5
471
  8
0
  6
CONTINUOUS
 62
     7
 10
252.3055431697
 20
-52.5391060056
 30
0.0
  0
VERTEX
  5
472
  8
0
  6
CONTINUOUS
 62
     7
 10
252.8203037832
 20
-52.2818762006
 30
0.0
  0
VERTEX
  5
473
  8
0
  6
CONTINUOUS
 62
     7
 10
253.1079438779
 20
-52.1093520464
 30
0.0
  0
VERTEX
  5
474
  8
0
  6
CONTINUOUS
 62
     7
 10
253.3439544294
 20
-51.9443499984
 30
0.0
  0
VERTEX
  5
475
  8
0
  6
CONTINUOUS
 62
     7
 10
253.5662350509
 20
-51.7622350844
 30
0.0
  0
VERTEX
  5
476
  8
0
  6
CONTINUOUS
 62
     7
 10
253.7784484479
 20
-51.55531756
 30
0.0
  0
VERTEX
  5
477
  8
0
  6
CONTINUOUS
 62
     7
 10
253.9815602157
 20
-51.3145468326
 30
0.0
  0
VERTEX
  5
478
  8
0
  6
CONTINUOUS
 62
     7
 10
254.1700658653
 20
-51.034133056
 30
0.0
  0
VERTEX
  5
479
  8
0
  6
CONTINUOUS
 62
     7
 10
254.3330577466
 20
-50.714924665
 30
0.0
  0
VERTEX
  5
47A
  8
0
  6
CONTINUOUS
 62
     7
 10
254.4593063447
 20
-50.361954713
 30
0.0
  0
VERTEX
  5
47B
  8
0
  6
CONTINUOUS
 62
     7
 10
254.539167628
 20
-49.9843281822
 30
0.0
  0
VERTEX
  5
47C
  8
0
  6
CONTINUOUS
 62
     7
 10
254.5651284311
 20
-49.6096070053
 30
0.0
  0
SEQEND
  5
562
  8
0
  6
CONTINUOUS
 62
     7
  0
POLYLINE
  5
1C6
  8
0
  6
CONTINUOUS
 62
     7
 66
     1
 10
0.0
 20
0.0
 30
0.0
  0
VERTEX
  5
47D
  8
0
  6
CONTINUOUS
 62
     7
 10
174.4569895122
 20
-49.5930544229
 30
0.0
  0
VERTEX
  5
47E
  8
0
  6
CONTINUOUS
 62
     7
 10
174.4573829028
 20
-49.8043037148
 30
0.0
  0
VERTEX
  5
47F
  8
0
  6
CONTINUOUS
 62
     7
 10
174.5128629062
 20
-50.1876085194
 30
0.0
  0
VERTEX
  5
480
  8
0
  6
CONTINUOUS
 62
     7
 10
174.6148255918
 20
-50.5438014062
 30
0.0
  0
VERTEX
  5
481
  8
0
  6
CONTINUOUS
 62
     7
 10
174.754178271
 20
-50.8675742092
 30
0.0
  0
VERTEX
  5
482
  8
0
  6
CONTINUOUS
 62
     7
 10
174.9209878299
 20
-51.1551673652
 30
0.0
  0
VERTEX
  5
483
  8
0
  6
CONTINUOUS
 62
     7
 10
175.1057056043
 20
-51.4058160724
 30
0.0
  0
VERTEX
  5
484
  8
0
  6
CONTINUOUS
 62
     7
 10
175.3005442474
 20
-51.6217506619
 30
0.0
  0
VERTEX
  5
485
  8
0
  6
CONTINUOUS
 62
     7
 10
175.5020317886
 20
-51.8088325055
 30
0.0
  0
VERTEX
  5
486
  8
0
  6
CONTINUOUS
 62
     7
 10
175.7125941369
 20
-51.9755329134
 30
0.0
  0
VERTEX
  5
487
  8
0
  6
CONTINUOUS
 62
     7
 10
175.9414670322
 20
-52.1317749413
 30
0.0
  0
VERTEX
  5
488
  8
0
  6
CONTINUOUS
 62
     7
 10
176.2109694335
 20
-52.2911491932
 30
0.0
  0
VERTEX
  5
489
  8
0
  6
CONTINUOUS
 62
     7
 10
176.5841690156
 20
-52.4810231419
 30
0.0
  0
VERTEX
  5
48A
  8
0
  6
CONTINUOUS
 62
     7
 10
177.1256414506
 20
-52.716399649
 30
0.0
  0
VERTEX
  5
48B
  8
0
  6
CONTINUOUS
 62
     7
 10
177.619278178
 20
-52.9052845331
 30
0.0
  0
VERTEX
  5
48C
  8
0
  6
CONTINUOUS
 62
     7
 10
178.1311002824
 20
-53.0840280594
 30
0.0
  0
VERTEX
  5
48D
  8
0
  6
CONTINUOUS
 62
     7
 10
178.7221876237
 20
-53.2746981026
 30
0.0
  0
VERTEX
  5
48E
  8
0
  6
CONTINUOUS
 62
     7
 10
179.3406036947
 20
-53.4602533223
 30
0.0
  0
VERTEX
  5
48F
  8
0
  6
CONTINUOUS
 62
     7
 10
179.9882141206
 20
-53.6422456743
 30
0.0
  0
VERTEX
  5
490
  8
0
  6
CONTINUOUS
 62
     7
 10
180.6618360135
 20
-53.8203011395
 30
0.0
  0
VERTEX
  5
491
  8
0
  6
CONTINUOUS
 62
     7
 10
181.384446964
 20
-54.0004286112
 30
0.0
  0
VERTEX
  5
492
  8
0
  6
CONTINUOUS
 62
     7
 10
182.1417329166
 20
-54.1786546947
 30
0.0
  0
VERTEX
  5
493
  8
0
  6
CONTINUOUS
 62
     7
 10
182.9308149669
 20
-54.3540815951
 30
0.0
  0
VERTEX
  5
494
  8
0
  6
CONTINUOUS
 62
     7
 10
183.7481883619
 20
-54.5256446244
 30
0.0
  0
VERTEX
  5
495
  8
0
  6
CONTINUOUS
 62
     7
 10
184.5899132345
 20
-54.6922023537
 30
0.0
  0
VERTEX
  5
496
  8
0
  6
CONTINUOUS
 62
     7
 10
185.4518440816
 20
-54.8525999429
 30
0.0
  0
VERTEX
  5
497
  8
0
  6
CONTINUOUS
 62
     7
 10
186.3295165155
 20
-55.0056728663
 30
0.0
  0
VERTEX
  5
498
  8
0
  6
CONTINUOUS
 62
     7
 10
187.2130778882
 20
-55.1495882811
 30
0.0
  0
VERTEX
  5
499
  8
0
  6
CONTINUOUS
 62
     7
 10
188.1088582132
 20
-55.2854436578
 30
0.0
  0
VERTEX
  5
49A
  8
0
  6
CONTINUOUS
 62
     7
 10
188.9230993841
 20
-55.3999553563
 30
0.0
  0
SEQEND
  5
561
  8
0
  6
CONTINUOUS
 62
     7
  0
ARC
  5
1C7
  8
0
  6
CONTINUOUS
 62
     7
 10
214.5072338435
 20
132.2557705652
 30
0.0
 40
189.3926361360339
 50
262.2364757419
 51
277.7635242581
  0
POLYLINE
  5
1C8
  8
0
  6
CONTINUOUS
 62
     7
 66
     1
 10
0.0
 20
0.0
 30
0.0
  0
VERTEX
  5
49B
  8
0
  6
CONTINUOUS
 62
     7
 10
250.2018836591
 20
-47.5821707759
 30
0.0
  0
VERTEX
  5
49C
  8
0
  6
CONTINUOUS
 62
     7
 10
250.204166517
 20
-47.5807854918
 30
0.0
  0
VERTEX
  5
49D
  8
0
  6
CONTINUOUS
 62
     7
 10
250.1671609733
 20
-47.599906429
 30
0.0
  0
VERTEX
  5
49E
  8
0
  6
CONTINUOUS
 62
     7
 10
250.0796017501
 20
-47.6411845445
 30
0.0
  0
VERTEX
  5
49F
  8
0
  6
CONTINUOUS
 62
     7
 10
249.9331769798
 20
-47.7043643198
 30
0.0
  0
VERTEX
  5
4A0
  8
0
  6
CONTINUOUS
 62
     7
 10
249.722674236
 20
-47.7879507828
 30
0.0
  0
VERTEX
  5
4A1
  8
0
  6
CONTINUOUS
 62
     7
 10
249.4454917762
 20
-47.8898385435
 30
0.0
  0
VERTEX
  5
4A2
  8
0
  6
CONTINUOUS
 62
     7
 10
249.1018352363
 20
-48.0074176693
 30
0.0
  0
VERTEX
  5
4A3
  8
0
  6
CONTINUOUS
 62
     7
 10
248.6940858218
 20
-48.1378948444
 30
0.0
  0
VERTEX
  5
4A4
  8
0
  6
CONTINUOUS
 62
     7
 10
248.2260254476
 20
-48.2785316778
 30
0.0
  0
VERTEX
  5
4A5
  8
0
  6
CONTINUOUS
 62
     7
 10
247.7022108886
 20
-48.4267700592
 30
0.0
  0
VERTEX
  5
4A6
  8
0
  6
CONTINUOUS
 62
     7
 10
247.1285191629
 20
-48.5798612365
 30
0.0
  0
VERTEX
  5
4A7
  8
0
  6
CONTINUOUS
 62
     7
 10
246.5132144544
 20
-48.7348392734
 30
0.0
  0
VERTEX
  5
4A8
  8
0
  6
CONTINUOUS
 62
     7
 10
245.8539781425
 20
-48.8919317851
 30
0.0
  0
VERTEX
  5
4A9
  8
0
  6
CONTINUOUS
 62
     7
 10
245.1492515657
 20
-49.0508954169
 30
0.0
  0
VERTEX
  5
4AA
  8
0
  6
CONTINUOUS
 62
     7
 10
244.4061276767
 20
-49.2094433995
 30
0.0
  0
VERTEX
  5
4AB
  8
0
  6
CONTINUOUS
 62
     7
 10
243.6322924945
 20
-49.3653277995
 30
0.0
  0
VERTEX
  5
4AC
  8
0
  6
CONTINUOUS
 62
     7
 10
242.8370920274
 20
-49.5161610784
 30
0.0
  0
VERTEX
  5
4AD
  8
0
  6
CONTINUOUS
 62
     7
 10
242.0291749093
 20
-49.6599047573
 30
0.0
  0
VERTEX
  5
4AE
  8
0
  6
CONTINUOUS
 62
     7
 10
241.2149188373
 20
-49.7952354269
 30
0.0
  0
VERTEX
  5
4AF
  8
0
  6
CONTINUOUS
 62
     7
 10
240.385555968
 20
-49.9237145426
 30
0.0
  0
VERTEX
  5
4B0
  8
0
  6
CONTINUOUS
 62
     7
 10
239.5422515724
 20
-50.0450530218
 30
0.0
  0
VERTEX
  5
4B1
  8
0
  6
CONTINUOUS
 62
     7
 10
239.3645418141
 20
-50.0686849596
 30
0.0
  0
SEQEND
  5
560
  8
0
  6
CONTINUOUS
 62
     7
  0
POLYLINE
  5
1C9
  8
0
  6
CONTINUOUS
 62
     7
 66
     1
 10
0.0
 20
0.0
 30
0.0
  0
VERTEX
  5
4B2
  8
0
  6
CONTINUOUS
 62
     7
 10
189.6501851532
 20
-50.0689569058
 30
0.0
  0
VERTEX
  5
4B3
  8
0
  6
CONTINUOUS
 62
     7
 10
188.9847365472
 20
-49.9762338715
 30
0.0
  0
VERTEX
  5
4B4
  8
0
  6
CONTINUOUS
 62
     7
 10
188.1410715434
 20
-49.8493465723
 30
0.0
  0
VERTEX
  5
4B5
  8
0
  6
CONTINUOUS
 62
     7
 10
187.3055842969
 20
-49.7142606543
 30
0.0
  0
VERTEX
  5
4B6
  8
0
  6
CONTINUOUS
 62
     7
 10
186.4845958803
 20
-49.572010258
 30
0.0
  0
VERTEX
  5
4B7
  8
0
  6
CONTINUOUS
 62
     7
 10
185.688879833
 20
-49.4248821529
 30
0.0
  0
VERTEX
  5
4B8
  8
0
  6
CONTINUOUS
 62
     7
 10
184.9136081788
 20
-49.2725077214
 30
0.0
  0
VERTEX
  5
4B9
  8
0
  6
CONTINUOUS
 62
     7
 10
184.1622677896
 20
-49.1159309761
 30
0.0
  0
VERTEX
  5
4BA
  8
0
  6
CONTINUOUS
 62
     7
 10
183.440515146
 20
-48.956698099
 30
0.0
  0
VERTEX
  5
4BB
  8
0
  6
CONTINUOUS
 62
     7
 10
182.7543345544
 20
-48.7965544814
 30
0.0
  0
VERTEX
  5
4BC
  8
0
  6
CONTINUOUS
 62
     7
 10
182.109322891
 20
-48.6372956203
 30
0.0
  0
VERTEX
  5
4BD
  8
0
  6
CONTINUOUS
 62
     7
 10
181.5109131191
 20
-48.4808280261
 30
0.0
  0
VERTEX
  5
4BE
  8
0
  6
CONTINUOUS
 62
     7
 10
180.963781223
 20
-48.3290673362
 30
0.0
  0
VERTEX
  5
4BF
  8
0
  6
CONTINUOUS
 62
     7
 10
180.4697093818
 20
-48.1834541203
 30
0.0
  0
VERTEX
  5
4C0
  8
0
  6
CONTINUOUS
 62
     7
 10
180.0274190757
 20
-48.0445363222
 30
0.0
  0
VERTEX
  5
4C1
  8
0
  6
CONTINUOUS
 62
     7
 10
179.6436754319
 20
-47.9154566897
 30
0.0
  0
VERTEX
  5
4C2
  8
0
  6
CONTINUOUS
 62
     7
 10
179.3255714032
 20
-47.8000952525
 30
0.0
  0
VERTEX
  5
4C3
  8
0
  6
CONTINUOUS
 62
     7
 10
179.1027245376
 20
-47.7125879622
 30
0.0
  0
VERTEX
  5
4C4
  8
0
  6
CONTINUOUS
 62
     7
 10
178.9447305057
 20
-47.6451955231
 30
0.0
  0
VERTEX
  5
4C5
  8
0
  6
CONTINUOUS
 62
     7
 10
178.8490322683
 20
-47.6005482616
 30
0.0
  0
VERTEX
  5
4C6
  8
0
  6
CONTINUOUS
 62
     7
 10
178.8095322702
 20
-47.580320657
 30
0.0
  0
VERTEX
  5
4C7
  8
0
  6
CONTINUOUS
 62
     7
 10
178.8123217676
 20
-47.5820137142
 30
0.0
  0
SEQEND
  5
55F
  8
0
  6
CONTINUOUS
 62
     7
  0
ARC
  5
1CA
  8
0
  6
CONTINUOUS
 62
     7
 10
214.5072338435
 20
132.2557771832
 30
0.0
 40
184.0126429371265
 50
262.2364821677
 51
277.7635178323
  0
LINE
  5
1CB
  8
0
  6
CONTINUOUS
 62
     7
 10
254.5659897182
 20
-49.5959065052
 30
0.0
 11
254.5659897182
 21
-46.1096767465
 31
0.0
  0
LINE
  5
1CC
  8
0
  6
CONTINUOUS
 62
     7
 10
174.4484779689
 20
-46.1096767465
 30
0.0
 11
174.4484779689
 21
-49.5959065052
 31
0.0
  0
LINE
  5
1CD
  8
0
  6
CONTINUOUS
 62
     7
 10
251.2072352025
 20
-53.8453470113
 30
0.0
 11
252.2072342489
 21
-53.8453470113
 31
0.0
  0
LINE
  5
1CE
  8
0
  6
CONTINUOUS
 62
     7
 10
176.8072334382
 20
-53.8453470113
 30
0.0
 11
177.8072324846
 21
-53.8453470113
 31
0.0
  0
POLYLINE
  5
1CF
  8
0
  6
CONTINUOUS
 62
     7
 66
     1
 10
0.0
 20
0.0
 30
0.0
  0
VERTEX
  5
4C8
  8
0
  6
CONTINUOUS
 62
     7
 10
189.6499854777
 20
-44.437754819
 30
0.0
  0
VERTEX
  5
4C9
  8
0
  6
CONTINUOUS
 62
     7
 10
188.8793048713
 20
-44.3332488777
 30
0.0
  0
VERTEX
  5
4CA
  8
0
  6
CONTINUOUS
 62
     7
 10
188.0035964105
 20
-44.2158821167
 30
0.0
  0
VERTEX
  5
4CB
  8
0
  6
CONTINUOUS
 62
     7
 10
187.1387002322
 20
-44.1013082059
 30
0.0
  0
VERTEX
  5
4CC
  8
0
  6
CONTINUOUS
 62
     7
 10
186.2888214443
 20
-43.9901332499
 30
0.0
  0
VERTEX
  5
4CD
  8
0
  6
CONTINUOUS
 62
     7
 10
185.4607102725
 20
-43.8835713209
 30
0.0
  0
VERTEX
  5
4CE
  8
0
  6
CONTINUOUS
 62
     7
 10
184.6473929736
 20
-43.7810565473
 30
0.0
  0
VERTEX
  5
4CF
  8
0
  6
CONTINUOUS
 62
     7
 10
183.8502702567
 20
-43.6831693293
 30
0.0
  0
VERTEX
  5
4D0
  8
0
  6
CONTINUOUS
 62
     7
 10
183.0761012885
 20
-43.5911889316
 30
0.0
  0
VERTEX
  5
4D1
  8
0
  6
CONTINUOUS
 62
     7
 10
182.3313978765
 20
-43.5063569935
 30
0.0
  0
VERTEX
  5
4D2
  8
0
  6
CONTINUOUS
 62
     7
 10
181.6220489595
 20
-43.4298391582
 30
0.0
  0
VERTEX
  5
4D3
  8
0
  6
CONTINUOUS
 62
     7
 10
180.9530970905
 20
-43.3627064468
 30
0.0
  0
VERTEX
  5
4D4
  8
0
  6
CONTINUOUS
 62
     7
 10
180.3258625123
 20
-43.3057538362
 30
0.0
  0
VERTEX
  5
4D5
  8
0
  6
CONTINUOUS
 62
     7
 10
179.7318843458
 20
-43.2590074034
 30
0.0
  0
VERTEX
  5
4D6
  8
0
  6
CONTINUOUS
 62
     7
 10
179.169895992
 20
-43.2235083671
 30
0.0
  0
VERTEX
  5
4D7
  8
0
  6
CONTINUOUS
 62
     7
 10
178.6356446597
 20
-43.2008343877
 30
0.0
  0
VERTEX
  5
4D8
  8
0
  6
CONTINUOUS
 62
     7
 10
178.1166670177
 20
-43.1940547319
 30
0.0
  0
VERTEX
  5
4D9
  8
0
  6
CONTINUOUS
 62
     7
 10
177.5754747245
 20
-43.2121846022
 30
0.0
  0
VERTEX
  5
4DA
  8
0
  6
CONTINUOUS
 62
     7
 10
177.2214022729
 20
-43.2455971034
 30
0.0
  0
VERTEX
  5
4DB
  8
0
  6
CONTINUOUS
 62
     7
 10
176.9223985526
 20
-43.2928699197
 30
0.0
  0
VERTEX
  5
4DC
  8
0
  6
CONTINUOUS
 62
     7
 10
176.6399381015
 20
-43.3581392409
 30
0.0
  0
VERTEX
  5
4DD
  8
0
  6
CONTINUOUS
 62
     7
 10
176.3636616323
 20
-43.4456116648
 30
0.0
  0
VERTEX
  5
4DE
  8
0
  6
CONTINUOUS
 62
     7
 10
176.0853854272
 20
-43.5620023997
 30
0.0
  0
VERTEX
  5
4DF
  8
0
  6
CONTINUOUS
 62
     7
 10
175.8025554273
 20
-43.7153387012
 30
0.0
  0
VERTEX
  5
4E0
  8
0
  6
CONTINUOUS
 62
     7
 10
175.5200323913
 20
-43.9123674424
 30
0.0
  0
VERTEX
  5
4E1
  8
0
  6
CONTINUOUS
 62
     7
 10
175.2493945215
 20
-44.1552936228
 30
0.0
  0
VERTEX
  5
4E2
  8
0
  6
CONTINUOUS
 62
     7
 10
175.0030038211
 20
-44.4427314343
 30
0.0
  0
VERTEX
  5
4E3
  8
0
  6
CONTINUOUS
 62
     7
 10
174.7928140018
 20
-44.7690636979
 30
0.0
  0
VERTEX
  5
4E4
  8
0
  6
CONTINUOUS
 62
     7
 10
174.627917752
 20
-45.1265410649
 30
0.0
  0
VERTEX
  5
4E5
  8
0
  6
CONTINUOUS
 62
     7
 10
174.5165881965
 20
-45.5091879832
 30
0.0
  0
SEQEND
  5
55E
  8
0
  6
CONTINUOUS
 62
     7
  0
POLYLINE
  5
1D0
  8
0
  6
CONTINUOUS
 62
     7
 66
     1
 10
0.0
 20
0.0
 30
0.0
  0
VERTEX
  5
4E6
  8
0
  6
CONTINUOUS
 62
     7
 10
254.4941780422
 20
-45.5099883618
 30
0.0
  0
VERTEX
  5
4E7
  8
0
  6
CONTINUOUS
 62
     7
 10
254.4058856818
 20
-45.1833249198
 30
0.0
  0
VERTEX
  5
4E8
  8
0
  6
CONTINUOUS
 62
     7
 10
254.244351134
 20
-44.8138066696
 30
0.0
  0
VERTEX
  5
4E9
  8
0
  6
CONTINUOUS
 62
     7
 10
254.0411082361
 20
-44.4850075187
 30
0.0
  0
VERTEX
  5
4EA
  8
0
  6
CONTINUOUS
 62
     7
 10
253.8061973903
 20
-44.1994323524
 30
0.0
  0
VERTEX
  5
4EB
  8
0
  6
CONTINUOUS
 62
     7
 10
253.5500494096
 20
-43.9583244862
 30
0.0
  0
VERTEX
  5
4EC
  8
0
  6
CONTINUOUS
 62
     7
 10
253.2832053754
 20
-43.7611344399
 30
0.0
  0
VERTEX
  5
4ED
  8
0
  6
CONTINUOUS
 62
     7
 10
253.0145374391
 20
-43.604693109
 30
0.0
  0
VERTEX
  5
4EE
  8
0
  6
CONTINUOUS
 62
     7
 10
252.7501759383
 20
-43.4838774742
 30
0.0
  0
VERTEX
  5
4EF
  8
0
  6
CONTINUOUS
 62
     7
 10
252.4905708883
 20
-43.3918743523
 30
0.0
  0
VERTEX
  5
4F0
  8
0
  6
CONTINUOUS
 62
     7
 10
252.2297856662
 20
-43.3219346346
 30
0.0
  0
VERTEX
  5
4F1
  8
0
  6
CONTINUOUS
 62
     7
 10
251.9537982795
 20
-43.2685251476
 30
0.0
  0
VERTEX
  5
4F2
  8
0
  6
CONTINUOUS
 62
     7
 10
251.6357717368
 20
-43.2283147367
 30
0.0
  0
VERTEX
  5
4F3
  8
0
  6
CONTINUOUS
 62
     7
 10
251.260432348
 20
-43.2029652538
 30
0.0
  0
VERTEX
  5
4F4
  8
0
  6
CONTINUOUS
 62
     7
 10
250.6611344669
 20
-43.1955068501
 30
0.0
  0
VERTEX
  5
4F5
  8
0
  6
CONTINUOUS
 62
     7
 10
250.1391855333
 20
-43.2099997194
 30
0.0
  0
VERTEX
  5
4F6
  8
0
  6
CONTINUOUS
 62
     7
 10
249.6058610532
 20
-43.2377788367
 30
0.0
  0
VERTEX
  5
4F7
  8
0
  6
CONTINUOUS
 62
     7
 10
248.9946839664
 20
-43.2808372321
 30
0.0
  0
VERTEX
  5
4F8
  8
0
  6
CONTINUOUS
 62
     7
 10
248.3616885993
 20
-43.3346181305
 30
0.0
  0
VERTEX
  5
4F9
  8
0
  6
CONTINUOUS
 62
     7
 10
247.7055189464
 20
-43.3977066668
 30
0.0
  0
VERTEX
  5
4FA
  8
0
  6
CONTINUOUS
 62
     7
 10
247.0070270154
 20
-43.4707450809
 30
0.0
  0
VERTEX
  5
4FB
  8
0
  6
CONTINUOUS
 62
     7
 10
246.2785211656
 20
-43.551809633
 30
0.0
  0
VERTEX
  5
4FC
  8
0
  6
CONTINUOUS
 62
     7
 10
245.5179688785
 20
-43.6405683996
 30
0.0
  0
VERTEX
  5
4FD
  8
0
  6
CONTINUOUS
 62
     7
 10
244.7287169549
 20
-43.7361697795
 30
0.0
  0
VERTEX
  5
4FE
  8
0
  6
CONTINUOUS
 62
     7
 10
243.9146963212
 20
-43.8377092721
 30
0.0
  0
VERTEX
  5
4FF
  8
0
  6
CONTINUOUS
 62
     7
 10
243.0801925514
 20
-43.9442447515
 30
0.0
  0
VERTEX
  5
500
  8
0
  6
CONTINUOUS
 62
     7
 10
242.2296402309
 20
-44.054822916
 30
0.0
  0
VERTEX
  5
501
  8
0
  6
CONTINUOUS
 62
     7
 10
241.3706270311
 20
-44.1680527421
 30
0.0
  0
VERTEX
  5
502
  8
0
  6
CONTINUOUS
 62
     7
 10
240.5030575845
 20
-44.2837490829
 30
0.0
  0
VERTEX
  5
503
  8
0
  6
CONTINUOUS
 62
     7
 10
239.6285352561
 20
-44.4017375948
 30
0.0
  0
VERTEX
  5
504
  8
0
  6
CONTINUOUS
 62
     7
 10
239.3643630001
 20
-44.4378013851
 30
0.0
  0
SEQEND
  5
55D
  8
0
  6
CONTINUOUS
 62
     7
  0
LINE
  5
1D1
  8
0
  6
CONTINUOUS
 62
     7
 10
254.5058069084
 20
-45.572499478
 30
0.0
 11
254.4959065769
 21
-45.5101535784
 31
0.0
  0
POLYLINE
  5
1D2
  8
0
  6
CONTINUOUS
 62
     7
 66
     1
 10
0.0
 20
0.0
 30
0.0
  0
VERTEX
  5
505
  8
0
  6
CONTINUOUS
 62
     7
 10
174.520906553
 20
-45.5109934451
 30
0.0
  0
VERTEX
  5
506
  8
0
  6
CONTINUOUS
 62
     7
 10
174.4667229507
 20
-45.7894788252
 30
0.0
  0
VERTEX
  5
507
  8
0
  6
CONTINUOUS
 62
     7
 10
174.4533327672
 20
-46.1085435131
 30
0.0
  0
SEQEND
  5
55C
  8
0
  6
CONTINUOUS
 62
     7
  0
ARC
  5
1D3
  8
0
  6
CONTINUOUS
 62
     7
 10
214.5072338435
 20
137.8877845281
 30
0.0
 40
184.0126462953936
 50
262.2364823103
 51
277.7635176897
  0
LINE
  5
1D4
  8
0
  6
CONTINUOUS
 62
     7
 10
252.5072333667
 20
-54.1566717567
 30
0.0
 11
255.9072342965
 21
-54.1566717567
 31
0.0
  0
LINE
  5
1D5
  8
0
  6
CONTINUOUS
 62
     7
 10
252.5072333667
 20
-41.7566719593
 30
0.0
 11
235.1072338674
 21
-41.7566719593
 31
0.0
  0
LINE
  5
1D6
  8
0
  6
CONTINUOUS
 62
     7
 10
248.5927251432
 20
-53.7566720636
 30
0.0
 11
251.2072352025
 21
-53.7566720636
 31
0.0
  0
LINE
  5
1D7
  8
0
  6
CONTINUOUS
 62
     7
 10
252.2072342489
 20
-53.7566720636
 30
0.0
 11
252.5072333667
 21
-53.7566720636
 31
0.0
  0
LINE
  5
1D8
  8
0
  6
CONTINUOUS
 62
     7
 10
255.9072342965
 20
-39.1566719057
 30
0.0
 11
252.5072333667
 21
-39.1566719057
 31
0.0
  0
LINE
  5
1D9
  8
0
  6
CONTINUOUS
 62
     7
 10
132.5072345588
 20
-54.1566717567
 30
0.0
 11
135.9072325084
 21
-54.1566717567
 31
0.0
  0
LINE
  5
1DA
  8
0
  6
CONTINUOUS
 62
     7
 10
132.5072345588
 20
-41.7566719593
 30
0.0
 11
115.1072320792
 21
-41.7566719593
 31
0.0
  0
LINE
  5
1DB
  8
0
  6
CONTINUOUS
 62
     7
 10
128.592723355
 20
-53.7566720636
 30
0.0
 11
131.2072334144
 21
-53.7566720636
 31
0.0
  0
LINE
  5
1DC
  8
0
  6
CONTINUOUS
 62
     7
 10
132.2072324607
 20
-53.7566720636
 30
0.0
 11
132.5072345588
 21
-53.7566720636
 31
0.0
  0
LINE
  5
1DD
  8
0
  6
CONTINUOUS
 62
     7
 10
135.9072325084
 20
-39.1566719057
 30
0.0
 11
132.5072345588
 21
-39.1566719057
 31
0.0
  0
LINE
  5
1DE
  8
0
  6
CONTINUOUS
 62
     7
 10
372.5072381351
 20
-54.1566717567
 30
0.0
 11
375.9072301242
 21
-54.1566717567
 31
0.0
  0
LINE
  5
1DF
  8
0
  6
CONTINUOUS
 62
     7
 10
372.5072381351
 20
-41.7566719593
 30
0.0
 11
355.1072356555
 21
-41.7566719593
 31
0.0
  0
LINE
  5
1E0
  8
0
  6
CONTINUOUS
 62
     7
 10
355.1072356555
 20
-53.7566720636
 30
0.0
 11
371.2072369907
 21
-53.7566720636
 31
0.0
  0
LINE
  5
1E1
  8
0
  6
CONTINUOUS
 62
     7
 10
372.207236037
 20
-53.7566720636
 30
0.0
 11
372.5072381351
 21
-53.7566720636
 31
0.0
  0
LINE
  5
1E2
  8
0
  6
CONTINUOUS
 62
     7
 10
375.9072301242
 20
-39.1566719057
 30
0.0
 11
372.5072381351
 21
-39.1566719057
 31
0.0
  0
LINE
  5
1E3
  8
0
  6
CONTINUOUS
 62
     7
 10
53.1072375629
 20
-54.1566717567
 30
0.0
 11
56.507229552
 21
-54.1566717567
 31
0.0
  0
LINE
  5
1E4
  8
0
  6
CONTINUOUS
 62
     7
 10
56.507229552
 20
-53.7566720636
 30
0.0
 11
56.8072316501
 21
-53.7566720636
 31
0.0
  0
LINE
  5
1E5
  8
0
  6
CONTINUOUS
 62
     7
 10
57.8072306964
 20
-53.7566720636
 30
0.0
 11
60.4211089465
 21
-53.7566720636
 31
0.0
  0
LINE
  5
1E6
  8
0
  6
CONTINUOUS
 62
     7
 10
73.9072320316
 20
-41.7566719593
 30
0.0
 11
56.507229552
 21
-41.7566719593
 31
0.0
  0
LINE
  5
1E7
  8
0
  6
CONTINUOUS
 62
     7
 10
56.507229552
 20
-39.1566719057
 30
0.0
 11
53.1072375629
 21
-39.1566719057
 31
0.0
  0
LINE
  5
1E8
  8
0
  6
CONTINUOUS
 62
     7
 10
173.1072333906
 20
-54.1566717567
 30
0.0
 11
176.5072343204
 21
-54.1566717567
 31
0.0
  0
LINE
  5
1E9
  8
0
  6
CONTINUOUS
 62
     7
 10
176.5072343204
 20
-53.7566720636
 30
0.0
 11
176.8072334382
 21
-53.7566720636
 31
0.0
  0
LINE
  5
1EA
  8
0
  6
CONTINUOUS
 62
     7
 10
177.8072324846
 20
-53.7566720636
 30
0.0
 11
180.4211137149
 21
-53.7566720636
 31
0.0
  0
LINE
  5
1EB
  8
0
  6
CONTINUOUS
 62
     7
 10
193.9072338197
 20
-41.7566719593
 30
0.0
 11
176.5072343204
 21
-41.7566719593
 31
0.0
  0
LINE
  5
1EC
  8
0
  6
CONTINUOUS
 62
     7
 10
176.5072343204
 20
-39.1566719057
 30
0.0
 11
173.1072333906
 21
-39.1566719057
 31
0.0
  0
LINE
  5
1ED
  8
0
  6
CONTINUOUS
 62
     7
 10
293.1072351787
 20
-54.1566717567
 30
0.0
 11
296.5072331283
 21
-54.1566717567
 31
0.0
  0
LINE
  5
1EE
  8
0
  6
CONTINUOUS
 62
     7
 10
296.5072331283
 20
-53.7566720636
 30
0.0
 11
296.8072352264
 21
-53.7566720636
 31
0.0
  0
LINE
  5
1EF
  8
0
  6
CONTINUOUS
 62
     7
 10
297.8072342727
 20
-53.7566720636
 30
0.0
 11
313.9072356078
 21
-53.7566720636
 31
0.0
  0
LINE
  5
1F0
  8
0
  6
CONTINUOUS
 62
     7
 10
313.9072356078
 20
-41.7566719593
 30
0.0
 11
296.5072331283
 21
-41.7566719593
 31
0.0
  0
LINE
  5
1F1
  8
0
  6
CONTINUOUS
 62
     7
 10
296.5072331283
 20
-39.1566719057
 30
0.0
 11
293.1072351787
 21
-39.1566719057
 31
0.0
  0
LINE
  5
1F2
  8
0
  6
CONTINUOUS
 62
     7
 10
50.9072301242
 20
-43.6566720845
 30
0.0
 11
50.9072301242
 21
-43.0566719862
 31
0.0
  0
ARC
  5
1F3
  8
0
  6
CONTINUOUS
 62
     7
 10
51.3072338435
 20
-43.0566719951
 30
0.0
 40
0.3999999999999986
 50
90.0
 51
180.0
  0
LINE
  5
1F4
  8
0
  6
CONTINUOUS
 62
     7
 10
378.1072375629
 20
-43.0566719862
 30
0.0
 11
378.1072375629
 21
-43.6566720845
 31
0.0
  0
ARC
  5
1F5
  8
0
  6
CONTINUOUS
 62
     7
 10
377.7072338435
 20
-43.0566719951
 30
0.0
 40
0.4000000000000341
 50
0.0
 51
90.0
  0
LINE
  5
1F6
  8
0
  6
CONTINUOUS
 62
     7
 10
51.3072368953
 20
-42.6566719206
 30
0.0
 11
53.1072375629
 21
-42.6566719206
 31
0.0
  0
LINE
  5
1F7
  8
0
  6
CONTINUOUS
 62
     7
 10
73.9072320316
 20
-42.6566719206
 30
0.0
 11
115.1072320792
 21
-42.6566719206
 31
0.0
  0
LINE
  5
1F8
  8
0
  6
CONTINUOUS
 62
     7
 10
135.9072325084
 20
-42.6566719206
 30
0.0
 11
173.1072333906
 21
-42.6566719206
 31
0.0
  0
LINE
  5
1F9
  8
0
  6
CONTINUOUS
 62
     7
 10
193.9072338197
 20
-42.6566719206
 30
0.0
 11
235.1072338674
 21
-42.6566719206
 31
0.0
  0
LINE
  5
1FA
  8
0
  6
CONTINUOUS
 62
     7
 10
255.9072342965
 20
-42.6566719206
 30
0.0
 11
293.1072351787
 21
-42.6566719206
 31
0.0
  0
LINE
  5
1FB
  8
0
  6
CONTINUOUS
 62
     7
 10
313.9072356078
 20
-42.6566719206
 30
0.0
 11
355.1072356555
 21
-42.6566719206
 31
0.0
  0
LINE
  5
1FC
  8
0
  6
CONTINUOUS
 62
     7
 10
375.9072301242
 20
-42.6566719206
 30
0.0
 11
377.7072307918
 21
-42.6566719206
 31
0.0
  0
LINE
  5
1FD
  8
0
  6
CONTINUOUS
 62
     7
 10
378.1072375629
 20
-43.6566720845
 30
0.0
 11
378.1072375629
 21
-51.6566719057
 31
0.0
  0
LINE
  5
1FE
  8
0
  6
CONTINUOUS
 62
     7
 10
50.9072301242
 20
-51.6566719057
 30
0.0
 11
50.9072301242
 21
-43.6566720845
 31
0.0
  0
ARC
  5
1FF
  8
0
  6
CONTINUOUS
 62
     7
 10
51.3072338435
 20
-52.2566719951
 30
0.0
 40
0.4000000000000057
 50
180.0
 51
270.0
  0
LINE
  5
200
  8
0
  6
CONTINUOUS
 62
     7
 10
50.9072301242
 20
-52.256672004
 30
0.0
 11
50.9072301242
 21
-51.6566719057
 31
0.0
  0
LINE
  5
201
  8
0
  6
CONTINUOUS
 62
     7
 10
378.1072375629
 20
-51.6566719057
 30
0.0
 11
378.1072375629
 21
-52.256672004
 31
0.0
  0
ARC
  5
202
  8
0
  6
CONTINUOUS
 62
     7
 10
377.7072338435
 20
-52.2566719951
 30
0.0
 40
0.4000000000000341
 50
270.0
 51
0.0
  0
LINE
  5
203
  8
0
  6
CONTINUOUS
 62
     7
 10
377.7072307918
 20
-52.6566720696
 30
0.0
 11
375.9072301242
 21
-52.6566720696
 31
0.0
  0
LINE
  5
204
  8
0
  6
CONTINUOUS
 62
     7
 10
355.1072356555
 20
-52.6566720696
 30
0.0
 11
313.9072356078
 21
-52.6566720696
 31
0.0
  0
LINE
  5
205
  8
0
  6
CONTINUOUS
 62
     7
 10
293.1072351787
 20
-52.6566720696
 30
0.0
 11
255.9072342965
 21
-52.6566720696
 31
0.0
  0
LINE
  5
206
  8
0
  6
CONTINUOUS
 62
     7
 10
173.1072333906
 20
-52.6566720696
 30
0.0
 11
135.9072325084
 21
-52.6566720696
 31
0.0
  0
LINE
  5
207
  8
0
  6
CONTINUOUS
 62
     7
 10
53.1072375629
 20
-52.6566720696
 30
0.0
 11
51.3072368953
 21
-52.6566720696
 31
0.0
  0
ARC
  5
208
  8
0
  6
CONTINUOUS
 62
     7
 10
357.5072338435
 20
-39.6566719951
 30
0.0
 40
4.0
 50
0.0
 51
90.0
  0
LINE
  5
209
  8
0
  6
CONTINUOUS
 62
     7
 10
361.5072367046
 20
-41.6566721292
 30
0.0
 11
361.5072367046
 21
-39.6566721739
 31
0.0
  0
LINE
  5
20A
  8
0
  6
CONTINUOUS
 62
     7
 10
361.5072367046
 20
-41.6566721292
 30
0.0
 11
361.5071770999
 21
-41.7566719593
 31
0.0
  0
ARC
  5
20B
  8
0
  6
CONTINUOUS
 62
     7
 10
281.5072338435
 20
-41.6566719951
 30
0.0
 40
80.0
 50
348.3806348491
 51
351.3006271703
  0
ARC
  5
20C
  8
0
  6
CONTINUOUS
 62
     7
 10
417.5072338435
 20
-41.6566719951
 30
0.0
 40
80.00000000000006
 50
187.9032077335
 51
191.610065148
  0
LINE
  5
20D
  8
0
  6
CONTINUOUS
 62
     7
 10
337.5134823177
 20
-42.6566719206
 30
0.0
 11
337.5072357509
 21
-41.6566721292
 31
0.0
  0
LINE
  5
20E
  8
0
  6
CONTINUOUS
 62
     7
 10
337.5072357509
 20
-39.6566721739
 30
0.0
 11
337.5072357509
 21
-41.6566721292
 31
0.0
  0
ARC
  5
20F
  8
0
  6
CONTINUOUS
 62
     7
 10
341.5072338435
 20
-39.6566719951
 30
0.0
 40
4.0
 50
90.0
 51
180.0
  0
LINE
  5
210
  8
0
  6
CONTINUOUS
 62
     7
 10
357.5072285983
 20
-35.6566722633
 30
0.0
 11
341.5072319362
 21
-35.6566722633
 31
0.0
  0
CIRCLE
  5
211
  8
0
  6
CONTINUOUS
 62
     7
 10
357.5072338435
 20
-39.6566719951
 30
0.0
 40
1.500000000000014
  0
CIRCLE
  5
212
  8
0
  6
CONTINUOUS
 62
     7
 10
341.5072338435
 20
-39.6566719951
 30
0.0
 40
1.500000000000014
  0
ARC
  5
213
  8
0
  6
CONTINUOUS
 62
     7
 10
76.0929495581
 20
-67.6566719951
 30
0.0
 40
4.000000000000012
 50
200.0051900882
 51
270.0
  0
ARC
  5
214
  8
0
  6
CONTINUOUS
 62
     7
 10
147.5072338435
 20
-41.6566719951
 30
0.0
 40
80.00000000000003
 50
189.8685553009
 51
200.0051900882
  0
LINE
  5
215
  8
0
  6
CONTINUOUS
 62
     7
 10
67.5072905872
 20
-41.7566719593
 30
0.0
 11
67.5072309825
 21
-41.6566721292
 31
0.0
  0
LINE
  5
216
  8
0
  6
CONTINUOUS
 62
     7
 10
67.5072309825
 20
-39.6566721739
 30
0.0
 11
67.5072309825
 21
-41.6566721292
 31
0.0
  0
ARC
  5
217
  8
0
  6
CONTINUOUS
 62
     7
 10
71.5072338435
 20
-39.6566719951
 30
0.0
 40
4.0
 50
90.0
 51
180.0
  0
LINE
  5
218
  8
0
  6
CONTINUOUS
 62
     7
 10
87.5072357509
 20
-35.6566722633
 30
0.0
 11
71.5072390888
 21
-35.6566722633
 31
0.0
  0
ARC
  5
219
  8
0
  6
CONTINUOUS
 62
     7
 10
87.5072338435
 20
-39.6566719951
 30
0.0
 40
4.0
 50
0.0
 51
90.0
  0
LINE
  5
21A
  8
0
  6
CONTINUOUS
 62
     7
 10
91.5072319362
 20
-41.6566721292
 30
0.0
 11
91.5072319362
 21
-39.6566721739
 31
0.0
  0
LINE
  5
21B
  8
0
  6
CONTINUOUS
 62
     7
 10
91.5072319362
 20
-41.6566721292
 30
0.0
 11
91.5009853694
 21
-42.6566719206
 31
0.0
  0
ARC
  5
21C
  8
0
  6
CONTINUOUS
 62
     7
 10
11.5072338435
 20
-41.6566719951
 30
0.0
 40
80.00000000000001
 50
339.9948099118
 51
348.883693452
  0
ARC
  5
21D
  8
0
  6
CONTINUOUS
 62
     7
 10
82.921518129
 20
-67.6566719951
 30
0.0
 40
4.000000000000025
 50
270.0
 51
339.9948099118
  0
LINE
  5
21E
  8
0
  6
CONTINUOUS
 62
     7
 10
76.0929462764
 20
-71.6566714587
 30
0.0
 11
82.9215166423
 21
-71.6566714587
 31
0.0
  0
CIRCLE
  5
21F
  8
0
  6
CONTINUOUS
 62
     7
 10
71.5072338435
 20
-39.6566719951
 30
0.0
 40
1.500000000000021
  0
CIRCLE
  5
220
  8
0
  6
CONTINUOUS
 62
     7
 10
87.5072338435
 20
-39.6566719951
 30
0.0
 40
1.500000000000014
  0
CIRCLE
  5
221
  8
0
  6
CONTINUOUS
 62
     7
 10
79.5072338435
 20
-67.6566719951
 30
0.0
 40
1.500000000000014
  0
LINE
  5
222
  8
0
  6
CONTINUOUS
 62
     7
 10
59.5716235492
 20
-44.9669194536
 30
0.0
 11
59.5716235492
 21
-47.8893278062
 31
0.0
  0
POLYLINE
  5
223
  8
0
  6
CONTINUOUS
 62
     7
 66
     1
 10
0.0
 20
0.0
 30
0.0
  0
VERTEX
  5
508
  8
0
  6
CONTINUOUS
 62
     7
 10
67.8066847179
 20
-45.4863439442
 30
0.0
  0
VERTEX
  5
509
  8
0
  6
CONTINUOUS
 62
     7
 10
66.7255279872
 20
-45.3475729691
 30
0.0
  0
VERTEX
  5
50A
  8
0
  6
CONTINUOUS
 62
     7
 10
65.6767365787
 20
-45.2180306556
 30
0.0
  0
VERTEX
  5
50B
  8
0
  6
CONTINUOUS
 62
     7
 10
64.6798965785
 20
-45.1008447574
 30
0.0
  0
VERTEX
  5
50C
  8
0
  6
CONTINUOUS
 62
     7
 10
63.7449738834
 20
-44.998104045
 30
0.0
  0
VERTEX
  5
50D
  8
0
  6
CONTINUOUS
 62
     7
 10
62.8796574924
 20
-44.9116009416
 30
0.0
  0
VERTEX
  5
50E
  8
0
  6
CONTINUOUS
 62
     7
 10
62.099647269
 20
-44.8439651297
 30
0.0
  0
VERTEX
  5
50F
  8
0
  6
CONTINUOUS
 62
     7
 10
61.4093658778
 20
-44.7969556915
 30
0.0
  0
VERTEX
  5
510
  8
0
  6
CONTINUOUS
 62
     7
 10
60.8181712482
 20
-44.7721644433
 30
0.0
  0
VERTEX
  5
511
  8
0
  6
CONTINUOUS
 62
     7
 10
60.3364941928
 20
-44.7709784971
 30
0.0
  0
VERTEX
  5
512
  8
0
  6
CONTINUOUS
 62
     7
 10
59.9669453952
 20
-44.7949729057
 30
0.0
  0
VERTEX
  5
513
  8
0
  6
CONTINUOUS
 62
     7
 10
59.7161528919
 20
-44.8442845734
 30
0.0
  0
VERTEX
  5
514
  8
0
  6
CONTINUOUS
 62
     7
 10
59.5885035846
 20
-44.9184567796
 30
0.0
  0
VERTEX
  5
515
  8
0
  6
CONTINUOUS
 62
     7
 10
59.5716235492
 20
-44.9669194536
 30
0.0
  0
SEQEND
  5
55B
  8
0
  6
CONTINUOUS
 62
     7
  0
ARC
  5
224
  8
0
  6
CONTINUOUS
 62
     7
 10
94.5072350356
 20
137.6730028111
 30
0.0
 40
185.095288138662
 50
261.705975614
 51
278.294024386
  0
POLYLINE
  5
225
  8
0
  6
CONTINUOUS
 62
     7
 66
     1
 10
0.0
 20
0.0
 30
0.0
  0
VERTEX
  5
516
  8
0
  6
CONTINUOUS
 62
     7
 10
129.4428405616
 20
-44.9669194536
 30
0.0
  0
VERTEX
  5
517
  8
0
  6
CONTINUOUS
 62
     7
 10
129.3787536475
 20
-44.8792628141
 30
0.0
  0
VERTEX
  5
518
  8
0
  6
CONTINUOUS
 62
     7
 10
129.18873404
 20
-44.8165533261
 30
0.0
  0
VERTEX
  5
519
  8
0
  6
CONTINUOUS
 62
     7
 10
128.8761494014
 20
-44.7796146514
 30
0.0
  0
VERTEX
  5
51A
  8
0
  6
CONTINUOUS
 62
     7
 10
128.4420845363
 20
-44.7686744051
 30
0.0
  0
VERTEX
  5
51B
  8
0
  6
CONTINUOUS
 62
     7
 10
127.8918382976
 20
-44.7826073633
 30
0.0
  0
VERTEX
  5
51C
  8
0
  6
CONTINUOUS
 62
     7
 10
127.2354004237
 20
-44.8202272074
 30
0.0
  0
VERTEX
  5
51D
  8
0
  6
CONTINUOUS
 62
     7
 10
126.4820334766
 20
-44.8800551833
 30
0.0
  0
VERTEX
  5
51E
  8
0
  6
CONTINUOUS
 62
     7
 10
125.6362197254
 20
-44.9602526741
 30
0.0
  0
VERTEX
  5
51F
  8
0
  6
CONTINUOUS
 62
     7
 10
124.7137484405
 20
-45.0581939088
 30
0.0
  0
VERTEX
  5
520
  8
0
  6
CONTINUOUS
 62
     7
 10
123.7319288108
 20
-45.1709098311
 30
0.0
  0
VERTEX
  5
521
  8
0
  6
CONTINUOUS
 62
     7
 10
122.6924536083
 20
-45.2970807569
 30
0.0
  0
VERTEX
  5
522
  8
0
  6
CONTINUOUS
 62
     7
 10
121.6149744842
 20
-45.4335245432
 30
0.0
  0
VERTEX
  5
523
  8
0
  6
CONTINUOUS
 62
     7
 10
121.2077853534
 20
-45.4863439442
 30
0.0
  0
SEQEND
  5
55A
  8
0
  6
CONTINUOUS
 62
     7
  0
LINE
  5
226
  8
0
  6
CONTINUOUS
 62
     7
 10
129.4428405616
 20
-47.890744767
 30
0.0
 11
129.4428405616
 21
-44.9669194536
 31
0.0
  0
POLYLINE
  5
227
  8
0
  6
CONTINUOUS
 62
     7
 66
     1
 10
0.0
 20
0.0
 30
0.0
  0
VERTEX
  5
524
  8
0
  6
CONTINUOUS
 62
     7
 10
54.5114157054
 20
-45.5333833711
 30
0.0
  0
VERTEX
  5
525
  8
0
  6
CONTINUOUS
 62
     7
 10
54.4506904933
 20
-46.0008896084
 30
0.0
  0
VERTEX
  5
526
  8
0
  6
CONTINUOUS
 62
     7
 10
54.4484732005
 20
-46.1096767465
 30
0.0
  0
SEQEND
  5
559
  8
0
  6
CONTINUOUS
 62
     7
  0
POLYLINE
  5
228
  8
0
  6
CONTINUOUS
 62
     7
 66
     1
 10
0.0
 20
0.0
 30
0.0
  0
VERTEX
  5
527
  8
0
  6
CONTINUOUS
 62
     7
 10
134.5659909103
 20
-46.1096767465
 30
0.0
  0
VERTEX
  5
528
  8
0
  6
CONTINUOUS
 62
     7
 10
134.5637736175
 20
-46.0008896084
 30
0.0
  0
VERTEX
  5
529
  8
0
  6
CONTINUOUS
 62
     7
 10
134.5030484054
 20
-45.5333833711
 30
0.0
  0
SEQEND
  5
558
  8
0
  6
CONTINUOUS
 62
     7
  0
LINE
  5
229
  8
0
  6
CONTINUOUS
 62
     7
 10
131.2072334144
 20
-53.0030130537
 30
0.0
 11
131.2072334144
 21
-53.8453470113
 31
0.0
  0
LINE
  5
22A
  8
0
  6
CONTINUOUS
 62
     7
 10
132.2072324607
 20
-52.5962400379
 30
0.0
 11
132.2072324607
 21
-53.8453470113
 31
0.0
  0
LINE
  5
22B
  8
0
  6
CONTINUOUS
 62
     7
 10
57.8072306964
 20
-53.0020072253
 30
0.0
 11
57.8072306964
 21
-53.8453470113
 31
0.0
  0
LINE
  5
22C
  8
0
  6
CONTINUOUS
 62
     7
 10
56.8072316501
 20
-52.5931186171
 30
0.0
 11
56.8072316501
 21
-53.8453470113
 31
0.0
  0
LINE
  5
22D
  8
0
  6
CONTINUOUS
 62
     7
 10
131.2072334144
 20
-41.9741991104
 30
0.0
 11
131.2072334144
 21
-43.2023032697
 31
0.0
  0
LINE
  5
22E
  8
0
  6
CONTINUOUS
 62
     7
 10
132.2072324607
 20
-41.9741991104
 30
0.0
 11
132.2072324607
 21
-43.3175700845
 31
0.0
  0
LINE
  5
22F
  8
0
  6
CONTINUOUS
 62
     7
 10
57.8072306964
 20
-41.9741991104
 30
0.0
 11
57.8072306964
 21
-43.2044207247
 31
0.0
  0
LINE
  5
230
  8
0
  6
CONTINUOUS
 62
     7
 10
56.8072316501
 20
-41.9741991104
 30
0.0
 11
56.8072316501
 21
-43.3194819035
 31
0.0
  0
ARC
  5
231
  8
0
  6
CONTINUOUS
 62
     7
 10
359.3676542769
 20
-112.8505018846
 30
0.0
 40
10.07562674746246
 50
280.5230856997
 51
0.533565143
  0
LINE
  5
232
  8
0
  6
CONTINUOUS
 62
     7
 10
359.8391649577
 20
-127.7502882423
 30
0.0
 11
359.7279188487
 21
-127.7566718997
 31
0.0
  0
POLYLINE
  5
233
  8
0
  6
CONTINUOUS
 62
     7
 66
     1
 10
0.0
 20
0.0
 30
0.0
  0
VERTEX
  5
52A
  8
0
  6
CONTINUOUS
 62
     7
 10
297.8072342727
 20
-65.7928767742
 30
0.0
  0
VERTEX
  5
52B
  8
0
  6
CONTINUOUS
 62
     7
 10
297.2749349925
 20
-66.4916935505
 30
0.0
  0
VERTEX
  5
52C
  8
0
  6
CONTINUOUS
 62
     7
 10
296.8072352264
 20
-67.2451469244
 30
0.0
  0
SEQEND
  5
557
  8
0
  6
CONTINUOUS
 62
     7
  0
LINE
  5
234
  8
0
  6
CONTINUOUS
 62
     7
 10
309.1630158279
 20
-57.7620114328
 30
0.0
 11
309.2865524146
 21
-57.7566723468
 31
0.0
  0
ARC
  5
235
  8
0
  6
CONTINUOUS
 62
     7
 10
309.646805723
 20
-72.6628297823
 30
0.0
 40
10.07561560852443
 50
100.5230667938
 51
180.5336415078
  0
POLYLINE
  5
236
  8
0
  6
CONTINUOUS
 62
     7
 66
     1
 10
0.0
 20
0.0
 30
0.0
  0
VERTEX
  5
52D
  8
0
  6
CONTINUOUS
 62
     7
 10
371.2072369907
 20
-65.7928767742
 30
0.0
  0
VERTEX
  5
52E
  8
0
  6
CONTINUOUS
 62
     7
 10
371.7395303104
 20
-66.4916935505
 30
0.0
  0
VERTEX
  5
52F
  8
0
  6
CONTINUOUS
 62
     7
 10
372.207236037
 20
-67.2451469244
 30
0.0
  0
SEQEND
  5
556
  8
0
  6
CONTINUOUS
 62
     7
  0
ARC
  5
237
  8
0
  6
CONTINUOUS
 62
     7
 10
359.3853838888
 20
-72.6482397099
 30
0.0
 40
10.05804473762508
 50
359.3823094803
 51
79.5610229186
  0
ARC
  5
238
  8
0
  6
CONTINUOUS
 62
     7
 10
309.6290681108
 20
-112.8651192838
 30
0.0
 40
10.05802562587857
 50
179.3822285381
 51
259.5610799189
  0
LINE
  5
239
  8
0
  6
CONTINUOUS
 62
     7
 10
309.2865524146
 20
-127.7566718997
 30
0.0
 11
309.1934141967
 21
-127.7514147701
 31
0.0
  0
LINE
  5
23A
  8
0
  6
CONTINUOUS
 62
     7
 10
299.5716271255
 20
-72.7566707076
 30
0.0
 11
299.5716271255
 21
-112.7566742839
 31
0.0
  0
LINE
  5
23B
  8
0
  6
CONTINUOUS
 62
     7
 10
369.4428441379
 20
-112.7566742839
 30
0.0
 11
369.4428441379
 21
-72.7566707076
 31
0.0
  0
LINE
  5
23C
  8
0
  6
CONTINUOUS
 62
     7
 10
296.8072352264
 20
-48.8475431817
 30
0.0
 11
296.8072352264
 21
-67.2451469244
 31
0.0
  0
LINE
  5
23D
  8
0
  6
CONTINUOUS
 62
     7
 10
297.8072342727
 20
-48.8475431817
 30
0.0
 11
297.8072342727
 21
-65.7928767742
 31
0.0
  0
LINE
  5
23E
  8
0
  6
CONTINUOUS
 62
     7
 10
372.207236037
 20
-48.8475431817
 30
0.0
 11
372.207236037
 21
-67.2451469244
 31
0.0
  0
LINE
  5
23F
  8
0
  6
CONTINUOUS
 62
     7
 10
371.2072369907
 20
-48.8475431817
 30
0.0
 11
371.2072369907
 21
-65.7928767742
 31
0.0
  0
LINE
  5
240
  8
0
  6
CONTINUOUS
 62
     7
 10
307.8066823337
 20
-122.7566707076
 30
0.0
 11
361.2077829692
 21
-122.7566707076
 31
0.0
  0
LINE
  5
241
  8
0
  6
CONTINUOUS
 62
     7
 10
307.8066823337
 20
-62.7566713037
 30
0.0
 11
361.2077829692
 21
-62.7566713037
 31
0.0
  0
LINE
  5
242
  8
0
  6
CONTINUOUS
 62
     7
 10
309.2865524146
 20
-57.7566723468
 30
0.0
 11
359.7279188487
 21
-57.7566723468
 31
0.0
  0
LINE
  5
243
  8
0
  6
CONTINUOUS
 62
     7
 10
359.7279188487
 20
-127.7566718997
 30
0.0
 11
309.2865524146
 21
-127.7566718997
 31
0.0
  0
LINE
  5
244
  8
0
  6
CONTINUOUS
 62
     7
 10
179.5716253373
 20
-44.9669194536
 30
0.0
 11
179.5716253373
 21
-47.8893278062
 31
0.0
  0
POLYLINE
  5
245
  8
0
  6
CONTINUOUS
 62
     7
 66
     1
 10
0.0
 20
0.0
 30
0.0
  0
VERTEX
  5
530
  8
0
  6
CONTINUOUS
 62
     7
 10
187.8066805456
 20
-45.4863439442
 30
0.0
  0
VERTEX
  5
531
  8
0
  6
CONTINUOUS
 62
     7
 10
186.7255267951
 20
-45.3475729691
 30
0.0
  0
VERTEX
  5
532
  8
0
  6
CONTINUOUS
 62
     7
 10
185.6767383668
 20
-45.2180306556
 30
0.0
  0
VERTEX
  5
533
  8
0
  6
CONTINUOUS
 62
     7
 10
184.6798983667
 20
-45.1008447574
 30
0.0
  0
VERTEX
  5
534
  8
0
  6
CONTINUOUS
 62
     7
 10
183.7449756715
 20
-44.998104045
 30
0.0
  0
VERTEX
  5
535
  8
0
  6
CONTINUOUS
 62
     7
 10
182.8796622608
 20
-44.9116009416
 30
0.0
  0
VERTEX
  5
536
  8
0
  6
CONTINUOUS
 62
     7
 10
182.0996490571
 20
-44.8439651297
 30
0.0
  0
VERTEX
  5
537
  8
0
  6
CONTINUOUS
 62
     7
 10
181.4093587253
 20
-44.7969556915
 30
0.0
  0
VERTEX
  5
538
  8
0
  6
CONTINUOUS
 62
     7
 10
180.8181670759
 20
-44.7721644433
 30
0.0
  0
VERTEX
  5
539
  8
0
  6
CONTINUOUS
 62
     7
 10
180.3364930007
 20
-44.7709784971
 30
0.0
  0
VERTEX
  5
53A
  8
0
  6
CONTINUOUS
 62
     7
 10
179.9669442031
 20
-44.7949729057
 30
0.0
  0
VERTEX
  5
53B
  8
0
  6
CONTINUOUS
 62
     7
 10
179.7161576602
 20
-44.8442845734
 30
0.0
  0
VERTEX
  5
53C
  8
0
  6
CONTINUOUS
 62
     7
 10
179.588508353
 20
-44.9184567796
 30
0.0
  0
VERTEX
  5
53D
  8
0
  6
CONTINUOUS
 62
     7
 10
179.5716253373
 20
-44.9669194536
 30
0.0
  0
SEQEND
  5
555
  8
0
  6
CONTINUOUS
 62
     7
  0
ARC
  5
246
  8
0
  6
CONTINUOUS
 62
     7
 10
214.5072338435
 20
137.6730805437
 30
0.0
 40
185.095365488122
 50
261.7059781721
 51
278.2940218279
  0
POLYLINE
  5
247
  8
0
  6
CONTINUOUS
 62
     7
 66
     1
 10
0.0
 20
0.0
 30
0.0
  0
VERTEX
  5
53E
  8
0
  6
CONTINUOUS
 62
     7
 10
249.4428423497
 20
-44.9669194536
 30
0.0
  0
VERTEX
  5
53F
  8
0
  6
CONTINUOUS
 62
     7
 10
249.3787554357
 20
-44.8792628141
 30
0.0
  0
VERTEX
  5
540
  8
0
  6
CONTINUOUS
 62
     7
 10
249.1887358281
 20
-44.8165533261
 30
0.0
  0
VERTEX
  5
541
  8
0
  6
CONTINUOUS
 62
     7
 10
248.8761511895
 20
-44.7796146514
 30
0.0
  0
VERTEX
  5
542
  8
0
  6
CONTINUOUS
 62
     7
 10
248.4420833442
 20
-44.7686744051
 30
0.0
  0
VERTEX
  5
543
  8
0
  6
CONTINUOUS
 62
     7
 10
247.8918400857
 20
-44.7826073633
 30
0.0
  0
VERTEX
  5
544
  8
0
  6
CONTINUOUS
 62
     7
 10
247.2354022119
 20
-44.8202272074
 30
0.0
  0
VERTEX
  5
545
  8
0
  6
CONTINUOUS
 62
     7
 10
246.4820352647
 20
-44.8800551833
 30
0.0
  0
VERTEX
  5
546
  8
0
  6
CONTINUOUS
 62
     7
 10
245.6362215135
 20
-44.9602526741
 30
0.0
  0
VERTEX
  5
547
  8
0
  6
CONTINUOUS
 62
     7
 10
244.7137472484
 20
-45.0581939088
 30
0.0
  0
VERTEX
  5
548
  8
0
  6
CONTINUOUS
 62
     7
 10
243.7319276187
 20
-45.1709098311
 30
0.0
  0
VERTEX
  5
549
  8
0
  6
CONTINUOUS
 62
     7
 10
242.6924524162
 20
-45.2970807569
 30
0.0
  0
VERTEX
  5
54A
  8
0
  6
CONTINUOUS
 62
     7
 10
241.6149762723
 20
-45.4335245432
 30
0.0
  0
VERTEX
  5
54B
  8
0
  6
CONTINUOUS
 62
     7
 10
241.2077871415
 20
-45.4863439442
 30
0.0
  0
SEQEND
  5
554
  8
0
  6
CONTINUOUS
 62
     7
  0
LINE
  5
248
  8
0
  6
CONTINUOUS
 62
     7
 10
249.4428423497
 20
-47.890744767
 30
0.0
 11
249.4428423497
 21
-44.9669194536
 31
0.0
  0
POLYLINE
  5
249
  8
0
  6
CONTINUOUS
 62
     7
 66
     1
 10
0.0
 20
0.0
 30
0.0
  0
VERTEX
  5
54C
  8
0
  6
CONTINUOUS
 62
     7
 10
254.5659897182
 20
-46.1096767465
 30
0.0
  0
VERTEX
  5
54D
  8
0
  6
CONTINUOUS
 62
     7
 10
254.5637724254
 20
-46.0008896084
 30
0.0
  0
VERTEX
  5
54E
  8
0
  6
CONTINUOUS
 62
     7
 10
254.5030501935
 20
-45.5333833711
 30
0.0
  0
SEQEND
  5
553
  8
0
  6
CONTINUOUS
 62
     7
  0
POLYLINE
  5
24A
  8
0
  6
CONTINUOUS
 62
     7
 66
     1
 10
0.0
 20
0.0
 30
0.0
  0
VERTEX
  5
54F
  8
0
  6
CONTINUOUS
 62
     7
 10
174.5114174936
 20
-45.5333833711
 30
0.0
  0
VERTEX
  5
550
  8
0
  6
CONTINUOUS
 62
     7
 10
174.4506952617
 20
-46.0008896084
 30
0.0
  0
VERTEX
  5
551
  8
0
  6
CONTINUOUS
 62
     7
 10
174.4484779689
 20
-46.1096767465
 30
0.0
  0
SEQEND
  5
552
  8
0
  6
CONTINUOUS
 62
     7
  0
LINE
  5
24B
  8
0
  6
CONTINUOUS
 62
     7
 10
251.2072352025
 20
-53.0030130537
 30
0.0
 11
251.2072352025
 21
-53.8453470113
 31
0.0
  0
LINE
  5
24C
  8
0
  6
CONTINUOUS
 62
     7
 10
252.2072342489
 20
-52.5962400379
 30
0.0
 11
252.2072342489
 21
-53.8453470113
 31
0.0
  0
LINE
  5
24D
  8
0
  6
CONTINUOUS
 62
     7
 10
177.8072324846
 20
-53.0020072253
 30
0.0
 11
177.8072324846
 21
-53.8453470113
 31
0.0
  0
LINE
  5
24E
  8
0
  6
CONTINUOUS
 62
     7
 10
176.8072334382
 20
-52.5931186171
 30
0.0
 11
176.8072334382
 21
-53.8453470113
 31
0.0
  0
LINE
  5
24F
  8
0
  6
CONTINUOUS
 62
     7
 10
251.2072352025
 20
-41.9741991104
 30
0.0
 11
251.2072352025
 21
-43.2023032697
 31
0.0
  0
LINE
  5
250
  8
0
  6
CONTINUOUS
 62
     7
 10
252.2072342489
 20
-41.9741991104
 30
0.0
 11
252.2072342489
 21
-43.3175700845
 31
0.0
  0
LINE
  5
251
  8
0
  6
CONTINUOUS
 62
     7
 10
177.8072324846
 20
-41.9741991104
 30
0.0
 11
177.8072324846
 21
-43.2044207247
 31
0.0
  0
LINE
  5
252
  8
0
  6
CONTINUOUS
 62
     7
 10
176.8072334382
 20
-41.9741991104
 30
0.0
 11
176.8072334382
 21
-43.3194819035
 31
0.0
  0
LINE
  5
253
  8
0
  6
CONTINUOUS
 62
     7
 10
252.5072333667
 20
-42.1428649815
 30
0.0
 11
252.5072333667
 21
-43.3737891855
 31
0.0
  0
LINE
  5
254
  8
0
  6
CONTINUOUS
 62
     7
 10
252.5072333667
 20
-52.4423099251
 30
0.0
 11
252.5072333667
 21
-54.1566717567
 31
0.0
  0
LINE
  5
255
  8
0
  6
CONTINUOUS
 62
     7
 10
255.9072342965
 20
-42.1428649815
 30
0.0
 11
255.9072342965
 21
-54.1566717567
 31
0.0
  0
LINE
  5
256
  8
0
  6
CONTINUOUS
 62
     7
 10
235.1072338674
 20
-41.7566719593
 30
0.0
 11
235.1072338674
 21
-44.9606672989
 31
0.0
  0
LINE
  5
257
  8
0
  6
CONTINUOUS
 62
     7
 10
252.5072333667
 20
-39.1566719057
 30
0.0
 11
252.5072333667
 21
-42.1428649815
 31
0.0
  0
LINE
  5
258
  8
0
  6
CONTINUOUS
 62
     7
 10
255.9072342965
 20
-39.1566719057
 30
0.0
 11
255.9072342965
 21
-42.1428649815
 31
0.0
  0
LINE
  5
259
  8
0
  6
CONTINUOUS
 62
     7
 10
135.9072325084
 20
-42.1428649815
 30
0.0
 11
135.9072325084
 21
-54.1566717567
 31
0.0
  0
LINE
  5
25A
  8
0
  6
CONTINUOUS
 62
     7
 10
132.5072345588
 20
-42.1428649815
 30
0.0
 11
132.5072345588
 21
-43.3737891855
 31
0.0
  0
LINE
  5
25B
  8
0
  6
CONTINUOUS
 62
     7
 10
132.5072345588
 20
-52.4423099251
 30
0.0
 11
132.5072345588
 21
-54.1566717567
 31
0.0
  0
LINE
  5
25C
  8
0
  6
CONTINUOUS
 62
     7
 10
115.1072320792
 20
-41.7566719593
 30
0.0
 11
115.1072320792
 21
-44.9606672989
 31
0.0
  0
LINE
  5
25D
  8
0
  6
CONTINUOUS
 62
     7
 10
135.9072325084
 20
-39.1566719057
 30
0.0
 11
135.9072325084
 21
-42.1428649815
 31
0.0
  0
LINE
  5
25E
  8
0
  6
CONTINUOUS
 62
     7
 10
132.5072345588
 20
-39.1566719057
 30
0.0
 11
132.5072345588
 21
-42.1428649815
 31
0.0
  0
LINE
  5
25F
  8
0
  6
CONTINUOUS
 62
     7
 10
372.5072381351
 20
-42.1428649815
 30
0.0
 11
372.5072381351
 21
-54.1566717567
 31
0.0
  0
LINE
  5
260
  8
0
  6
CONTINUOUS
 62
     7
 10
375.9072301242
 20
-42.1428649815
 30
0.0
 11
375.9072301242
 21
-54.1566717567
 31
0.0
  0
LINE
  5
261
  8
0
  6
CONTINUOUS
 62
     7
 10
355.1072356555
 20
-41.7566719593
 30
0.0
 11
355.1072356555
 21
-53.7566720636
 31
0.0
  0
LINE
  5
262
  8
0
  6
CONTINUOUS
 62
     7
 10
372.5072381351
 20
-39.1566719057
 30
0.0
 11
372.5072381351
 21
-42.1428649815
 31
0.0
  0
LINE
  5
263
  8
0
  6
CONTINUOUS
 62
     7
 10
375.9072301242
 20
-39.1566719057
 30
0.0
 11
375.9072301242
 21
-42.1428649815
 31
0.0
  0
LINE
  5
264
  8
0
  6
CONTINUOUS
 62
     7
 10
53.1072375629
 20
-42.1428649815
 30
0.0
 11
53.1072375629
 21
-54.1566717567
 31
0.0
  0
LINE
  5
265
  8
0
  6
CONTINUOUS
 62
     7
 10
56.507229552
 20
-42.1428649815
 30
0.0
 11
56.507229552
 21
-43.3761722537
 31
0.0
  0
LINE
  5
266
  8
0
  6
CONTINUOUS
 62
     7
 10
56.507229552
 20
-52.4463101419
 30
0.0
 11
56.507229552
 21
-54.1566717567
 31
0.0
  0
LINE
  5
267
  8
0
  6
CONTINUOUS
 62
     7
 10
73.9072320316
 20
-41.7566719593
 30
0.0
 11
73.9072320316
 21
-44.9631181674
 31
0.0
  0
LINE
  5
268
  8
0
  6
CONTINUOUS
 62
     7
 10
53.1072375629
 20
-39.1566719057
 30
0.0
 11
53.1072375629
 21
-42.1428649815
 31
0.0
  0
LINE
  5
269
  8
0
  6
CONTINUOUS
 62
     7
 10
56.507229552
 20
-39.1566719057
 30
0.0
 11
56.507229552
 21
-42.1428649815
 31
0.0
  0
LINE
  5
26A
  8
0
  6
CONTINUOUS
 62
     7
 10
176.5072343204
 20
-42.1428649815
 30
0.0
 11
176.5072343204
 21
-43.3761722537
 31
0.0
  0
LINE
  5
26B
  8
0
  6
CONTINUOUS
 62
     7
 10
176.5072343204
 20
-52.4463101419
 30
0.0
 11
176.5072343204
 21
-54.1566717567
 31
0.0
  0
LINE
  5
26C
  8
0
  6
CONTINUOUS
 62
     7
 10
173.1072333906
 20
-42.1428649815
 30
0.0
 11
173.1072333906
 21
-54.1566717567
 31
0.0
  0
LINE
  5
26D
  8
0
  6
CONTINUOUS
 62
     7
 10
193.9072338197
 20
-41.7566719593
 30
0.0
 11
193.9072338197
 21
-44.9631181674
 31
0.0
  0
LINE
  5
26E
  8
0
  6
CONTINUOUS
 62
     7
 10
176.5072343204
 20
-39.1566719057
 30
0.0
 11
176.5072343204
 21
-42.1428649815
 31
0.0
  0
LINE
  5
26F
  8
0
  6
CONTINUOUS
 62
     7
 10
173.1072333906
 20
-39.1566719057
 30
0.0
 11
173.1072333906
 21
-42.1428649815
 31
0.0
  0
LINE
  5
270
  8
0
  6
CONTINUOUS
 62
     7
 10
293.1072351787
 20
-42.1428649815
 30
0.0
 11
293.1072351787
 21
-54.1566717567
 31
0.0
  0
LINE
  5
271
  8
0
  6
CONTINUOUS
 62
     7
 10
296.5072331283
 20
-42.1428649815
 30
0.0
 11
296.5072331283
 21
-54.1566717567
 31
0.0
  0
LINE
  5
272
  8
0
  6
CONTINUOUS
 62
     7
 10
313.9072356078
 20
-41.7566719593
 30
0.0
 11
313.9072356078
 21
-53.7566720636
 31
0.0
  0
LINE
  5
273
  8
0
  6
CONTINUOUS
 62
     7
 10
293.1072351787
 20
-39.1566719057
 30
0.0
 11
293.1072351787
 21
-42.1428649815
 31
0.0
  0
LINE
  5
274
  8
0
  6
CONTINUOUS
 62
     7
 10
296.5072331283
 20
-39.1566719057
 30
0.0
 11
296.5072331283
 21
-42.1428649815
 31
0.0
  0
ENDSEC
  0
EOF
