  0
SECTION
  2
HEADER
  9
$ACADVER
  1
AC1009
  9
$DWGCODEPAGE
  3
ansi_1252
  9
$INSBASE
 10
0.0
 20
0.0
 30
0.0
  9
$EXTMIN
 10
0.0
 20
0.0
 30
0.0
  9
$EXTMAX
 10
420.0
 20
297.0
 30
0.0
  9
$LIMMIN
 10
0.0
 20
0.0
  9
$LIMMAX
 10
420.0
 20
297.0
  9
$ORTHOMODE
 70
     0
  9
$REGENMODE
 70
     1
  9
$FILLMODE
 70
     1
  9
$QTEXTMODE
 70
     0
  9
$MIRRTEXT
 70
     1
  9
$DRAGMODE
 70
     2
  9
$LTSCALE
 40
1.0
  9
$OSMODE
 70
    37
  9
$ATTMODE
 70
     1
  9
$TEXTSIZE
 40
3.5
  9
$TRACEWID
 40
1.0
  9
$TEXTSTYLE
  7
STANDARD
  9
$CLAYER
  8
0
  9
$CELTYPE
  6
BYLAYER
  9
$CECOLOR
 62
   256
  9
$DIMSCALE
 40
1.0
  9
$DIMASZ
 40
4.0
  9
$DIMEXO
 40
0.0
  9
$DIMDLI
 40
3.75
  9
$DIMRND
 40
0.0
  9
$DIMDLE
 40
0.0
  9
$DIMEXE
 40
2.0
  9
$DIMTP
 40
0.0
  9
$DIMTM
 40
0.0
  9
$DIMTXT
 40
3.5
  9
$DIMCEN
 40
2.5
  9
$DIMTSZ
 40
0.0
  9
$DIMTOL
 70
     0
  9
$DIMLIM
 70
     0
  9
$DIMTIH
 70
     1
  9
$DIMTOH
 70
     1
  9
$DIMSE1
 70
     0
  9
$DIMSE2
 70
     0
  9
$DIMTAD
 70
     1
  9
$DIMZIN
 70
     0
  9
$DIMBLK
  1

  9
$DIMASO
 70
     1
  9
$DIMSHO
 70
     1
  9
$DIMPOST
  1

  9
$DIMAPOST
  1

  9
$DIMALT
 70
     0
  9
$DIMALTD
 70
     3
  9
$DIMALTF
 40
0.0393700787
  9
$DIMLFAC
 40
5.0
  9
$DIMTOFL
 70
     1
  9
$DIMTVP
 40
0.0
  9
$DIMTIX
 70
     0
  9
$DIMSOXD
 70
     0
  9
$DIMSAH
 70
     0
  9
$DIMBLK1
  1

  9
$DIMBLK2
  1

  9
$DIMSTYLE
  2
ISO-25
  9
$DIMCLRD
 70
     0
  9
$DIMCLRE
 70
     0
  9
$DIMCLRT
 70
     0
  9
$DIMTFAC
 40
1.0
  9
$DIMGAP
 40
1.524
  9
$LUNITS
 70
     2
  9
$LUPREC
 70
     2
  9
$SKETCHINC
 40
1.0
  9
$FILLETRAD
 40
10.0
  9
$AUNITS
 70
     0
  9
$AUPREC
 70
     2
  9
$MENU
  1
.
  9
$ELEVATION
 40
0.0
  9
$PELEVATION
 40
0.0
  9
$THICKNESS
 40
0.0
  9
$LIMCHECK
 70
     0
  9
$CHAMFERA
 40
10.0
  9
$CHAMFERB
 40
10.0
  9
$SKPOLY
 70
     0
  9
$TDCREATE
 40
2457801.636602465
  9
$TDUPDATE
 40
2457801.636602685
  9
$TDINDWG
 40
0.0000000116
  9
$TDUSRTIMER
 40
0.0000000116
  9
$USRTIMER
 70
     1
  9
$ANGBASE
 50
0.0
  9
$ANGDIR
 70
     0
  9
$PDMODE
 70
     0
  9
$PDSIZE
 40
-1.0
  9
$PLINEWID
 40
0.0
  9
$COORDS
 70
     1
  9
$SPLFRAME
 70
     0
  9
$SPLINETYPE
 70
     6
  9
$SPLINESEGS
 70
     8
  9
$ATTDIA
 70
     0
  9
$ATTREQ
 70
     1
  9
$HANDLING
 70
     1
  9
$HANDSEED
  5
7C7
  9
$SURFTAB1
 70
     6
  9
$SURFTAB2
 70
     6
  9
$SURFTYPE
 70
     6
  9
$SURFU
 70
     6
  9
$SURFV
 70
     6
  9
$UCSNAME
  2

  9
$UCSORG
 10
0.0
 20
0.0
 30
0.0
  9
$UCSXDIR
 10
1.0
 20
0.0
 30
0.0
  9
$UCSYDIR
 10
0.0
 20
1.0
 30
0.0
  9
$PUCSNAME
  2

  9
$PUCSORG
 10
0.0
 20
0.0
 30
0.0
  9
$PUCSXDIR
 10
1.0
 20
0.0
 30
0.0
  9
$PUCSYDIR
 10
0.0
 20
1.0
 30
0.0
  9
$USERI1
 70
     0
  9
$USERI2
 70
     0
  9
$USERI3
 70
     0
  9
$USERI4
 70
     0
  9
$USERI5
 70
     0
  9
$USERR1
 40
0.0
  9
$USERR2
 40
0.0
  9
$USERR3
 40
0.0
  9
$USERR4
 40
0.0
  9
$USERR5
 40
0.0
  9
$WORLDVIEW
 70
     1
  9
$SHADEDGE
 70
     3
  9
$SHADEDIF
 70
    70
  9
$TILEMODE
 70
     1
  9
$MAXACTVP
 70
    64
  9
$PLIMCHECK
 70
     0
  9
$PEXTMIN
 10
1.0000000000E+20
 20
1.0000000000E+20
 30
1.0000000000E+20
  9
$PEXTMAX
 10
-1.0000000000E+20
 20
-1.0000000000E+20
 30
-1.0000000000E+20
  9
$PLIMMIN
 10
0.0
 20
0.0
  9
$PLIMMAX
 10
420.0
 20
297.0
  9
$UNITMODE
 70
     0
  9
$VISRETAIN
 70
     1
  9
$PLINEGEN
 70
     0
  9
$PSLTSCALE
 70
     1
  0
ENDSEC
  0
SECTION
  2
TABLES
  0
TABLE
  2
VPORT
 70
     1
  0
VPORT
  2
*ACTIVE
 70
     0
 10
0.0
 20
0.0
 11
1.0
 21
1.0
 12
210.0
 22
148.5
 13
0.0
 23
0.0
 14
10.0
 24
10.0
 15
10.0
 25
10.0
 16
0.0
 26
0.0
 36
1.0
 17
0.0
 27
0.0
 37
0.0
 40
297.0
 41
1.4141414141
 42
50.0
 43
0.0
 44
0.0
 50
0.0
 51
0.0
 71
     0
 72
  2000
 73
     1
 74
     3
 75
     0
 76
     0
 77
     0
 78
     0
  0
ENDTAB
  0
TABLE
  2
LTYPE
 70
     6
  0
LTYPE
  2
CONTINUOUS
 70
     0
  3
Solid line
 72
    65
 73
     0
 40
0.0
  0
LTYPE
  2
HIDDEN
 70
     0
  3
Hidden __ __ __ __ __ __ __ __ __ __ __ __ __ __
 72
    65
 73
     2
 40
1.905
 49
1.27
 49
-0.635
  0
LTYPE
  2
PHANTOM
 70
     0
  3
Phantom ______  __  __  ______  __  __  ______
 72
    65
 73
     6
 40
12.7
 49
6.35
 49
-1.27
 49
1.27
 49
-1.27
 49
1.27
 49
-1.27
  0
LTYPE
  2
CENTER
 70
     0
  3
Center ____ _ ____ _ ____ _ ____ _ ____ _ ____
 72
    65
 73
     4
 40
10.16
 49
6.35
 49
-1.27
 49
1.27
 49
-1.27
  0
LTYPE
  2
CENTERX2
 70
     0
  3
Center (2x) ________  __  ________  __  _____
 72
    65
 73
     4
 40
20.32
 49
12.7
 49
-2.54
 49
2.54
 49
-2.54
  0
LTYPE
  2
DOT2
 70
     0
  3
Dot (.5x) ........................................
 72
    65
 73
     2
 40
0.635
 49
0.0
 49
-0.635
  0
ENDTAB
  0
TABLE
  2
LAYER
 70
     2
  0
LAYER
  2
0
 70
     0
 62
     7
  6
CONTINUOUS
  0
LAYER
  2
FORMAT
 70
     0
 62
     7
  6
CONTINUOUS
  0
ENDTAB
  0
TABLE
  2
STYLE
 70
     1
  0
STYLE
  2
STANDARD
 70
     0
 40
0.0
 41
1.0
 50
0.0
 71
     0
 42
3.5
  3
txt
  4

  0
ENDTAB
  0
TABLE
  2
VIEW
 70
     0
  0
ENDTAB
  0
TABLE
  2
UCS
 70
     0
  0
ENDTAB
  0
TABLE
  2
APPID
 70
     1
  0
APPID
  2
ACAD
 70
     0
  0
ENDTAB
  0
TABLE
  2
DIMSTYLE
 70
     1
  0
DIMSTYLE
  2
ISO-25
 70
     0
  3

  4

  5

  6

  7

 40
1.0
 41
2.5
 42
0.625
 43
3.75
 44
1.25
 45
0.0
 46
0.0
 47
0.0
 48
0.0
140
2.5
141
2.5
142
0.0
143
0.0393700787
144
1.0
145
0.0
146
1.0
147
0.625
 71
     0
 72
     0
 73
     0
 74
     0
 75
     0
 76
     0
 77
     1
 78
     8
170
     0
171
     3
172
     1
173
     0
174
     0
175
     0
176
     0
177
     0
178
     0
  0
ENDTAB
  0
ENDSEC
  0
SECTION
  2
BLOCKS
  0
BLOCK
  8
0
  2
$MODEL_SPACE
 70
     0
 10
0.0
 20
0.0
 30
0.0
  3
$MODEL_SPACE
  1

  0
ENDBLK
  5
21
  8
0
  0
BLOCK
 67
     1
  8
0
  2
$PAPER_SPACE
 70
     0
 10
0.0
 20
0.0
 30
0.0
  3
$PAPER_SPACE
  1

  0
ENDBLK
  5
1D
 67
     1
  8
0
  0
ENDSEC
  0
SECTION
  2
ENTITIES
  0
ARC
  5
45
  8
0
  6
CONTINUOUS
 62
     7
 10
214.294221468
 20
195.3735853951
 30
0.0
 40
15.10053330490871
 50
271.1940943835
 51
0.20745633
  0
ARC
  5
46
  8
0
  6
CONTINUOUS
 62
     7
 10
164.390511892
 20
195.3697667768
 30
0.0
 40
15.09768361845966
 50
179.7788270622
 51
268.8138955865
  0
LINE
  5
47
  8
0
  6
CONTINUOUS
 62
     7
 10
149.2846274017
 20
235.1303548276
 30
0.0
 11
149.2846274017
 21
195.4285115659
 31
0.0
  0
LINE
  5
48
  8
0
  6
CONTINUOUS
 62
     7
 10
229.4021421312
 20
195.4285115659
 30
0.0
 11
229.4021421312
 21
235.1303548276
 31
0.0
  0
POLYLINE
  5
49
  8
0
  6
CONTINUOUS
 62
     7
 66
     1
 10
0.0
 20
0.0
 30
0.0
  0
VERTEX
  5
2CB
  8
0
  6
CONTINUOUS
 62
     7
 10
164.0778416036
 20
180.2678079068
 30
0.0
  0
VERTEX
  5
2CC
  8
0
  6
CONTINUOUS
 62
     7
 10
165.8696496127
 20
180.2389950215
 30
0.0
  0
VERTEX
  5
2CD
  8
0
  6
CONTINUOUS
 62
     7
 10
169.2802214263
 20
180.1901072919
 30
0.0
  0
VERTEX
  5
2CE
  8
0
  6
CONTINUOUS
 62
     7
 10
172.6975851892
 20
180.1488727986
 30
0.0
  0
VERTEX
  5
2CF
  8
0
  6
CONTINUOUS
 62
     7
 10
176.1205488084
 20
180.1153273046
 30
0.0
  0
VERTEX
  5
2D0
  8
0
  6
CONTINUOUS
 62
     7
 10
179.5479648946
 20
180.0894827306
 30
0.0
  0
VERTEX
  5
2D1
  8
0
  6
CONTINUOUS
 62
     7
 10
182.9786711572
 20
180.0713390767
 30
0.0
  0
VERTEX
  5
2D2
  8
0
  6
CONTINUOUS
 62
     7
 10
186.411523187
 20
180.060896343
 30
0.0
  0
VERTEX
  5
2D3
  8
0
  6
CONTINUOUS
 62
     7
 10
189.8453586934
 20
180.0581664502
 30
0.0
  0
VERTEX
  5
2D4
  8
0
  6
CONTINUOUS
 62
     7
 10
193.2790213464
 20
180.0631493985
 30
0.0
  0
VERTEX
  5
2D5
  8
0
  6
CONTINUOUS
 62
     7
 10
196.7113548158
 20
180.0758451879
 30
0.0
  0
VERTEX
  5
2D6
  8
0
  6
CONTINUOUS
 62
     7
 10
200.141196811
 20
180.0962418973
 30
0.0
  0
VERTEX
  5
2D7
  8
0
  6
CONTINUOUS
 62
     7
 10
203.5674029229
 20
180.1243395268
 30
0.0
  0
VERTEX
  5
2D8
  8
0
  6
CONTINUOUS
 62
     7
 10
206.9888168214
 20
180.1601380765
 30
0.0
  0
VERTEX
  5
2D9
  8
0
  6
CONTINUOUS
 62
     7
 10
210.4042821763
 20
180.2036017835
 30
0.0
  0
VERTEX
  5
2DA
  8
0
  6
CONTINUOUS
 62
     7
 10
213.6335068582
 20
180.2518577039
 30
0.0
  0
VERTEX
  5
2DB
  8
0
  6
CONTINUOUS
 62
     7
 10
214.608924949
 20
180.2678079068
 30
0.0
  0
SEQEND
  5
7C6
  8
0
  6
CONTINUOUS
 62
     7
  0
ARC
  5
4A
  8
0
  6
CONTINUOUS
 62
     7
 10
163.803123011
 20
235.528156755
 30
0.0
 40
14.25373221399423
 50
88.5351333239
 51
113.3277196996
  0
ARC
  5
4B
  8
0
  6
CONTINUOUS
 62
     7
 10
214.8822382078
 20
235.4907525139
 30
0.0
 40
14.29231641385366
 50
66.7644852849
 51
91.4553473028
  0
POLYLINE
  5
4C
  8
0
  6
CONTINUOUS
 62
     7
 66
     1
 10
0.0
 20
0.0
 30
0.0
  0
VERTEX
  5
2DC
  8
0
  6
CONTINUOUS
 62
     7
 10
155.4669671891
 20
247.1309632718
 30
0.0
  0
VERTEX
  5
2DD
  8
0
  6
CONTINUOUS
 62
     7
 10
155.4215782522
 20
247.1011371076
 30
0.0
  0
VERTEX
  5
2DE
  8
0
  6
CONTINUOUS
 62
     7
 10
155.0897949575
 20
246.850213474
 30
0.0
  0
SEQEND
  5
7C5
  8
0
  6
CONTINUOUS
 62
     7
  0
ARC
  5
4D
  8
0
  6
CONTINUOUS
 62
     7
 10
163.8498326445
 20
235.2275346682
 30
0.0
 40
14.55831665883455
 50
128.4665640879
 51
180.382886532
  0
ARC
  5
4E
  8
0
  6
CONTINUOUS
 62
     7
 10
214.8144036876
 20
235.2227910316
 30
0.0
 40
14.57975925395776
 50
359.636178064
 51
54.8680753639
  0
POLYLINE
  5
4F
  8
0
  6
CONTINUOUS
 62
     7
 66
     1
 10
0.0
 20
0.0
 30
0.0
  0
VERTEX
  5
2DF
  8
0
  6
CONTINUOUS
 62
     7
 10
214.5192080377
 20
249.7853965222
 30
0.0
  0
VERTEX
  5
2E0
  8
0
  6
CONTINUOUS
 62
     7
 10
212.7338641523
 20
249.7566909253
 30
0.0
  0
VERTEX
  5
2E1
  8
0
  6
CONTINUOUS
 62
     7
 10
209.335654342
 20
249.7079700887
 30
0.0
  0
VERTEX
  5
2E2
  8
0
  6
CONTINUOUS
 62
     7
 10
205.9305601953
 20
249.6668905675
 30
0.0
  0
VERTEX
  5
2E3
  8
0
  6
CONTINUOUS
 62
     7
 10
202.5197797654
 20
249.6334642827
 30
0.0
  0
VERTEX
  5
2E4
  8
0
  6
CONTINUOUS
 62
     7
 10
199.1044813035
 20
249.6077031552
 30
0.0
  0
VERTEX
  5
2E5
  8
0
  6
CONTINUOUS
 62
     7
 10
195.6858330606
 20
249.589619106
 30
0.0
  0
VERTEX
  5
2E6
  8
0
  6
CONTINUOUS
 62
     7
 10
192.2650032876
 20
249.579212135
 30
0.0
  0
VERTEX
  5
2E7
  8
0
  6
CONTINUOUS
 62
     7
 10
188.8431721566
 20
249.5764941632
 30
0.0
  0
VERTEX
  5
2E8
  8
0
  6
CONTINUOUS
 62
     7
 10
185.4215079187
 20
249.5814651906
 30
0.0
  0
VERTEX
  5
2E9
  8
0
  6
CONTINUOUS
 62
     7
 10
182.0011788247
 20
249.5941132962
 30
0.0
  0
VERTEX
  5
2EA
  8
0
  6
CONTINUOUS
 62
     7
 10
178.583368027
 20
249.6144384801
 30
0.0
  0
VERTEX
  5
2EB
  8
0
  6
CONTINUOUS
 62
     7
 10
175.1692348359
 20
249.6424407422
 30
0.0
  0
VERTEX
  5
2EC
  8
0
  6
CONTINUOUS
 62
     7
 10
171.7599594234
 20
249.6781081616
 30
0.0
  0
VERTEX
  5
2ED
  8
0
  6
CONTINUOUS
 62
     7
 10
168.3567040799
 20
249.7214288175
 30
0.0
  0
VERTEX
  5
2EE
  8
0
  6
CONTINUOUS
 62
     7
 10
165.1391827701
 20
249.7695059239
 30
0.0
  0
VERTEX
  5
2EF
  8
0
  6
CONTINUOUS
 62
     7
 10
164.1675614951
 20
249.7853965222
 30
0.0
  0
SEQEND
  5
7C4
  8
0
  6
CONTINUOUS
 62
     7
  0
LINE
  5
50
  8
0
  6
CONTINUOUS
 62
     7
 10
29.2846256135
 20
235.1303548276
 30
0.0
 11
29.2846256135
 21
215.7270044744
 31
0.0
  0
LINE
  5
51
  8
0
  6
CONTINUOUS
 62
     7
 10
109.402140343
 20
215.7270044744
 30
0.0
 11
109.402140343
 21
235.1303548276
 31
0.0
  0
ARC
  5
52
  8
0
  6
CONTINUOUS
 62
     7
 10
43.8031309655
 20
235.5281217419
 30
0.0
 40
14.25376704277389
 50
88.5351640956
 51
113.3276889279
  0
ARC
  5
53
  8
0
  6
CONTINUOUS
 62
     7
 10
94.8822379714
 20
235.4907605796
 30
0.0
 40
14.29230839019004
 50
66.7644782449
 51
91.4553543428
  0
POLYLINE
  5
54
  8
0
  6
CONTINUOUS
 62
     7
 66
     1
 10
0.0
 20
0.0
 30
0.0
  0
VERTEX
  5
2F0
  8
0
  6
CONTINUOUS
 62
     7
 10
35.4669683812
 20
247.1309632718
 30
0.0
  0
VERTEX
  5
2F1
  8
0
  6
CONTINUOUS
 62
     7
 10
35.4215794442
 20
247.1011371076
 30
0.0
  0
VERTEX
  5
2F2
  8
0
  6
CONTINUOUS
 62
     7
 10
35.0897961496
 20
246.850213474
 30
0.0
  0
SEQEND
  5
7C3
  8
0
  6
CONTINUOUS
 62
     7
  0
ARC
  5
55
  8
0
  6
CONTINUOUS
 62
     7
 10
43.8498447603
 20
235.2275261268
 30
0.0
 40
14.55833199556976
 50
128.466586022
 51
180.3828525126
  0
ARC
  5
56
  8
0
  6
CONTINUOUS
 62
     7
 10
94.8144006714
 20
235.2227963688
 30
0.0
 40
14.57975902578264
 50
359.6361570838
 51
54.8680401908
  0
POLYLINE
  5
57
  8
0
  6
CONTINUOUS
 62
     7
 66
     1
 10
0.0
 20
0.0
 30
0.0
  0
VERTEX
  5
2F3
  8
0
  6
CONTINUOUS
 62
     7
 10
94.5192062496
 20
249.7853965222
 30
0.0
  0
VERTEX
  5
2F4
  8
0
  6
CONTINUOUS
 62
     7
 10
92.7338653444
 20
249.7566909253
 30
0.0
  0
VERTEX
  5
2F5
  8
0
  6
CONTINUOUS
 62
     7
 10
89.3356525539
 20
249.7079700887
 30
0.0
  0
VERTEX
  5
2F6
  8
0
  6
CONTINUOUS
 62
     7
 10
85.9305584071
 20
249.6668905675
 30
0.0
  0
VERTEX
  5
2F7
  8
0
  6
CONTINUOUS
 62
     7
 10
82.5197779773
 20
249.6334642827
 30
0.0
  0
VERTEX
  5
2F8
  8
0
  6
CONTINUOUS
 62
     7
 10
79.1044765352
 20
249.6077031552
 30
0.0
  0
VERTEX
  5
2F9
  8
0
  6
CONTINUOUS
 62
     7
 10
75.6858282922
 20
249.589619106
 30
0.0
  0
VERTEX
  5
2FA
  8
0
  6
CONTINUOUS
 62
     7
 10
72.2650044797
 20
249.579212135
 30
0.0
  0
VERTEX
  5
2FB
  8
0
  6
CONTINUOUS
 62
     7
 10
68.8431733487
 20
249.5764941632
 30
0.0
  0
VERTEX
  5
2FC
  8
0
  6
CONTINUOUS
 62
     7
 10
65.4215031503
 20
249.5814651906
 30
0.0
  0
VERTEX
  5
2FD
  8
0
  6
CONTINUOUS
 62
     7
 10
62.0011800168
 20
249.5941132962
 30
0.0
  0
VERTEX
  5
2FE
  8
0
  6
CONTINUOUS
 62
     7
 10
58.5833662389
 20
249.6144384801
 30
0.0
  0
VERTEX
  5
2FF
  8
0
  6
CONTINUOUS
 62
     7
 10
55.169236028
 20
249.6424407422
 30
0.0
  0
VERTEX
  5
300
  8
0
  6
CONTINUOUS
 62
     7
 10
51.7599576352
 20
249.6781081616
 30
0.0
  0
VERTEX
  5
301
  8
0
  6
CONTINUOUS
 62
     7
 10
48.356705272
 20
249.7214288175
 30
0.0
  0
VERTEX
  5
302
  8
0
  6
CONTINUOUS
 62
     7
 10
45.139180982
 20
249.7695059239
 30
0.0
  0
VERTEX
  5
303
  8
0
  6
CONTINUOUS
 62
     7
 10
44.167559707
 20
249.7853965222
 30
0.0
  0
SEQEND
  5
7C2
  8
0
  6
CONTINUOUS
 62
     7
  0
POLYLINE
  5
58
  8
0
  6
CONTINUOUS
 62
     7
 66
     1
 10
0.0
 20
0.0
 30
0.0
  0
VERTEX
  5
304
  8
0
  6
CONTINUOUS
 62
     7
 10
226.2432092069
 20
157.1283370912
 30
0.0
  0
VERTEX
  5
305
  8
0
  6
CONTINUOUS
 62
     7
 10
226.2376480935
 20
157.1273774564
 30
0.0
  0
VERTEX
  5
306
  8
0
  6
CONTINUOUS
 62
     7
 10
226.2365930913
 20
157.1271867215
 30
0.0
  0
SEQEND
  5
7C1
  8
0
  6
CONTINUOUS
 62
     7
  0
POLYLINE
  5
59
  8
0
  6
CONTINUOUS
 62
     7
 66
     1
 10
0.0
 20
0.0
 30
0.0
  0
VERTEX
  5
307
  8
0
  6
CONTINUOUS
 62
     7
 10
152.4504997967
 20
157.1270973146
 30
0.0
  0
VERTEX
  5
308
  8
0
  6
CONTINUOUS
 62
     7
 10
152.4495073794
 20
157.1272761285
 30
0.0
  0
VERTEX
  5
309
  8
0
  6
CONTINUOUS
 62
     7
 10
152.4385892986
 20
157.1291655957
 30
0.0
  0
SEQEND
  5
7C0
  8
0
  6
CONTINUOUS
 62
     7
  0
LINE
  5
5A
  8
0
  6
CONTINUOUS
 62
     7
 10
152.4502494572
 20
157.1271569192
 30
0.0
 11
152.4428704022
 21
157.1284622609
 31
0.0
  0
ARC
  5
5B
  8
0
  6
CONTINUOUS
 62
     7
 10
134.7678139684
 20
68.8415675943
 30
0.0
 40
84.65956918169103
 50
78.5019844027
 51
78.6263975616
  0
LINE
  5
5C
  8
0
  6
CONTINUOUS
 62
     7
 10
151.457695031
 20
151.8397004067
 30
0.0
 11
151.462160909
 21
151.8388063371
 31
0.0
  0
LINE
  5
5D
  8
0
  6
CONTINUOUS
 62
     7
 10
227.1609121202
 20
151.8259674966
 30
0.0
 11
227.2175544141
 21
151.837393707
 31
0.0
  0
POLYLINE
  5
5E
  8
0
  6
CONTINUOUS
 62
     7
 66
     1
 10
0.0
 20
0.0
 30
0.0
  0
VERTEX
  5
30A
  8
0
  6
CONTINUOUS
 62
     7
 10
44.0906160711
 20
225.1195401609
 30
0.0
  0
VERTEX
  5
30B
  8
0
  6
CONTINUOUS
 62
     7
 10
45.8815031884
 20
225.0989527165
 30
0.0
  0
VERTEX
  5
30C
  8
0
  6
CONTINUOUS
 62
     7
 10
49.2903345464
 20
225.0640005528
 30
0.0
  0
VERTEX
  5
30D
  8
0
  6
CONTINUOUS
 62
     7
 10
52.7059727548
 20
225.0345320165
 30
0.0
  0
VERTEX
  5
30E
  8
0
  6
CONTINUOUS
 62
     7
 10
56.1272197603
 20
225.0105471074
 30
0.0
  0
VERTEX
  5
30F
  8
0
  6
CONTINUOUS
 62
     7
 10
59.5529251931
 20
224.9920696675
 30
0.0
  0
VERTEX
  5
310
  8
0
  6
CONTINUOUS
 62
     7
 10
62.9819327234
 20
224.9790996968
 30
0.0
  0
VERTEX
  5
311
  8
0
  6
CONTINUOUS
 62
     7
 10
66.4130860208
 20
224.9716371953
 30
0.0
  0
VERTEX
  5
312
  8
0
  6
CONTINUOUS
 62
     7
 10
69.8452287553
 20
224.9696940839
 30
0.0
  0
VERTEX
  5
313
  8
0
  6
CONTINUOUS
 62
     7
 10
73.2771986364
 20
224.9732465207
 30
0.0
  0
VERTEX
  5
314
  8
0
  6
CONTINUOUS
 62
     7
 10
76.7078393338
 20
224.9823302686
 30
0.0
  0
VERTEX
  5
315
  8
0
  6
CONTINUOUS
 62
     7
 10
80.1359855769
 20
224.9969095647
 30
0.0
  0
VERTEX
  5
316
  8
0
  6
CONTINUOUS
 62
     7
 10
83.5604899762
 20
225.01699633
 30
0.0
  0
VERTEX
  5
317
  8
0
  6
CONTINUOUS
 62
     7
 10
86.9801902412
 20
225.0425786435
 30
0.0
  0
VERTEX
  5
318
  8
0
  6
CONTINUOUS
 62
     7
 10
90.3939330219
 20
225.0736565053
 30
0.0
  0
VERTEX
  5
319
  8
0
  6
CONTINUOUS
 62
     7
 10
93.6215096353
 20
225.1081437528
 30
0.0
  0
VERTEX
  5
31A
  8
0
  6
CONTINUOUS
 62
     7
 10
94.5961498855
 20
225.1195401609
 30
0.0
  0
SEQEND
  5
7BF
  8
0
  6
CONTINUOUS
 62
     7
  0
ARC
  5
5F
  8
0
  6
CONTINUOUS
 62
     7
 10
43.9742092924
 20
215.8206502695
 30
0.0
 40
14.68552786048636
 50
118.1576803654
 51
180.3633628179
  0
ARC
  5
60
  8
0
  6
CONTINUOUS
 62
     7
 10
94.7427783907
 20
215.839331481
 30
0.0
 40
14.65261365168887
 50
359.5597404356
 51
62.0792387688
  0
ARC
  5
61
  8
0
  6
CONTINUOUS
 62
     7
 10
43.8030197227
 20
216.6475616824
 30
0.0
 40
8.470626676288953
 50
88.0568501488
 51
112.4774140985
  0
ARC
  5
62
  8
0
  6
CONTINUOUS
 62
     7
 10
94.8804622165
 20
216.7133706837
 30
0.0
 40
8.406762840995848
 50
67.8894201542
 51
91.9317420925
  0
POLYLINE
  5
63
  8
0
  6
CONTINUOUS
 62
     7
 66
     1
 10
0.0
 20
0.0
 30
0.0
  0
VERTEX
  5
31B
  8
0
  6
CONTINUOUS
 62
     7
 10
94.5319825052
 20
230.4991573751
 30
0.0
  0
VERTEX
  5
31C
  8
0
  6
CONTINUOUS
 62
     7
 10
92.7457207082
 20
230.4786176145
 30
0.0
  0
VERTEX
  5
31D
  8
0
  6
CONTINUOUS
 62
     7
 10
89.3457644819
 20
230.4437608182
 30
0.0
  0
VERTEX
  5
31E
  8
0
  6
CONTINUOUS
 62
     7
 10
85.9389388202
 20
230.4143638074
 30
0.0
  0
VERTEX
  5
31F
  8
0
  6
CONTINUOUS
 62
     7
 10
82.5264387964
 20
230.3904504239
 30
0.0
  0
VERTEX
  5
320
  8
0
  6
CONTINUOUS
 62
     7
 10
79.1094296811
 20
230.3720206677
 30
0.0
  0
VERTEX
  5
321
  8
0
  6
CONTINUOUS
 62
     7
 10
75.6890767453
 20
230.3590745389
 30
0.0
  0
VERTEX
  5
322
  8
0
  6
CONTINUOUS
 62
     7
 10
72.2665542005
 20
230.3516358792
 30
0.0
  0
VERTEX
  5
323
  8
0
  6
CONTINUOUS
 62
     7
 10
68.8430302976
 20
230.3496927678
 30
0.0
  0
VERTEX
  5
324
  8
0
  6
CONTINUOUS
 62
     7
 10
65.4196673272
 20
230.3532452046
 30
0.0
  0
VERTEX
  5
325
  8
0
  6
CONTINUOUS
 62
     7
 10
61.9976514219
 20
230.3622931897
 30
0.0
  0
VERTEX
  5
326
  8
0
  6
CONTINUOUS
 62
     7
 10
58.5781389116
 20
230.376836723
 30
0.0
  0
VERTEX
  5
327
  8
0
  6
CONTINUOUS
 62
     7
 10
55.1623040078
 20
230.3968758046
 30
0.0
  0
VERTEX
  5
328
  8
0
  6
CONTINUOUS
 62
     7
 10
51.7513090013
 20
230.4223985135
 30
0.0
  0
VERTEX
  5
329
  8
0
  6
CONTINUOUS
 62
     7
 10
48.3463340638
 20
230.4533810079
 30
0.0
  0
VERTEX
  5
32A
  8
0
  6
CONTINUOUS
 62
     7
 10
45.1271587251
 20
230.4877848088
 30
0.0
  0
VERTEX
  5
32B
  8
0
  6
CONTINUOUS
 62
     7
 10
44.1547864316
 20
230.4991573751
 30
0.0
  0
SEQEND
  5
7BE
  8
0
  6
CONTINUOUS
 62
     7
  0
POLYLINE
  5
64
  8
0
  6
CONTINUOUS
 62
     7
 66
     1
 10
0.0
 20
0.0
 30
0.0
  0
VERTEX
  5
32C
  8
0
  6
CONTINUOUS
 62
     7
 10
98.5830986141
 20
229.9786180913
 30
0.0
  0
VERTEX
  5
32D
  8
0
  6
CONTINUOUS
 62
     7
 10
98.1923663257
 20
230.0870866239
 30
0.0
  0
VERTEX
  5
32E
  8
0
  6
CONTINUOUS
 62
     7
 10
97.9308360456
 20
230.1413387715
 30
0.0
  0
SEQEND
  5
7BD
  8
0
  6
CONTINUOUS
 62
     7
  0
ARC
  5
65
  8
0
  6
CONTINUOUS
 62
     7
 10
94.8260971051
 20
216.8894403799
 30
0.0
 40
13.60782020937178
 50
77.4201008695
 51
91.2366722733
  0
ARC
  5
66
  8
0
  6
CONTINUOUS
 62
     7
 10
43.8247752581
 20
216.7513464598
 30
0.0
 40
13.74491249333616
 50
88.6232193986
 51
105.6855212854
  0
ARC
  5
67
  8
0
  6
CONTINUOUS
 62
     7
 10
94.7443330128
 20
215.8366228579
 30
0.0
 40
9.272514087222707
 50
359.3257353738
 51
69.1493512626
  0
ARC
  5
68
  8
0
  6
CONTINUOUS
 62
     7
 10
43.9611571308
 20
215.8242722653
 30
0.0
 40
9.293360165052883
 50
111.4376783747
 51
180.5937366066
  0
LINE
  5
69
  8
0
  6
CONTINUOUS
 62
     7
 10
109.402140343
 20
175.8792252004
 30
0.0
 11
109.402140343
 21
215.7270044744
 31
0.0
  0
LINE
  5
6A
  8
0
  6
CONTINUOUS
 62
     7
 10
29.2846256135
 20
215.7270044744
 30
0.0
 11
29.2846256135
 21
175.8792252004
 31
0.0
  0
POLYLINE
  5
6B
  8
0
  6
CONTINUOUS
 62
     7
 66
     1
 10
0.0
 20
0.0
 30
0.0
  0
VERTEX
  5
32F
  8
0
  6
CONTINUOUS
 62
     7
 10
44.0906160711
 20
160.7454389989
 30
0.0
  0
VERTEX
  5
330
  8
0
  6
CONTINUOUS
 62
     7
 10
45.8815031884
 20
160.7248455941
 30
0.0
  0
VERTEX
  5
331
  8
0
  6
CONTINUOUS
 62
     7
 10
49.2903345464
 20
160.6898993909
 30
0.0
  0
VERTEX
  5
332
  8
0
  6
CONTINUOUS
 62
     7
 10
52.7059727548
 20
160.6604308545
 30
0.0
  0
VERTEX
  5
333
  8
0
  6
CONTINUOUS
 62
     7
 10
56.1272197603
 20
160.6364519059
 30
0.0
  0
VERTEX
  5
334
  8
0
  6
CONTINUOUS
 62
     7
 10
59.5529251931
 20
160.617974466
 30
0.0
  0
VERTEX
  5
335
  8
0
  6
CONTINUOUS
 62
     7
 10
62.9819327234
 20
160.6049985349
 30
0.0
  0
VERTEX
  5
336
  8
0
  6
CONTINUOUS
 62
     7
 10
66.4130860208
 20
160.5975360333
 30
0.0
  0
VERTEX
  5
337
  8
0
  6
CONTINUOUS
 62
     7
 10
69.8452287553
 20
160.5955869615
 30
0.0
  0
VERTEX
  5
338
  8
0
  6
CONTINUOUS
 62
     7
 10
73.2771986364
 20
160.5991513192
 30
0.0
  0
VERTEX
  5
339
  8
0
  6
CONTINUOUS
 62
     7
 10
76.7078393338
 20
160.6082231462
 30
0.0
  0
VERTEX
  5
33A
  8
0
  6
CONTINUOUS
 62
     7
 10
80.1359855769
 20
160.6228084027
 30
0.0
  0
VERTEX
  5
33B
  8
0
  6
CONTINUOUS
 62
     7
 10
83.5604899762
 20
160.642895168
 30
0.0
  0
VERTEX
  5
33C
  8
0
  6
CONTINUOUS
 62
     7
 10
86.9801902412
 20
160.6684774816
 30
0.0
  0
VERTEX
  5
33D
  8
0
  6
CONTINUOUS
 62
     7
 10
90.3939330219
 20
160.6995493829
 30
0.0
  0
VERTEX
  5
33E
  8
0
  6
CONTINUOUS
 62
     7
 10
93.6215096353
 20
160.7340425908
 30
0.0
  0
VERTEX
  5
33F
  8
0
  6
CONTINUOUS
 62
     7
 10
94.5961498855
 20
160.7454389989
 30
0.0
  0
SEQEND
  5
7BC
  8
0
  6
CONTINUOUS
 62
     7
  0
ARC
  5
6C
  8
0
  6
CONTINUOUS
 62
     7
 10
44.2503947671
 20
175.584395454
 30
0.0
 40
14.83229554515628
 50
218.4766896881
 51
269.3847119939
  0
ARC
  5
6D
  8
0
  6
CONTINUOUS
 62
     7
 10
94.4379438111
 20
175.579986915
 30
0.0
 40
14.82858103793297
 50
270.609849047
 51
321.4778706181
  0
LINE
  5
6E
  8
0
  6
CONTINUOUS
 62
     7
 10
34.6646242975
 20
175.8792252004
 30
0.0
 11
34.6646242975
 21
215.7270044744
 31
0.0
  0
LINE
  5
6F
  8
0
  6
CONTINUOUS
 62
     7
 10
104.0221416591
 20
215.7270044744
 30
0.0
 11
104.0221416591
 21
175.8792252004
 31
0.0
  0
ARC
  5
70
  8
0
  6
CONTINUOUS
 62
     7
 10
94.2668016731
 20
175.8495851572
 30
0.0
 40
15.12949867679668
 50
327.6393595204
 51
0.1103966939
  0
ARC
  5
71
  8
0
  6
CONTINUOUS
 62
     7
 10
44.2474868809
 20
175.8051379029
 30
0.0
 40
14.95596373968462
 50
179.7161729663
 51
212.5693122512
  0
POLYLINE
  5
72
  8
0
  6
CONTINUOUS
 62
     7
 66
     1
 10
0.0
 20
0.0
 30
0.0
  0
VERTEX
  5
340
  8
0
  6
CONTINUOUS
 62
     7
 10
94.5319825052
 20
166.1250562131
 30
0.0
  0
VERTEX
  5
341
  8
0
  6
CONTINUOUS
 62
     7
 10
92.7457207082
 20
166.1045164525
 30
0.0
  0
VERTEX
  5
342
  8
0
  6
CONTINUOUS
 62
     7
 10
89.3457644819
 20
166.0696596562
 30
0.0
  0
VERTEX
  5
343
  8
0
  6
CONTINUOUS
 62
     7
 10
85.9389388202
 20
166.0402626454
 30
0.0
  0
VERTEX
  5
344
  8
0
  6
CONTINUOUS
 62
     7
 10
82.5264387964
 20
166.016349262
 30
0.0
  0
VERTEX
  5
345
  8
0
  6
CONTINUOUS
 62
     7
 10
79.1094296811
 20
165.9979195058
 30
0.0
  0
VERTEX
  5
346
  8
0
  6
CONTINUOUS
 62
     7
 10
75.6890767453
 20
165.9849733769
 30
0.0
  0
VERTEX
  5
347
  8
0
  6
CONTINUOUS
 62
     7
 10
72.2665542005
 20
165.9775347173
 30
0.0
  0
VERTEX
  5
348
  8
0
  6
CONTINUOUS
 62
     7
 10
68.8430302976
 20
165.9755916059
 30
0.0
  0
VERTEX
  5
349
  8
0
  6
CONTINUOUS
 62
     7
 10
65.4196673272
 20
165.9791440427
 30
0.0
  0
VERTEX
  5
34A
  8
0
  6
CONTINUOUS
 62
     7
 10
61.9976514219
 20
165.9881920278
 30
0.0
  0
VERTEX
  5
34B
  8
0
  6
CONTINUOUS
 62
     7
 10
58.5781389116
 20
166.0027355611
 30
0.0
  0
VERTEX
  5
34C
  8
0
  6
CONTINUOUS
 62
     7
 10
55.1623040078
 20
166.0227746427
 30
0.0
  0
VERTEX
  5
34D
  8
0
  6
CONTINUOUS
 62
     7
 10
51.7513090013
 20
166.0482854306
 30
0.0
  0
VERTEX
  5
34E
  8
0
  6
CONTINUOUS
 62
     7
 10
48.3463340638
 20
166.0792798459
 30
0.0
  0
VERTEX
  5
34F
  8
0
  6
CONTINUOUS
 62
     7
 10
45.1271587251
 20
166.1136836469
 30
0.0
  0
VERTEX
  5
350
  8
0
  6
CONTINUOUS
 62
     7
 10
44.1547864316
 20
166.1250562131
 30
0.0
  0
SEQEND
  5
7BB
  8
0
  6
CONTINUOUS
 62
     7
  0
ARC
  5
73
  8
0
  6
CONTINUOUS
 62
     7
 10
44.3419232824
 20
175.798866606
 30
0.0
 40
9.670903925014732
 50
179.5278609987
 51
268.8865311481
  0
ARC
  5
74
  8
0
  6
CONTINUOUS
 62
     7
 10
94.3480580677
 20
175.8011136449
 30
0.0
 40
9.670570784271002
 50
271.0898262389
 51
0.454956971
  0
LINE
  5
75
  8
0
  6
CONTINUOUS
 62
     7
 10
230.7433896898
 20
157.0396334588
 30
0.0
 11
227.5398307679
 21
157.0396334588
 31
0.0
  0
LINE
  5
76
  8
0
  6
CONTINUOUS
 62
     7
 10
223.7708741067
 20
156.6396326482
 30
0.0
 11
209.9433833001
 21
156.6396326482
 31
0.0
  0
LINE
  5
77
  8
0
  6
CONTINUOUS
 62
     7
 10
209.9433833001
 20
144.6396321713
 30
0.0
 11
227.3433857797
 21
144.6396321713
 31
0.0
  0
LINE
  5
78
  8
0
  6
CONTINUOUS
 62
     7
 10
110.7433834313
 20
157.0396334588
 30
0.0
 11
107.3433839916
 21
157.0396334588
 31
0.0
  0
LINE
  5
79
  8
0
  6
CONTINUOUS
 62
     7
 10
107.3433839916
 20
156.6396326482
 30
0.0
 11
107.0433833836
 21
156.6396326482
 31
0.0
  0
LINE
  5
7A
  8
0
  6
CONTINUOUS
 62
     7
 10
106.0433843373
 20
156.6396326482
 30
0.0
 11
89.9433844922
 21
156.6396326482
 31
0.0
  0
LINE
  5
7B
  8
0
  6
CONTINUOUS
 62
     7
 10
89.9433844922
 20
144.6396321713
 30
0.0
 11
107.3433839916
 21
144.6396321713
 31
0.0
  0
LINE
  5
7C
  8
0
  6
CONTINUOUS
 62
     7
 10
31.343381965
 20
157.0396334588
 30
0.0
 11
27.9433780549
 21
157.0396334588
 31
0.0
  0
LINE
  5
7D
  8
0
  6
CONTINUOUS
 62
     7
 10
31.343381965
 20
144.6396321713
 30
0.0
 11
48.7433844446
 21
144.6396321713
 31
0.0
  0
LINE
  5
7E
  8
0
  6
CONTINUOUS
 62
     7
 10
48.7433844446
 20
156.6396326482
 30
0.0
 11
32.6433831094
 21
156.6396326482
 31
0.0
  0
LINE
  5
7F
  8
0
  6
CONTINUOUS
 62
     7
 10
31.6433840631
 20
156.6396326482
 30
0.0
 11
31.343381965
 21
156.6396326482
 31
0.0
  0
LINE
  5
80
  8
0
  6
CONTINUOUS
 62
     7
 10
151.1469342945
 20
157.0396334588
 30
0.0
 11
147.9433843134
 21
157.0396334588
 31
0.0
  0
LINE
  5
81
  8
0
  6
CONTINUOUS
 62
     7
 10
151.3433837531
 20
144.6396321713
 30
0.0
 11
168.7433832525
 21
144.6396321713
 31
0.0
  0
LINE
  5
82
  8
0
  6
CONTINUOUS
 62
     7
 10
168.7433832525
 20
156.6396326482
 30
0.0
 11
154.9158954261
 21
156.6396326482
 31
0.0
  0
LINE
  5
83
  8
0
  6
CONTINUOUS
 62
     7
 10
50.9290986894
 20
64.0396327436
 30
0.0
 11
47.1704536317
 21
64.0396327436
 31
0.0
  0
LINE
  5
84
  8
0
  6
CONTINUOUS
 62
     7
 10
47.1704536317
 20
65.239632754
 30
0.0
 11
50.9290986894
 21
65.239632754
 31
0.0
  0
LINE
  5
85
  8
0
  6
CONTINUOUS
 62
     7
 10
61.516314113
 20
64.0396327436
 30
0.0
 11
57.7576690553
 21
64.0396327436
 31
0.0
  0
LINE
  5
86
  8
0
  6
CONTINUOUS
 62
     7
 10
57.7576690553
 20
65.239632754
 30
0.0
 11
61.516314113
 21
65.239632754
 31
0.0
  0
LINE
  5
87
  8
0
  6
CONTINUOUS
 62
     7
 10
50.9290986894
 20
64.0396327436
 30
0.0
 11
57.7576690553
 21
64.0396327436
 31
0.0
  0
LINE
  5
88
  8
0
  6
CONTINUOUS
 62
     7
 10
50.9290986894
 20
65.239632754
 30
0.0
 11
57.7576690553
 21
65.239632754
 31
0.0
  0
LINE
  5
89
  8
0
  6
CONTINUOUS
 62
     7
 10
197.1704536317
 20
65.239632754
 30
0.0
 11
200.9290986894
 21
65.239632754
 31
0.0
  0
LINE
  5
8A
  8
0
  6
CONTINUOUS
 62
     7
 10
200.9290986894
 20
64.0396327436
 30
0.0
 11
197.1704536317
 21
64.0396327436
 31
0.0
  0
LINE
  5
8B
  8
0
  6
CONTINUOUS
 62
     7
 10
200.9290986894
 20
65.239632754
 30
0.0
 11
207.7576690553
 21
65.239632754
 31
0.0
  0
LINE
  5
8C
  8
0
  6
CONTINUOUS
 62
     7
 10
200.9290986894
 20
64.0396327436
 30
0.0
 11
207.7576690553
 21
64.0396327436
 31
0.0
  0
LINE
  5
8D
  8
0
  6
CONTINUOUS
 62
     7
 10
207.7576690553
 20
65.239632754
 30
0.0
 11
211.516314113
 21
65.239632754
 31
0.0
  0
LINE
  5
8E
  8
0
  6
CONTINUOUS
 62
     7
 10
211.516314113
 20
64.0396327436
 30
0.0
 11
207.7576690553
 21
64.0396327436
 31
0.0
  0
LINE
  5
8F
  8
0
  6
CONTINUOUS
 62
     7
 10
42.3433833955
 20
64.0396327436
 30
0.0
 11
42.3433833955
 21
65.239632754
 31
0.0
  0
LINE
  5
90
  8
0
  6
CONTINUOUS
 62
     7
 10
42.3433833955
 20
64.0396327436
 30
0.0
 11
47.1704536317
 21
64.0396327436
 31
0.0
  0
LINE
  5
91
  8
0
  6
CONTINUOUS
 62
     7
 10
47.1704536317
 20
65.239632754
 30
0.0
 11
42.3433833955
 21
65.239632754
 31
0.0
  0
LINE
  5
92
  8
0
  6
CONTINUOUS
 62
     7
 10
66.3433843492
 20
64.0396327436
 30
0.0
 11
66.3433843492
 21
65.239632754
 31
0.0
  0
LINE
  5
93
  8
0
  6
CONTINUOUS
 62
     7
 10
61.516314113
 20
64.0396327436
 30
0.0
 11
66.3433843492
 21
64.0396327436
 31
0.0
  0
LINE
  5
94
  8
0
  6
CONTINUOUS
 62
     7
 10
66.3433843492
 20
65.239632754
 30
0.0
 11
61.516314113
 21
65.239632754
 31
0.0
  0
LINE
  5
95
  8
0
  6
CONTINUOUS
 62
     7
 10
192.3433833955
 20
64.0396327436
 30
0.0
 11
192.3433833955
 21
65.239632754
 31
0.0
  0
LINE
  5
96
  8
0
  6
CONTINUOUS
 62
     7
 10
197.1704536317
 20
65.239632754
 30
0.0
 11
192.3433833955
 21
65.239632754
 31
0.0
  0
LINE
  5
97
  8
0
  6
CONTINUOUS
 62
     7
 10
192.3433833955
 20
64.0396327436
 30
0.0
 11
197.1704536317
 21
64.0396327436
 31
0.0
  0
LINE
  5
98
  8
0
  6
CONTINUOUS
 62
     7
 10
216.3433843492
 20
64.0396327436
 30
0.0
 11
216.3433843492
 21
65.239632754
 31
0.0
  0
LINE
  5
99
  8
0
  6
CONTINUOUS
 62
     7
 10
216.3433843492
 20
65.239632754
 30
0.0
 11
211.516314113
 21
65.239632754
 31
0.0
  0
LINE
  5
9A
  8
0
  6
CONTINUOUS
 62
     7
 10
211.516314113
 20
64.0396327436
 30
0.0
 11
216.3433843492
 21
64.0396327436
 31
0.0
  0
ARC
  5
9B
  8
0
  6
CONTINUOUS
 62
     7
 10
232.5433838723
 20
138.8396327436
 30
0.0
 40
0.4000000000000057
 50
0.0
 51
90.0
  0
LINE
  5
9C
  8
0
  6
CONTINUOUS
 62
     7
 10
232.9433852075
 20
138.8396353185
 30
0.0
 11
232.9433852075
 21
138.2396311223
 31
0.0
  0
POLYLINE
  5
9D
  8
0
  6
CONTINUOUS
 62
     7
 66
     1
 10
0.0
 20
0.0
 30
0.0
  0
VERTEX
  5
351
  8
0
  6
CONTINUOUS
 62
     7
 10
209.3433850644
 20
129.2396337449
 30
0.0
  0
VERTEX
  5
352
  8
0
  6
CONTINUOUS
 62
     7
 10
209.324168527
 20
129.2588502824
 30
0.0
  0
VERTEX
  5
353
  8
0
  6
CONTINUOUS
 62
     7
 10
209.2672639726
 20
129.3157548368
 30
0.0
  0
VERTEX
  5
354
  8
0
  6
CONTINUOUS
 62
     7
 10
209.1748529313
 20
129.408165878
 30
0.0
  0
VERTEX
  5
355
  8
0
  6
CONTINUOUS
 62
     7
 10
209.05048784
 20
129.5325250089
 30
0.0
  0
VERTEX
  5
356
  8
0
  6
CONTINUOUS
 62
     7
 10
208.8989549516
 20
129.6840638578
 30
0.0
  0
VERTEX
  5
357
  8
0
  6
CONTINUOUS
 62
     7
 10
208.726065719
 20
129.8569471299
 30
0.0
  0
VERTEX
  5
358
  8
0
  6
CONTINUOUS
 62
     7
 10
208.5384720205
 20
130.0445408284
 30
0.0
  0
VERTEX
  5
359
  8
0
  6
CONTINUOUS
 62
     7
 10
208.3433860181
 20
130.2396327912
 30
0.0
  0
SEQEND
  5
7BA
  8
0
  6
CONTINUOUS
 62
     7
  0
LINE
  5
9E
  8
0
  6
CONTINUOUS
 62
     7
 10
209.3433850644
 20
129.2396337449
 30
0.0
 11
209.3433850644
 21
65.239632754
 31
0.0
  0
LINE
  5
9F
  8
0
  6
CONTINUOUS
 62
     7
 10
25.7433825372
 20
138.2396311223
 30
0.0
 11
25.7433825372
 21
138.8396353185
 31
0.0
  0
ARC
  5
A0
  8
0
  6
CONTINUOUS
 62
     7
 10
26.1433838723
 20
138.8396327436
 30
0.0
 40
0.399999999999995
 50
90.0
 51
180.0
  0
LINE
  5
A1
  8
0
  6
CONTINUOUS
 62
     7
 10
232.5433784364
 20
129.2396337449
 30
0.0
 11
229.6151691316
 21
129.2396337449
 31
0.0
  0
LINE
  5
A2
  8
0
  6
CONTINUOUS
 62
     7
 10
222.0716052888
 20
129.2396337449
 30
0.0
 11
209.3433850644
 21
129.2396337449
 31
0.0
  0
LINE
  5
A3
  8
0
  6
CONTINUOUS
 62
     7
 10
25.7433825372
 20
129.6396345555
 30
0.0
 11
25.7433825372
 21
130.2396327912
 31
0.0
  0
ARC
  5
A4
  8
0
  6
CONTINUOUS
 62
     7
 10
26.1433838723
 20
129.6396327436
 30
0.0
 40
0.399999999999995
 50
180.0
 51
270.0
  0
LINE
  5
A5
  8
0
  6
CONTINUOUS
 62
     7
 10
25.7433825372
 20
130.2396327912
 30
0.0
 11
25.7433825372
 21
138.2396311223
 31
0.0
  0
LINE
  5
A6
  8
0
  6
CONTINUOUS
 62
     7
 10
49.3433826803
 20
65.239632754
 30
0.0
 11
49.3433826803
 21
129.2396337449
 31
0.0
  0
POLYLINE
  5
A7
  8
0
  6
CONTINUOUS
 62
     7
 66
     1
 10
0.0
 20
0.0
 30
0.0
  0
VERTEX
  5
35A
  8
0
  6
CONTINUOUS
 62
     7
 10
49.3433826803
 20
129.2396337449
 30
0.0
  0
VERTEX
  5
35B
  8
0
  6
CONTINUOUS
 62
     7
 10
49.3625992177
 20
129.2588502824
 30
0.0
  0
VERTEX
  5
35C
  8
0
  6
CONTINUOUS
 62
     7
 10
49.4195037721
 20
129.3157548368
 30
0.0
  0
VERTEX
  5
35D
  8
0
  6
CONTINUOUS
 62
     7
 10
49.5119148134
 20
129.408165878
 30
0.0
  0
VERTEX
  5
35E
  8
0
  6
CONTINUOUS
 62
     7
 10
49.6362799047
 20
129.5325250089
 30
0.0
  0
VERTEX
  5
35F
  8
0
  6
CONTINUOUS
 62
     7
 10
49.7878127931
 20
129.6840638578
 30
0.0
  0
VERTEX
  5
360
  8
0
  6
CONTINUOUS
 62
     7
 10
49.9607020257
 20
129.8569471299
 30
0.0
  0
VERTEX
  5
361
  8
0
  6
CONTINUOUS
 62
     7
 10
50.1482957242
 20
130.0445408284
 30
0.0
  0
VERTEX
  5
362
  8
0
  6
CONTINUOUS
 62
     7
 10
50.3433817266
 20
130.2396327912
 30
0.0
  0
SEQEND
  5
7B9
  8
0
  6
CONTINUOUS
 62
     7
  0
LINE
  5
A8
  8
0
  6
CONTINUOUS
 62
     7
 10
232.9433852075
 20
138.2396311223
 30
0.0
 11
232.9433852075
 21
130.2396327912
 31
0.0
  0
LINE
  5
A9
  8
0
  6
CONTINUOUS
 62
     7
 10
232.9433852075
 20
130.2396327912
 30
0.0
 11
232.9433852075
 21
129.6396345555
 31
0.0
  0
ARC
  5
AA
  8
0
  6
CONTINUOUS
 62
     7
 10
232.5433838723
 20
129.6396327436
 30
0.0
 40
0.4000000000000057
 50
270.0
 51
0.0
  0
LINE
  5
AB
  8
0
  6
CONTINUOUS
 62
     7
 10
173.266350591
 20
129.2396337449
 30
0.0
 11
156.615164244
 21
129.2396337449
 31
0.0
  0
LINE
  5
AC
  8
0
  6
CONTINUOUS
 62
     7
 10
149.0716033815
 20
129.2396337449
 30
0.0
 11
109.6151643632
 21
129.2396337449
 31
0.0
  0
LINE
  5
AD
  8
0
  6
CONTINUOUS
 62
     7
 10
102.0716035007
 20
129.2396337449
 30
0.0
 11
85.4204171537
 21
129.2396337449
 31
0.0
  0
LINE
  5
AE
  8
0
  6
CONTINUOUS
 62
     7
 10
199.3433826803
 20
65.239632754
 30
0.0
 11
199.3433826803
 21
129.0396303594
 31
0.0
  0
CIRCLE
  5
AF
  8
0
  6
CONTINUOUS
 62
     7
 10
106.8433838723
 20
133.4396327436
 30
0.0
 40
1.049999999999997
  0
CIRCLE
  5
B0
  8
0
  6
CONTINUOUS
 62
     7
 10
151.8433838723
 20
133.4396327436
 30
0.0
 40
1.049999999999983
  0
CIRCLE
  5
B1
  8
0
  6
CONTINUOUS
 62
     7
 10
31.8433838723
 20
133.4396327436
 30
0.0
 40
1.049999999999994
  0
CIRCLE
  5
B2
  8
0
  6
CONTINUOUS
 62
     7
 10
226.8433838723
 20
133.4396327436
 30
0.0
 40
1.049999999999983
  0
LINE
  5
B3
  8
0
  6
CONTINUOUS
 62
     7
 10
59.3433850644
 20
129.0396303594
 30
0.0
 11
59.3433850644
 21
65.239632754
 31
0.0
  0
LINE
  5
B4
  8
0
  6
CONTINUOUS
 62
     7
 10
26.1433893083
 20
139.2396301686
 30
0.0
 11
27.9433780549
 21
139.2396301686
 31
0.0
  0
LINE
  5
B5
  8
0
  6
CONTINUOUS
 62
     7
 10
37.743383014
 20
139.2396301686
 30
0.0
 11
51.3433867334
 21
139.2396301686
 31
0.0
  0
LINE
  5
B6
  8
0
  6
CONTINUOUS
 62
     7
 10
87.3433851836
 20
139.2396301686
 30
0.0
 11
100.9433829425
 21
139.2396301686
 31
0.0
  0
LINE
  5
B7
  8
0
  6
CONTINUOUS
 62
     7
 10
110.7433834313
 20
139.2396301686
 30
0.0
 11
147.9433843134
 21
139.2396301686
 31
0.0
  0
LINE
  5
B8
  8
0
  6
CONTINUOUS
 62
     7
 10
157.7433848022
 20
139.2396301686
 30
0.0
 11
171.343382561
 21
139.2396301686
 31
0.0
  0
LINE
  5
B9
  8
0
  6
CONTINUOUS
 62
     7
 10
207.3433810113
 20
139.2396301686
 30
0.0
 11
220.9433847307
 21
139.2396301686
 31
0.0
  0
LINE
  5
BA
  8
0
  6
CONTINUOUS
 62
     7
 10
230.7433896898
 20
139.2396301686
 30
0.0
 11
232.5433784364
 21
139.2396301686
 31
0.0
  0
LINE
  5
BB
  8
0
  6
CONTINUOUS
 62
     7
 10
49.3433826803
 20
129.2396337449
 30
0.0
 11
36.6151624559
 21
129.2396337449
 31
0.0
  0
LINE
  5
BC
  8
0
  6
CONTINUOUS
 62
     7
 10
29.0715986131
 20
129.2396337449
 30
0.0
 11
26.1433893083
 21
129.2396337449
 31
0.0
  0
POLYLINE
  5
BD
  8
0
  6
CONTINUOUS
 62
     7
 66
     1
 10
0.0
 20
0.0
 30
0.0
  0
VERTEX
  5
363
  8
0
  6
CONTINUOUS
 62
     7
 10
214.3771582483
 20
185.4166478574
 30
0.0
  0
VERTEX
  5
364
  8
0
  6
CONTINUOUS
 62
     7
 10
215.217679107
 20
185.4383201062
 30
0.0
  0
VERTEX
  5
365
  8
0
  6
CONTINUOUS
 62
     7
 10
216.0439365743
 20
185.4726881444
 30
0.0
  0
SEQEND
  5
7B8
  8
0
  6
CONTINUOUS
 62
     7
  0
ARC
  5
BE
  8
0
  6
CONTINUOUS
 62
     7
 10
214.0194586283
 20
195.5305673427
 30
0.0
 40
10.25960257132056
 50
281.3805863759
 51
0.210768635
  0
ARC
  5
BF
  8
0
  6
CONTINUOUS
 62
     7
 10
165.3022348703
 20
239.7549437324
 30
0.0
 40
54.3473615376343
 50
267.1951986881
 51
268.953463907
  0
ARC
  5
C0
  8
0
  6
CONTINUOUS
 62
     7
 10
164.6547366007
 20
195.520312842
 30
0.0
 40
10.24707423228385
 50
179.7316358646
 51
258.6770091245
  0
POLYLINE
  5
C1
  8
0
  6
CONTINUOUS
 62
     7
 66
     1
 10
0.0
 20
0.0
 30
0.0
  0
VERTEX
  5
366
  8
0
  6
CONTINUOUS
 62
     7
 10
162.6428299783
 20
185.4726881444
 30
0.0
  0
VERTEX
  5
367
  8
0
  6
CONTINUOUS
 62
     7
 10
166.4357924102
 20
185.4099363744
 30
0.0
  0
VERTEX
  5
368
  8
0
  6
CONTINUOUS
 62
     7
 10
170.2386223911
 20
185.3567928731
 30
0.0
  0
VERTEX
  5
369
  8
0
  6
CONTINUOUS
 62
     7
 10
174.0496867536
 20
185.3132814824
 30
0.0
  0
VERTEX
  5
36A
  8
0
  6
CONTINUOUS
 62
     7
 10
177.8673404096
 20
185.2794141233
 30
0.0
  0
VERTEX
  5
36B
  8
0
  6
CONTINUOUS
 62
     7
 10
181.6899412511
 20
185.2552146375
 30
0.0
  0
VERTEX
  5
36C
  8
0
  6
CONTINUOUS
 62
     7
 10
185.5158382295
 20
185.240694946
 30
0.0
  0
VERTEX
  5
36D
  8
0
  6
CONTINUOUS
 62
     7
 10
189.3433862565
 20
185.2358550489
 30
0.0
  0
VERTEX
  5
36E
  8
0
  6
CONTINUOUS
 62
     7
 10
193.1709283231
 20
185.240694946
 30
0.0
  0
VERTEX
  5
36F
  8
0
  6
CONTINUOUS
 62
     7
 10
196.9968253015
 20
185.2552146375
 30
0.0
  0
VERTEX
  5
370
  8
0
  6
CONTINUOUS
 62
     7
 10
200.819426143
 20
185.2794141233
 30
0.0
  0
VERTEX
  5
371
  8
0
  6
CONTINUOUS
 62
     7
 10
204.637079799
 20
185.3132814824
 30
0.0
  0
VERTEX
  5
372
  8
0
  6
CONTINUOUS
 62
     7
 10
208.4481471418
 20
185.3567928731
 30
0.0
  0
VERTEX
  5
373
  8
0
  6
CONTINUOUS
 62
     7
 10
212.2509771226
 20
185.4099363744
 30
0.0
  0
VERTEX
  5
374
  8
0
  6
CONTINUOUS
 62
     7
 10
216.0439365743
 20
185.4726881444
 30
0.0
  0
SEQEND
  5
7B7
  8
0
  6
CONTINUOUS
 62
     7
  0
LINE
  5
C2
  8
0
  6
CONTINUOUS
 62
     7
 10
154.4077747701
 20
235.2701634824
 30
0.0
 11
154.4077747701
 21
195.5683082997
 31
0.0
  0
ARC
  5
C3
  8
0
  6
CONTINUOUS
 62
     7
 10
164.1909275014
 20
235.3650967419
 30
0.0
 40
9.783613324751878
 50
99.1043898121
 51
180.5559664191
  0
POLYLINE
  5
C4
  8
0
  6
CONTINUOUS
 62
     7
 66
     1
 10
0.0
 20
0.0
 30
0.0
  0
VERTEX
  5
375
  8
0
  6
CONTINUOUS
 62
     7
 10
162.6428299783
 20
245.025453037
 30
0.0
  0
VERTEX
  5
376
  8
0
  6
CONTINUOUS
 62
     7
 10
166.4357924102
 20
244.962701267
 30
0.0
  0
VERTEX
  5
377
  8
0
  6
CONTINUOUS
 62
     7
 10
170.2386223911
 20
244.9095577657
 30
0.0
  0
VERTEX
  5
378
  8
0
  6
CONTINUOUS
 62
     7
 10
174.0496867536
 20
244.866046375
 30
0.0
  0
VERTEX
  5
379
  8
0
  6
CONTINUOUS
 62
     7
 10
177.8673404096
 20
244.8321909368
 30
0.0
  0
VERTEX
  5
37A
  8
0
  6
CONTINUOUS
 62
     7
 10
181.6899412511
 20
244.807991451
 30
0.0
  0
VERTEX
  5
37B
  8
0
  6
CONTINUOUS
 62
     7
 10
185.5158382295
 20
244.7934598386
 30
0.0
  0
VERTEX
  5
37C
  8
0
  6
CONTINUOUS
 62
     7
 10
189.3433862565
 20
244.7886199414
 30
0.0
  0
VERTEX
  5
37D
  8
0
  6
CONTINUOUS
 62
     7
 10
193.1709283231
 20
244.7934598386
 30
0.0
  0
VERTEX
  5
37E
  8
0
  6
CONTINUOUS
 62
     7
 10
196.9968253015
 20
244.807991451
 30
0.0
  0
VERTEX
  5
37F
  8
0
  6
CONTINUOUS
 62
     7
 10
200.819426143
 20
244.8321909368
 30
0.0
  0
VERTEX
  5
380
  8
0
  6
CONTINUOUS
 62
     7
 10
204.637079799
 20
244.866046375
 30
0.0
  0
VERTEX
  5
381
  8
0
  6
CONTINUOUS
 62
     7
 10
208.4481471418
 20
244.9095577657
 30
0.0
  0
VERTEX
  5
382
  8
0
  6
CONTINUOUS
 62
     7
 10
212.2509771226
 20
244.962701267
 30
0.0
  0
VERTEX
  5
383
  8
0
  6
CONTINUOUS
 62
     7
 10
216.0439365743
 20
245.025453037
 30
0.0
  0
SEQEND
  5
7B6
  8
0
  6
CONTINUOUS
 62
     7
  0
ARC
  5
C5
  8
0
  6
CONTINUOUS
 62
     7
 10
214.5072713917
 20
235.3747475016
 30
0.0
 40
9.772280041685555
 50
359.3868025399
 51
80.9528412289
  0
LINE
  5
C6
  8
0
  6
CONTINUOUS
 62
     7
 10
224.2789917825
 20
195.5683082997
 30
0.0
 11
224.2789917825
 21
235.2701634824
 31
0.0
  0
POLYLINE
  5
C7
  8
0
  6
CONTINUOUS
 62
     7
 66
     1
 10
0.0
 20
0.0
 30
0.0
  0
VERTEX
  5
384
  8
0
  6
CONTINUOUS
 62
     7
 10
164.3096083043
 20
185.4166478574
 30
0.0
  0
VERTEX
  5
385
  8
0
  6
CONTINUOUS
 62
     7
 10
168.1423806785
 20
185.3576988637
 30
0.0
  0
VERTEX
  5
386
  8
0
  6
CONTINUOUS
 62
     7
 10
171.9844334958
 20
185.3085250318
 30
0.0
  0
VERTEX
  5
387
  8
0
  6
CONTINUOUS
 62
     7
 10
175.8340918659
 20
185.2691621244
 30
0.0
  0
VERTEX
  5
388
  8
0
  6
CONTINUOUS
 62
     7
 10
179.6896630166
 20
185.2396339833
 30
0.0
  0
VERTEX
  5
389
  8
0
  6
CONTINUOUS
 62
     7
 10
183.5494571565
 20
185.2199286878
 30
0.0
  0
VERTEX
  5
38A
  8
0
  6
CONTINUOUS
 62
     7
 10
187.4117964147
 20
185.2100820005
 30
0.0
  0
VERTEX
  5
38B
  8
0
  6
CONTINUOUS
 62
     7
 10
191.2749760984
 20
185.2100820005
 30
0.0
  0
VERTEX
  5
38C
  8
0
  6
CONTINUOUS
 62
     7
 10
195.1373093961
 20
185.2199286878
 30
0.0
  0
VERTEX
  5
38D
  8
0
  6
CONTINUOUS
 62
     7
 10
198.997103536
 20
185.2396339833
 30
0.0
  0
VERTEX
  5
38E
  8
0
  6
CONTINUOUS
 62
     7
 10
202.852677667
 20
185.2691621244
 30
0.0
  0
VERTEX
  5
38F
  8
0
  6
CONTINUOUS
 62
     7
 10
206.7023330568
 20
185.3085250318
 30
0.0
  0
VERTEX
  5
390
  8
0
  6
CONTINUOUS
 62
     7
 10
210.5443888543
 20
185.3576988637
 30
0.0
  0
VERTEX
  5
391
  8
0
  6
CONTINUOUS
 62
     7
 10
214.3771582483
 20
185.4166478574
 30
0.0
  0
SEQEND
  5
7B5
  8
0
  6
CONTINUOUS
 62
     7
  0
ARC
  5
C8
  8
0
  6
CONTINUOUS
 62
     7
 10
162.3787991769
 20
237.8913785486
 30
0.0
 40
11.53015475364344
 50
111.5475430071
 51
126.7247218963
  0
ARC
  5
C9
  8
0
  6
CONTINUOUS
 62
     7
 10
215.9226109584
 20
237.1213030013
 30
0.0
 40
12.38111910854724
 50
54.0748919226
 51
68.1454714933
  0
LINE
  5
CA
  8
0
  6
CONTINUOUS
 62
     7
 10
34.4077759622
 20
235.2701634824
 30
0.0
 11
34.4077759622
 21
226.9662947118
 31
0.0
  0
ARC
  5
CB
  8
0
  6
CONTINUOUS
 62
     7
 10
44.1909334398
 20
235.3650927353
 30
0.0
 40
9.783618031955827
 50
99.1044135448
 51
180.5559426864
  0
POLYLINE
  5
CC
  8
0
  6
CONTINUOUS
 62
     7
 66
     1
 10
0.0
 20
0.0
 30
0.0
  0
VERTEX
  5
392
  8
0
  6
CONTINUOUS
 62
     7
 10
42.6428311704
 20
245.025453037
 30
0.0
  0
VERTEX
  5
393
  8
0
  6
CONTINUOUS
 62
     7
 10
46.4357906221
 20
244.962701267
 30
0.0
  0
VERTEX
  5
394
  8
0
  6
CONTINUOUS
 62
     7
 10
50.2386206029
 20
244.9095577657
 30
0.0
  0
VERTEX
  5
395
  8
0
  6
CONTINUOUS
 62
     7
 10
54.0496879457
 20
244.866046375
 30
0.0
  0
VERTEX
  5
396
  8
0
  6
CONTINUOUS
 62
     7
 10
57.8673416017
 20
244.8321909368
 30
0.0
  0
VERTEX
  5
397
  8
0
  6
CONTINUOUS
 62
     7
 10
61.6899424432
 20
244.807991451
 30
0.0
  0
VERTEX
  5
398
  8
0
  6
CONTINUOUS
 62
     7
 10
65.5158394216
 20
244.7934598386
 30
0.0
  0
VERTEX
  5
399
  8
0
  6
CONTINUOUS
 62
     7
 10
69.3433814882
 20
244.7886199414
 30
0.0
  0
VERTEX
  5
39A
  8
0
  6
CONTINUOUS
 62
     7
 10
73.1709295152
 20
244.7934598386
 30
0.0
  0
VERTEX
  5
39B
  8
0
  6
CONTINUOUS
 62
     7
 10
76.9968264936
 20
244.807991451
 30
0.0
  0
VERTEX
  5
39C
  8
0
  6
CONTINUOUS
 62
     7
 10
80.8194273351
 20
244.8321909368
 30
0.0
  0
VERTEX
  5
39D
  8
0
  6
CONTINUOUS
 62
     7
 10
84.6370809911
 20
244.866046375
 30
0.0
  0
VERTEX
  5
39E
  8
0
  6
CONTINUOUS
 62
     7
 10
88.4481453536
 20
244.9095577657
 30
0.0
  0
VERTEX
  5
39F
  8
0
  6
CONTINUOUS
 62
     7
 10
92.2509753345
 20
244.962701267
 30
0.0
  0
VERTEX
  5
3A0
  8
0
  6
CONTINUOUS
 62
     7
 10
96.0439377664
 20
245.025453037
 30
0.0
  0
SEQEND
  5
7B4
  8
0
  6
CONTINUOUS
 62
     7
  0
ARC
  5
CD
  8
0
  6
CONTINUOUS
 62
     7
 10
94.5072704645
 20
235.3747457126
 30
0.0
 40
9.772282141696856
 50
359.3868131615
 51
80.9528306073
  0
LINE
  5
CE
  8
0
  6
CONTINUOUS
 62
     7
 10
104.2789929746
 20
226.9687623441
 30
0.0
 11
104.2789929746
 21
235.2701634824
 31
0.0
  0
ARC
  5
CF
  8
0
  6
CONTINUOUS
 62
     7
 10
42.3789697737
 20
237.8910692931
 30
0.0
 40
11.53050570868763
 50
111.5477753418
 51
126.7244895617
  0
ARC
  5
D0
  8
0
  6
CONTINUOUS
 62
     7
 10
95.9227198624
 20
237.121503604
 30
0.0
 40
12.38089171756005
 50
54.0747620571
 51
68.1456013588
  0
LINE
  5
D1
  8
0
  6
CONTINUOUS
 62
     7
 10
207.3433810113
 20
138.8396353185
 30
0.0
 11
207.3433810113
 21
132.0396334588
 31
0.0
  0
ARC
  5
D2
  8
0
  6
CONTINUOUS
 62
     7
 10
204.3433838723
 20
132.0396327436
 30
0.0
 40
3.000000000000028
 50
270.0
 51
0.0
  0
LINE
  5
D3
  8
0
  6
CONTINUOUS
 62
     7
 10
204.3433838723
 20
129.0396303594
 30
0.0
 11
174.3433826803
 21
129.0396303594
 31
0.0
  0
ARC
  5
D4
  8
0
  6
CONTINUOUS
 62
     7
 10
174.3433838723
 20
132.0396327436
 30
0.0
 40
3.000000000000028
 50
180.0
 51
270.0
  0
LINE
  5
D5
  8
0
  6
CONTINUOUS
 62
     7
 10
171.343382561
 20
138.8396353185
 30
0.0
 11
171.343382561
 21
132.0396334588
 31
0.0
  0
CIRCLE
  5
D6
  8
0
  6
CONTINUOUS
 62
     7
 10
174.3433838723
 20
133.2396327436
 30
0.0
 40
1.100000000000023
  0
CIRCLE
  5
D7
  8
0
  6
CONTINUOUS
 62
     7
 10
204.3433838723
 20
133.2396327436
 30
0.0
 40
1.099999999999994
  0
LINE
  5
D8
  8
0
  6
CONTINUOUS
 62
     7
 10
207.3433810113
 20
139.8396343648
 30
0.0
 11
171.343382561
 21
139.8396343648
 31
0.0
  0
LINE
  5
D9
  8
0
  6
CONTINUOUS
 62
     7
 10
207.3433810113
 20
139.8396343648
 30
0.0
 11
207.3433810113
 21
138.8396353185
 31
0.0
  0
LINE
  5
DA
  8
0
  6
CONTINUOUS
 62
     7
 10
171.343382561
 20
139.8396343648
 30
0.0
 11
171.343382561
 21
138.8396353185
 31
0.0
  0
LINE
  5
DB
  8
0
  6
CONTINUOUS
 62
     7
 10
192.3433833955
 20
145.7843930184
 30
0.0
 11
192.3433833955
 21
139.8396343648
 31
0.0
  0
LINE
  5
DC
  8
0
  6
CONTINUOUS
 62
     7
 10
186.3433831571
 20
145.7843930184
 30
0.0
 11
186.3433831571
 21
139.8396343648
 31
0.0
  0
LINE
  5
DD
  8
0
  6
CONTINUOUS
 62
     7
 10
186.3433831571
 20
148.0214924275
 30
0.0
 11
186.3433831571
 21
145.7843930184
 31
0.0
  0
LINE
  5
DE
  8
0
  6
CONTINUOUS
 62
     7
 10
192.3433833955
 20
148.0214924275
 30
0.0
 11
192.3433833955
 21
145.7843930184
 31
0.0
  0
LINE
  5
DF
  8
0
  6
CONTINUOUS
 62
     7
 10
186.3433831571
 20
170.2115148961
 30
0.0
 11
186.3433831571
 21
153.4021944463
 31
0.0
  0
LINE
  5
E0
  8
0
  6
CONTINUOUS
 62
     7
 10
192.3433833955
 20
170.2115148961
 30
0.0
 11
192.3433833955
 21
153.4021944463
 31
0.0
  0
LINE
  5
E1
  8
0
  6
CONTINUOUS
 62
     7
 10
186.3433831571
 20
173.9755839765
 30
0.0
 11
186.3433831571
 21
170.2115148961
 31
0.0
  0
LINE
  5
E2
  8
0
  6
CONTINUOUS
 62
     7
 10
192.3433833955
 20
173.9755839765
 30
0.0
 11
192.3433833955
 21
170.2115148961
 31
0.0
  0
LINE
  5
E3
  8
0
  6
CONTINUOUS
 62
     7
 10
192.3433833955
 20
173.9755839765
 30
0.0
 11
192.3433833955
 21
180.0617904126
 31
0.0
  0
LINE
  5
E4
  8
0
  6
CONTINUOUS
 62
     7
 10
186.3433831571
 20
173.9755839765
 30
0.0
 11
186.3433831571
 21
180.0610989987
 31
0.0
  0
LINE
  5
E5
  8
0
  6
CONTINUOUS
 62
     7
 10
87.3433851836
 20
138.8396353185
 30
0.0
 11
87.3433851836
 21
132.0396334588
 31
0.0
  0
ARC
  5
E6
  8
0
  6
CONTINUOUS
 62
     7
 10
84.3433838723
 20
132.0396327436
 30
0.0
 40
3.000000000000028
 50
270.0
 51
0.0
  0
LINE
  5
E7
  8
0
  6
CONTINUOUS
 62
     7
 10
84.3433850644
 20
129.0396303594
 30
0.0
 11
54.3433838723
 21
129.0396303594
 31
0.0
  0
ARC
  5
E8
  8
0
  6
CONTINUOUS
 62
     7
 10
54.3433838723
 20
132.0396327436
 30
0.0
 40
3.000000000000028
 50
180.0
 51
270.0
  0
LINE
  5
E9
  8
0
  6
CONTINUOUS
 62
     7
 10
51.3433867334
 20
138.8396353185
 30
0.0
 11
51.3433867334
 21
132.0396334588
 31
0.0
  0
CIRCLE
  5
EA
  8
0
  6
CONTINUOUS
 62
     7
 10
54.3433838723
 20
133.2396327436
 30
0.0
 40
1.100000000000023
  0
CIRCLE
  5
EB
  8
0
  6
CONTINUOUS
 62
     7
 10
84.3433838723
 20
133.2396327436
 30
0.0
 40
1.099999999999994
  0
LINE
  5
EC
  8
0
  6
CONTINUOUS
 62
     7
 10
87.3433851836
 20
139.8396343648
 30
0.0
 11
51.3433867334
 21
139.8396343648
 31
0.0
  0
LINE
  5
ED
  8
0
  6
CONTINUOUS
 62
     7
 10
87.3433851836
 20
139.8396343648
 30
0.0
 11
87.3433851836
 21
138.8396353185
 31
0.0
  0
LINE
  5
EE
  8
0
  6
CONTINUOUS
 62
     7
 10
51.3433867334
 20
139.8396343648
 30
0.0
 11
51.3433867334
 21
138.8396353185
 31
0.0
  0
LINE
  5
EF
  8
0
  6
CONTINUOUS
 62
     7
 10
66.3433843492
 20
145.7843930184
 30
0.0
 11
66.3433843492
 21
139.8396343648
 31
0.0
  0
LINE
  5
F0
  8
0
  6
CONTINUOUS
 62
     7
 10
72.3433845876
 20
145.7843930184
 30
0.0
 11
72.3433845876
 21
139.8396343648
 31
0.0
  0
LINE
  5
F1
  8
0
  6
CONTINUOUS
 62
     7
 10
66.3433843492
 20
152.8175563275
 30
0.0
 11
66.3433843492
 21
145.7843930184
 31
0.0
  0
LINE
  5
F2
  8
0
  6
CONTINUOUS
 62
     7
 10
72.3433845876
 20
152.8175563275
 30
0.0
 11
72.3433845876
 21
145.7843930184
 31
0.0
  0
LINE
  5
F3
  8
0
  6
CONTINUOUS
 62
     7
 10
72.3433845876
 20
160.5981797635
 30
0.0
 11
72.3433845876
 21
152.8175563275
 31
0.0
  0
LINE
  5
F4
  8
0
  6
CONTINUOUS
 62
     7
 10
66.3433843492
 20
160.5976910054
 30
0.0
 11
66.3433843492
 21
152.8175563275
 31
0.0
  0
ARC
  5
F5
  8
0
  6
CONTINUOUS
 62
     7
 10
189.3600894298
 20
336.5899373177
 30
0.0
 40
188.5909277328931
 50
277.7920278596
 51
281.5897616069
  0
ARC
  5
F6
  8
0
  6
CONTINUOUS
 62
     7
 10
226.7121405052
 20
154.480135864
 30
0.0
 40
2.690000000000026
 50
281.5900201068
 51
12.4186815058
  0
ARC
  5
F7
  8
0
  6
CONTINUOUS
 62
     7
 10
189.3425291309
 20
336.6925942163
 30
0.0
 40
183.315023421842
 50
277.7930859734
 51
281.5887447119
  0
ARC
  5
F8
  8
0
  6
CONTINUOUS
 62
     7
 10
226.7121405052
 20
154.480135864
 30
0.0
 40
2.690000000000007
 50
12.4186815058
 51
100.0467259538
  0
ARC
  5
F9
  8
0
  6
CONTINUOUS
 62
     7
 10
151.9746272395
 20
154.480135864
 30
0.0
 40
2.690000000000001
 50
80.0567778902
 51
167.5813184942
  0
ARC
  5
FA
  8
0
  6
CONTINUOUS
 62
     7
 10
189.3595067759
 20
336.7819266371
 30
0.0
 40
183.405600871397
 50
258.4122925652
 51
262.2059729998
  0
ARC
  5
FB
  8
0
  6
CONTINUOUS
 62
     7
 10
189.3617093523
 20
336.7955095414
 30
0.0
 40
188.7993511589184
 50
258.4124858811
 51
262.2058979528
  0
ARC
  5
FC
  8
0
  6
CONTINUOUS
 62
     7
 10
151.9746272395
 20
154.480135864
 30
0.0
 40
2.690000000000042
 50
167.5813184942
 51
258.4099798932
  0
ARC
  5
FD
  8
0
  6
CONTINUOUS
 62
     7
 10
189.3433838723
 20
336.6876440181
 30
0.0
 40
183.3100000000005
 50
262.2069690737
 51
277.7930309263
  0
ARC
  5
FE
  8
0
  6
CONTINUOUS
 62
     7
 10
189.3433838723
 20
336.6876440181
 30
0.0
 40
188.6900000000006
 50
262.2069690737
 51
277.7930309263
  0
LINE
  5
FF
  8
0
  6
CONTINUOUS
 62
     7
 10
226.0433846353
 20
151.3396353185
 30
0.0
 11
227.0433836816
 21
151.3396353185
 31
0.0
  0
LINE
  5
100
  8
0
  6
CONTINUOUS
 62
     7
 10
226.0433846353
 20
151.6010791719
 30
0.0
 11
226.0433846353
 21
151.3396353185
 31
0.0
  0
LINE
  5
101
  8
0
  6
CONTINUOUS
 62
     7
 10
227.0433836816
 20
151.8106073796
 30
0.0
 11
227.0433836816
 21
151.3396353185
 31
0.0
  0
LINE
  5
102
  8
0
  6
CONTINUOUS
 62
     7
 10
152.6433834074
 20
151.6011030137
 30
0.0
 11
152.6433834074
 21
151.3396353185
 31
0.0
  0
LINE
  5
103
  8
0
  6
CONTINUOUS
 62
     7
 10
152.6433834074
 20
151.3396353185
 30
0.0
 11
151.6433843611
 21
151.3396353185
 31
0.0
  0
LINE
  5
104
  8
0
  6
CONTINUOUS
 62
     7
 10
151.6433843611
 20
151.8106073796
 30
0.0
 11
151.6433843611
 21
151.3396353185
 31
0.0
  0
LINE
  5
105
  8
0
  6
CONTINUOUS
 62
     7
 10
226.0433846353
 20
151.3396353185
 30
0.0
 11
226.0433846353
 21
144.7807342469
 31
0.0
  0
LINE
  5
106
  8
0
  6
CONTINUOUS
 62
     7
 10
227.0433836816
 20
151.3396353185
 30
0.0
 11
227.0433836816
 21
144.7807342469
 31
0.0
  0
LINE
  5
107
  8
0
  6
CONTINUOUS
 62
     7
 10
152.6433834074
 20
151.3396353185
 30
0.0
 11
152.6433834074
 21
144.7807342469
 31
0.0
  0
LINE
  5
108
  8
0
  6
CONTINUOUS
 62
     7
 10
151.6433843611
 20
151.3396353185
 30
0.0
 11
151.6433843611
 21
144.7807342469
 31
0.0
  0
LINE
  5
109
  8
0
  6
CONTINUOUS
 62
     7
 10
152.5150680183
 20
157.1152896344
 30
0.0
 11
152.5189900039
 21
157.1144849717
 31
0.0
  0
LINE
  5
10A
  8
0
  6
CONTINUOUS
 62
     7
 10
226.1674695848
 20
157.1144194066
 30
0.0
 11
226.1717015146
 21
157.1152896344
 31
0.0
  0
LINE
  5
10B
  8
0
  6
CONTINUOUS
 62
     7
 10
106.0433843373
 20
186.5636557996
 30
0.0
 11
107.0433833836
 21
186.5636557996
 31
0.0
  0
LINE
  5
10C
  8
0
  6
CONTINUOUS
 62
     7
 10
106.0433843373
 20
186.5636557996
 30
0.0
 11
106.0433843373
 21
151.4176339566
 31
0.0
  0
LINE
  5
10D
  8
0
  6
CONTINUOUS
 62
     7
 10
107.0433833836
 20
186.5636557996
 30
0.0
 11
107.0433833836
 21
151.4176339566
 31
0.0
  0
LINE
  5
10E
  8
0
  6
CONTINUOUS
 62
     7
 10
32.6433831094
 20
186.5636557996
 30
0.0
 11
31.6433840631
 21
186.5636557996
 31
0.0
  0
LINE
  5
10F
  8
0
  6
CONTINUOUS
 62
     7
 10
32.6433831094
 20
186.5636557996
 30
0.0
 11
32.6433831094
 21
151.4176339566
 31
0.0
  0
LINE
  5
110
  8
0
  6
CONTINUOUS
 62
     7
 10
31.6433840631
 20
186.5636557996
 30
0.0
 11
31.6433840631
 21
151.4176339566
 31
0.0
  0
ARC
  5
111
  8
0
  6
CONTINUOUS
 62
     7
 10
42.8667616342
 20
218.5160080699
 30
0.0
 40
11.78621147888939
 50
103.5823737701
 51
119.5276974483
  0
ARC
  5
112
  8
0
  6
CONTINUOUS
 62
     7
 10
96.2230457939
 20
219.5600167489
 30
0.0
 40
10.6655887011411
 50
59.8185640402
 51
77.1742801927
  0
ARC
  5
113
  8
0
  6
CONTINUOUS
 62
     7
 10
31.974142109
 20
216.9429389696
 30
0.0
 40
30.34004237773084
 50
269.3753662162
 51
271.2639334671
  0
ARC
  5
114
  8
0
  6
CONTINUOUS
 62
     7
 10
106.7126256713
 20
216.942998775
 30
0.0
 40
30.34010217588385
 50
268.7360683942
 51
270.6246319225
  0
LINE
  5
115
  8
0
  6
CONTINUOUS
 62
     7
 10
106.0433843373
 20
186.6102785527
 30
0.0
 11
106.0433843373
 21
186.5636557996
 31
0.0
  0
LINE
  5
116
  8
0
  6
CONTINUOUS
 62
     7
 10
107.0433833836
 20
186.604699558
 30
0.0
 11
107.0433833836
 21
186.5636557996
 31
0.0
  0
LINE
  5
117
  8
0
  6
CONTINUOUS
 62
     7
 10
32.6433831094
 20
186.6102785527
 30
0.0
 11
32.6433831094
 21
186.5636557996
 31
0.0
  0
LINE
  5
118
  8
0
  6
CONTINUOUS
 62
     7
 10
31.6433840631
 20
186.604699558
 30
0.0
 11
31.6433840631
 21
186.5636557996
 31
0.0
  0
LINE
  5
119
  8
0
  6
CONTINUOUS
 62
     7
 10
227.3433857797
 20
151.8652469575
 30
0.0
 11
227.3433857797
 21
147.8823990285
 31
0.0
  0
LINE
  5
11A
  8
0
  6
CONTINUOUS
 62
     7
 10
230.7433896898
 20
157.0396334588
 30
0.0
 11
230.7433896898
 21
147.8823990285
 31
0.0
  0
LINE
  5
11B
  8
0
  6
CONTINUOUS
 62
     7
 10
209.9433833001
 20
156.6396326482
 30
0.0
 11
209.9433833001
 21
154.5388132989
 31
0.0
  0
LINE
  5
11C
  8
0
  6
CONTINUOUS
 62
     7
 10
209.9433833001
 20
149.1255075395
 30
0.0
 11
209.9433833001
 21
144.6396321713
 31
0.0
  0
LINE
  5
11D
  8
0
  6
CONTINUOUS
 62
     7
 10
220.9433847307
 20
140.0396317899
 30
0.0
 11
230.7433896898
 21
140.0396317899
 31
0.0
  0
LINE
  5
11E
  8
0
  6
CONTINUOUS
 62
     7
 10
220.9433847307
 20
139.0396327436
 30
0.0
 11
220.9433847307
 21
140.0396317899
 31
0.0
  0
LINE
  5
11F
  8
0
  6
CONTINUOUS
 62
     7
 10
230.7433896898
 20
140.0396317899
 30
0.0
 11
230.7433896898
 21
139.0396327436
 31
0.0
  0
ARC
  5
120
  8
0
  6
CONTINUOUS
 62
     7
 10
222.9433838723
 20
131.0396327436
 30
0.0
 40
2.0
 50
180.0
 51
270.0
  0
CIRCLE
  5
121
  8
0
  6
CONTINUOUS
 62
     7
 10
226.8433838723
 20
133.4396327436
 30
0.0
 40
1.099999999999994
  0
ARC
  5
122
  8
0
  6
CONTINUOUS
 62
     7
 10
228.7433838723
 20
131.0396327436
 30
0.0
 40
2.0
 50
270.0
 51
0.0
  0
LINE
  5
123
  8
0
  6
CONTINUOUS
 62
     7
 10
228.7433856366
 20
129.0396303594
 30
0.0
 11
222.9433828233
 21
129.0396303594
 31
0.0
  0
LINE
  5
124
  8
0
  6
CONTINUOUS
 62
     7
 10
220.9433847307
 20
131.0396344125
 30
0.0
 11
220.9433847307
 21
139.0396327436
 31
0.0
  0
LINE
  5
125
  8
0
  6
CONTINUOUS
 62
     7
 10
230.7433896898
 20
131.0396344125
 30
0.0
 11
230.7433896898
 21
139.0396327436
 31
0.0
  0
LINE
  5
126
  8
0
  6
CONTINUOUS
 62
     7
 10
227.3433857797
 20
143.5742229878
 30
0.0
 11
227.3433857797
 21
147.8823990285
 31
0.0
  0
LINE
  5
127
  8
0
  6
CONTINUOUS
 62
     7
 10
230.7433896898
 20
147.8823990285
 30
0.0
 11
230.7433896898
 21
143.5742229878
 31
0.0
  0
LINE
  5
128
  8
0
  6
CONTINUOUS
 62
     7
 10
227.3433857797
 20
143.5742229878
 30
0.0
 11
227.3433857797
 21
140.0396317899
 31
0.0
  0
LINE
  5
129
  8
0
  6
CONTINUOUS
 62
     7
 10
230.7433896898
 20
143.5742229878
 30
0.0
 11
230.7433896898
 21
140.0396317899
 31
0.0
  0
LINE
  5
12A
  8
0
  6
CONTINUOUS
 62
     7
 10
110.7433834313
 20
157.0396334588
 30
0.0
 11
110.7433834313
 21
147.8823990285
 31
0.0
  0
LINE
  5
12B
  8
0
  6
CONTINUOUS
 62
     7
 10
107.3433839916
 20
157.0396334588
 30
0.0
 11
107.3433839916
 21
147.8823990285
 31
0.0
  0
LINE
  5
12C
  8
0
  6
CONTINUOUS
 62
     7
 10
89.9433844922
 20
156.6396326482
 30
0.0
 11
89.9433844922
 21
144.6396321713
 31
0.0
  0
CIRCLE
  5
12D
  8
0
  6
CONTINUOUS
 62
     7
 10
106.8433838723
 20
133.4396327436
 30
0.0
 40
1.100000000000009
  0
ARC
  5
12E
  8
0
  6
CONTINUOUS
 62
     7
 10
108.7433838723
 20
131.0396327436
 30
0.0
 40
2.0
 50
270.0
 51
0.0
  0
ARC
  5
12F
  8
0
  6
CONTINUOUS
 62
     7
 10
102.9433838723
 20
131.0396327436
 30
0.0
 40
2.0
 50
180.0
 51
270.0
  0
LINE
  5
130
  8
0
  6
CONTINUOUS
 62
     7
 10
100.9433829425
 20
131.0396344125
 30
0.0
 11
100.9433829425
 21
139.0396327436
 31
0.0
  0
LINE
  5
131
  8
0
  6
CONTINUOUS
 62
     7
 10
108.7433838485
 20
129.0396303594
 30
0.0
 11
102.9433840154
 21
129.0396303594
 31
0.0
  0
LINE
  5
132
  8
0
  6
CONTINUOUS
 62
     7
 10
110.7433834313
 20
131.0396344125
 30
0.0
 11
110.7433834313
 21
139.0396327436
 31
0.0
  0
LINE
  5
133
  8
0
  6
CONTINUOUS
 62
     7
 10
100.9433829425
 20
140.0396317899
 30
0.0
 11
110.7433834313
 21
140.0396317899
 31
0.0
  0
LINE
  5
134
  8
0
  6
CONTINUOUS
 62
     7
 10
100.9433829425
 20
139.0396327436
 30
0.0
 11
100.9433829425
 21
140.0396317899
 31
0.0
  0
LINE
  5
135
  8
0
  6
CONTINUOUS
 62
     7
 10
110.7433834313
 20
140.0396317899
 30
0.0
 11
110.7433834313
 21
139.0396327436
 31
0.0
  0
LINE
  5
136
  8
0
  6
CONTINUOUS
 62
     7
 10
110.7433834313
 20
147.8823990285
 30
0.0
 11
110.7433834313
 21
143.5742229878
 31
0.0
  0
LINE
  5
137
  8
0
  6
CONTINUOUS
 62
     7
 10
107.3433839916
 20
143.5742229878
 30
0.0
 11
107.3433839916
 21
147.8823990285
 31
0.0
  0
LINE
  5
138
  8
0
  6
CONTINUOUS
 62
     7
 10
110.7433834313
 20
143.5742229878
 30
0.0
 11
110.7433834313
 21
140.0396317899
 31
0.0
  0
LINE
  5
139
  8
0
  6
CONTINUOUS
 62
     7
 10
107.3433839916
 20
143.5742229878
 30
0.0
 11
107.3433839916
 21
140.0396317899
 31
0.0
  0
LINE
  5
13A
  8
0
  6
CONTINUOUS
 62
     7
 10
31.343381965
 20
157.0396334588
 30
0.0
 11
31.343381965
 21
147.8823990285
 31
0.0
  0
LINE
  5
13B
  8
0
  6
CONTINUOUS
 62
     7
 10
27.9433780549
 20
157.0396334588
 30
0.0
 11
27.9433780549
 21
147.8823990285
 31
0.0
  0
LINE
  5
13C
  8
0
  6
CONTINUOUS
 62
     7
 10
48.7433844446
 20
156.6396326482
 30
0.0
 11
48.7433844446
 21
144.6396321713
 31
0.0
  0
CIRCLE
  5
13D
  8
0
  6
CONTINUOUS
 62
     7
 10
31.8433838723
 20
133.4396327436
 30
0.0
 40
1.100000000000005
  0
ARC
  5
13E
  8
0
  6
CONTINUOUS
 62
     7
 10
35.7433838723
 20
131.0396327436
 30
0.0
 40
2.0
 50
270.0
 51
0.0
  0
LINE
  5
13F
  8
0
  6
CONTINUOUS
 62
     7
 10
35.7433849214
 20
129.0396303594
 30
0.0
 11
29.943382108
 21
129.0396303594
 31
0.0
  0
LINE
  5
140
  8
0
  6
CONTINUOUS
 62
     7
 10
37.743383014
 20
139.0396327436
 30
0.0
 11
37.743383014
 21
131.0396344125
 31
0.0
  0
ARC
  5
141
  8
0
  6
CONTINUOUS
 62
     7
 10
29.9433838723
 20
131.0396327436
 30
0.0
 40
2.0
 50
180.0
 51
270.0
  0
LINE
  5
142
  8
0
  6
CONTINUOUS
 62
     7
 10
27.9433780549
 20
131.0396344125
 30
0.0
 11
27.9433780549
 21
139.0396327436
 31
0.0
  0
LINE
  5
143
  8
0
  6
CONTINUOUS
 62
     7
 10
27.9433780549
 20
140.0396317899
 30
0.0
 11
37.743383014
 21
140.0396317899
 31
0.0
  0
LINE
  5
144
  8
0
  6
CONTINUOUS
 62
     7
 10
37.743383014
 20
140.0396317899
 30
0.0
 11
37.743383014
 21
139.0396327436
 31
0.0
  0
LINE
  5
145
  8
0
  6
CONTINUOUS
 62
     7
 10
27.9433780549
 20
139.0396327436
 30
0.0
 11
27.9433780549
 21
140.0396317899
 31
0.0
  0
LINE
  5
146
  8
0
  6
CONTINUOUS
 62
     7
 10
31.343381965
 20
147.8823990285
 30
0.0
 11
31.343381965
 21
143.5742229878
 31
0.0
  0
LINE
  5
147
  8
0
  6
CONTINUOUS
 62
     7
 10
27.9433780549
 20
143.5742229878
 30
0.0
 11
27.9433780549
 21
147.8823990285
 31
0.0
  0
LINE
  5
148
  8
0
  6
CONTINUOUS
 62
     7
 10
31.343381965
 20
143.5742229878
 30
0.0
 11
31.343381965
 21
140.0396317899
 31
0.0
  0
LINE
  5
149
  8
0
  6
CONTINUOUS
 62
     7
 10
27.9433780549
 20
143.5742229878
 30
0.0
 11
27.9433780549
 21
140.0396317899
 31
0.0
  0
LINE
  5
14A
  8
0
  6
CONTINUOUS
 62
     7
 10
151.3433837531
 20
151.8652469575
 30
0.0
 11
151.3433837531
 21
147.8823990285
 31
0.0
  0
LINE
  5
14B
  8
0
  6
CONTINUOUS
 62
     7
 10
147.9433843134
 20
157.0396334588
 30
0.0
 11
147.9433843134
 21
147.8823990285
 31
0.0
  0
LINE
  5
14C
  8
0
  6
CONTINUOUS
 62
     7
 10
168.7433832525
 20
156.6396326482
 30
0.0
 11
168.7433832525
 21
154.5388132989
 31
0.0
  0
LINE
  5
14D
  8
0
  6
CONTINUOUS
 62
     7
 10
168.7433832525
 20
149.1255075395
 30
0.0
 11
168.7433832525
 21
144.6396321713
 31
0.0
  0
LINE
  5
14E
  8
0
  6
CONTINUOUS
 62
     7
 10
147.9433843134
 20
140.0396317899
 30
0.0
 11
157.7433848022
 21
140.0396317899
 31
0.0
  0
LINE
  5
14F
  8
0
  6
CONTINUOUS
 62
     7
 10
157.7433848022
 20
140.0396317899
 30
0.0
 11
157.7433848022
 21
139.0396327436
 31
0.0
  0
LINE
  5
150
  8
0
  6
CONTINUOUS
 62
     7
 10
147.9433843134
 20
139.0396327436
 30
0.0
 11
147.9433843134
 21
140.0396317899
 31
0.0
  0
LINE
  5
151
  8
0
  6
CONTINUOUS
 62
     7
 10
155.7433837293
 20
129.0396303594
 30
0.0
 11
149.9433838962
 21
129.0396303594
 31
0.0
  0
ARC
  5
152
  8
0
  6
CONTINUOUS
 62
     7
 10
149.9433838723
 20
131.0396327436
 30
0.0
 40
2.0
 50
180.0
 51
270.0
  0
LINE
  5
153
  8
0
  6
CONTINUOUS
 62
     7
 10
157.7433848022
 20
139.0396327436
 30
0.0
 11
157.7433848022
 21
131.0396344125
 31
0.0
  0
ARC
  5
154
  8
0
  6
CONTINUOUS
 62
     7
 10
155.7433838723
 20
131.0396327436
 30
0.0
 40
2.0
 50
270.0
 51
0.0
  0
CIRCLE
  5
155
  8
0
  6
CONTINUOUS
 62
     7
 10
151.8433838723
 20
133.4396327436
 30
0.0
 40
1.100000000000023
  0
LINE
  5
156
  8
0
  6
CONTINUOUS
 62
     7
 10
147.9433843134
 20
131.0396344125
 30
0.0
 11
147.9433843134
 21
139.0396327436
 31
0.0
  0
LINE
  5
157
  8
0
  6
CONTINUOUS
 62
     7
 10
151.3433837531
 20
147.8823990285
 30
0.0
 11
151.3433837531
 21
143.5742229878
 31
0.0
  0
LINE
  5
158
  8
0
  6
CONTINUOUS
 62
     7
 10
147.9433843134
 20
143.5742229878
 30
0.0
 11
147.9433843134
 21
147.8823990285
 31
0.0
  0
LINE
  5
159
  8
0
  6
CONTINUOUS
 62
     7
 10
151.3433837531
 20
143.5742229878
 30
0.0
 11
151.3433837531
 21
140.0396317899
 31
0.0
  0
LINE
  5
15A
  8
0
  6
CONTINUOUS
 62
     7
 10
147.9433843134
 20
143.5742229878
 30
0.0
 11
147.9433843134
 21
140.0396317899
 31
0.0
  0
POLYLINE
  5
15B
  8
0
  6
CONTINUOUS
 62
     7
 66
     1
 10
0.0
 20
0.0
 30
0.0
  0
VERTEX
  5
3A1
  8
0
  6
CONTINUOUS
 62
     7
 10
316.8757943304
 20
235.4581088483
 30
0.0
  0
VERTEX
  5
3A2
  8
0
  6
CONTINUOUS
 62
     7
 10
316.7816934975
 20
236.1980647504
 30
0.0
  0
VERTEX
  5
3A3
  8
0
  6
CONTINUOUS
 62
     7
 10
316.6528833898
 20
237.1066541135
 30
0.0
  0
VERTEX
  5
3A4
  8
0
  6
CONTINUOUS
 62
     7
 10
316.5116591247
 20
238.0079359471
 30
0.0
  0
VERTEX
  5
3A5
  8
0
  6
CONTINUOUS
 62
     7
 10
316.358840266
 20
238.8960809171
 30
0.0
  0
VERTEX
  5
3A6
  8
0
  6
CONTINUOUS
 62
     7
 10
316.1972937973
 20
239.7569031179
 30
0.0
  0
VERTEX
  5
3A7
  8
0
  6
CONTINUOUS
 62
     7
 10
316.0261971744
 20
240.5978054463
 30
0.0
  0
VERTEX
  5
3A8
  8
0
  6
CONTINUOUS
 62
     7
 10
315.8460600169
 20
241.417369312
 30
0.0
  0
VERTEX
  5
3A9
  8
0
  6
CONTINUOUS
 62
     7
 10
315.6578464301
 20
242.2117800176
 30
0.0
  0
VERTEX
  5
3AA
  8
0
  6
CONTINUOUS
 62
     7
 10
315.4624787958
 20
242.9774255216
 30
0.0
  0
VERTEX
  5
3AB
  8
0
  6
CONTINUOUS
 62
     7
 10
315.2607513459
 20
243.7110752523
 30
0.0
  0
VERTEX
  5
3AC
  8
0
  6
CONTINUOUS
 62
     7
 10
315.0531915815
 20
244.410154289
 30
0.0
  0
VERTEX
  5
3AD
  8
0
  6
CONTINUOUS
 62
     7
 10
314.8400498422
 20
245.0724811017
 30
0.0
  0
VERTEX
  5
3AE
  8
0
  6
CONTINUOUS
 62
     7
 10
314.624228874
 20
245.6888646543
 30
0.0
  0
VERTEX
  5
3AF
  8
0
  6
CONTINUOUS
 62
     7
 10
314.4007114561
 20
246.272155708
 30
0.0
  0
VERTEX
  5
3B0
  8
0
  6
CONTINUOUS
 62
     7
 10
314.1636920961
 20
246.8309730947
 30
0.0
  0
VERTEX
  5
3B1
  8
0
  6
CONTINUOUS
 62
     7
 10
313.9039365442
 20
247.373566097
 30
0.0
  0
VERTEX
  5
3B2
  8
0
  6
CONTINUOUS
 62
     7
 10
313.5968146713
 20
247.9219765126
 30
0.0
  0
VERTEX
  5
3B3
  8
0
  6
CONTINUOUS
 62
     7
 10
313.3450521024
 20
248.2989878118
 30
0.0
  0
VERTEX
  5
3B4
  8
0
  6
CONTINUOUS
 62
     7
 10
313.0915431173
 20
248.6180753171
 30
0.0
  0
VERTEX
  5
3B5
  8
0
  6
CONTINUOUS
 62
     7
 10
312.8429306539
 20
248.8793940007
 30
0.0
  0
VERTEX
  5
3B6
  8
0
  6
CONTINUOUS
 62
     7
 10
312.5742180141
 20
249.1130561292
 30
0.0
  0
VERTEX
  5
3B7
  8
0
  6
CONTINUOUS
 62
     7
 10
312.2796920927
 20
249.3198604047
 30
0.0
  0
VERTEX
  5
3B8
  8
0
  6
CONTINUOUS
 62
     7
 10
311.9549317153
 20
249.4971842229
 30
0.0
  0
VERTEX
  5
3B9
  8
0
  6
CONTINUOUS
 62
     7
 10
311.6001872213
 20
249.638447231
 30
0.0
  0
VERTEX
  5
3BA
  8
0
  6
CONTINUOUS
 62
     7
 10
311.2202716859
 20
249.7358412206
 30
0.0
  0
VERTEX
  5
3BB
  8
0
  6
CONTINUOUS
 62
     7
 10
310.823231736
 20
249.7827381551
 30
0.0
  0
VERTEX
  5
3BC
  8
0
  6
CONTINUOUS
 62
     7
 10
310.374757448
 20
249.7706264913
 30
0.0
  0
VERTEX
  5
3BD
  8
0
  6
CONTINUOUS
 62
     7
 10
310.3217987211
 20
249.7610539853
 30
0.0
  0
SEQEND
  5
7B3
  8
0
  6
CONTINUOUS
 62
     7
  0
POLYLINE
  5
15C
  8
0
  6
CONTINUOUS
 62
     7
 66
     1
 10
0.0
 20
0.0
 30
0.0
  0
VERTEX
  5
3BE
  8
0
  6
CONTINUOUS
 62
     7
 10
318.8530435653
 20
180.2947015225
 30
0.0
  0
VERTEX
  5
3BF
  8
0
  6
CONTINUOUS
 62
     7
 10
319.1197303923
 20
180.3328365743
 30
0.0
  0
VERTEX
  5
3C0
  8
0
  6
CONTINUOUS
 62
     7
 10
319.5154121013
 20
180.4491252362
 30
0.0
  0
VERTEX
  5
3C1
  8
0
  6
CONTINUOUS
 62
     7
 10
319.8770684989
 20
180.6119889676
 30
0.0
  0
VERTEX
  5
3C2
  8
0
  6
CONTINUOUS
 62
     7
 10
320.2010972293
 20
180.8120817601
 30
0.0
  0
VERTEX
  5
3C3
  8
0
  6
CONTINUOUS
 62
     7
 10
320.4860394688
 20
181.0402602613
 30
0.0
  0
VERTEX
  5
3C4
  8
0
  6
CONTINUOUS
 62
     7
 10
320.732941279
 20
181.2886685788
 30
0.0
  0
VERTEX
  5
3C5
  8
0
  6
CONTINUOUS
 62
     7
 10
320.9455383809
 20
181.5524548947
 30
0.0
  0
VERTEX
  5
3C6
  8
0
  6
CONTINUOUS
 62
     7
 10
321.1297912391
 20
181.8315596044
 30
0.0
  0
VERTEX
  5
3C7
  8
0
  6
CONTINUOUS
 62
     7
 10
321.2931586297
 20
182.1328610837
 30
0.0
  0
VERTEX
  5
3C8
  8
0
  6
CONTINUOUS
 62
     7
 10
321.4448129626
 20
182.4758262097
 30
0.0
  0
VERTEX
  5
3C9
  8
0
  6
CONTINUOUS
 62
     7
 10
321.588902721
 20
182.881841129
 30
0.0
  0
VERTEX
  5
3CA
  8
0
  6
CONTINUOUS
 62
     7
 10
321.7363310845
 20
183.41543383
 30
0.0
  0
VERTEX
  5
3CB
  8
0
  6
CONTINUOUS
 62
     7
 10
321.8614129217
 20
184.009596771
 30
0.0
  0
VERTEX
  5
3CC
  8
0
  6
CONTINUOUS
 62
     7
 10
321.9570359083
 20
184.6006125867
 30
0.0
  0
VERTEX
  5
3CD
  8
0
  6
CONTINUOUS
 62
     7
 10
322.0399869474
 20
185.2712482869
 30
0.0
  0
VERTEX
  5
3CE
  8
0
  6
CONTINUOUS
 62
     7
 10
322.1032125743
 20
185.9582395017
 30
0.0
  0
VERTEX
  5
3CF
  8
0
  6
CONTINUOUS
 62
     7
 10
322.150035003
 20
186.6695374906
 30
0.0
  0
VERTEX
  5
3D0
  8
0
  6
CONTINUOUS
 62
     7
 10
322.181000361
 20
187.3910278737
 30
0.0
  0
VERTEX
  5
3D1
  8
0
  6
CONTINUOUS
 62
     7
 10
322.1984444054
 20
188.162335819
 30
0.0
  0
VERTEX
  5
3D2
  8
0
  6
CONTINUOUS
 62
     7
 10
322.2017345818
 20
188.9653534352
 30
0.0
  0
VERTEX
  5
3D3
  8
0
  6
CONTINUOUS
 62
     7
 10
322.1908850463
 20
189.7964567601
 30
0.0
  0
VERTEX
  5
3D4
  8
0
  6
CONTINUOUS
 62
     7
 10
322.1658481153
 20
190.6506986081
 30
0.0
  0
VERTEX
  5
3D5
  8
0
  6
CONTINUOUS
 62
     7
 10
322.1266126128
 20
191.5223330915
 30
0.0
  0
VERTEX
  5
3D6
  8
0
  6
CONTINUOUS
 62
     7
 10
322.0732485743
 20
192.4051374852
 30
0.0
  0
VERTEX
  5
3D7
  8
0
  6
CONTINUOUS
 62
     7
 10
322.005988458
 20
193.2924837529
 30
0.0
  0
VERTEX
  5
3D8
  8
0
  6
CONTINUOUS
 62
     7
 10
321.9249112399
 20
194.1858381688
 30
0.0
  0
VERTEX
  5
3D9
  8
0
  6
CONTINUOUS
 62
     7
 10
321.8290185423
 20
195.0962037503
 30
0.0
  0
VERTEX
  5
3DA
  8
0
  6
CONTINUOUS
 62
     7
 10
321.749990234
 20
195.7560033261
 30
0.0
  0
SEQEND
  5
7B2
  8
0
  6
CONTINUOUS
 62
     7
  0
LINE
  5
15D
  8
0
  6
CONTINUOUS
 62
     7
 10
321.7521054538
 20
195.7563371121
 30
0.0
 11
316.8773321303
 21
235.4581922948
 31
0.0
  0
POLYLINE
  5
15E
  8
0
  6
CONTINUOUS
 62
     7
 66
     1
 10
0.0
 20
0.0
 30
0.0
  0
VERTEX
  5
3DB
  8
0
  6
CONTINUOUS
 62
     7
 10
316.4106530936
 20
195.100626415
 30
0.0
  0
VERTEX
  5
3DC
  8
0
  6
CONTINUOUS
 62
     7
 10
316.4958042892
 20
194.3776935994
 30
0.0
  0
VERTEX
  5
3DD
  8
0
  6
CONTINUOUS
 62
     7
 10
316.5821803601
 20
193.5413212239
 30
0.0
  0
VERTEX
  5
3DE
  8
0
  6
CONTINUOUS
 62
     7
 10
316.6553286703
 20
192.7147836148
 30
0.0
  0
VERTEX
  5
3DF
  8
0
  6
CONTINUOUS
 62
     7
 10
316.7147396
 20
191.9040650785
 30
0.0
  0
VERTEX
  5
3E0
  8
0
  6
CONTINUOUS
 62
     7
 10
316.7604831846
 20
191.1147207677
 30
0.0
  0
VERTEX
  5
3E1
  8
0
  6
CONTINUOUS
 62
     7
 10
316.7935712131
 20
190.3397292554
 30
0.0
  0
VERTEX
  5
3E2
  8
0
  6
CONTINUOUS
 62
     7
 10
316.814076701
 20
189.5842880666
 30
0.0
  0
VERTEX
  5
3E3
  8
0
  6
CONTINUOUS
 62
     7
 10
316.8220935257
 20
188.8574094235
 30
0.0
  0
VERTEX
  5
3E4
  8
0
  6
CONTINUOUS
 62
     7
 10
316.818016568
 20
188.169369167
 30
0.0
  0
VERTEX
  5
3E5
  8
0
  6
CONTINUOUS
 62
     7
 10
316.8026117476
 20
187.528738445
 30
0.0
  0
VERTEX
  5
3E6
  8
0
  6
CONTINUOUS
 62
     7
 10
316.7769892009
 20
186.9435519635
 30
0.0
  0
VERTEX
  5
3E7
  8
0
  6
CONTINUOUS
 62
     7
 10
316.7426152022
 20
186.4167780339
 30
0.0
  0
VERTEX
  5
3E8
  8
0
  6
CONTINUOUS
 62
     7
 10
316.6995642574
 20
185.9304995
 30
0.0
  0
VERTEX
  5
3E9
  8
0
  6
CONTINUOUS
 62
     7
 10
316.650782326
 20
185.5064124524
 30
0.0
  0
VERTEX
  5
3EA
  8
0
  6
CONTINUOUS
 62
     7
 10
316.5986580642
 20
185.1478905141
 30
0.0
  0
VERTEX
  5
3EB
  8
0
  6
CONTINUOUS
 62
     7
 10
316.5467290075
 20
184.8607868611
 30
0.0
  0
VERTEX
  5
3EC
  8
0
  6
CONTINUOUS
 62
     7
 10
316.504695812
 20
184.6702188909
 30
0.0
  0
VERTEX
  5
3ED
  8
0
  6
CONTINUOUS
 62
     7
 10
316.4712814482
 20
184.5436543881
 30
0.0
  0
VERTEX
  5
3EE
  8
0
  6
CONTINUOUS
 62
     7
 10
316.4505598934
 20
184.4775528371
 30
0.0
  0
VERTEX
  5
3EF
  8
0
  6
CONTINUOUS
 62
     7
 10
316.4476392658
 20
184.4692916333
 30
0.0
  0
SEQEND
  5
7B1
  8
0
  6
CONTINUOUS
 62
     7
  0
POLYLINE
  5
15F
  8
0
  6
CONTINUOUS
 62
     7
 66
     1
 10
0.0
 20
0.0
 30
0.0
  0
VERTEX
  5
3F0
  8
0
  6
CONTINUOUS
 62
     7
 10
308.9978737624
 20
245.1293320119
 30
0.0
  0
VERTEX
  5
3F1
  8
0
  6
CONTINUOUS
 62
     7
 10
308.996598223
 20
245.1309294164
 30
0.0
  0
VERTEX
  5
3F2
  8
0
  6
CONTINUOUS
 62
     7
 10
309.0219450982
 20
245.0907678067
 30
0.0
  0
VERTEX
  5
3F3
  8
0
  6
CONTINUOUS
 62
     7
 10
309.073889056
 20
244.9997038304
 30
0.0
  0
VERTEX
  5
3F4
  8
0
  6
CONTINUOUS
 62
     7
 10
309.1508431228
 20
244.850775665
 30
0.0
  0
VERTEX
  5
3F5
  8
0
  6
CONTINUOUS
 62
     7
 10
309.2506257685
 20
244.6386308133
 30
0.0
  0
VERTEX
  5
3F6
  8
0
  6
CONTINUOUS
 62
     7
 10
309.3702865632
 20
244.3604320943
 30
0.0
  0
VERTEX
  5
3F7
  8
0
  6
CONTINUOUS
 62
     7
 10
309.5062656196
 20
244.0162152707
 30
0.0
  0
VERTEX
  5
3F8
  8
0
  6
CONTINUOUS
 62
     7
 10
309.6546916159
 20
243.6085791051
 30
0.0
  0
VERTEX
  5
3F9
  8
0
  6
CONTINUOUS
 62
     7
 10
309.8116827996
 20
243.1421608388
 30
0.0
  0
VERTEX
  5
3FA
  8
0
  6
CONTINUOUS
 62
     7
 10
309.9736897143
 20
242.6225633084
 30
0.0
  0
VERTEX
  5
3FB
  8
0
  6
CONTINUOUS
 62
     7
 10
310.1376248391
 20
242.0565337598
 30
0.0
  0
VERTEX
  5
3FC
  8
0
  6
CONTINUOUS
 62
     7
 10
310.3040797504
 20
241.4388865888
 30
0.0
  0
VERTEX
  5
3FD
  8
0
  6
CONTINUOUS
 62
     7
 10
310.4705972465
 20
240.7749146878
 30
0.0
  0
VERTEX
  5
3FE
  8
0
  6
CONTINUOUS
 62
     7
 10
310.634964505
 20
240.0700063169
 30
0.0
  0
VERTEX
  5
3FF
  8
0
  6
CONTINUOUS
 62
     7
 10
310.7951147349
 20
239.3298119962
 30
0.0
  0
VERTEX
  5
400
  8
0
  6
CONTINUOUS
 62
     7
 10
310.949133137
 20
238.5601849019
 30
0.0
  0
VERTEX
  5
401
  8
0
  6
CONTINUOUS
 62
     7
 10
311.0952434929
 20
237.7672643125
 30
0.0
  0
VERTEX
  5
402
  8
0
  6
CONTINUOUS
 62
     7
 10
311.2317127975
 20
236.9581551015
 30
0.0
  0
VERTEX
  5
403
  8
0
  6
CONTINUOUS
 62
     7
 10
311.3572446497
 20
236.1402720868
 30
0.0
  0
VERTEX
  5
404
  8
0
  6
CONTINUOUS
 62
     7
 10
311.4723591002
 20
235.3105158269
 30
0.0
  0
VERTEX
  5
405
  8
0
  6
CONTINUOUS
 62
     7
 10
311.5354923399
 20
234.8022551
 30
0.0
  0
SEQEND
  5
7B0
  8
0
  6
CONTINUOUS
 62
     7
  0
LINE
  5
160
  8
0
  6
CONTINUOUS
 62
     7
 10
311.5374339612
 20
234.8025292813
 30
0.0
 11
316.4122072847
 21
195.1006860196
 31
0.0
  0
LINE
  5
161
  8
0
  6
CONTINUOUS
 62
     7
 10
311.0200313719
 20
238.1754369199
 30
0.0
 11
316.7266247662
 21
191.6989535749
 31
0.0
  0
ARC
  5
162
  8
0
  6
CONTINUOUS
 62
     7
 10
308.9429478706
 20
246.8864143957
 30
0.0
 40
2.690000000000031
 50
208.5742842993
 51
277.0
  0
ARC
  5
163
  8
0
  6
CONTINUOUS
 62
     7
 10
308.9429478706
 20
246.8864143957
 30
0.0
 40
2.689999999999988
 50
97.0
 51
165.4352045702
  0
ARC
  5
164
  8
0
  6
CONTINUOUS
 62
     7
 10
316.8181448415
 20
182.7480820766
 30
0.0
 40
2.690000000000031
 50
208.5742842993
 51
277.0
  0
ARC
  5
165
  8
0
  6
CONTINUOUS
 62
     7
 10
316.8181448415
 20
182.7480820766
 30
0.0
 40
2.689999999999988
 50
97.0
 51
165.4352045702
  0
LINE
  5
166
  8
0
  6
CONTINUOUS
 62
     7
 10
306.039525369
 20
245.5224127233
 30
0.0
 11
306.5820945294
 21
245.5890268743
 31
0.0
  0
LINE
  5
167
  8
0
  6
CONTINUOUS
 62
     7
 10
306.3383562358
 20
247.5741238057
 30
0.0
 11
305.7957870753
 21
247.5074977338
 31
0.0
  0
LINE
  5
168
  8
0
  6
CONTINUOUS
 62
     7
 10
313.9147220047
 20
181.3840717732
 30
0.0
 11
314.4572926553
 21
181.4506978452
 31
0.0
  0
LINE
  5
169
  8
0
  6
CONTINUOUS
 62
     7
 10
314.2135528715
 20
183.4357828557
 30
0.0
 11
313.6709837111
 21
183.3691687047
 31
0.0
  0
POLYLINE
  5
16A
  8
0
  6
CONTINUOUS
 62
     7
 66
     1
 10
0.0
 20
0.0
 30
0.0
  0
VERTEX
  5
406
  8
0
  6
CONTINUOUS
 62
     7
 10
410.3327361734
 20
152.4083823621
 30
0.0
  0
VERTEX
  5
407
  8
0
  6
CONTINUOUS
 62
     7
 10
410.3273777159
 20
152.6777297914
 30
0.0
  0
VERTEX
  5
408
  8
0
  6
CONTINUOUS
 62
     7
 10
410.2601794394
 20
153.0846328198
 30
0.0
  0
VERTEX
  5
409
  8
0
  6
CONTINUOUS
 62
     7
 10
410.1426033171
 20
153.4634441793
 30
0.0
  0
VERTEX
  5
40A
  8
0
  6
CONTINUOUS
 62
     7
 10
409.9835006388
 20
153.8094431817
 30
0.0
  0
VERTEX
  5
40B
  8
0
  6
CONTINUOUS
 62
     7
 10
409.7917465361
 20
154.1200668275
 30
0.0
  0
VERTEX
  5
40C
  8
0
  6
CONTINUOUS
 62
     7
 10
409.5752743872
 20
154.3954045236
 30
0.0
  0
VERTEX
  5
40D
  8
0
  6
CONTINUOUS
 62
     7
 10
409.3393651636
 20
154.6385616719
 30
0.0
  0
VERTEX
  5
40E
  8
0
  6
CONTINUOUS
 62
     7
 10
409.0847996863
 20
154.8554570138
 30
0.0
  0
VERTEX
  5
40F
  8
0
  6
CONTINUOUS
 62
     7
 10
408.8056592138
 20
155.0543219506
 30
0.0
  0
VERTEX
  5
410
  8
0
  6
CONTINUOUS
 62
     7
 10
408.4837285669
 20
155.2466482579
 30
0.0
  0
VERTEX
  5
411
  8
0
  6
CONTINUOUS
 62
     7
 10
408.0982951315
 20
155.4391414582
 30
0.0
  0
VERTEX
  5
412
  8
0
  6
CONTINUOUS
 62
     7
 10
407.5866488608
 20
155.6504995286
 30
0.0
  0
VERTEX
  5
413
  8
0
  6
CONTINUOUS
 62
     7
 10
407.012161413
 20
155.8470577657
 30
0.0
  0
VERTEX
  5
414
  8
0
  6
CONTINUOUS
 62
     7
 10
406.4372030886
 20
156.0139984548
 30
0.0
  0
VERTEX
  5
415
  8
0
  6
CONTINUOUS
 62
     7
 10
405.7816712053
 20
156.1780602395
 30
0.0
  0
VERTEX
  5
416
  8
0
  6
CONTINUOUS
 62
     7
 10
405.1075128706
 20
156.324538654
 30
0.0
  0
VERTEX
  5
417
  8
0
  6
CONTINUOUS
 62
     7
 10
404.4072178991
 20
156.4576954305
 30
0.0
  0
VERTEX
  5
418
  8
0
  6
CONTINUOUS
 62
     7
 10
403.694876829
 20
156.5763563573
 30
0.0
  0
VERTEX
  5
419
  8
0
  6
CONTINUOUS
 62
     7
 10
402.9314426573
 20
156.6876739919
 30
0.0
  0
VERTEX
  5
41A
  8
0
  6
CONTINUOUS
 62
     7
 10
402.1348206194
 20
156.7887992322
 30
0.0
  0
VERTEX
  5
41B
  8
0
  6
CONTINUOUS
 62
     7
 10
401.308586994
 20
156.8793148458
 30
0.0
  0
VERTEX
  5
41C
  8
0
  6
CONTINUOUS
 62
     7
 10
400.4576532038
 20
156.9585711419
 30
0.0
  0
VERTEX
  5
41D
  8
0
  6
CONTINUOUS
 62
     7
 10
399.5877472551
 20
157.0258528649
 30
0.0
  0
VERTEX
  5
41E
  8
0
  6
CONTINUOUS
 62
     7
 10
398.7050084265
 20
157.0804745614
 30
0.0
  0
VERTEX
  5
41F
  8
0
  6
CONTINUOUS
 62
     7
 10
397.8160885962
 20
157.1218580663
 30
0.0
  0
VERTEX
  5
420
  8
0
  6
CONTINUOUS
 62
     7
 10
396.919509569
 20
157.1502596795
 30
0.0
  0
VERTEX
  5
421
  8
0
  6
CONTINUOUS
 62
     7
 10
396.0042385252
 20
157.1660251081
 30
0.0
  0
VERTEX
  5
422
  8
0
  6
CONTINUOUS
 62
     7
 10
395.339724222
 20
157.1679980218
 30
0.0
  0
SEQEND
  5
7AF
  8
0
  6
CONTINUOUS
 62
     7
  0
ARC
  5
16B
  8
0
  6
CONTINUOUS
 62
     7
 10
354.9363607656
 20
103.8681335538
 30
0.0
 40
53.30199134570867
 50
89.5666054273
 51
98.8213361357
  0
LINE
  5
16C
  8
0
  6
CONTINUOUS
 62
     7
 10
395.3396526964
 20
157.1701378285
 30
0.0
 11
355.3396491201
 21
157.1701378285
 31
0.0
  0
POLYLINE
  5
16D
  8
0
  6
CONTINUOUS
 62
     7
 66
     1
 10
0.0
 20
0.0
 30
0.0
  0
VERTEX
  5
423
  8
0
  6
CONTINUOUS
 62
     7
 10
395.3395215662
 20
151.7885834634
 30
0.0
  0
VERTEX
  5
424
  8
0
  6
CONTINUOUS
 62
     7
 10
396.0674432905
 20
151.7850012242
 30
0.0
  0
VERTEX
  5
425
  8
0
  6
CONTINUOUS
 62
     7
 10
396.9081131609
 20
151.7688006818
 30
0.0
  0
VERTEX
  5
426
  8
0
  6
CONTINUOUS
 62
     7
 10
397.7373985441
 20
151.7406792104
 30
0.0
  0
VERTEX
  5
427
  8
0
  6
CONTINUOUS
 62
     7
 10
398.5493151339
 20
151.7008394658
 30
0.0
  0
VERTEX
  5
428
  8
0
  6
CONTINUOUS
 62
     7
 10
399.33834354
 20
151.650050348
 30
0.0
  0
VERTEX
  5
429
  8
0
  6
CONTINUOUS
 62
     7
 10
400.1115886362
 20
151.5884429872
 30
0.0
  0
VERTEX
  5
42A
  8
0
  6
CONTINUOUS
 62
     7
 10
400.8639065416
 20
151.516732639
 30
0.0
  0
VERTEX
  5
42B
  8
0
  6
CONTINUOUS
 62
     7
 10
401.5863446386
 20
151.436105436
 30
0.0
  0
VERTEX
  5
42C
  8
0
  6
CONTINUOUS
 62
     7
 10
402.2687641771
 20
151.3482064664
 30
0.0
  0
VERTEX
  5
42D
  8
0
  6
CONTINUOUS
 62
     7
 10
402.9027310999
 20
151.2548417508
 30
0.0
  0
VERTEX
  5
42E
  8
0
  6
CONTINUOUS
 62
     7
 10
403.4804371985
 20
151.1580974519
 30
0.0
  0
VERTEX
  5
42F
  8
0
  6
CONTINUOUS
 62
     7
 10
403.9990989359
 20
151.0597795903
 30
0.0
  0
VERTEX
  5
430
  8
0
  6
CONTINUOUS
 62
     7
 10
404.4764963778
 20
150.9577900827
 30
0.0
  0
VERTEX
  5
431
  8
0
  6
CONTINUOUS
 62
     7
 10
404.8914817961
 20
150.8576840818
 30
0.0
  0
VERTEX
  5
432
  8
0
  6
CONTINUOUS
 62
     7
 10
405.2409795912
 20
150.7622570455
 30
0.0
  0
VERTEX
  5
433
  8
0
  6
CONTINUOUS
 62
     7
 10
405.5196193846
 20
150.6757230222
 30
0.0
  0
VERTEX
  5
434
  8
0
  6
CONTINUOUS
 62
     7
 10
405.7036427649
 20
150.6107837617
 30
0.0
  0
VERTEX
  5
435
  8
0
  6
CONTINUOUS
 62
     7
 10
405.8251885565
 20
150.5621940553
 30
0.0
  0
VERTEX
  5
436
  8
0
  6
CONTINUOUS
 62
     7
 10
405.8882681521
 20
150.5335659444
 30
0.0
  0
VERTEX
  5
437
  8
0
  6
CONTINUOUS
 62
     7
 10
405.8961180838
 20
150.5296618402
 30
0.0
  0
SEQEND
  5
7AE
  8
0
  6
CONTINUOUS
 62
     7
  0
LINE
  5
16E
  8
0
  6
CONTINUOUS
 62
     7
 10
366.3396505507
 20
151.7901331842
 30
0.0
 11
395.3396526964
 21
151.7901331842
 31
0.0
  0
LINE
  5
16F
  8
0
  6
CONTINUOUS
 62
     7
 10
366.3396505507
 20
151.6876429975
 30
0.0
 11
398.7543372305
 21
151.6876429975
 31
0.0
  0
ARC
  5
170
  8
0
  6
CONTINUOUS
 62
     7
 10
407.6496504076
 20
150.6876440181
 30
0.0
 40
2.690000000000111
 50
180.0
 51
270.0
  0
ARC
  5
171
  8
0
  6
CONTINUOUS
 62
     7
 10
407.6496504076
 20
150.6876440181
 30
0.0
 40
2.690000000000055
 50
270.0
 51
0.0
  0
POLYLINE
  5
172
  8
0
  6
CONTINUOUS
 62
     7
 66
     1
 10
0.0
 20
0.0
 30
0.0
  0
VERTEX
  5
438
  8
0
  6
CONTINUOUS
 62
     7
 10
335.5494877191
 20
230.4824799954
 30
0.0
  0
VERTEX
  5
439
  8
0
  6
CONTINUOUS
 62
     7
 10
335.2806987109
 20
230.5006117284
 30
0.0
  0
VERTEX
  5
43A
  8
0
  6
CONTINUOUS
 62
     7
 10
334.8694862666
 20
230.4691404759
 30
0.0
  0
VERTEX
  5
43B
  8
0
  6
CONTINUOUS
 62
     7
 10
334.4818713011
 20
230.3850264012
 30
0.0
  0
VERTEX
  5
43C
  8
0
  6
CONTINUOUS
 62
     7
 10
334.1233221682
 20
230.2566737592
 30
0.0
  0
VERTEX
  5
43D
  8
0
  6
CONTINUOUS
 62
     7
 10
333.797166297
 20
230.0927252233
 30
0.0
  0
VERTEX
  5
43E
  8
0
  6
CONTINUOUS
 62
     7
 10
333.5040112825
 20
229.9010724484
 30
0.0
  0
VERTEX
  5
43F
  8
0
  6
CONTINUOUS
 62
     7
 10
333.2412171977
 20
229.6872586667
 30
0.0
  0
VERTEX
  5
440
  8
0
  6
CONTINUOUS
 62
     7
 10
333.0029616
 20
229.4525594174
 30
0.0
  0
VERTEX
  5
441
  8
0
  6
CONTINUOUS
 62
     7
 10
332.7805211635
 20
229.1918248593
 30
0.0
  0
VERTEX
  5
442
  8
0
  6
CONTINUOUS
 62
     7
 10
332.5608735772
 20
228.8878769338
 30
0.0
  0
VERTEX
  5
443
  8
0
  6
CONTINUOUS
 62
     7
 10
332.3355162384
 20
228.5206884801
 30
0.0
  0
VERTEX
  5
444
  8
0
  6
CONTINUOUS
 62
     7
 10
332.0803699883
 20
228.029403156
 30
0.0
  0
VERTEX
  5
445
  8
0
  6
CONTINUOUS
 62
     7
 10
331.8344881626
 20
227.4742335736
 30
0.0
  0
VERTEX
  5
446
  8
0
  6
CONTINUOUS
 62
     7
 10
331.6180766428
 20
226.9160241544
 30
0.0
  0
VERTEX
  5
447
  8
0
  6
CONTINUOUS
 62
     7
 10
331.3975040669
 20
226.2772769391
 30
0.0
  0
VERTEX
  5
448
  8
0
  6
CONTINUOUS
 62
     7
 10
331.1928278634
 20
225.6184548795
 30
0.0
  0
VERTEX
  5
449
  8
0
  6
CONTINUOUS
 62
     7
 10
330.9991403816
 20
224.93242926
 30
0.0
  0
VERTEX
  5
44A
  8
0
  6
CONTINUOUS
 62
     7
 10
330.8188447596
 20
224.2331475675
 30
0.0
  0
VERTEX
  5
44B
  8
0
  6
CONTINUOUS
 62
     7
 10
330.6414183563
 20
223.4823197782
 30
0.0
  0
VERTEX
  5
44C
  8
0
  6
CONTINUOUS
 62
     7
 10
330.4712446041
 20
222.6975411832
 30
0.0
  0
VERTEX
  5
44D
  8
0
  6
CONTINUOUS
 62
     7
 10
330.3090611515
 20
221.8823403775
 30
0.0
  0
VERTEX
  5
44E
  8
0
  6
CONTINUOUS
 62
     7
 10
330.1559417434
 20
221.0415453374
 30
0.0
  0
VERTEX
  5
44F
  8
0
  6
CONTINUOUS
 62
     7
 10
330.01309909
 20
220.1808185041
 30
0.0
  0
VERTEX
  5
450
  8
0
  6
CONTINUOUS
 62
     7
 10
329.8817500107
 20
219.3062037885
 30
0.0
  0
VERTEX
  5
451
  8
0
  6
CONTINUOUS
 62
     7
 10
329.763052413
 20
218.4242696225
 30
0.0
  0
VERTEX
  5
452
  8
0
  6
CONTINUOUS
 62
     7
 10
329.6566173302
 20
217.5335735738
 30
0.0
  0
VERTEX
  5
453
  8
0
  6
CONTINUOUS
 62
     7
 10
329.5611386521
 20
216.6231603086
 30
0.0
  0
VERTEX
  5
454
  8
0
  6
CONTINUOUS
 62
     7
 10
329.5012598259
 20
215.9613460958
 30
0.0
  0
SEQEND
  5
7AD
  8
0
  6
CONTINUOUS
 62
     7
  0
ARC
  5
173
  8
0
  6
CONTINUOUS
 62
     7
 10
379.0767982435
 20
171.0663452585
 30
0.0
 40
53.30187497099672
 50
174.5666044052
 51
183.8213552243
  0
LINE
  5
174
  8
0
  6
CONTINUOUS
 62
     7
 10
329.4991210902
 20
215.9614533841
 30
0.0
 11
326.0128913315
 21
176.1136741101
 31
0.0
  0
POLYLINE
  5
175
  8
0
  6
CONTINUOUS
 62
     7
 66
     1
 10
0.0
 20
0.0
 30
0.0
  0
VERTEX
  5
455
  8
0
  6
CONTINUOUS
 62
     7
 10
334.8601808639
 20
215.4922933042
 30
0.0
  0
VERTEX
  5
456
  8
0
  6
CONTINUOUS
 62
     7
 10
334.9271973463
 20
216.2171334683
 30
0.0
  0
VERTEX
  5
457
  8
0
  6
CONTINUOUS
 62
     7
 10
335.0166005881
 20
217.0531958997
 30
0.0
  0
VERTEX
  5
458
  8
0
  6
CONTINUOUS
 62
     7
 10
335.1168973239
 20
217.8768724858
 30
0.0
  0
VERTEX
  5
459
  8
0
  6
CONTINUOUS
 62
     7
 10
335.2273432406
 20
218.6822266042
 30
0.0
  0
VERTEX
  5
45A
  8
0
  6
CONTINUOUS
 62
     7
 10
335.3467119725
 20
219.463834232
 30
0.0
  0
VERTEX
  5
45B
  8
0
  6
CONTINUOUS
 62
     7
 10
335.4754762592
 20
220.2287644803
 30
0.0
  0
VERTEX
  5
45C
  8
0
  6
CONTINUOUS
 62
     7
 10
335.6124842407
 20
220.9719628751
 30
0.0
  0
VERTEX
  5
45D
  8
0
  6
CONTINUOUS
 62
     7
 10
335.7557697089
 20
221.6846317708
 30
0.0
  0
VERTEX
  5
45E
  8
0
  6
CONTINUOUS
 62
     7
 10
335.9028091522
 20
222.3567933499
 30
0.0
  0
VERTEX
  5
45F
  8
0
  6
CONTINUOUS
 62
     7
 10
336.0510708632
 20
222.9802102506
 30
0.0
  0
VERTEX
  5
460
  8
0
  6
CONTINUOUS
 62
     7
 10
336.1978011073
 20
223.547288841
 30
0.0
  0
VERTEX
  5
461
  8
0
  6
CONTINUOUS
 62
     7
 10
336.3409472497
 20
224.0554065167
 30
0.0
  0
VERTEX
  5
462
  8
0
  6
CONTINUOUS
 62
     7
 10
336.4841582121
 20
224.5220989644
 30
0.0
  0
VERTEX
  5
463
  8
0
  6
CONTINUOUS
 62
     7
 10
336.620047489
 20
224.9267787396
 30
0.0
  0
VERTEX
  5
464
  8
0
  6
CONTINUOUS
 62
     7
 10
336.7455748709
 20
225.2666325032
 30
0.0
  0
VERTEX
  5
465
  8
0
  6
CONTINUOUS
 62
     7
 10
336.8560617657
 20
225.5366653859
 30
0.0
  0
VERTEX
  5
466
  8
0
  6
CONTINUOUS
 62
     7
 10
336.9367970021
 20
225.7143229901
 30
0.0
  0
VERTEX
  5
467
  8
0
  6
CONTINUOUS
 62
     7
 10
336.9957951696
 20
225.8311719358
 30
0.0
  0
VERTEX
  5
468
  8
0
  6
CONTINUOUS
 62
     7
 10
337.0298070701
 20
225.8915275991
 30
0.0
  0
VERTEX
  5
469
  8
0
  6
CONTINUOUS
 62
     7
 10
337.0343832167
 20
225.8990020215
 30
0.0
  0
SEQEND
  5
7AC
  8
0
  6
CONTINUOUS
 62
     7
  0
LINE
  5
176
  8
0
  6
CONTINUOUS
 62
     7
 10
332.3311321305
 20
186.6029114186
 30
0.0
 11
334.858648652
 21
215.4925555646
 31
0.0
  0
LINE
  5
177
  8
0
  6
CONTINUOUS
 62
     7
 10
332.4332339557
 20
186.5939826428
 30
0.0
 11
335.2583603801
 21
218.8853234708
 31
0.0
  0
ARC
  5
178
  8
0
  6
CONTINUOUS
 62
     7
 10
337.0298323023
 20
227.6596293113
 30
0.0
 40
2.690000000000187
 50
265.0
 51
355.0
  0
ARC
  5
179
  8
0
  6
CONTINUOUS
 62
     7
 10
337.0298323023
 20
227.6596293113
 30
0.0
 40
2.690000000000039
 50
355.0
 51
85.0
  0
LINE
  5
17A
  8
0
  6
CONTINUOUS
 62
     7
 10
326.239650497
 20
139.2396301686
 30
0.0
 11
334.2396503182
 21
139.2396301686
 31
0.0
  0
ARC
  5
17B
  8
0
  6
CONTINUOUS
 62
     7
 10
326.2396504076
 20
130.2396327436
 30
0.0
 40
1.0
 50
180.0
 51
270.0
  0
ARC
  5
17C
  8
0
  6
CONTINUOUS
 62
     7
 10
326.2396504076
 20
138.2396327436
 30
0.0
 40
1.0
 50
90.0
 51
180.0
  0
LINE
  5
17D
  8
0
  6
CONTINUOUS
 62
     7
 10
325.2396503331
 20
130.2396327912
 30
0.0
 11
325.2396503331
 21
138.2396311223
 31
0.0
  0
LINE
  5
17E
  8
0
  6
CONTINUOUS
 62
     7
 10
334.2396503182
 20
129.2396337449
 30
0.0
 11
326.239650497
 21
129.2396337449
 31
0.0
  0
ARC
  5
17F
  8
0
  6
CONTINUOUS
 62
     7
 10
334.2396504076
 20
130.2396327436
 30
0.0
 40
1.0
 50
270.0
 51
0.0
  0
ARC
  5
180
  8
0
  6
CONTINUOUS
 62
     7
 10
334.2396504076
 20
138.2396327436
 30
0.0
 40
1.0
 50
0.0
 51
90.0
  0
LINE
  5
181
  8
0
  6
CONTINUOUS
 62
     7
 10
335.2396504821
 20
138.2396311223
 30
0.0
 11
335.2396504821
 21
130.2396327912
 31
0.0
  0
LINE
  5
182
  8
0
  6
CONTINUOUS
 62
     7
 10
318.2396506758
 20
64.0396327436
 30
0.0
 11
318.2396506758
 21
65.239632754
 31
0.0
  0
LINE
  5
183
  8
0
  6
CONTINUOUS
 62
     7
 10
318.2396506758
 20
65.239632754
 30
0.0
 11
322.2396505864
 21
65.239632754
 31
0.0
  0
LINE
  5
184
  8
0
  6
CONTINUOUS
 62
     7
 10
322.2396505864
 20
64.0396327436
 30
0.0
 11
318.2396506758
 21
64.0396327436
 31
0.0
  0
LINE
  5
185
  8
0
  6
CONTINUOUS
 62
     7
 10
322.2396505864
 20
65.239632754
 30
0.0
 11
324.2396505417
 21
65.239632754
 31
0.0
  0
LINE
  5
186
  8
0
  6
CONTINUOUS
 62
     7
 10
322.2396505864
 20
64.0396327436
 30
0.0
 11
324.2396505417
 21
64.0396327436
 31
0.0
  0
LINE
  5
187
  8
0
  6
CONTINUOUS
 62
     7
 10
351.6080720218
 20
65.239632754
 30
0.0
 11
324.2396505417
 21
65.239632754
 31
0.0
  0
LINE
  5
188
  8
0
  6
CONTINUOUS
 62
     7
 10
324.2396505417
 20
64.0396327436
 30
0.0
 11
351.6080720218
 21
64.0396327436
 31
0.0
  0
LINE
  5
189
  8
0
  6
CONTINUOUS
 62
     7
 10
354.2396498712
 20
65.239632754
 30
0.0
 11
354.2396498712
 21
64.0396327436
 31
0.0
  0
LINE
  5
18A
  8
0
  6
CONTINUOUS
 62
     7
 10
351.6080720218
 20
65.239632754
 30
0.0
 11
354.2396498712
 21
65.239632754
 31
0.0
  0
LINE
  5
18B
  8
0
  6
CONTINUOUS
 62
     7
 10
354.2396498712
 20
64.0396327436
 30
0.0
 11
351.6080720218
 21
64.0396327436
 31
0.0
  0
LINE
  5
18C
  8
0
  6
CONTINUOUS
 62
     7
 10
325.2396503331
 20
65.239632754
 30
0.0
 11
325.2396503331
 21
129.0396303594
 31
0.0
  0
LINE
  5
18D
  8
0
  6
CONTINUOUS
 62
     7
 10
335.2396504821
 20
130.2396327912
 30
0.0
 11
335.2396504821
 21
65.239632754
 31
0.0
  0
POLYLINE
  5
18E
  8
0
  6
CONTINUOUS
 62
     7
 66
     1
 10
0.0
 20
0.0
 30
0.0
  0
VERTEX
  5
46A
  8
0
  6
CONTINUOUS
 62
     7
 10
309.2707766088
 20
244.2164630353
 30
0.0
  0
VERTEX
  5
46B
  8
0
  6
CONTINUOUS
 62
     7
 10
309.3056259544
 20
244.2207426488
 30
0.0
  0
VERTEX
  5
46C
  8
0
  6
CONTINUOUS
 62
     7
 10
309.3861697109
 20
244.2306370198
 30
0.0
  0
SEQEND
  5
7AB
  8
0
  6
CONTINUOUS
 62
     7
  0
POLYLINE
  5
18F
  8
0
  6
CONTINUOUS
 62
     7
 66
     1
 10
0.0
 20
0.0
 30
0.0
  0
VERTEX
  5
46D
  8
0
  6
CONTINUOUS
 62
     7
 10
306.5807593854
 20
245.5996603429
 30
0.0
  0
VERTEX
  5
46E
  8
0
  6
CONTINUOUS
 62
     7
 10
306.5843073519
 20
245.5930442273
 30
0.0
  0
VERTEX
  5
46F
  8
0
  6
CONTINUOUS
 62
     7
 10
306.5469173582
 20
245.6644863545
 30
0.0
  0
VERTEX
  5
470
  8
0
  6
CONTINUOUS
 62
     7
 10
306.472754279
 20
245.8241910398
 30
0.0
  0
VERTEX
  5
471
  8
0
  6
CONTINUOUS
 62
     7
 10
306.3804028423
 20
246.0747093617
 30
0.0
  0
VERTEX
  5
472
  8
0
  6
CONTINUOUS
 62
     7
 10
306.3016263636
 20
246.3907212674
 30
0.0
  0
VERTEX
  5
473
  8
0
  6
CONTINUOUS
 62
     7
 10
306.2756283076
 20
246.558913654
 30
0.0
  0
SEQEND
  5
7AA
  8
0
  6
CONTINUOUS
 62
     7
  0
POLYLINE
  5
190
  8
0
  6
CONTINUOUS
 62
     7
 66
     1
 10
0.0
 20
0.0
 30
0.0
  0
VERTEX
  5
474
  8
0
  6
CONTINUOUS
 62
     7
 10
310.3201476725
 20
249.7657150685
 30
0.0
  0
VERTEX
  5
475
  8
0
  6
CONTINUOUS
 62
     7
 10
309.8683057221
 20
249.7102350652
 30
0.0
  0
VERTEX
  5
476
  8
0
  6
CONTINUOUS
 62
     7
 10
309.4856886061
 20
249.6632546842
 30
0.0
  0
VERTEX
  5
477
  8
0
  6
CONTINUOUS
 62
     7
 10
309.1724423559
 20
249.6247977674
 30
0.0
  0
VERTEX
  5
478
  8
0
  6
CONTINUOUS
 62
     7
 10
308.9286817105
 20
249.5948643148
 30
0.0
  0
VERTEX
  5
479
  8
0
  6
CONTINUOUS
 62
     7
 10
308.7545020373
 20
249.5734781682
 30
0.0
  0
VERTEX
  5
47A
  8
0
  6
CONTINUOUS
 62
     7
 10
308.6499689015
 20
249.5606393277
 30
0.0
  0
VERTEX
  5
47B
  8
0
  6
CONTINUOUS
 62
     7
 10
308.6151195558
 20
249.5563597142
 30
0.0
  0
SEQEND
  5
7A9
  8
0
  6
CONTINUOUS
 62
     7
  0
ARC
  5
191
  8
0
  6
CONTINUOUS
 62
     7
 10
308.96700339
 20
246.8917523817
 30
0.0
 40
2.711877846170364
 50
165.6589414934
 51
187.0498969927
  0
POLYLINE
  5
192
  8
0
  6
CONTINUOUS
 62
     7
 66
     1
 10
0.0
 20
0.0
 30
0.0
  0
VERTEX
  5
47C
  8
0
  6
CONTINUOUS
 62
     7
 10
317.1459732445
 20
180.0781340062
 30
0.0
  0
VERTEX
  5
47D
  8
0
  6
CONTINUOUS
 62
     7
 10
317.1808225902
 20
180.0824136197
 30
0.0
  0
VERTEX
  5
47E
  8
0
  6
CONTINUOUS
 62
     7
 10
317.2853572162
 20
180.0952524602
 30
0.0
  0
VERTEX
  5
47F
  8
0
  6
CONTINUOUS
 62
     7
 10
317.4595368894
 20
180.1166386067
 30
0.0
  0
VERTEX
  5
480
  8
0
  6
CONTINUOUS
 62
     7
 10
317.7032960446
 20
180.1465601384
 30
0.0
  0
VERTEX
  5
481
  8
0
  6
CONTINUOUS
 62
     7
 10
318.0165430399
 20
180.1850289762
 30
0.0
  0
VERTEX
  5
482
  8
0
  6
CONTINUOUS
 62
     7
 10
318.3991594108
 20
180.2320093572
 30
0.0
  0
VERTEX
  5
483
  8
0
  6
CONTINUOUS
 62
     7
 10
318.8510013612
 20
180.2874893605
 30
0.0
  0
SEQEND
  5
7A8
  8
0
  6
CONTINUOUS
 62
     7
  0
POLYLINE
  5
193
  8
0
  6
CONTINUOUS
 62
     7
 66
     1
 10
0.0
 20
0.0
 30
0.0
  0
VERTEX
  5
484
  8
0
  6
CONTINUOUS
 62
     7
 10
314.4559575112
 20
181.4613313138
 30
0.0
  0
VERTEX
  5
485
  8
0
  6
CONTINUOUS
 62
     7
 10
314.4595039876
 20
181.4547032773
 30
0.0
  0
VERTEX
  5
486
  8
0
  6
CONTINUOUS
 62
     7
 10
314.4221139939
 20
181.5261573255
 30
0.0
  0
VERTEX
  5
487
  8
0
  6
CONTINUOUS
 62
     7
 10
314.3479524048
 20
181.6858620107
 30
0.0
  0
VERTEX
  5
488
  8
0
  6
CONTINUOUS
 62
     7
 10
314.2555994781
 20
181.9363803327
 30
0.0
  0
VERTEX
  5
489
  8
0
  6
CONTINUOUS
 62
     7
 10
314.1768229993
 20
182.2523922383
 30
0.0
  0
VERTEX
  5
48A
  8
0
  6
CONTINUOUS
 62
     7
 10
314.1508264335
 20
182.420572704
 30
0.0
  0
SEQEND
  5
7A7
  8
0
  6
CONTINUOUS
 62
     7
  0
POLYLINE
  5
194
  8
0
  6
CONTINUOUS
 62
     7
 66
     1
 10
0.0
 20
0.0
 30
0.0
  0
VERTEX
  5
48B
  8
0
  6
CONTINUOUS
 62
     7
 10
316.6070042046
 20
185.4323596417
 30
0.0
  0
VERTEX
  5
48C
  8
0
  6
CONTINUOUS
 62
     7
 10
316.5251655372
 20
185.4223102986
 30
0.0
  0
VERTEX
  5
48D
  8
0
  6
CONTINUOUS
 62
     7
 10
316.4903161915
 20
185.4180306851
 30
0.0
  0
SEQEND
  5
7A6
  8
0
  6
CONTINUOUS
 62
     7
  0
ARC
  5
195
  8
0
  6
CONTINUOUS
 62
     7
 10
316.8432650849
 20
182.7533555389
 30
0.0
 40
2.712926520730542
 50
165.6631254354
 51
187.0459686315
  0
LINE
  5
196
  8
0
  6
CONTINUOUS
 62
     7
 10
318.8510013612
 20
180.2874893605
 30
0.0
 11
318.8988460096
 21
180.2938074529
 31
0.0
  0
LINE
  5
197
  8
0
  6
CONTINUOUS
 62
     7
 10
308.0800963433
 20
179.6702355802
 30
0.0
 11
299.7198579701
 21
247.7589101255
 31
0.0
  0
POLYLINE
  5
198
  8
0
  6
CONTINUOUS
 62
     7
 66
     1
 10
0.0
 20
0.0
 30
0.0
  0
VERTEX
  5
48E
  8
0
  6
CONTINUOUS
 62
     7
 10
309.0726418288
 20
179.7921151578
 30
0.0
  0
VERTEX
  5
48F
  8
0
  6
CONTINUOUS
 62
     7
 10
308.8790057095
 20
179.7683329045
 30
0.0
  0
VERTEX
  5
490
  8
0
  6
CONTINUOUS
 62
     7
 10
308.69281123
 20
179.7454685628
 30
0.0
  0
VERTEX
  5
491
  8
0
  6
CONTINUOUS
 62
     7
 10
308.5212124379
 20
179.7244042813
 30
0.0
  0
VERTEX
  5
492
  8
0
  6
CONTINUOUS
 62
     7
 10
308.3708060773
 20
179.7059387624
 30
0.0
  0
VERTEX
  5
493
  8
0
  6
CONTINUOUS
 62
     7
 10
308.2473708184
 20
179.6907753408
 30
0.0
  0
VERTEX
  5
494
  8
0
  6
CONTINUOUS
 62
     7
 10
308.1556497009
 20
179.6795219838
 30
0.0
  0
VERTEX
  5
495
  8
0
  6
CONTINUOUS
 62
     7
 10
308.0991668494
 20
179.6725840032
 30
0.0
  0
VERTEX
  5
496
  8
0
  6
CONTINUOUS
 62
     7
 10
308.0800963433
 20
179.6702355802
 30
0.0
  0
SEQEND
  5
7A5
  8
0
  6
CONTINUOUS
 62
     7
  0
POLYLINE
  5
199
  8
0
  6
CONTINUOUS
 62
     7
 66
     1
 10
0.0
 20
0.0
 30
0.0
  0
VERTEX
  5
497
  8
0
  6
CONTINUOUS
 62
     7
 10
299.7198579701
 20
247.7589101255
 30
0.0
  0
VERTEX
  5
498
  8
0
  6
CONTINUOUS
 62
     7
 10
299.7389314564
 20
247.7612466275
 30
0.0
  0
VERTEX
  5
499
  8
0
  6
CONTINUOUS
 62
     7
 10
299.7954128178
 20
247.7681846082
 30
0.0
  0
VERTEX
  5
49A
  8
0
  6
CONTINUOUS
 62
     7
 10
299.8871324452
 20
247.779449886
 30
0.0
  0
VERTEX
  5
49B
  8
0
  6
CONTINUOUS
 62
     7
 10
300.010567704
 20
247.7946013867
 30
0.0
  0
VERTEX
  5
49C
  8
0
  6
CONTINUOUS
 62
     7
 10
300.1609770449
 20
247.8130669057
 30
0.0
  0
VERTEX
  5
49D
  8
0
  6
CONTINUOUS
 62
     7
 10
300.3325728567
 20
247.8341431081
 30
0.0
  0
VERTEX
  5
49E
  8
0
  6
CONTINUOUS
 62
     7
 10
300.5187688263
 20
247.8569955289
 30
0.0
  0
VERTEX
  5
49F
  8
0
  6
CONTINUOUS
 62
     7
 10
300.7124064358
 20
247.8807777822
 30
0.0
  0
SEQEND
  5
7A4
  8
0
  6
CONTINUOUS
 62
     7
  0
LINE
  5
19A
  8
0
  6
CONTINUOUS
 62
     7
 10
313.0428267511
 20
180.2795857846
 30
0.0
 11
309.0726418288
 21
179.7921151578
 31
0.0
  0
LINE
  5
19B
  8
0
  6
CONTINUOUS
 62
     7
 10
304.6825883778
 20
248.368248409
 30
0.0
 11
300.7124064358
 21
247.8807777822
 31
0.0
  0
LINE
  5
19C
  8
0
  6
CONTINUOUS
 62
     7
 10
305.6751353534
 20
248.4901279866
 30
0.0
 11
314.0353722365
 21
180.4014534413
 31
0.0
  0
POLYLINE
  5
19D
  8
0
  6
CONTINUOUS
 62
     7
 66
     1
 10
0.0
 20
0.0
 30
0.0
  0
VERTEX
  5
4A0
  8
0
  6
CONTINUOUS
 62
     7
 10
314.0353722365
 20
180.4014534413
 30
0.0
  0
VERTEX
  5
4A1
  8
0
  6
CONTINUOUS
 62
     7
 10
314.0163017305
 20
180.3991169393
 30
0.0
  0
VERTEX
  5
4A2
  8
0
  6
CONTINUOUS
 62
     7
 10
313.9598203691
 20
180.3921789586
 30
0.0
  0
VERTEX
  5
4A3
  8
0
  6
CONTINUOUS
 62
     7
 10
313.8680992516
 20
180.3809136807
 30
0.0
  0
VERTEX
  5
4A4
  8
0
  6
CONTINUOUS
 62
     7
 10
313.7446625026
 20
180.36576218
 30
0.0
  0
VERTEX
  5
4A5
  8
0
  6
CONTINUOUS
 62
     7
 10
313.594256142
 20
180.3472966611
 30
0.0
  0
VERTEX
  5
4A6
  8
0
  6
CONTINUOUS
 62
     7
 10
313.4226573499
 20
180.3262204587
 30
0.0
  0
VERTEX
  5
4A7
  8
0
  6
CONTINUOUS
 62
     7
 10
313.2364628704
 20
180.3033680379
 30
0.0
  0
VERTEX
  5
4A8
  8
0
  6
CONTINUOUS
 62
     7
 10
313.0428267511
 20
180.2795857846
 30
0.0
  0
SEQEND
  5
7A3
  8
0
  6
CONTINUOUS
 62
     7
  0
POLYLINE
  5
19E
  8
0
  6
CONTINUOUS
 62
     7
 66
     1
 10
0.0
 20
0.0
 30
0.0
  0
VERTEX
  5
4A9
  8
0
  6
CONTINUOUS
 62
     7
 10
304.6825883778
 20
248.368248409
 30
0.0
  0
VERTEX
  5
4AA
  8
0
  6
CONTINUOUS
 62
     7
 10
304.8762259873
 20
248.3920306623
 30
0.0
  0
VERTEX
  5
4AB
  8
0
  6
CONTINUOUS
 62
     7
 10
305.0624219568
 20
248.414895004
 30
0.0
  0
VERTEX
  5
4AC
  8
0
  6
CONTINUOUS
 62
     7
 10
305.2340177687
 20
248.4359592855
 30
0.0
  0
VERTEX
  5
4AD
  8
0
  6
CONTINUOUS
 62
     7
 10
305.3844256194
 20
248.4544248044
 30
0.0
  0
VERTEX
  5
4AE
  8
0
  6
CONTINUOUS
 62
     7
 10
305.5078623684
 20
248.469588226
 30
0.0
  0
VERTEX
  5
4AF
  8
0
  6
CONTINUOUS
 62
     7
 10
305.5995834859
 20
248.480841583
 30
0.0
  0
VERTEX
  5
4B0
  8
0
  6
CONTINUOUS
 62
     7
 10
305.6560648473
 20
248.4877795636
 30
0.0
  0
VERTEX
  5
4B1
  8
0
  6
CONTINUOUS
 62
     7
 10
305.6751353534
 20
248.4901279866
 30
0.0
  0
SEQEND
  5
7A2
  8
0
  6
CONTINUOUS
 62
     7
  0
LINE
  5
19F
  8
0
  6
CONTINUOUS
 62
     7
 10
308.8541312011
 20
173.366233772
 30
0.0
 11
308.0800963433
 21
179.6702355802
 31
0.0
  0
POLYLINE
  5
1A0
  8
0
  6
CONTINUOUS
 62
     7
 66
     1
 10
0.0
 20
0.0
 30
0.0
  0
VERTEX
  5
4B2
  8
0
  6
CONTINUOUS
 62
     7
 10
309.0726418288
 20
179.7921151578
 30
0.0
  0
VERTEX
  5
4B3
  8
0
  6
CONTINUOUS
 62
     7
 10
308.8790057095
 20
179.7683329045
 30
0.0
  0
VERTEX
  5
4B4
  8
0
  6
CONTINUOUS
 62
     7
 10
308.69281123
 20
179.7454685628
 30
0.0
  0
VERTEX
  5
4B5
  8
0
  6
CONTINUOUS
 62
     7
 10
308.5212124379
 20
179.7244042813
 30
0.0
  0
VERTEX
  5
4B6
  8
0
  6
CONTINUOUS
 62
     7
 10
308.3708060773
 20
179.7059387624
 30
0.0
  0
VERTEX
  5
4B7
  8
0
  6
CONTINUOUS
 62
     7
 10
308.2473708184
 20
179.6907753408
 30
0.0
  0
VERTEX
  5
4B8
  8
0
  6
CONTINUOUS
 62
     7
 10
308.1556497009
 20
179.6795219838
 30
0.0
  0
VERTEX
  5
4B9
  8
0
  6
CONTINUOUS
 62
     7
 10
308.0991668494
 20
179.6725840032
 30
0.0
  0
VERTEX
  5
4BA
  8
0
  6
CONTINUOUS
 62
     7
 10
308.0800963433
 20
179.6702355802
 30
0.0
  0
SEQEND
  5
7A1
  8
0
  6
CONTINUOUS
 62
     7
  0
ARC
  5
1A1
  8
0
  6
CONTINUOUS
 62
     7
 10
327.7125073908
 20
175.6817528964
 30
0.0
 40
18.99999999999999
 50
187.0
 51
203.0
  0
LINE
  5
1A2
  8
0
  6
CONTINUOUS
 62
     7
 10
323.6396504434
 20
129.0396303594
 30
0.0
 11
319.6396505328
 21
129.0396303594
 31
0.0
  0
LINE
  5
1A3
  8
0
  6
CONTINUOUS
 62
     7
 10
310.2229146155
 20
168.2578653752
 30
0.0
 11
317.6062134894
 21
150.8639008462
 31
0.0
  0
LINE
  5
1A4
  8
0
  6
CONTINUOUS
 62
     7
 10
315.7459435852
 20
170.6022471845
 30
0.0
 11
323.1292424591
 21
153.2082886159
 31
0.0
  0
LINE
  5
1A5
  8
0
  6
CONTINUOUS
 62
     7
 10
314.8094070943
 20
174.0974516332
 30
0.0
 11
314.0353722365
 21
180.4014534413
 31
0.0
  0
POLYLINE
  5
1A6
  8
0
  6
CONTINUOUS
 62
     7
 66
     1
 10
0.0
 20
0.0
 30
0.0
  0
VERTEX
  5
4BB
  8
0
  6
CONTINUOUS
 62
     7
 10
314.0353722365
 20
180.4014534413
 30
0.0
  0
VERTEX
  5
4BC
  8
0
  6
CONTINUOUS
 62
     7
 10
314.0163017305
 20
180.3991169393
 30
0.0
  0
VERTEX
  5
4BD
  8
0
  6
CONTINUOUS
 62
     7
 10
313.9598203691
 20
180.3921789586
 30
0.0
  0
VERTEX
  5
4BE
  8
0
  6
CONTINUOUS
 62
     7
 10
313.8680992516
 20
180.3809136807
 30
0.0
  0
VERTEX
  5
4BF
  8
0
  6
CONTINUOUS
 62
     7
 10
313.7446625026
 20
180.36576218
 30
0.0
  0
VERTEX
  5
4C0
  8
0
  6
CONTINUOUS
 62
     7
 10
313.594256142
 20
180.3472966611
 30
0.0
  0
VERTEX
  5
4C1
  8
0
  6
CONTINUOUS
 62
     7
 10
313.4226573499
 20
180.3262204587
 30
0.0
  0
VERTEX
  5
4C2
  8
0
  6
CONTINUOUS
 62
     7
 10
313.2364628704
 20
180.3033680379
 30
0.0
  0
VERTEX
  5
4C3
  8
0
  6
CONTINUOUS
 62
     7
 10
313.0428267511
 20
180.2795857846
 30
0.0
  0
SEQEND
  5
7A0
  8
0
  6
CONTINUOUS
 62
     7
  0
ARC
  5
1A7
  8
0
  6
CONTINUOUS
 62
     7
 10
327.7125073908
 20
175.6817528964
 30
0.0
 40
13.00000000000003
 50
187.0
 51
203.0
  0
LINE
  5
1A8
  8
0
  6
CONTINUOUS
 62
     7
 10
318.6396507414
 20
145.7843930184
 30
0.0
 11
318.6396507414
 21
129.0396303594
 31
0.0
  0
LINE
  5
1A9
  8
0
  6
CONTINUOUS
 62
     7
 10
319.6396505328
 20
129.0396303594
 30
0.0
 11
318.6396507414
 21
129.0396303594
 31
0.0
  0
ARC
  5
1AA
  8
0
  6
CONTINUOUS
 62
     7
 10
305.6396504076
 20
145.7843959528
 30
0.0
 40
13.00000000000006
 50
0.0
 51
23.0
  0
POLYLINE
  5
1AB
  8
0
  6
CONTINUOUS
 62
     7
 66
     1
 10
0.0
 20
0.0
 30
0.0
  0
VERTEX
  5
4C4
  8
0
  6
CONTINUOUS
 62
     7
 10
323.1292424591
 20
153.2082886159
 30
0.0
  0
VERTEX
  5
4C5
  8
0
  6
CONTINUOUS
 62
     7
 10
323.4795903655
 20
152.3217172086
 30
0.0
  0
VERTEX
  5
4C6
  8
0
  6
CONTINUOUS
 62
     7
 10
323.7151993306
 20
151.6388387143
 30
0.0
  0
SEQEND
  5
79F
  8
0
  6
CONTINUOUS
 62
     7
  0
LINE
  5
1AC
  8
0
  6
CONTINUOUS
 62
     7
 10
324.4396505745
 20
129.0396303594
 30
0.0
 11
323.6396504434
 21
129.0396303594
 31
0.0
  0
POLYLINE
  5
1AD
  8
0
  6
CONTINUOUS
 62
     7
 66
     1
 10
0.0
 20
0.0
 30
0.0
  0
VERTEX
  5
4C7
  8
0
  6
CONTINUOUS
 62
     7
 10
347.2905559333
 20
154.5917243421
 30
0.0
  0
VERTEX
  5
4C8
  8
0
  6
CONTINUOUS
 62
     7
 10
347.4605230482
 20
154.9561948239
 30
0.0
  0
VERTEX
  5
4C9
  8
0
  6
CONTINUOUS
 62
     7
 10
347.7080477269
 20
155.2944392621
 30
0.0
  0
VERTEX
  5
4CA
  8
0
  6
CONTINUOUS
 62
     7
 10
348.100060025
 20
155.66745705
 30
0.0
  0
VERTEX
  5
4CB
  8
0
  6
CONTINUOUS
 62
     7
 10
348.5576746853
 20
155.9832484185
 30
0.0
  0
VERTEX
  5
4CC
  8
0
  6
CONTINUOUS
 62
     7
 10
349.1725278886
 20
156.2955827176
 30
0.0
  0
VERTEX
  5
4CD
  8
0
  6
CONTINUOUS
 62
     7
 10
349.8281253369
 20
156.5396339356
 30
0.0
  0
SEQEND
  5
79E
  8
0
  6
CONTINUOUS
 62
     7
  0
POLYLINE
  5
1AE
  8
0
  6
CONTINUOUS
 62
     7
 66
     1
 10
0.0
 20
0.0
 30
0.0
  0
VERTEX
  5
4CE
  8
0
  6
CONTINUOUS
 62
     7
 10
353.0731094869
 20
151.8022031247
 30
0.0
  0
VERTEX
  5
4CF
  8
0
  6
CONTINUOUS
 62
     7
 10
351.0417176278
 20
151.8589705884
 30
0.0
  0
VERTEX
  5
4D0
  8
0
  6
CONTINUOUS
 62
     7
 10
349.9508617313
 20
151.9871026933
 30
0.0
  0
VERTEX
  5
4D1
  8
0
  6
CONTINUOUS
 62
     7
 10
348.8908944519
 20
152.2603482663
 30
0.0
  0
VERTEX
  5
4D2
  8
0
  6
CONTINUOUS
 62
     7
 10
348.1996221336
 20
152.5840253293
 30
0.0
  0
VERTEX
  5
4D3
  8
0
  6
CONTINUOUS
 62
     7
 10
347.8839157017
 20
152.8054506242
 30
0.0
  0
VERTEX
  5
4D4
  8
0
  6
CONTINUOUS
 62
     7
 10
347.6070789488
 20
153.0728609025
 30
0.0
  0
VERTEX
  5
4D5
  8
0
  6
CONTINUOUS
 62
     7
 10
347.3180724176
 20
153.5352737367
 30
0.0
  0
VERTEX
  5
4D6
  8
0
  6
CONTINUOUS
 62
     7
 10
347.2064135464
 20
154.0722996652
 30
0.0
  0
VERTEX
  5
4D7
  8
0
  6
CONTINUOUS
 62
     7
 10
347.2905559333
 20
154.5917243421
 30
0.0
  0
SEQEND
  5
79D
  8
0
  6
CONTINUOUS
 62
     7
  0
LINE
  5
1AF
  8
0
  6
CONTINUOUS
 62
     7
 10
355.3396491201
 20
151.8106073796
 30
0.0
 11
353.0731094869
 21
151.8022031247
 31
0.0
  0
LINE
  5
1B0
  8
0
  6
CONTINUOUS
 62
     7
 10
366.3396505507
 20
151.8106073796
 30
0.0
 11
355.3396491201
 21
151.8106073796
 31
0.0
  0
ARC
  5
1B1
  8
0
  6
CONTINUOUS
 62
     7
 10
326.9456321654
 20
264.6891423443
 30
0.0
 40
120.0000000000006
 50
273.9626587205
 51
289.1646231125
  0
LINE
  5
1B2
  8
0
  6
CONTINUOUS
 62
     7
 10
336.4265160503
 20
156.5396339356
 30
0.0
 11
349.8281253369
 21
156.5396339356
 31
0.0
  0
LINE
  5
1B3
  8
0
  6
CONTINUOUS
 62
     7
 10
366.3396505507
 20
151.8106073796
 30
0.0
 11
366.3396505507
 21
151.3396353185
 31
0.0
  0
LINE
  5
1B4
  8
0
  6
CONTINUOUS
 62
     7
 10
404.9596516283
 20
150.8042962014
 30
0.0
 11
404.9596516283
 21
150.6876439511
 31
0.0
  0
LINE
  5
1B5
  8
0
  6
CONTINUOUS
 62
     7
 10
410.3396503122
 20
150.6876439511
 30
0.0
 11
410.3396503122
 21
152.4054796159
 31
0.0
  0
LINE
  5
1B6
  8
0
  6
CONTINUOUS
 62
     7
 10
410.3396503122
 20
152.4054796159
 30
0.0
 11
410.3392092379
 21
152.4537355363
 31
0.0
  0
POLYLINE
  5
1B7
  8
0
  6
CONTINUOUS
 62
     7
 66
     1
 10
0.0
 20
0.0
 30
0.0
  0
VERTEX
  5
4D8
  8
0
  6
CONTINUOUS
 62
     7
 10
327.8799636157
 20
167.8704828679
 30
0.0
  0
VERTEX
  5
4D9
  8
0
  6
CONTINUOUS
 62
     7
 10
327.5316946076
 20
168.0715650975
 30
0.0
  0
VERTEX
  5
4DA
  8
0
  6
CONTINUOUS
 62
     7
 10
327.2163141386
 20
168.3476299703
 30
0.0
  0
VERTEX
  5
4DB
  8
0
  6
CONTINUOUS
 62
     7
 10
326.8788790198
 20
168.7706560552
 30
0.0
  0
VERTEX
  5
4DC
  8
0
  6
CONTINUOUS
 62
     7
 10
326.6041749956
 20
169.2540616452
 30
0.0
  0
VERTEX
  5
4DD
  8
0
  6
CONTINUOUS
 62
     7
 10
326.3466192277
 20
169.8937982976
 30
0.0
  0
VERTEX
  5
4DE
  8
0
  6
CONTINUOUS
 62
     7
 10
326.1606341096
 20
170.5681652486
 30
0.0
  0
SEQEND
  5
79C
  8
0
  6
CONTINUOUS
 62
     7
  0
POLYLINE
  5
1B8
  8
0
  6
CONTINUOUS
 62
     7
 66
     1
 10
0.0
 20
0.0
 30
0.0
  0
VERTEX
  5
4DF
  8
0
  6
CONTINUOUS
 62
     7
 10
331.162855109
 20
173.3879060208
 30
0.0
  0
VERTEX
  5
4E0
  8
0
  6
CONTINUOUS
 62
     7
 10
330.9292550066
 20
171.3691920697
 30
0.0
  0
VERTEX
  5
4E1
  8
0
  6
CONTINUOUS
 62
     7
 10
330.7065372689
 20
170.2936620175
 30
0.0
  0
VERTEX
  5
4E2
  8
0
  6
CONTINUOUS
 62
     7
 10
330.3419475661
 20
169.2615360677
 30
0.0
  0
VERTEX
  5
4E3
  8
0
  6
CONTINUOUS
 62
     7
 10
329.9592586335
 20
168.6011046826
 30
0.0
  0
VERTEX
  5
4E4
  8
0
  6
CONTINUOUS
 62
     7
 10
329.7111550214
 20
168.305894798
 30
0.0
  0
VERTEX
  5
4E5
  8
0
  6
CONTINUOUS
 62
     7
 10
329.4206366742
 20
168.0534214437
 30
0.0
  0
VERTEX
  5
4E6
  8
0
  6
CONTINUOUS
 62
     7
 10
328.9347922297
 20
167.8058237493
 30
0.0
  0
VERTEX
  5
4E7
  8
0
  6
CONTINUOUS
 62
     7
 10
328.3900797235
 20
167.7413911283
 30
0.0
  0
VERTEX
  5
4E8
  8
0
  6
CONTINUOUS
 62
     7
 10
327.8799636157
 20
167.8704828679
 30
0.0
  0
SEQEND
  5
79B
  8
0
  6
CONTINUOUS
 62
     7
  0
LINE
  5
1B9
  8
0
  6
CONTINUOUS
 62
     7
 10
331.352024419
 20
175.646552509
 30
0.0
 11
331.162855109
 21
173.3879060208
 31
0.0
  0
LINE
  5
1BA
  8
0
  6
CONTINUOUS
 62
     7
 10
332.3107376562
 20
186.604699558
 30
0.0
 11
331.352024419
 21
175.646552509
 31
0.0
  0
ARC
  5
1BB
  8
0
  6
CONTINUOUS
 62
     7
 10
216.4283254426
 20
157.1985994847
 30
0.0
 40
120.0000000000006
 50
357.9188963395
 51
14.1646231125
  0
LINE
  5
1BC
  8
0
  6
CONTINUOUS
 62
     7
 10
324.6783682944
 20
153.6257893502
 30
0.0
 11
326.1606341096
 21
170.5681652486
 31
0.0
  0
LINE
  5
1BD
  8
0
  6
CONTINUOUS
 62
     7
 10
332.3107376562
 20
186.604699558
 30
0.0
 11
332.779920833
 21
186.5636557996
 31
0.0
  0
POLYLINE
  5
1BE
  8
0
  6
CONTINUOUS
 62
     7
 66
     1
 10
0.0
 20
0.0
 30
0.0
  0
VERTEX
  5
4E9
  8
0
  6
CONTINUOUS
 62
     7
 10
336.6791767867
 20
224.9900311887
 30
0.0
  0
VERTEX
  5
4EA
  8
0
  6
CONTINUOUS
 62
     7
 10
336.7604059966
 20
224.982926315
 30
0.0
  0
VERTEX
  5
4EB
  8
0
  6
CONTINUOUS
 62
     7
 10
336.7953834923
 20
224.9798626363
 30
0.0
  0
SEQEND
  5
79A
  8
0
  6
CONTINUOUS
 62
     7
  0
POLYLINE
  5
1BF
  8
0
  6
CONTINUOUS
 62
     7
 66
     1
 10
0.0
 20
0.0
 30
0.0
  0
VERTEX
  5
4EC
  8
0
  6
CONTINUOUS
 62
     7
 10
337.2642813118
 20
230.3393930852
 30
0.0
  0
VERTEX
  5
4ED
  8
0
  6
CONTINUOUS
 62
     7
 10
337.2293038161
 20
230.3424567639
 30
0.0
  0
VERTEX
  5
4EE
  8
0
  6
CONTINUOUS
 62
     7
 10
337.1243854852
 20
230.3516358792
 30
0.0
  0
VERTEX
  5
4EF
  8
0
  6
CONTINUOUS
 62
     7
 10
336.9495658072
 20
230.3669304311
 30
0.0
  0
VERTEX
  5
4F0
  8
0
  6
CONTINUOUS
 62
     7
 10
336.704910347
 20
230.3883284986
 30
0.0
  0
VERTEX
  5
4F1
  8
0
  6
CONTINUOUS
 62
     7
 10
336.3905114921
 20
230.4158420026
 30
0.0
  0
VERTEX
  5
4F2
  8
0
  6
CONTINUOUS
 62
     7
 10
336.006488079
 20
230.4494351804
 30
0.0
  0
VERTEX
  5
4F3
  8
0
  6
CONTINUOUS
 62
     7
 10
335.5529853942
 20
230.4891080319
 30
0.0
  0
SEQEND
  5
799
  8
0
  6
CONTINUOUS
 62
     7
  0
LINE
  5
1C0
  8
0
  6
CONTINUOUS
 62
     7
 10
335.5529853942
 20
230.4891080319
 30
0.0
 11
335.5048728974
 21
230.4928750455
 31
0.0
  0
LINE
  5
1C1
  8
0
  6
CONTINUOUS
 62
     7
 10
335.4396505149
 20
131.0396344125
 30
0.0
 11
335.4396505149
 21
138.8396353185
 31
0.0
  0
ARC
  5
1C2
  8
0
  6
CONTINUOUS
 62
     7
 10
335.0396504076
 20
138.8396327436
 30
0.0
 40
0.4000000000000341
 50
0.0
 51
90.0
  0
LINE
  5
1C3
  8
0
  6
CONTINUOUS
 62
     7
 10
335.0396504493
 20
139.2396301686
 30
0.0
 11
334.2396503182
 21
139.2396301686
 31
0.0
  0
LINE
  5
1C4
  8
0
  6
CONTINUOUS
 62
     7
 10
326.239650497
 20
139.2396301686
 30
0.0
 11
325.6396503987
 21
139.2396301686
 31
0.0
  0
ARC
  5
1C5
  8
0
  6
CONTINUOUS
 62
     7
 10
345.1396504076
 20
143.5742240505
 30
0.0
 40
10.00000000000003
 50
154.4805415091
 51
180.0
  0
LINE
  5
1C6
  8
0
  6
CONTINUOUS
 62
     7
 10
335.1396502795
 20
143.5742229878
 30
0.0
 11
335.1396502795
 21
140.0396317899
 31
0.0
  0
ARC
  5
1C7
  8
0
  6
CONTINUOUS
 62
     7
 10
335.2396504076
 20
139.0396327436
 30
0.0
 40
1.0
 50
0.0
 51
90.0
  0
LINE
  5
1C8
  8
0
  6
CONTINUOUS
 62
     7
 10
336.2396502735
 20
131.0396344125
 30
0.0
 11
336.2396502735
 21
139.0396327436
 31
0.0
  0
ARC
  5
1C9
  8
0
  6
CONTINUOUS
 62
     7
 10
325.6396504076
 20
138.8396327436
 30
0.0
 40
0.4000000000000057
 50
90.0
 51
180.0
  0
LINE
  5
1CA
  8
0
  6
CONTINUOUS
 62
     7
 10
324.4396505745
 20
136.0396356046
 30
0.0
 11
324.4396505745
 21
131.0396344125
 31
0.0
  0
LINE
  5
1CB
  8
0
  6
CONTINUOUS
 62
     7
 10
335.2396504821
 20
140.0396317899
 30
0.0
 11
335.1396502795
 21
140.0396317899
 31
0.0
  0
LINE
  5
1CC
  8
0
  6
CONTINUOUS
 62
     7
 10
325.2396503331
 20
138.8396353185
 30
0.0
 11
325.2396503331
 21
138.2396311223
 31
0.0
  0
LINE
  5
1CD
  8
0
  6
CONTINUOUS
 62
     7
 10
324.4396505745
 20
136.0396356046
 30
0.0
 11
322.4917484315
 21
136.0396356046
 31
0.0
  0
ARC
  5
1CE
  8
0
  6
CONTINUOUS
 62
     7
 10
346.0487413167
 20
142.0396327436
 30
0.0
 40
24.30909090909085
 50
151.3013359141
 51
194.2894890274
  0
ARC
  5
1CF
  8
0
  6
CONTINUOUS
 62
     7
 10
330.3396504076
 20
150.6396327436
 30
0.0
 40
6.399999999999985
 50
334.4805415091
 51
151.3013359141
  0
LINE
  5
1D0
  8
0
  6
CONTINUOUS
 62
     7
 10
325.2396503331
 20
129.0396303594
 30
0.0
 11
324.4396505745
 21
129.0396303594
 31
0.0
  0
LINE
  5
1D1
  8
0
  6
CONTINUOUS
 62
     7
 10
324.4396505745
 20
129.0396303594
 30
0.0
 11
324.4396505745
 21
131.0396344125
 31
0.0
  0
LINE
  5
1D2
  8
0
  6
CONTINUOUS
 62
     7
 10
325.2396503331
 20
130.2396327912
 30
0.0
 11
325.2396503331
 21
129.0396303594
 31
0.0
  0
LINE
  5
1D3
  8
0
  6
CONTINUOUS
 62
     7
 10
336.2396502735
 20
129.0396303594
 30
0.0
 11
335.4396505149
 21
129.0396303594
 31
0.0
  0
LINE
  5
1D4
  8
0
  6
CONTINUOUS
 62
     7
 10
335.4396505149
 20
129.0396303594
 30
0.0
 11
335.4396505149
 21
131.0396344125
 31
0.0
  0
LINE
  5
1D5
  8
0
  6
CONTINUOUS
 62
     7
 10
336.2396502735
 20
131.0396344125
 30
0.0
 11
336.2396502735
 21
129.0396303594
 31
0.0
  0
POLYLINE
  5
1D6
  8
0
  6
CONTINUOUS
 62
     7
 66
     1
 10
0.0
 20
0.0
 30
0.0
  0
VERTEX
  5
4F4
  8
0
  6
CONTINUOUS
 62
     7
 10
163.7606197236
 20
-14.6907384259
 30
0.0
  0
VERTEX
  5
4F5
  8
0
  6
CONTINUOUS
 62
     7
 10
162.9645162462
 20
-14.8027132017
 30
0.0
  0
VERTEX
  5
4F6
  8
0
  6
CONTINUOUS
 62
     7
 10
162.0578342317
 20
-14.9425099355
 30
0.0
  0
VERTEX
  5
4F7
  8
0
  6
CONTINUOUS
 62
     7
 10
161.1605876325
 20
-15.0932932955
 30
0.0
  0
VERTEX
  5
4F8
  8
0
  6
CONTINUOUS
 62
     7
 10
160.2774136899
 20
-15.2544091207
 30
0.0
  0
VERTEX
  5
4F9
  8
0
  6
CONTINUOUS
 62
     7
 10
159.4229006408
 20
-15.4226670724
 30
0.0
  0
VERTEX
  5
4FA
  8
0
  6
CONTINUOUS
 62
     7
 10
158.5839563249
 20
-15.5999491674
 30
0.0
  0
VERTEX
  5
4FB
  8
0
  6
CONTINUOUS
 62
     7
 10
157.7618831037
 20
-15.7857964498
 30
0.0
  0
VERTEX
  5
4FC
  8
0
  6
CONTINUOUS
 62
     7
 10
156.9627815126
 20
-15.9787515861
 30
0.0
  0
VERTEX
  5
4FD
  8
0
  6
CONTINUOUS
 62
     7
 10
156.1924987672
 20
-16.1773572427
 30
0.0
  0
VERTEX
  5
4FE
  8
0
  6
CONTINUOUS
 62
     7
 10
155.4562770961
 20
-16.3802693349
 30
0.0
  0
VERTEX
  5
4FF
  8
0
  6
CONTINUOUS
 62
     7
 10
154.7583335279
 20
-16.5864611727
 30
0.0
  0
VERTEX
  5
500
  8
0
  6
CONTINUOUS
 62
     7
 10
154.1041308282
 20
-16.7941028935
 30
0.0
  0
VERTEX
  5
501
  8
0
  6
CONTINUOUS
 62
     7
 10
153.5049491761
 20
-16.9986764652
 30
0.0
  0
VERTEX
  5
502
  8
0
  6
CONTINUOUS
 62
     7
 10
152.9207476614
 20
-17.2146166426
 30
0.0
  0
VERTEX
  5
503
  8
0
  6
CONTINUOUS
 62
     7
 10
152.3673110841
 20
-17.4386675221
 30
0.0
  0
VERTEX
  5
504
  8
0
  6
CONTINUOUS
 62
     7
 10
151.8369906781
 20
-17.6777953965
 30
0.0
  0
VERTEX
  5
505
  8
0
  6
CONTINUOUS
 62
     7
 10
151.3110392927
 20
-17.9499025208
 30
0.0
  0
VERTEX
  5
506
  8
0
  6
CONTINUOUS
 62
     7
 10
150.869331622
 20
-18.2207102639
 30
0.0
  0
VERTEX
  5
507
  8
0
  6
CONTINUOUS
 62
     7
 10
150.5647071837
 20
-18.4427301151
 30
0.0
  0
VERTEX
  5
508
  8
0
  6
CONTINUOUS
 62
     7
 10
150.3051781295
 20
-18.6657617551
 30
0.0
  0
VERTEX
  5
509
  8
0
  6
CONTINUOUS
 62
     7
 10
150.0708678006
 20
-18.9058760864
 30
0.0
  0
VERTEX
  5
50A
  8
0
  6
CONTINUOUS
 62
     7
 10
149.858429396
 20
-19.1706235272
 30
0.0
  0
VERTEX
  5
50B
  8
0
  6
CONTINUOUS
 62
     7
 10
149.6688210605
 20
-19.4666589362
 30
0.0
  0
VERTEX
  5
50C
  8
0
  6
CONTINUOUS
 62
     7
 10
149.5081999539
 20
-19.7962130171
 30
0.0
  0
VERTEX
  5
50D
  8
0
  6
CONTINUOUS
 62
     7
 10
149.3853488205
 20
-20.1562980872
 30
0.0
  0
VERTEX
  5
50E
  8
0
  6
CONTINUOUS
 62
     7
 10
149.308706188
 20
-20.5396990043
 30
0.0
  0
VERTEX
  5
50F
  8
0
  6
CONTINUOUS
 62
     7
 10
149.2863291143
 20
-20.9056625825
 30
0.0
  0
SEQEND
  5
798
  8
0
  6
CONTINUOUS
 62
     7
  0
POLYLINE
  5
1D7
  8
0
  6
CONTINUOUS
 62
     7
 66
     1
 10
0.0
 20
0.0
 30
0.0
  0
VERTEX
  5
510
  8
0
  6
CONTINUOUS
 62
     7
 10
229.3965631364
 20
-20.9184507591
 30
0.0
  0
VERTEX
  5
511
  8
0
  6
CONTINUOUS
 62
     7
 10
229.400151336
 20
-20.8451906902
 30
0.0
  0
VERTEX
  5
512
  8
0
  6
CONTINUOUS
 62
     7
 10
229.3629580377
 20
-20.4463327986
 30
0.0
  0
VERTEX
  5
513
  8
0
  6
CONTINUOUS
 62
     7
 10
229.2760306238
 20
-20.0719217521
 30
0.0
  0
VERTEX
  5
514
  8
0
  6
CONTINUOUS
 62
     7
 10
229.1479283212
 20
-19.7271967989
 30
0.0
  0
VERTEX
  5
515
  8
0
  6
CONTINUOUS
 62
     7
 10
228.9875083803
 20
-19.415314005
 30
0.0
  0
VERTEX
  5
516
  8
0
  6
CONTINUOUS
 62
     7
 10
228.8028114675
 20
-19.1365520221
 30
0.0
  0
VERTEX
  5
517
  8
0
  6
CONTINUOUS
 62
     7
 10
228.5992496846
 20
-18.8877011401
 30
0.0
  0
VERTEX
  5
518
  8
0
  6
CONTINUOUS
 62
     7
 10
228.3776634572
 20
-18.6622555119
 30
0.0
  0
VERTEX
  5
519
  8
0
  6
CONTINUOUS
 62
     7
 10
228.1325393556
 20
-18.4510643345
 30
0.0
  0
VERTEX
  5
51A
  8
0
  6
CONTINUOUS
 62
     7
 10
227.8463238118
 20
-18.2403648955
 30
0.0
  0
VERTEX
  5
51B
  8
0
  6
CONTINUOUS
 62
     7
 10
227.4733239053
 20
-18.0061216217
 30
0.0
  0
VERTEX
  5
51C
  8
0
  6
CONTINUOUS
 62
     7
 10
226.9935005544
 20
-17.7488739354
 30
0.0
  0
VERTEX
  5
51D
  8
0
  6
CONTINUOUS
 62
     7
 10
226.4621787904
 20
-17.5012792212
 30
0.0
  0
VERTEX
  5
51E
  8
0
  6
CONTINUOUS
 62
     7
 10
225.9250396131
 20
-17.2776351434
 30
0.0
  0
VERTEX
  5
51F
  8
0
  6
CONTINUOUS
 62
     7
 10
225.3068798421
 20
-17.0439014894
 30
0.0
  0
VERTEX
  5
520
  8
0
  6
CONTINUOUS
 62
     7
 10
224.6687107919
 20
-16.8227444154
 30
0.0
  0
VERTEX
  5
521
  8
0
  6
CONTINUOUS
 62
     7
 10
224.0058415769
 20
-16.6102732283
 30
0.0
  0
VERTEX
  5
522
  8
0
  6
CONTINUOUS
 62
     7
 10
223.318707311
 20
-16.4054075939
 30
0.0
  0
VERTEX
  5
523
  8
0
  6
CONTINUOUS
 62
     7
 10
222.5856238244
 20
-16.201383875
 30
0.0
  0
VERTEX
  5
524
  8
0
  6
CONTINUOUS
 62
     7
 10
221.8194239972
 20
-16.0020048481
 30
0.0
  0
VERTEX
  5
525
  8
0
  6
CONTINUOUS
 62
     7
 10
221.0225814222
 20
-15.8079842788
 30
0.0
  0
VERTEX
  5
526
  8
0
  6
CONTINUOUS
 62
     7
 10
220.1982670663
 20
-15.6202728611
 30
0.0
  0
VERTEX
  5
527
  8
0
  6
CONTINUOUS
 62
     7
 10
219.3501466153
 20
-15.4399553996
 30
0.0
  0
VERTEX
  5
528
  8
0
  6
CONTINUOUS
 62
     7
 10
218.4821658967
 20
-15.2681554419
 30
0.0
  0
VERTEX
  5
529
  8
0
  6
CONTINUOUS
 62
     7
 10
217.5984853147
 20
-15.1059995157
 30
0.0
  0
VERTEX
  5
52A
  8
0
  6
CONTINUOUS
 62
     7
 10
216.7086892961
 20
-14.9553204638
 30
0.0
  0
VERTEX
  5
52B
  8
0
  6
CONTINUOUS
 62
     7
 10
215.807145202
 20
-14.8150617939
 30
0.0
  0
VERTEX
  5
52C
  8
0
  6
CONTINUOUS
 62
     7
 10
214.9262302755
 20
-14.6899278027
 30
0.0
  0
SEQEND
  5
797
  8
0
  6
CONTINUOUS
 62
     7
  0
ARC
  5
1D8
  8
0
  6
CONTINUOUS
 62
     7
 10
189.2209467808
 20
-201.7823328701
 30
0.0
 40
188.8174970670524
 50
90.2489016896
 51
97.7494217917
  0
ARC
  5
1D9
  8
0
  6
CONTINUOUS
 62
     7
 10
189.5502312866
 20
-200.8736701722
 30
0.0
 40
187.905754847059
 50
82.2387216937
 51
89.7798313593
  0
POLYLINE
  5
1DA
  8
0
  6
CONTINUOUS
 62
     7
 66
     1
 10
0.0
 20
0.0
 30
0.0
  0
VERTEX
  5
52D
  8
0
  6
CONTINUOUS
 62
     7
 10
153.8794347285
 20
-22.6797382099
 30
0.0
  0
VERTEX
  5
52E
  8
0
  6
CONTINUOUS
 62
     7
 10
153.8779624937
 20
-22.6808677179
 30
0.0
  0
VERTEX
  5
52F
  8
0
  6
CONTINUOUS
 62
     7
 10
153.9183714627
 20
-22.6562644106
 30
0.0
  0
VERTEX
  5
530
  8
0
  6
CONTINUOUS
 62
     7
 10
154.0098154186
 20
-22.6057897073
 30
0.0
  0
VERTEX
  5
531
  8
0
  6
CONTINUOUS
 62
     7
 10
154.1590341566
 20
-22.5308934909
 30
0.0
  0
VERTEX
  5
532
  8
0
  6
CONTINUOUS
 62
     7
 10
154.3710881112
 20
-22.4335903984
 30
0.0
  0
VERTEX
  5
533
  8
0
  6
CONTINUOUS
 62
     7
 10
154.6486281989
 20
-22.316525386
 30
0.0
  0
VERTEX
  5
534
  8
0
  6
CONTINUOUS
 62
     7
 10
154.9918019412
 20
-22.1827949149
 30
0.0
  0
VERTEX
  5
535
  8
0
  6
CONTINUOUS
 62
     7
 10
155.3986632465
 20
-22.0356653196
 30
0.0
  0
VERTEX
  5
536
  8
0
  6
CONTINUOUS
 62
     7
 10
155.8657550453
 20
-21.8783507806
 30
0.0
  0
VERTEX
  5
537
  8
0
  6
CONTINUOUS
 62
     7
 10
156.388386452
 20
-21.7139507395
 30
0.0
  0
VERTEX
  5
538
  8
0
  6
CONTINUOUS
 62
     7
 10
156.9636696218
 20
-21.5449015361
 30
0.0
  0
VERTEX
  5
539
  8
0
  6
CONTINUOUS
 62
     7
 10
157.5725847123
 20
-21.3773364884
 30
0.0
  0
VERTEX
  5
53A
  8
0
  6
CONTINUOUS
 62
     7
 10
158.2332247136
 20
-21.2067137224
 30
0.0
  0
VERTEX
  5
53B
  8
0
  6
CONTINUOUS
 62
     7
 10
158.9386993287
 20
-21.0357601506
 30
0.0
  0
VERTEX
  5
53C
  8
0
  6
CONTINUOUS
 62
     7
 10
159.6816742061
 20
-20.8670611245
 30
0.0
  0
VERTEX
  5
53D
  8
0
  6
CONTINUOUS
 62
     7
 10
160.4541295408
 20
-20.7031245095
 30
0.0
  0
VERTEX
  5
53E
  8
0
  6
CONTINUOUS
 62
     7
 10
161.2462424873
 20
-20.5465818507
 30
0.0
  0
VERTEX
  5
53F
  8
0
  6
CONTINUOUS
 62
     7
 10
162.0494895814
 20
-20.3995148403
 30
0.0
  0
VERTEX
  5
540
  8
0
  6
CONTINUOUS
 62
     7
 10
162.8601395725
 20
-20.2626461846
 30
0.0
  0
VERTEX
  5
541
  8
0
  6
CONTINUOUS
 62
     7
 10
163.6892133592
 20
-20.1340506536
 30
0.0
  0
VERTEX
  5
542
  8
0
  6
CONTINUOUS
 62
     7
 10
164.4850754379
 20
-20.0213382703
 30
0.0
  0
SEQEND
  5
796
  8
0
  6
CONTINUOUS
 62
     7
  0
POLYLINE
  5
1DB
  8
0
  6
CONTINUOUS
 62
     7
 66
     1
 10
0.0
 20
0.0
 30
0.0
  0
VERTEX
  5
543
  8
0
  6
CONTINUOUS
 62
     7
 10
214.2017417787
 20
-20.0217122895
 30
0.0
  0
VERTEX
  5
544
  8
0
  6
CONTINUOUS
 62
     7
 10
214.861702287
 20
-20.1138074261
 30
0.0
  0
VERTEX
  5
545
  8
0
  6
CONTINUOUS
 62
     7
 10
215.6991296647
 20
-20.2420274478
 30
0.0
  0
VERTEX
  5
546
  8
0
  6
CONTINUOUS
 62
     7
 10
216.5283137201
 20
-20.3804517847
 30
0.0
  0
VERTEX
  5
547
  8
0
  6
CONTINUOUS
 62
     7
 10
217.3427694677
 20
-20.5279777509
 30
0.0
  0
VERTEX
  5
548
  8
0
  6
CONTINUOUS
 62
     7
 10
218.1315832971
 20
-20.6821749669
 30
0.0
  0
VERTEX
  5
549
  8
0
  6
CONTINUOUS
 62
     7
 10
218.8997262357
 20
-20.8434353334
 30
0.0
  0
VERTEX
  5
54A
  8
0
  6
CONTINUOUS
 62
     7
 10
219.6433716653
 20
-21.0105801684
 30
0.0
  0
VERTEX
  5
54B
  8
0
  6
CONTINUOUS
 62
     7
 10
220.3565054773
 20
-21.181852625
 30
0.0
  0
VERTEX
  5
54C
  8
0
  6
CONTINUOUS
 62
     7
 10
221.0331076024
 20
-21.3553215128
 30
0.0
  0
VERTEX
  5
54D
  8
0
  6
CONTINUOUS
 62
     7
 10
221.6674023507
 20
-21.5289200407
 30
0.0
  0
VERTEX
  5
54E
  8
0
  6
CONTINUOUS
 62
     7
 10
222.2537570833
 20
-21.7004070741
 30
0.0
  0
VERTEX
  5
54F
  8
0
  6
CONTINUOUS
 62
     7
 10
222.7871530889
 20
-21.8674386603
 30
0.0
  0
VERTEX
  5
550
  8
0
  6
CONTINUOUS
 62
     7
 10
223.2664757608
 20
-22.0284799796
 30
0.0
  0
VERTEX
  5
551
  8
0
  6
CONTINUOUS
 62
     7
 10
223.6926430105
 20
-22.1825833184
 30
0.0
  0
VERTEX
  5
552
  8
0
  6
CONTINUOUS
 62
     7
 10
224.0584247945
 20
-22.3256687385
 30
0.0
  0
VERTEX
  5
553
  8
0
  6
CONTINUOUS
 62
     7
 10
224.3570321439
 20
-22.4529008132
 30
0.0
  0
VERTEX
  5
554
  8
0
  6
CONTINUOUS
 62
     7
 10
224.5612436174
 20
-22.5480089647
 30
0.0
  0
VERTEX
  5
555
  8
0
  6
CONTINUOUS
 62
     7
 10
224.7026198743
 20
-22.6201216441
 30
0.0
  0
VERTEX
  5
556
  8
0
  6
CONTINUOUS
 62
     7
 10
224.7848027585
 20
-22.6663197142
 30
0.0
  0
VERTEX
  5
557
  8
0
  6
CONTINUOUS
 62
     7
 10
224.8142236112
 20
-22.6845542652
 30
0.0
  0
VERTEX
  5
558
  8
0
  6
CONTINUOUS
 62
     7
 10
224.8120241998
 20
-22.6829523903
 30
0.0
  0
SEQEND
  5
795
  8
0
  6
CONTINUOUS
 62
     7
  0
LINE
  5
1DC
  8
0
  6
CONTINUOUS
 62
     7
 10
188.3433812497
 20
-12.624456988
 30
0.0
 11
188.3433812497
 21
-12.9824290735
 31
0.0
  0
LINE
  5
1DD
  8
0
  6
CONTINUOUS
 62
     7
 10
190.3433853029
 20
-12.9824290735
 30
0.0
 11
190.3433853029
 21
-12.624456988
 31
0.0
  0
ARC
  5
1DE
  8
0
  6
CONTINUOUS
 62
     7
 10
189.3433847664
 20
-203.0312270666
 30
0.0
 40
184.6915014406577
 50
82.2647833754
 51
97.7352166246
  0
LINE
  5
1DF
  8
0
  6
CONTINUOUS
 62
     7
 10
149.2846274017
 20
-20.9141830665
 30
0.0
 11
149.2846274017
 21
-25.7889571351
 31
0.0
  0
LINE
  5
1E0
  8
0
  6
CONTINUOUS
 62
     7
 10
229.4021421312
 20
-25.7889571351
 30
0.0
 11
229.4021421312
 21
-20.9141830665
 31
0.0
  0
POLYLINE
  5
1E1
  8
0
  6
CONTINUOUS
 62
     7
 66
     1
 10
0.0
 20
0.0
 30
0.0
  0
VERTEX
  5
559
  8
0
  6
CONTINUOUS
 62
     7
 10
214.2019205926
 20
-27.8957786721
 30
0.0
  0
VERTEX
  5
55A
  8
0
  6
CONTINUOUS
 62
     7
 10
214.978569114
 20
-27.9999839825
 30
0.0
  0
VERTEX
  5
55B
  8
0
  6
CONTINUOUS
 62
     7
 10
215.8609979986
 20
-28.1147564513
 30
0.0
  0
VERTEX
  5
55C
  8
0
  6
CONTINUOUS
 62
     7
 10
216.7329305051
 20
-28.2245571476
 30
0.0
  0
VERTEX
  5
55D
  8
0
  6
CONTINUOUS
 62
     7
 10
217.5904267667
 20
-28.328813867
 30
0.0
  0
VERTEX
  5
55E
  8
0
  6
CONTINUOUS
 62
     7
 10
218.4263044236
 20
-28.4263337714
 30
0.0
  0
VERTEX
  5
55F
  8
0
  6
CONTINUOUS
 62
     7
 10
219.2477458356
 20
-28.5176495773
 30
0.0
  0
VERTEX
  5
560
  8
0
  6
CONTINUOUS
 62
     7
 10
220.0539284585
 20
-28.6022151572
 30
0.0
  0
VERTEX
  5
561
  8
0
  6
CONTINUOUS
 62
     7
 10
220.8384507535
 20
-28.6788197917
 30
0.0
  0
VERTEX
  5
562
  8
0
  6
CONTINUOUS
 62
     7
 10
221.5952330468
 20
-28.7462929946
 30
0.0
  0
VERTEX
  5
563
  8
0
  6
CONTINUOUS
 62
     7
 10
222.3189586042
 20
-28.8035231394
 30
0.0
  0
VERTEX
  5
564
  8
0
  6
CONTINUOUS
 62
     7
 10
223.0055445073
 20
-28.8494500083
 30
0.0
  0
VERTEX
  5
565
  8
0
  6
CONTINUOUS
 62
     7
 10
223.6537330983
 20
-28.8830849093
 30
0.0
  0
VERTEX
  5
566
  8
0
  6
CONTINUOUS
 62
     7
 10
224.27177366
 20
-28.9037148219
 30
0.0
  0
VERTEX
  5
567
  8
0
  6
CONTINUOUS
 62
     7
 10
224.8647623895
 20
-28.9095583123
 30
0.0
  0
VERTEX
  5
568
  8
0
  6
CONTINUOUS
 62
     7
 10
225.4412287114
 20
-28.8971486253
 30
0.0
  0
VERTEX
  5
569
  8
0
  6
CONTINUOUS
 62
     7
 10
226.0231727002
 20
-28.8583609027
 30
0.0
  0
VERTEX
  5
56A
  8
0
  6
CONTINUOUS
 62
     7
 10
226.5859120725
 20
-28.7827643317
 30
0.0
  0
VERTEX
  5
56B
  8
0
  6
CONTINUOUS
 62
     7
 10
226.9518428682
 20
-28.7041748625
 30
0.0
  0
VERTEX
  5
56C
  8
0
  6
CONTINUOUS
 62
     7
 10
227.2894912599
 20
-28.603548066
 30
0.0
  0
VERTEX
  5
56D
  8
0
  6
CONTINUOUS
 62
     7
 10
227.6023918031
 20
-28.4797447485
 30
0.0
  0
VERTEX
  5
56E
  8
0
  6
CONTINUOUS
 62
     7
 10
227.9041462777
 20
-28.3256205481
 30
0.0
  0
VERTEX
  5
56F
  8
0
  6
CONTINUOUS
 62
     7
 10
228.1971031068
 20
-28.1348610979
 30
0.0
  0
VERTEX
  5
570
  8
0
  6
CONTINUOUS
 62
     7
 10
228.4776204465
 20
-27.9025162321
 30
0.0
  0
VERTEX
  5
571
  8
0
  6
CONTINUOUS
 62
     7
 10
228.737115228
 20
-27.6271435183
 30
0.0
  0
VERTEX
  5
572
  8
0
  6
CONTINUOUS
 62
     7
 10
228.9650910734
 20
-27.3113722664
 30
0.0
  0
VERTEX
  5
573
  8
0
  6
CONTINUOUS
 62
     7
 10
229.1518503068
 20
-26.9610660833
 30
0.0
  0
VERTEX
  5
574
  8
0
  6
CONTINUOUS
 62
     7
 10
229.3016248582
 20
-26.5423680407
 30
0.0
  0
VERTEX
  5
575
  8
0
  6
CONTINUOUS
 62
     7
 10
229.3274455903
 20
-26.4085086745
 30
0.0
  0
SEQEND
  5
794
  8
0
  6
CONTINUOUS
 62
     7
  0
POLYLINE
  5
1E2
  8
0
  6
CONTINUOUS
 62
     7
 66
     1
 10
0.0
 20
0.0
 30
0.0
  0
VERTEX
  5
576
  8
0
  6
CONTINUOUS
 62
     7
 10
149.3541815518
 20
-26.409182207
 30
0.0
  0
VERTEX
  5
577
  8
0
  6
CONTINUOUS
 62
     7
 10
149.3551247953
 20
-26.4156925243
 30
0.0
  0
VERTEX
  5
578
  8
0
  6
CONTINUOUS
 62
     7
 10
149.4779595373
 20
-26.821109162
 30
0.0
  0
VERTEX
  5
579
  8
0
  6
CONTINUOUS
 62
     7
 10
149.6511259316
 20
-27.1900201899
 30
0.0
  0
VERTEX
  5
57A
  8
0
  6
CONTINUOUS
 62
     7
 10
149.8646565913
 20
-27.5180804294
 30
0.0
  0
VERTEX
  5
57B
  8
0
  6
CONTINUOUS
 62
     7
 10
150.1086049913
 20
-27.8030681175
 30
0.0
  0
VERTEX
  5
57C
  8
0
  6
CONTINUOUS
 62
     7
 10
150.3732972978
 20
-28.0446673495
 30
0.0
  0
VERTEX
  5
57D
  8
0
  6
CONTINUOUS
 62
     7
 10
150.6502860425
 20
-28.2447757882
 30
0.0
  0
VERTEX
  5
57E
  8
0
  6
CONTINUOUS
 62
     7
 10
150.9340786575
 20
-28.4076022667
 30
0.0
  0
VERTEX
  5
57F
  8
0
  6
CONTINUOUS
 62
     7
 10
151.2240239619
 20
-28.5390461546
 30
0.0
  0
VERTEX
  5
580
  8
0
  6
CONTINUOUS
 62
     7
 10
151.5273043154
 20
-28.6459299487
 30
0.0
  0
VERTEX
  5
581
  8
0
  6
CONTINUOUS
 62
     7
 10
151.8608295558
 20
-28.7341738802
 30
0.0
  0
VERTEX
  5
582
  8
0
  6
CONTINUOUS
 62
     7
 10
152.2180059193
 20
-28.8019413811
 30
0.0
  0
VERTEX
  5
583
  8
0
  6
CONTINUOUS
 62
     7
 10
152.6835733293
 20
-28.8594226104
 30
0.0
  0
VERTEX
  5
584
  8
0
  6
CONTINUOUS
 62
     7
 10
153.3500530957
 20
-28.9001251322
 30
0.0
  0
VERTEX
  5
585
  8
0
  6
CONTINUOUS
 62
     7
 10
153.9234050749
 20
-28.9090367717
 30
0.0
  0
VERTEX
  5
586
  8
0
  6
CONTINUOUS
 62
     7
 10
154.5040452121
 20
-28.9011801344
 30
0.0
  0
VERTEX
  5
587
  8
0
  6
CONTINUOUS
 62
     7
 10
155.1618510125
 20
-28.8771922451
 30
0.0
  0
VERTEX
  5
588
  8
0
  6
CONTINUOUS
 62
     7
 10
155.8357798694
 20
-28.8399415773
 30
0.0
  0
VERTEX
  5
589
  8
0
  6
CONTINUOUS
 62
     7
 10
156.5391325591
 20
-28.790814684
 30
0.0
  0
VERTEX
  5
58A
  8
0
  6
CONTINUOUS
 62
     7
 10
157.2742068408
 20
-28.7308799785
 30
0.0
  0
VERTEX
  5
58B
  8
0
  6
CONTINUOUS
 62
     7
 10
158.039482796
 20
-28.6610166293
 30
0.0
  0
VERTEX
  5
58C
  8
0
  6
CONTINUOUS
 62
     7
 10
158.8325136541
 20
-28.5820576114
 30
0.0
  0
VERTEX
  5
58D
  8
0
  6
CONTINUOUS
 62
     7
 10
159.6499913572
 20
-28.4948597413
 30
0.0
  0
VERTEX
  5
58E
  8
0
  6
CONTINUOUS
 62
     7
 10
160.4880803464
 20
-28.400304423
 30
0.0
  0
VERTEX
  5
58F
  8
0
  6
CONTINUOUS
 62
     7
 10
161.3426559804
 20
-28.2992916864
 30
0.0
  0
VERTEX
  5
590
  8
0
  6
CONTINUOUS
 62
     7
 10
162.208043897
 20
-28.1929309231
 30
0.0
  0
VERTEX
  5
591
  8
0
  6
CONTINUOUS
 62
     7
 10
163.0795174478
 20
-28.0821720821
 30
0.0
  0
VERTEX
  5
592
  8
0
  6
CONTINUOUS
 62
     7
 10
163.95909425
 20
-27.9667759997
 30
0.0
  0
VERTEX
  5
593
  8
0
  6
CONTINUOUS
 62
     7
 10
164.4849055646
 20
-27.8956326407
 30
0.0
  0
SEQEND
  5
793
  8
0
  6
CONTINUOUS
 62
     7
  0
POLYLINE
  5
1E3
  8
0
  6
CONTINUOUS
 62
     7
 66
     1
 10
0.0
 20
0.0
 30
0.0
  0
VERTEX
  5
594
  8
0
  6
CONTINUOUS
 62
     7
 10
229.3409400819
 20
-26.3385752899
 30
0.0
  0
VERTEX
  5
595
  8
0
  6
CONTINUOUS
 62
     7
 10
229.3834381936
 20
-26.1182765228
 30
0.0
  0
VERTEX
  5
596
  8
0
  6
CONTINUOUS
 62
     7
 10
229.3974452852
 20
-25.7898109716
 30
0.0
  0
SEQEND
  5
792
  8
0
  6
CONTINUOUS
 62
     7
  0
POLYLINE
  5
1E4
  8
0
  6
CONTINUOUS
 62
     7
 66
     1
 10
0.0
 20
0.0
 30
0.0
  0
VERTEX
  5
597
  8
0
  6
CONTINUOUS
 62
     7
 10
149.2927783368
 20
-25.782591359
 30
0.0
  0
VERTEX
  5
598
  8
0
  6
CONTINUOUS
 62
     7
 10
149.2923596142
 20
-25.9824397725
 30
0.0
  0
VERTEX
  5
599
  8
0
  6
CONTINUOUS
 62
     7
 10
149.3541815518
 20
-26.409182207
 30
0.0
  0
SEQEND
  5
791
  8
0
  6
CONTINUOUS
 62
     7
  0
ARC
  5
1E5
  8
0
  6
CONTINUOUS
 62
     7
 10
189.3433847664
 20
-210.9063566366
 30
0.0
 40
184.6914342469479
 50
82.264780544
 51
97.735219456
  0
POLYLINE
  5
1E6
  8
0
  6
CONTINUOUS
 62
     7
 66
     1
 10
0.0
 20
0.0
 30
0.0
  0
VERTEX
  5
59A
  8
0
  6
CONTINUOUS
 62
     7
 10
43.7606209157
 20
-14.6907384259
 30
0.0
  0
VERTEX
  5
59B
  8
0
  6
CONTINUOUS
 62
     7
 10
42.9645174382
 20
-14.8027132017
 30
0.0
  0
VERTEX
  5
59C
  8
0
  6
CONTINUOUS
 62
     7
 10
42.0578354238
 20
-14.9425099355
 30
0.0
  0
VERTEX
  5
59D
  8
0
  6
CONTINUOUS
 62
     7
 10
41.1605888246
 20
-15.0932932955
 30
0.0
  0
VERTEX
  5
59E
  8
0
  6
CONTINUOUS
 62
     7
 10
40.277414882
 20
-15.2544091207
 30
0.0
  0
VERTEX
  5
59F
  8
0
  6
CONTINUOUS
 62
     7
 10
39.4228988527
 20
-15.4226670724
 30
0.0
  0
VERTEX
  5
5A0
  8
0
  6
CONTINUOUS
 62
     7
 10
38.583957517
 20
-15.5999491674
 30
0.0
  0
VERTEX
  5
5A1
  8
0
  6
CONTINUOUS
 62
     7
 10
37.7618842958
 20
-15.7857964498
 30
0.0
  0
VERTEX
  5
5A2
  8
0
  6
CONTINUOUS
 62
     7
 10
36.9627827047
 20
-15.9787515861
 30
0.0
  0
VERTEX
  5
5A3
  8
0
  6
CONTINUOUS
 62
     7
 10
36.1924999593
 20
-16.1773572427
 30
0.0
  0
VERTEX
  5
5A4
  8
0
  6
CONTINUOUS
 62
     7
 10
35.456275308
 20
-16.3802693349
 30
0.0
  0
VERTEX
  5
5A5
  8
0
  6
CONTINUOUS
 62
     7
 10
34.75833472
 20
-16.5864611727
 30
0.0
  0
VERTEX
  5
5A6
  8
0
  6
CONTINUOUS
 62
     7
 10
34.1041320203
 20
-16.7941028935
 30
0.0
  0
VERTEX
  5
5A7
  8
0
  6
CONTINUOUS
 62
     7
 10
33.5049503682
 20
-16.9986764652
 30
0.0
  0
VERTEX
  5
5A8
  8
0
  6
CONTINUOUS
 62
     7
 10
32.9207473634
 20
-17.2146166426
 30
0.0
  0
VERTEX
  5
5A9
  8
0
  6
CONTINUOUS
 62
     7
 10
32.3673122762
 20
-17.4386675221
 30
0.0
  0
VERTEX
  5
5AA
  8
0
  6
CONTINUOUS
 62
     7
 10
31.8369918702
 20
-17.6777953965
 30
0.0
  0
VERTEX
  5
5AB
  8
0
  6
CONTINUOUS
 62
     7
 10
31.3110404847
 20
-17.9499025208
 30
0.0
  0
VERTEX
  5
5AC
  8
0
  6
CONTINUOUS
 62
     7
 10
30.8693343042
 20
-18.2207102639
 30
0.0
  0
VERTEX
  5
5AD
  8
0
  6
CONTINUOUS
 62
     7
 10
30.5647068857
 20
-18.4427301151
 30
0.0
  0
VERTEX
  5
5AE
  8
0
  6
CONTINUOUS
 62
     7
 10
30.3051763414
 20
-18.6657617551
 30
0.0
  0
VERTEX
  5
5AF
  8
0
  6
CONTINUOUS
 62
     7
 10
30.0708645223
 20
-18.9058760864
 30
0.0
  0
VERTEX
  5
5B0
  8
0
  6
CONTINUOUS
 62
     7
 10
29.8584276079
 20
-19.1706235272
 30
0.0
  0
VERTEX
  5
5B1
  8
0
  6
CONTINUOUS
 62
     7
 10
29.6688192724
 20
-19.4666589362
 30
0.0
  0
VERTEX
  5
5B2
  8
0
  6
CONTINUOUS
 62
     7
 10
29.5081966756
 20
-19.7962130171
 30
0.0
  0
VERTEX
  5
5B3
  8
0
  6
CONTINUOUS
 62
     7
 10
29.3853455423
 20
-20.1562980872
 30
0.0
  0
VERTEX
  5
5B4
  8
0
  6
CONTINUOUS
 62
     7
 10
29.30870589
 20
-20.5396990043
 30
0.0
  0
VERTEX
  5
5B5
  8
0
  6
CONTINUOUS
 62
     7
 10
29.2863303064
 20
-20.9056625825
 30
0.0
  0
SEQEND
  5
790
  8
0
  6
CONTINUOUS
 62
     7
  0
POLYLINE
  5
1E7
  8
0
  6
CONTINUOUS
 62
     7
 66
     1
 10
0.0
 20
0.0
 30
0.0
  0
VERTEX
  5
5B6
  8
0
  6
CONTINUOUS
 62
     7
 10
109.3965598582
 20
-20.9184507591
 30
0.0
  0
VERTEX
  5
5B7
  8
0
  6
CONTINUOUS
 62
     7
 10
109.4001540182
 20
-20.8451906902
 30
0.0
  0
VERTEX
  5
5B8
  8
0
  6
CONTINUOUS
 62
     7
 10
109.3629637001
 20
-20.4463327986
 30
0.0
  0
VERTEX
  5
5B9
  8
0
  6
CONTINUOUS
 62
     7
 10
109.276033306
 20
-20.0719217521
 30
0.0
  0
VERTEX
  5
5BA
  8
0
  6
CONTINUOUS
 62
     7
 10
109.1479310034
 20
-19.7271967989
 30
0.0
  0
VERTEX
  5
5BB
  8
0
  6
CONTINUOUS
 62
     7
 10
108.9875080822
 20
-19.415314005
 30
0.0
  0
VERTEX
  5
5BC
  8
0
  6
CONTINUOUS
 62
     7
 10
108.8028096793
 20
-19.1365520221
 30
0.0
  0
VERTEX
  5
5BD
  8
0
  6
CONTINUOUS
 62
     7
 10
108.5992508767
 20
-18.8877011401
 30
0.0
  0
VERTEX
  5
5BE
  8
0
  6
CONTINUOUS
 62
     7
 10
108.3776631592
 20
-18.6622555119
 30
0.0
  0
VERTEX
  5
5BF
  8
0
  6
CONTINUOUS
 62
     7
 10
108.1325360773
 20
-18.4510643345
 30
0.0
  0
VERTEX
  5
5C0
  8
0
  6
CONTINUOUS
 62
     7
 10
107.8463220237
 20
-18.2403648955
 30
0.0
  0
VERTEX
  5
5C1
  8
0
  6
CONTINUOUS
 62
     7
 10
107.4733236073
 20
-18.0061216217
 30
0.0
  0
VERTEX
  5
5C2
  8
0
  6
CONTINUOUS
 62
     7
 10
106.9935032366
 20
-17.7488739354
 30
0.0
  0
VERTEX
  5
5C3
  8
0
  6
CONTINUOUS
 62
     7
 10
106.4621770023
 20
-17.5012792212
 30
0.0
  0
VERTEX
  5
5C4
  8
0
  6
CONTINUOUS
 62
     7
 10
105.9250408052
 20
-17.2776351434
 30
0.0
  0
VERTEX
  5
5C5
  8
0
  6
CONTINUOUS
 62
     7
 10
105.306878054
 20
-17.0439014894
 30
0.0
  0
VERTEX
  5
5C6
  8
0
  6
CONTINUOUS
 62
     7
 10
104.6687075136
 20
-16.8227444154
 30
0.0
  0
VERTEX
  5
5C7
  8
0
  6
CONTINUOUS
 62
     7
 10
104.0058457492
 20
-16.6102732283
 30
0.0
  0
VERTEX
  5
5C8
  8
0
  6
CONTINUOUS
 62
     7
 10
103.3187085031
 20
-16.4054075939
 30
0.0
  0
VERTEX
  5
5C9
  8
0
  6
CONTINUOUS
 62
     7
 10
102.5856220363
 20
-16.201383875
 30
0.0
  0
VERTEX
  5
5CA
  8
0
  6
CONTINUOUS
 62
     7
 10
101.8194222091
 20
-16.0020048481
 30
0.0
  0
VERTEX
  5
5CB
  8
0
  6
CONTINUOUS
 62
     7
 10
101.022579634
 20
-15.8079842788
 30
0.0
  0
VERTEX
  5
5CC
  8
0
  6
CONTINUOUS
 62
     7
 10
100.1982652782
 20
-15.6202728611
 30
0.0
  0
VERTEX
  5
5CD
  8
0
  6
CONTINUOUS
 62
     7
 10
99.3501478074
 20
-15.4399553996
 30
0.0
  0
VERTEX
  5
5CE
  8
0
  6
CONTINUOUS
 62
     7
 10
98.4821641086
 20
-15.2681554419
 30
0.0
  0
VERTEX
  5
5CF
  8
0
  6
CONTINUOUS
 62
     7
 10
97.5984865068
 20
-15.1059995157
 30
0.0
  0
VERTEX
  5
5D0
  8
0
  6
CONTINUOUS
 62
     7
 10
96.7086875079
 20
-14.9553204638
 30
0.0
  0
VERTEX
  5
5D1
  8
0
  6
CONTINUOUS
 62
     7
 10
95.8071434139
 20
-14.8150617939
 30
0.0
  0
VERTEX
  5
5D2
  8
0
  6
CONTINUOUS
 62
     7
 10
94.9262314676
 20
-14.6899278027
 30
0.0
  0
SEQEND
  5
78F
  8
0
  6
CONTINUOUS
 62
     7
  0
ARC
  5
1E8
  8
0
  6
CONTINUOUS
 62
     7
 10
69.2209455542
 20
-201.7822982734
 30
0.0
 40
188.817462460172
 50
90.2489010012
 51
97.7494224801
  0
ARC
  5
1E9
  8
0
  6
CONTINUOUS
 62
     7
 10
69.5502250722
 20
-200.8737763373
 30
0.0
 40
187.9058610397943
 50
82.2387238277
 51
89.7798292253
  0
POLYLINE
  5
1EA
  8
0
  6
CONTINUOUS
 62
     7
 66
     1
 10
0.0
 20
0.0
 30
0.0
  0
VERTEX
  5
5D3
  8
0
  6
CONTINUOUS
 62
     7
 10
33.8794344304
 20
-22.6797382099
 30
0.0
  0
VERTEX
  5
5D4
  8
0
  6
CONTINUOUS
 62
     7
 10
33.8779621957
 20
-22.6808677179
 30
0.0
  0
VERTEX
  5
5D5
  8
0
  6
CONTINUOUS
 62
     7
 10
33.9183741449
 20
-22.6562644106
 30
0.0
  0
VERTEX
  5
5D6
  8
0
  6
CONTINUOUS
 62
     7
 10
34.0098136304
 20
-22.6057897073
 30
0.0
  0
VERTEX
  5
5D7
  8
0
  6
CONTINUOUS
 62
     7
 10
34.1590338586
 20
-22.5308934909
 30
0.0
  0
VERTEX
  5
5D8
  8
0
  6
CONTINUOUS
 62
     7
 10
34.3710893033
 20
-22.4335903984
 30
0.0
  0
VERTEX
  5
5D9
  8
0
  6
CONTINUOUS
 62
     7
 10
34.6486264108
 20
-22.316525386
 30
0.0
  0
VERTEX
  5
5DA
  8
0
  6
CONTINUOUS
 62
     7
 10
34.9918001531
 20
-22.1827949149
 30
0.0
  0
VERTEX
  5
5DB
  8
0
  6
CONTINUOUS
 62
     7
 10
35.3986614583
 20
-22.0356653196
 30
0.0
  0
VERTEX
  5
5DC
  8
0
  6
CONTINUOUS
 62
     7
 10
35.8657532571
 20
-21.8783507806
 30
0.0
  0
VERTEX
  5
5DD
  8
0
  6
CONTINUOUS
 62
     7
 10
36.3883846639
 20
-21.7139507395
 30
0.0
  0
VERTEX
  5
5DE
  8
0
  6
CONTINUOUS
 62
     7
 10
36.9636708139
 20
-21.5449015361
 30
0.0
  0
VERTEX
  5
5DF
  8
0
  6
CONTINUOUS
 62
     7
 10
37.5725859044
 20
-21.3773364884
 30
0.0
  0
VERTEX
  5
5E0
  8
0
  6
CONTINUOUS
 62
     7
 10
38.2332259057
 20
-21.2067137224
 30
0.0
  0
VERTEX
  5
5E1
  8
0
  6
CONTINUOUS
 62
     7
 10
38.9387005208
 20
-21.0357601506
 30
0.0
  0
VERTEX
  5
5E2
  8
0
  6
CONTINUOUS
 62
     7
 10
39.681672418
 20
-20.8670611245
 30
0.0
  0
VERTEX
  5
5E3
  8
0
  6
CONTINUOUS
 62
     7
 10
40.4541307329
 20
-20.7031245095
 30
0.0
  0
VERTEX
  5
5E4
  8
0
  6
CONTINUOUS
 62
     7
 10
41.2462406991
 20
-20.5465818507
 30
0.0
  0
VERTEX
  5
5E5
  8
0
  6
CONTINUOUS
 62
     7
 10
42.0494907735
 20
-20.3995148403
 30
0.0
  0
VERTEX
  5
5E6
  8
0
  6
CONTINUOUS
 62
     7
 10
42.8601377843
 20
-20.2626461846
 30
0.0
  0
VERTEX
  5
5E7
  8
0
  6
CONTINUOUS
 62
     7
 10
43.6892145513
 20
-20.1340506536
 30
0.0
  0
VERTEX
  5
5E8
  8
0
  6
CONTINUOUS
 62
     7
 10
44.4850736497
 20
-20.0213382703
 30
0.0
  0
SEQEND
  5
78E
  8
0
  6
CONTINUOUS
 62
     7
  0
POLYLINE
  5
1EB
  8
0
  6
CONTINUOUS
 62
     7
 66
     1
 10
0.0
 20
0.0
 30
0.0
  0
VERTEX
  5
5E9
  8
0
  6
CONTINUOUS
 62
     7
 10
94.2017429708
 20
-20.0217122895
 30
0.0
  0
VERTEX
  5
5EA
  8
0
  6
CONTINUOUS
 62
     7
 10
94.8617034791
 20
-20.1138074261
 30
0.0
  0
VERTEX
  5
5EB
  8
0
  6
CONTINUOUS
 62
     7
 10
95.6991338371
 20
-20.2420274478
 30
0.0
  0
VERTEX
  5
5EC
  8
0
  6
CONTINUOUS
 62
     7
 10
96.5283119319
 20
-20.3804517847
 30
0.0
  0
VERTEX
  5
5ED
  8
0
  6
CONTINUOUS
 62
     7
 10
97.3427676795
 20
-20.5279777509
 30
0.0
  0
VERTEX
  5
5EE
  8
0
  6
CONTINUOUS
 62
     7
 10
98.1315844892
 20
-20.6821749669
 30
0.0
  0
VERTEX
  5
5EF
  8
0
  6
CONTINUOUS
 62
     7
 10
98.8997274278
 20
-20.8434353334
 30
0.0
  0
VERTEX
  5
5F0
  8
0
  6
CONTINUOUS
 62
     7
 10
99.6433698772
 20
-21.0105801684
 30
0.0
  0
VERTEX
  5
5F1
  8
0
  6
CONTINUOUS
 62
     7
 10
100.3565036891
 20
-21.181852625
 30
0.0
  0
VERTEX
  5
5F2
  8
0
  6
CONTINUOUS
 62
     7
 10
101.0331087945
 20
-21.3553215128
 30
0.0
  0
VERTEX
  5
5F3
  8
0
  6
CONTINUOUS
 62
     7
 10
101.6674005626
 20
-21.5289200407
 30
0.0
  0
VERTEX
  5
5F4
  8
0
  6
CONTINUOUS
 62
     7
 10
102.2537582753
 20
-21.7004070741
 30
0.0
  0
VERTEX
  5
5F5
  8
0
  6
CONTINUOUS
 62
     7
 10
102.7871513007
 20
-21.8674386603
 30
0.0
  0
VERTEX
  5
5F6
  8
0
  6
CONTINUOUS
 62
     7
 10
103.2664769529
 20
-22.0284799796
 30
0.0
  0
VERTEX
  5
5F7
  8
0
  6
CONTINUOUS
 62
     7
 10
103.6926442025
 20
-22.1825833184
 30
0.0
  0
VERTEX
  5
5F8
  8
0
  6
CONTINUOUS
 62
     7
 10
104.0584230064
 20
-22.3256687385
 30
0.0
  0
VERTEX
  5
5F9
  8
0
  6
CONTINUOUS
 62
     7
 10
104.3570318459
 20
-22.4529008132
 30
0.0
  0
VERTEX
  5
5FA
  8
0
  6
CONTINUOUS
 62
     7
 10
104.5612433193
 20
-22.5480089647
 30
0.0
  0
VERTEX
  5
5FB
  8
0
  6
CONTINUOUS
 62
     7
 10
104.7026165961
 20
-22.6201216441
 30
0.0
  0
VERTEX
  5
5FC
  8
0
  6
CONTINUOUS
 62
     7
 10
104.7848054407
 20
-22.6663197142
 30
0.0
  0
VERTEX
  5
5FD
  8
0
  6
CONTINUOUS
 62
     7
 10
104.8142233132
 20
-22.6845542652
 30
0.0
  0
VERTEX
  5
5FE
  8
0
  6
CONTINUOUS
 62
     7
 10
104.8120253919
 20
-22.6829523903
 30
0.0
  0
SEQEND
  5
78D
  8
0
  6
CONTINUOUS
 62
     7
  0
LINE
  5
1EC
  8
0
  6
CONTINUOUS
 62
     7
 10
68.3433824418
 20
-12.624456988
 30
0.0
 11
68.3433824418
 21
-12.9824290735
 31
0.0
  0
LINE
  5
1ED
  8
0
  6
CONTINUOUS
 62
     7
 10
70.343386495
 20
-12.9824290735
 30
0.0
 11
70.343386495
 21
-12.624456988
 31
0.0
  0
ARC
  5
1EE
  8
0
  6
CONTINUOUS
 62
     7
 10
69.3433829783
 20
-203.0312246055
 30
0.0
 40
184.6914990019521
 50
82.2647832727
 51
97.7352167273
  0
LINE
  5
1EF
  8
0
  6
CONTINUOUS
 62
     7
 10
109.402140343
 20
-25.7889571351
 30
0.0
 11
109.402140343
 21
-20.9141830665
 31
0.0
  0
LINE
  5
1F0
  8
0
  6
CONTINUOUS
 62
     7
 10
29.2846256135
 20
-20.9141830665
 30
0.0
 11
29.2846256135
 21
-25.7889571351
 31
0.0
  0
POLYLINE
  5
1F1
  8
0
  6
CONTINUOUS
 62
     7
 66
     1
 10
0.0
 20
0.0
 30
0.0
  0
VERTEX
  5
5FF
  8
0
  6
CONTINUOUS
 62
     7
 10
94.2019217847
 20
-27.8957786721
 30
0.0
  0
VERTEX
  5
600
  8
0
  6
CONTINUOUS
 62
     7
 10
94.9785703061
 20
-27.9999839825
 30
0.0
  0
VERTEX
  5
601
  8
0
  6
CONTINUOUS
 62
     7
 10
95.8609991906
 20
-28.1147564513
 30
0.0
  0
VERTEX
  5
602
  8
0
  6
CONTINUOUS
 62
     7
 10
96.7329316972
 20
-28.2245571476
 30
0.0
  0
VERTEX
  5
603
  8
0
  6
CONTINUOUS
 62
     7
 10
97.5904249786
 20
-28.328813867
 30
0.0
  0
VERTEX
  5
604
  8
0
  6
CONTINUOUS
 62
     7
 10
98.4263056157
 20
-28.4263337714
 30
0.0
  0
VERTEX
  5
605
  8
0
  6
CONTINUOUS
 62
     7
 10
99.2477440475
 20
-28.5176495773
 30
0.0
  0
VERTEX
  5
606
  8
0
  6
CONTINUOUS
 62
     7
 10
100.0539296506
 20
-28.6022151572
 30
0.0
  0
VERTEX
  5
607
  8
0
  6
CONTINUOUS
 62
     7
 10
100.8384489654
 20
-28.6788197917
 30
0.0
  0
VERTEX
  5
608
  8
0
  6
CONTINUOUS
 62
     7
 10
101.5952342389
 20
-28.7462929946
 30
0.0
  0
VERTEX
  5
609
  8
0
  6
CONTINUOUS
 62
     7
 10
102.318956816
 20
-28.8035231394
 30
0.0
  0
VERTEX
  5
60A
  8
0
  6
CONTINUOUS
 62
     7
 10
103.0055427192
 20
-28.8494500083
 30
0.0
  0
VERTEX
  5
60B
  8
0
  6
CONTINUOUS
 62
     7
 10
103.6537313102
 20
-28.8830849093
 30
0.0
  0
VERTEX
  5
60C
  8
0
  6
CONTINUOUS
 62
     7
 10
104.2717718719
 20
-28.9037148219
 30
0.0
  0
VERTEX
  5
60D
  8
0
  6
CONTINUOUS
 62
     7
 10
104.8647606014
 20
-28.9095583123
 30
0.0
  0
VERTEX
  5
60E
  8
0
  6
CONTINUOUS
 62
     7
 10
105.4412269233
 20
-28.8971486253
 30
0.0
  0
VERTEX
  5
60F
  8
0
  6
CONTINUOUS
 62
     7
 10
106.0231724022
 20
-28.8583609027
 30
0.0
  0
VERTEX
  5
610
  8
0
  6
CONTINUOUS
 62
     7
 10
106.5859132646
 20
-28.7827643317
 30
0.0
  0
VERTEX
  5
611
  8
0
  6
CONTINUOUS
 62
     7
 10
106.9518440603
 20
-28.7041748625
 30
0.0
  0
VERTEX
  5
612
  8
0
  6
CONTINUOUS
 62
     7
 10
107.289492452
 20
-28.603548066
 30
0.0
  0
VERTEX
  5
613
  8
0
  6
CONTINUOUS
 62
     7
 10
107.602390015
 20
-28.4797447485
 30
0.0
  0
VERTEX
  5
614
  8
0
  6
CONTINUOUS
 62
     7
 10
107.9041474698
 20
-28.3256205481
 30
0.0
  0
VERTEX
  5
615
  8
0
  6
CONTINUOUS
 62
     7
 10
108.197105789
 20
-28.1348610979
 30
0.0
  0
VERTEX
  5
616
  8
0
  6
CONTINUOUS
 62
     7
 10
108.4776216386
 20
-27.9025162321
 30
0.0
  0
VERTEX
  5
617
  8
0
  6
CONTINUOUS
 62
     7
 10
108.7371164201
 20
-27.6271435183
 30
0.0
  0
VERTEX
  5
618
  8
0
  6
CONTINUOUS
 62
     7
 10
108.9650892852
 20
-27.3113722664
 30
0.0
  0
VERTEX
  5
619
  8
0
  6
CONTINUOUS
 62
     7
 10
109.151852989
 20
-26.9610660833
 30
0.0
  0
VERTEX
  5
61A
  8
0
  6
CONTINUOUS
 62
     7
 10
109.3016260503
 20
-26.5423680407
 30
0.0
  0
VERTEX
  5
61B
  8
0
  6
CONTINUOUS
 62
     7
 10
109.3274467824
 20
-26.4085086745
 30
0.0
  0
SEQEND
  5
78C
  8
0
  6
CONTINUOUS
 62
     7
  0
POLYLINE
  5
1F2
  8
0
  6
CONTINUOUS
 62
     7
 66
     1
 10
0.0
 20
0.0
 30
0.0
  0
VERTEX
  5
61C
  8
0
  6
CONTINUOUS
 62
     7
 10
29.354184234
 20
-26.409182207
 30
0.0
  0
VERTEX
  5
61D
  8
0
  6
CONTINUOUS
 62
     7
 10
29.3551259874
 20
-26.4156925243
 30
0.0
  0
VERTEX
  5
61E
  8
0
  6
CONTINUOUS
 62
     7
 10
29.4779592393
 20
-26.821109162
 30
0.0
  0
VERTEX
  5
61F
  8
0
  6
CONTINUOUS
 62
     7
 10
29.6511226533
 20
-27.1900201899
 30
0.0
  0
VERTEX
  5
620
  8
0
  6
CONTINUOUS
 62
     7
 10
29.8646562932
 20
-27.5180804294
 30
0.0
  0
VERTEX
  5
621
  8
0
  6
CONTINUOUS
 62
     7
 10
30.1086061834
 20
-27.8030681175
 30
0.0
  0
VERTEX
  5
622
  8
0
  6
CONTINUOUS
 62
     7
 10
30.3732984899
 20
-28.0446673495
 30
0.0
  0
VERTEX
  5
623
  8
0
  6
CONTINUOUS
 62
     7
 10
30.6502872346
 20
-28.2447757882
 30
0.0
  0
VERTEX
  5
624
  8
0
  6
CONTINUOUS
 62
     7
 10
30.9340768693
 20
-28.4076022667
 30
0.0
  0
VERTEX
  5
625
  8
0
  6
CONTINUOUS
 62
     7
 10
31.2240236638
 20
-28.5390461546
 30
0.0
  0
VERTEX
  5
626
  8
0
  6
CONTINUOUS
 62
     7
 10
31.5273040174
 20
-28.6459299487
 30
0.0
  0
VERTEX
  5
627
  8
0
  6
CONTINUOUS
 62
     7
 10
31.8608277677
 20
-28.7341738802
 30
0.0
  0
VERTEX
  5
628
  8
0
  6
CONTINUOUS
 62
     7
 10
32.218002641
 20
-28.8019413811
 30
0.0
  0
VERTEX
  5
629
  8
0
  6
CONTINUOUS
 62
     7
 10
32.6835745214
 20
-28.8594226104
 30
0.0
  0
VERTEX
  5
62A
  8
0
  6
CONTINUOUS
 62
     7
 10
33.3500498174
 20
-28.9001251322
 30
0.0
  0
VERTEX
  5
62B
  8
0
  6
CONTINUOUS
 62
     7
 10
33.9234047769
 20
-28.9090367717
 30
0.0
  0
VERTEX
  5
62C
  8
0
  6
CONTINUOUS
 62
     7
 10
34.504043424
 20
-28.9011801344
 30
0.0
  0
VERTEX
  5
62D
  8
0
  6
CONTINUOUS
 62
     7
 10
35.1618522046
 20
-28.8771922451
 30
0.0
  0
VERTEX
  5
62E
  8
0
  6
CONTINUOUS
 62
     7
 10
35.8357780813
 20
-28.8399415773
 30
0.0
  0
VERTEX
  5
62F
  8
0
  6
CONTINUOUS
 62
     7
 10
36.539130771
 20
-28.790814684
 30
0.0
  0
VERTEX
  5
630
  8
0
  6
CONTINUOUS
 62
     7
 10
37.2742110132
 20
-28.7308799785
 30
0.0
  0
VERTEX
  5
631
  8
0
  6
CONTINUOUS
 62
     7
 10
38.0394810079
 20
-28.6610166293
 30
0.0
  0
VERTEX
  5
632
  8
0
  6
CONTINUOUS
 62
     7
 10
38.8325148462
 20
-28.5820576114
 30
0.0
  0
VERTEX
  5
633
  8
0
  6
CONTINUOUS
 62
     7
 10
39.6499925493
 20
-28.4948597413
 30
0.0
  0
VERTEX
  5
634
  8
0
  6
CONTINUOUS
 62
     7
 10
40.4880815385
 20
-28.400304423
 30
0.0
  0
VERTEX
  5
635
  8
0
  6
CONTINUOUS
 62
     7
 10
41.3426571725
 20
-28.2992916864
 30
0.0
  0
VERTEX
  5
636
  8
0
  6
CONTINUOUS
 62
     7
 10
42.2080450891
 20
-28.1929309231
 30
0.0
  0
VERTEX
  5
637
  8
0
  6
CONTINUOUS
 62
     7
 10
43.0795186399
 20
-28.0821720821
 30
0.0
  0
VERTEX
  5
638
  8
0
  6
CONTINUOUS
 62
     7
 10
43.9590924619
 20
-27.9667759997
 30
0.0
  0
VERTEX
  5
639
  8
0
  6
CONTINUOUS
 62
     7
 10
44.4849067567
 20
-27.8956326407
 30
0.0
  0
SEQEND
  5
78B
  8
0
  6
CONTINUOUS
 62
     7
  0
POLYLINE
  5
1F3
  8
0
  6
CONTINUOUS
 62
     7
 66
     1
 10
0.0
 20
0.0
 30
0.0
  0
VERTEX
  5
63A
  8
0
  6
CONTINUOUS
 62
     7
 10
109.3409382938
 20
-26.3385752899
 30
0.0
  0
VERTEX
  5
63B
  8
0
  6
CONTINUOUS
 62
     7
 10
109.3834334253
 20
-26.1182765228
 30
0.0
  0
VERTEX
  5
63C
  8
0
  6
CONTINUOUS
 62
     7
 10
109.3974494575
 20
-25.7898109716
 30
0.0
  0
SEQEND
  5
78A
  8
0
  6
CONTINUOUS
 62
     7
  0
POLYLINE
  5
1F4
  8
0
  6
CONTINUOUS
 62
     7
 66
     1
 10
0.0
 20
0.0
 30
0.0
  0
VERTEX
  5
63D
  8
0
  6
CONTINUOUS
 62
     7
 10
29.2927795289
 20
-25.782591359
 30
0.0
  0
VERTEX
  5
63E
  8
0
  6
CONTINUOUS
 62
     7
 10
29.2923622964
 20
-25.9824397725
 30
0.0
  0
VERTEX
  5
63F
  8
0
  6
CONTINUOUS
 62
     7
 10
29.354184234
 20
-26.409182207
 30
0.0
  0
SEQEND
  5
789
  8
0
  6
CONTINUOUS
 62
     7
  0
ARC
  5
1F5
  8
0
  6
CONTINUOUS
 62
     7
 10
69.3433829783
 20
-210.9063541755
 30
0.0
 40
184.6914318082507
 50
82.2647804412
 51
97.7352195588
  0
ARC
  5
1F6
  8
0
  6
CONTINUOUS
 62
     7
 10
214.5270444701
 20
-102.1695821054
 30
0.0
 40
14.86825179657058
 50
270.8245082016
 51
0.4742599947
  0
ARC
  5
1F7
  8
0
  6
CONTINUOUS
 62
     7
 10
164.1589399594
 20
-102.1730431636
 30
0.0
 40
14.86658258710372
 50
179.5129216844
 51
269.3234116278
  0
ARC
  5
1F8
  8
0
  6
CONTINUOUS
 62
     7
 10
214.5159376531
 20
-61.9580716225
 30
0.0
 40
14.87756183396283
 50
359.659777439
 51
32.699127617
  0
ARC
  5
1F9
  8
0
  6
CONTINUOUS
 62
     7
 10
164.2629670984
 20
-61.9906612555
 30
0.0
 40
14.97540184155812
 50
147.3882553947
 51
180.2160357428
  0
ARC
  5
1FA
  8
0
  6
CONTINUOUS
 62
     7
 10
164.0870615576
 20
-61.7534551334
 30
0.0
 40
14.69880575459156
 50
90.6992125916
 51
141.1138407363
  0
ARC
  5
1FB
  8
0
  6
CONTINUOUS
 62
     7
 10
214.6027508744
 20
-61.7300939268
 30
0.0
 40
14.67821556751438
 50
38.7741370714
 51
89.763220791
  0
LINE
  5
1FC
  8
0
  6
CONTINUOUS
 62
     7
 10
149.2846274017
 20
-62.046449886
 30
0.0
 11
149.2846274017
 21
-102.0464534623
 31
0.0
  0
LINE
  5
1FD
  8
0
  6
CONTINUOUS
 62
     7
 10
229.4021421312
 20
-102.0464534623
 30
0.0
 11
229.4021421312
 21
-62.046449886
 31
0.0
  0
POLYLINE
  5
1FE
  8
0
  6
CONTINUOUS
 62
     7
 66
     1
 10
0.0
 20
0.0
 30
0.0
  0
VERTEX
  5
640
  8
0
  6
CONTINUOUS
 62
     7
 10
94.9274801849
 20
-44.6893664759
 30
0.0
  0
VERTEX
  5
641
  8
0
  6
CONTINUOUS
 62
     7
 10
95.7184368013
 20
-44.5784429771
 30
0.0
  0
VERTEX
  5
642
  8
0
  6
CONTINUOUS
 62
     7
 10
96.6189139722
 20
-44.4422180516
 30
0.0
  0
VERTEX
  5
643
  8
0
  6
CONTINUOUS
 62
     7
 10
97.5098126767
 20
-44.2973519427
 30
0.0
  0
VERTEX
  5
644
  8
0
  6
CONTINUOUS
 62
     7
 10
98.386284077
 20
-44.1445509654
 30
0.0
  0
VERTEX
  5
645
  8
0
  6
CONTINUOUS
 62
     7
 10
99.2340230583
 20
-43.9868102533
 30
0.0
  0
VERTEX
  5
646
  8
0
  6
CONTINUOUS
 62
     7
 10
100.0660085319
 20
-43.8223513526
 30
0.0
  0
VERTEX
  5
647
  8
0
  6
CONTINUOUS
 62
     7
 10
100.8805000423
 20
-43.6517546636
 30
0.0
  0
VERTEX
  5
648
  8
0
  6
CONTINUOUS
 62
     7
 10
101.6711556552
 20
-43.4765147728
 30
0.0
  0
VERTEX
  5
649
  8
0
  6
CONTINUOUS
 62
     7
 10
102.4318301318
 20
-43.2981530887
 30
0.0
  0
VERTEX
  5
64A
  8
0
  6
CONTINUOUS
 62
     7
 10
103.1568610309
 20
-43.1181332779
 30
0.0
  0
VERTEX
  5
64B
  8
0
  6
CONTINUOUS
 62
     7
 10
103.8414263366
 20
-42.93773386
 30
0.0
  0
VERTEX
  5
64C
  8
0
  6
CONTINUOUS
 62
     7
 10
104.4804775356
 20
-42.7586848599
 30
0.0
  0
VERTEX
  5
64D
  8
0
  6
CONTINUOUS
 62
     7
 10
105.0651991008
 20
-42.5843569201
 30
0.0
  0
VERTEX
  5
64E
  8
0
  6
CONTINUOUS
 62
     7
 10
105.6296401857
 20
-42.4043196005
 30
0.0
  0
VERTEX
  5
64F
  8
0
  6
CONTINUOUS
 62
     7
 10
106.1587506173
 20
-42.2220292252
 30
0.0
  0
VERTEX
  5
650
  8
0
  6
CONTINUOUS
 62
     7
 10
106.6578501104
 20
-42.0337090951
 30
0.0
  0
VERTEX
  5
651
  8
0
  6
CONTINUOUS
 62
     7
 10
107.1416923044
 20
-41.8288851839
 30
0.0
  0
VERTEX
  5
652
  8
0
  6
CONTINUOUS
 62
     7
 10
107.6564529179
 20
-41.5716553789
 30
0.0
  0
VERTEX
  5
653
  8
0
  6
CONTINUOUS
 62
     7
 10
107.9440945028
 20
-41.3991312248
 30
0.0
  0
VERTEX
  5
654
  8
0
  6
CONTINUOUS
 62
     7
 10
108.1801035641
 20
-41.2341291767
 30
0.0
  0
VERTEX
  5
655
  8
0
  6
CONTINUOUS
 62
     7
 10
108.4023841856
 20
-41.0520142627
 30
0.0
  0
VERTEX
  5
656
  8
0
  6
CONTINUOUS
 62
     7
 10
108.6145975827
 20
-40.8450967383
 30
0.0
  0
VERTEX
  5
657
  8
0
  6
CONTINUOUS
 62
     7
 10
108.8177108405
 20
-40.604326011
 30
0.0
  0
VERTEX
  5
658
  8
0
  6
CONTINUOUS
 62
     7
 10
109.0062164901
 20
-40.3239122343
 30
0.0
  0
VERTEX
  5
659
  8
0
  6
CONTINUOUS
 62
     7
 10
109.1692083715
 20
-40.0047038433
 30
0.0
  0
VERTEX
  5
65A
  8
0
  6
CONTINUOUS
 62
     7
 10
109.2954569696
 20
-39.6517338914
 30
0.0
  0
VERTEX
  5
65B
  8
0
  6
CONTINUOUS
 62
     7
 10
109.3753182529
 20
-39.2741073606
 30
0.0
  0
VERTEX
  5
65C
  8
0
  6
CONTINUOUS
 62
     7
 10
109.4012790559
 20
-38.8993861836
 30
0.0
  0
SEQEND
  5
788
  8
0
  6
CONTINUOUS
 62
     7
  0
POLYLINE
  5
1FF
  8
0
  6
CONTINUOUS
 62
     7
 66
     1
 10
0.0
 20
0.0
 30
0.0
  0
VERTEX
  5
65D
  8
0
  6
CONTINUOUS
 62
     7
 10
29.2931371568
 20
-38.8828336012
 30
0.0
  0
VERTEX
  5
65E
  8
0
  6
CONTINUOUS
 62
     7
 10
29.2935305475
 20
-39.0940828931
 30
0.0
  0
VERTEX
  5
65F
  8
0
  6
CONTINUOUS
 62
     7
 10
29.3490105508
 20
-39.4773876977
 30
0.0
  0
VERTEX
  5
660
  8
0
  6
CONTINUOUS
 62
     7
 10
29.4509762166
 20
-39.8335805845
 30
0.0
  0
VERTEX
  5
661
  8
0
  6
CONTINUOUS
 62
     7
 10
29.5903318761
 20
-40.1573533875
 30
0.0
  0
VERTEX
  5
662
  8
0
  6
CONTINUOUS
 62
     7
 10
29.7571354745
 20
-40.4449465436
 30
0.0
  0
VERTEX
  5
663
  8
0
  6
CONTINUOUS
 62
     7
 10
29.9418562291
 20
-40.6955952507
 30
0.0
  0
VERTEX
  5
664
  8
0
  6
CONTINUOUS
 62
     7
 10
30.136691892
 20
-40.9115298402
 30
0.0
  0
VERTEX
  5
665
  8
0
  6
CONTINUOUS
 62
     7
 10
30.3381794332
 20
-41.0986116839
 30
0.0
  0
VERTEX
  5
666
  8
0
  6
CONTINUOUS
 62
     7
 10
30.5487447618
 20
-41.2653120917
 30
0.0
  0
VERTEX
  5
667
  8
0
  6
CONTINUOUS
 62
     7
 10
30.7776206373
 20
-41.4215541196
 30
0.0
  0
VERTEX
  5
668
  8
0
  6
CONTINUOUS
 62
     7
 10
31.0471230386
 20
-41.5809283716
 30
0.0
  0
VERTEX
  5
669
  8
0
  6
CONTINUOUS
 62
     7
 10
31.4203196405
 20
-41.7708023203
 30
0.0
  0
VERTEX
  5
66A
  8
0
  6
CONTINUOUS
 62
     7
 10
31.9617920755
 20
-42.0061788273
 30
0.0
  0
VERTEX
  5
66B
  8
0
  6
CONTINUOUS
 62
     7
 10
32.4554258226
 20
-42.1950637114
 30
0.0
  0
VERTEX
  5
66C
  8
0
  6
CONTINUOUS
 62
     7
 10
32.9672509073
 20
-42.3738072378
 30
0.0
  0
VERTEX
  5
66D
  8
0
  6
CONTINUOUS
 62
     7
 10
33.5583382486
 20
-42.564477281
 30
0.0
  0
VERTEX
  5
66E
  8
0
  6
CONTINUOUS
 62
     7
 10
34.1767543195
 20
-42.7500325006
 30
0.0
  0
VERTEX
  5
66F
  8
0
  6
CONTINUOUS
 62
     7
 10
34.8243647455
 20
-42.9320248526
 30
0.0
  0
VERTEX
  5
670
  8
0
  6
CONTINUOUS
 62
     7
 10
35.4979866384
 20
-43.1100803179
 30
0.0
  0
VERTEX
  5
671
  8
0
  6
CONTINUOUS
 62
     7
 10
36.2205975889
 20
-43.2902077896
 30
0.0
  0
VERTEX
  5
672
  8
0
  6
CONTINUOUS
 62
     7
 10
36.9778805612
 20
-43.4684338731
 30
0.0
  0
VERTEX
  5
673
  8
0
  6
CONTINUOUS
 62
     7
 10
37.766968572
 20
-43.6438607735
 30
0.0
  0
VERTEX
  5
674
  8
0
  6
CONTINUOUS
 62
     7
 10
38.5843389867
 20
-43.8154238027
 30
0.0
  0
VERTEX
  5
675
  8
0
  6
CONTINUOUS
 62
     7
 10
39.4260638593
 20
-43.981981532
 30
0.0
  0
VERTEX
  5
676
  8
0
  6
CONTINUOUS
 62
     7
 10
40.2879947065
 20
-44.1423791212
 30
0.0
  0
VERTEX
  5
677
  8
0
  6
CONTINUOUS
 62
     7
 10
41.1656671403
 20
-44.2954520446
 30
0.0
  0
VERTEX
  5
678
  8
0
  6
CONTINUOUS
 62
     7
 10
42.0492285131
 20
-44.4393674594
 30
0.0
  0
VERTEX
  5
679
  8
0
  6
CONTINUOUS
 62
     7
 10
42.945008838
 20
-44.5752228361
 30
0.0
  0
VERTEX
  5
67A
  8
0
  6
CONTINUOUS
 62
     7
 10
43.7592500089
 20
-44.6897345346
 30
0.0
  0
SEQEND
  5
787
  8
0
  6
CONTINUOUS
 62
     7
  0
ARC
  5
200
  8
0
  6
CONTINUOUS
 62
     7
 10
69.3433844684
 20
142.9659913568
 30
0.0
 40
189.3926361062498
 50
262.2364757407
 51
277.7635242593
  0
POLYLINE
  5
201
  8
0
  6
CONTINUOUS
 62
     7
 66
     1
 10
0.0
 20
0.0
 30
0.0
  0
VERTEX
  5
67B
  8
0
  6
CONTINUOUS
 62
     7
 10
105.0380327938
 20
-36.8719499542
 30
0.0
  0
VERTEX
  5
67C
  8
0
  6
CONTINUOUS
 62
     7
 10
105.0403156517
 20
-36.8705646701
 30
0.0
  0
VERTEX
  5
67D
  8
0
  6
CONTINUOUS
 62
     7
 10
105.0033130883
 20
-36.8896856073
 30
0.0
  0
VERTEX
  5
67E
  8
0
  6
CONTINUOUS
 62
     7
 10
104.915752375
 20
-36.9309637229
 30
0.0
  0
VERTEX
  5
67F
  8
0
  6
CONTINUOUS
 62
     7
 10
104.7693261145
 20
-36.9941434982
 30
0.0
  0
VERTEX
  5
680
  8
0
  6
CONTINUOUS
 62
     7
 10
104.5588248609
 20
-37.0777299612
 30
0.0
  0
VERTEX
  5
681
  8
0
  6
CONTINUOUS
 62
     7
 10
104.2816424011
 20
-37.1796177219
 30
0.0
  0
VERTEX
  5
682
  8
0
  6
CONTINUOUS
 62
     7
 10
103.9379858611
 20
-37.2971968477
 30
0.0
  0
VERTEX
  5
683
  8
0
  6
CONTINUOUS
 62
     7
 10
103.5302364467
 20
-37.4276740228
 30
0.0
  0
VERTEX
  5
684
  8
0
  6
CONTINUOUS
 62
     7
 10
103.0621760724
 20
-37.5683108562
 30
0.0
  0
VERTEX
  5
685
  8
0
  6
CONTINUOUS
 62
     7
 10
102.5383585332
 20
-37.7165492375
 30
0.0
  0
VERTEX
  5
686
  8
0
  6
CONTINUOUS
 62
     7
 10
101.9646697877
 20
-37.8696404149
 30
0.0
  0
VERTEX
  5
687
  8
0
  6
CONTINUOUS
 62
     7
 10
101.349362099
 20
-38.0246184518
 30
0.0
  0
VERTEX
  5
688
  8
0
  6
CONTINUOUS
 62
     7
 10
100.6901287673
 20
-38.1817109634
 30
0.0
  0
VERTEX
  5
689
  8
0
  6
CONTINUOUS
 62
     7
 10
99.9854021905
 20
-38.3406745952
 30
0.0
  0
VERTEX
  5
68A
  8
0
  6
CONTINUOUS
 62
     7
 10
99.2422753213
 20
-38.4992225778
 30
0.0
  0
VERTEX
  5
68B
  8
0
  6
CONTINUOUS
 62
     7
 10
98.4684431194
 20
-38.6551069778
 30
0.0
  0
VERTEX
  5
68C
  8
0
  6
CONTINUOUS
 62
     7
 10
97.6732426523
 20
-38.8059402567
 30
0.0
  0
VERTEX
  5
68D
  8
0
  6
CONTINUOUS
 62
     7
 10
96.8653225539
 20
-38.9496839357
 30
0.0
  0
VERTEX
  5
68E
  8
0
  6
CONTINUOUS
 62
     7
 10
96.0510694621
 20
-39.0850146052
 30
0.0
  0
VERTEX
  5
68F
  8
0
  6
CONTINUOUS
 62
     7
 10
95.2217065929
 20
-39.2134937209
 30
0.0
  0
VERTEX
  5
690
  8
0
  6
CONTINUOUS
 62
     7
 10
94.3784021972
 20
-39.3348322001
 30
0.0
  0
VERTEX
  5
691
  8
0
  6
CONTINUOUS
 62
     7
 10
94.2006909488
 20
-39.3584641379
 30
0.0
  0
SEQEND
  5
786
  8
0
  6
CONTINUOUS
 62
     7
  0
POLYLINE
  5
202
  8
0
  6
CONTINUOUS
 62
     7
 66
     1
 10
0.0
 20
0.0
 30
0.0
  0
VERTEX
  5
692
  8
0
  6
CONTINUOUS
 62
     7
 10
44.4863372682
 20
-39.3587360841
 30
0.0
  0
VERTEX
  5
693
  8
0
  6
CONTINUOUS
 62
     7
 10
43.8208871721
 20
-39.2660130498
 30
0.0
  0
VERTEX
  5
694
  8
0
  6
CONTINUOUS
 62
     7
 10
42.9772191881
 20
-39.1391257507
 30
0.0
  0
VERTEX
  5
695
  8
0
  6
CONTINUOUS
 62
     7
 10
42.1417349218
 20
-39.0040398327
 30
0.0
  0
VERTEX
  5
696
  8
0
  6
CONTINUOUS
 62
     7
 10
41.3207465051
 20
-38.8617894364
 30
0.0
  0
VERTEX
  5
697
  8
0
  6
CONTINUOUS
 62
     7
 10
40.5250304578
 20
-38.7146613312
 30
0.0
  0
VERTEX
  5
698
  8
0
  6
CONTINUOUS
 62
     7
 10
39.7497588037
 20
-38.5622868997
 30
0.0
  0
VERTEX
  5
699
  8
0
  6
CONTINUOUS
 62
     7
 10
38.9984184144
 20
-38.4057101545
 30
0.0
  0
VERTEX
  5
69A
  8
0
  6
CONTINUOUS
 62
     7
 10
38.2766657708
 20
-38.2464772773
 30
0.0
  0
VERTEX
  5
69B
  8
0
  6
CONTINUOUS
 62
     7
 10
37.5904851793
 20
-38.0863336597
 30
0.0
  0
VERTEX
  5
69C
  8
0
  6
CONTINUOUS
 62
     7
 10
36.9454735158
 20
-37.9270747987
 30
0.0
  0
VERTEX
  5
69D
  8
0
  6
CONTINUOUS
 62
     7
 10
36.3470607637
 20
-37.7706072044
 30
0.0
  0
VERTEX
  5
69E
  8
0
  6
CONTINUOUS
 62
     7
 10
35.7999318479
 20
-37.6188465145
 30
0.0
  0
VERTEX
  5
69F
  8
0
  6
CONTINUOUS
 62
     7
 10
35.3058570264
 20
-37.4732332987
 30
0.0
  0
VERTEX
  5
6A0
  8
0
  6
CONTINUOUS
 62
     7
 10
34.8635667203
 20
-37.3343155005
 30
0.0
  0
VERTEX
  5
6A1
  8
0
  6
CONTINUOUS
 62
     7
 10
34.4798260568
 20
-37.205235868
 30
0.0
  0
VERTEX
  5
6A2
  8
0
  6
CONTINUOUS
 62
     7
 10
34.1617220281
 20
-37.0898744308
 30
0.0
  0
VERTEX
  5
6A3
  8
0
  6
CONTINUOUS
 62
     7
 10
33.9388721822
 20
-37.0023671405
 30
0.0
  0
VERTEX
  5
6A4
  8
0
  6
CONTINUOUS
 62
     7
 10
33.7808781503
 20
-36.9349747014
 30
0.0
  0
VERTEX
  5
6A5
  8
0
  6
CONTINUOUS
 62
     7
 10
33.6851828931
 20
-36.8903274399
 30
0.0
  0
VERTEX
  5
6A6
  8
0
  6
CONTINUOUS
 62
     7
 10
33.645682895
 20
-36.8700998354
 30
0.0
  0
VERTEX
  5
6A7
  8
0
  6
CONTINUOUS
 62
     7
 10
33.6484723924
 20
-36.8717928925
 30
0.0
  0
SEQEND
  5
785
  8
0
  6
CONTINUOUS
 62
     7
  0
ARC
  5
203
  8
0
  6
CONTINUOUS
 62
     7
 10
69.3433859585
 20
142.9660080311
 30
0.0
 40
184.0126528714496
 50
262.2364825894
 51
277.7635174106
  0
LINE
  5
204
  8
0
  6
CONTINUOUS
 62
     7
 10
109.402140343
 20
-38.8856856835
 30
0.0
 11
109.402140343
 21
-35.3994559248
 31
0.0
  0
LINE
  5
205
  8
0
  6
CONTINUOUS
 62
     7
 10
29.2846256135
 20
-35.3994559248
 30
0.0
 11
29.2846256135
 21
-38.8856856835
 31
0.0
  0
LINE
  5
206
  8
0
  6
CONTINUOUS
 62
     7
 10
31.6433840631
 20
-43.1351261896
 30
0.0
 11
32.6433831094
 21
-43.1351261896
 31
0.0
  0
LINE
  5
207
  8
0
  6
CONTINUOUS
 62
     7
 10
106.0433843373
 20
-43.1351261896
 30
0.0
 11
107.0433833836
 21
-43.1351261896
 31
0.0
  0
POLYLINE
  5
208
  8
0
  6
CONTINUOUS
 62
     7
 66
     1
 10
0.0
 20
0.0
 30
0.0
  0
VERTEX
  5
6A8
  8
0
  6
CONTINUOUS
 62
     7
 10
44.4861346124
 20
-33.7275339973
 30
0.0
  0
VERTEX
  5
6A9
  8
0
  6
CONTINUOUS
 62
     7
 10
43.7154525159
 20
-33.623028056
 30
0.0
  0
VERTEX
  5
6AA
  8
0
  6
CONTINUOUS
 62
     7
 10
42.8397470353
 20
-33.5056612951
 30
0.0
  0
VERTEX
  5
6AB
  8
0
  6
CONTINUOUS
 62
     7
 10
41.9748478769
 20
-33.3910873842
 30
0.0
  0
VERTEX
  5
6AC
  8
0
  6
CONTINUOUS
 62
     7
 10
41.1249690889
 20
-33.2799124283
 30
0.0
  0
VERTEX
  5
6AD
  8
0
  6
CONTINUOUS
 62
     7
 10
40.2968579171
 20
-33.1733504993
 30
0.0
  0
VERTEX
  5
6AE
  8
0
  6
CONTINUOUS
 62
     7
 10
39.4835465787
 20
-33.0708357257
 30
0.0
  0
VERTEX
  5
6AF
  8
0
  6
CONTINUOUS
 62
     7
 10
38.6864179014
 20
-32.9729485077
 30
0.0
  0
VERTEX
  5
6B0
  8
0
  6
CONTINUOUS
 62
     7
 10
37.9122548936
 20
-32.88096811
 30
0.0
  0
VERTEX
  5
6B1
  8
0
  6
CONTINUOUS
 62
     7
 10
37.1675485013
 20
-32.7961361718
 30
0.0
  0
VERTEX
  5
6B2
  8
0
  6
CONTINUOUS
 62
     7
 10
36.4581995843
 20
-32.7196183366
 30
0.0
  0
VERTEX
  5
6B3
  8
0
  6
CONTINUOUS
 62
     7
 10
35.7892447351
 20
-32.6524856252
 30
0.0
  0
VERTEX
  5
6B4
  8
0
  6
CONTINUOUS
 62
     7
 10
35.1620131372
 20
-32.5955330145
 30
0.0
  0
VERTEX
  5
6B5
  8
0
  6
CONTINUOUS
 62
     7
 10
34.5680349706
 20
-32.5487865818
 30
0.0
  0
VERTEX
  5
6B6
  8
0
  6
CONTINUOUS
 62
     7
 10
34.0060466169
 20
-32.5132875455
 30
0.0
  0
VERTEX
  5
6B7
  8
0
  6
CONTINUOUS
 62
     7
 10
33.4717923044
 20
-32.4906135661
 30
0.0
  0
VERTEX
  5
6B8
  8
0
  6
CONTINUOUS
 62
     7
 10
32.9528146623
 20
-32.4838339102
 30
0.0
  0
VERTEX
  5
6B9
  8
0
  6
CONTINUOUS
 62
     7
 10
32.4116223691
 20
-32.5019637805
 30
0.0
  0
VERTEX
  5
6BA
  8
0
  6
CONTINUOUS
 62
     7
 10
32.0575528978
 20
-32.5353762817
 30
0.0
  0
VERTEX
  5
6BB
  8
0
  6
CONTINUOUS
 62
     7
 10
31.7585521577
 20
-32.582649098
 30
0.0
  0
VERTEX
  5
6BC
  8
0
  6
CONTINUOUS
 62
     7
 10
31.4760857461
 20
-32.6479184193
 30
0.0
  0
VERTEX
  5
6BD
  8
0
  6
CONTINUOUS
 62
     7
 10
31.1998122571
 20
-32.7353908432
 30
0.0
  0
VERTEX
  5
6BE
  8
0
  6
CONTINUOUS
 62
     7
 10
30.9215360521
 20
-32.8517815781
 30
0.0
  0
VERTEX
  5
6BF
  8
0
  6
CONTINUOUS
 62
     7
 10
30.6387060521
 20
-33.0051178795
 30
0.0
  0
VERTEX
  5
6C0
  8
0
  6
CONTINUOUS
 62
     7
 10
30.3561859964
 20
-33.2021466208
 30
0.0
  0
VERTEX
  5
6C1
  8
0
  6
CONTINUOUS
 62
     7
 10
30.0855451463
 20
-33.4450728011
 30
0.0
  0
VERTEX
  5
6C2
  8
0
  6
CONTINUOUS
 62
     7
 10
29.8391574262
 20
-33.7325106126
 30
0.0
  0
VERTEX
  5
6C3
  8
0
  6
CONTINUOUS
 62
     7
 10
29.6289616464
 20
-34.0588428763
 30
0.0
  0
VERTEX
  5
6C4
  8
0
  6
CONTINUOUS
 62
     7
 10
29.4640653966
 20
-34.4163202432
 30
0.0
  0
VERTEX
  5
6C5
  8
0
  6
CONTINUOUS
 62
     7
 10
29.3527418016
 20
-34.7989671615
 30
0.0
  0
SEQEND
  5
784
  8
0
  6
CONTINUOUS
 62
     7
  0
POLYLINE
  5
209
  8
0
  6
CONTINUOUS
 62
     7
 66
     1
 10
0.0
 20
0.0
 30
0.0
  0
VERTEX
  5
6C6
  8
0
  6
CONTINUOUS
 62
     7
 10
109.330328667
 20
-34.7997675401
 30
0.0
  0
VERTEX
  5
6C7
  8
0
  6
CONTINUOUS
 62
     7
 10
109.2420363067
 20
-34.4731040982
 30
0.0
  0
VERTEX
  5
6C8
  8
0
  6
CONTINUOUS
 62
     7
 10
109.0805002688
 20
-34.1035858479
 30
0.0
  0
VERTEX
  5
6C9
  8
0
  6
CONTINUOUS
 62
     7
 10
108.8772573708
 20
-33.774786697
 30
0.0
  0
VERTEX
  5
6CA
  8
0
  6
CONTINUOUS
 62
     7
 10
108.642346525
 20
-33.4892115307
 30
0.0
  0
VERTEX
  5
6CB
  8
0
  6
CONTINUOUS
 62
     7
 10
108.3862000345
 20
-33.2481036645
 30
0.0
  0
VERTEX
  5
6CC
  8
0
  6
CONTINUOUS
 62
     7
 10
108.1193545101
 20
-33.0509136182
 30
0.0
  0
VERTEX
  5
6CD
  8
0
  6
CONTINUOUS
 62
     7
 10
107.8506865738
 20
-32.8944722873
 30
0.0
  0
VERTEX
  5
6CE
  8
0
  6
CONTINUOUS
 62
     7
 10
107.5863265632
 20
-32.7736566526
 30
0.0
  0
VERTEX
  5
6CF
  8
0
  6
CONTINUOUS
 62
     7
 10
107.326720023
 20
-32.6816535306
 30
0.0
  0
VERTEX
  5
6D0
  8
0
  6
CONTINUOUS
 62
     7
 10
107.0659377812
 20
-32.611713813
 30
0.0
  0
VERTEX
  5
6D1
  8
0
  6
CONTINUOUS
 62
     7
 10
106.7899474142
 20
-32.5583043259
 30
0.0
  0
VERTEX
  5
6D2
  8
0
  6
CONTINUOUS
 62
     7
 10
106.4719208716
 20
-32.518093915
 30
0.0
  0
VERTEX
  5
6D3
  8
0
  6
CONTINUOUS
 62
     7
 10
106.0965829728
 20
-32.4927444321
 30
0.0
  0
VERTEX
  5
6D4
  8
0
  6
CONTINUOUS
 62
     7
 10
105.4972850917
 20
-32.4852860284
 30
0.0
  0
VERTEX
  5
6D5
  8
0
  6
CONTINUOUS
 62
     7
 10
104.9753376482
 20
-32.4997788978
 30
0.0
  0
VERTEX
  5
6D6
  8
0
  6
CONTINUOUS
 62
     7
 10
104.4420101879
 20
-32.527558015
 30
0.0
  0
VERTEX
  5
6D7
  8
0
  6
CONTINUOUS
 62
     7
 10
103.8308345912
 20
-32.5706164104
 30
0.0
  0
VERTEX
  5
6D8
  8
0
  6
CONTINUOUS
 62
     7
 10
103.1978392242
 20
-32.6243973088
 30
0.0
  0
VERTEX
  5
6D9
  8
0
  6
CONTINUOUS
 62
     7
 10
102.541666591
 20
-32.6874858451
 30
0.0
  0
VERTEX
  5
6DA
  8
0
  6
CONTINUOUS
 62
     7
 10
101.8431776403
 20
-32.7605242592
 30
0.0
  0
VERTEX
  5
6DB
  8
0
  6
CONTINUOUS
 62
     7
 10
101.1146717904
 20
-32.8415888113
 30
0.0
  0
VERTEX
  5
6DC
  8
0
  6
CONTINUOUS
 62
     7
 10
100.3541195033
 20
-32.9303475779
 30
0.0
  0
VERTEX
  5
6DD
  8
0
  6
CONTINUOUS
 62
     7
 10
99.5648645995
 20
-33.0259489578
 30
0.0
  0
VERTEX
  5
6DE
  8
0
  6
CONTINUOUS
 62
     7
 10
98.7508469461
 20
-33.1274884504
 30
0.0
  0
VERTEX
  5
6DF
  8
0
  6
CONTINUOUS
 62
     7
 10
97.9163431762
 20
-33.2340239298
 30
0.0
  0
VERTEX
  5
6E0
  8
0
  6
CONTINUOUS
 62
     7
 10
97.0657908557
 20
-33.3446020943
 30
0.0
  0
VERTEX
  5
6E1
  8
0
  6
CONTINUOUS
 62
     7
 10
96.2067776559
 20
-33.4578319204
 30
0.0
  0
VERTEX
  5
6E2
  8
0
  6
CONTINUOUS
 62
     7
 10
95.3392082094
 20
-33.5735282612
 30
0.0
  0
VERTEX
  5
6E3
  8
0
  6
CONTINUOUS
 62
     7
 10
94.464685881
 20
-33.6915167731
 30
0.0
  0
VERTEX
  5
6E4
  8
0
  6
CONTINUOUS
 62
     7
 10
94.2005121349
 20
-33.7275805634
 30
0.0
  0
SEQEND
  5
783
  8
0
  6
CONTINUOUS
 62
     7
  0
LINE
  5
20A
  8
0
  6
CONTINUOUS
 62
     7
 10
109.3419560431
 20
-34.8622786564
 30
0.0
 11
109.3320557116
 21
-34.7999327567
 31
0.0
  0
POLYLINE
  5
20B
  8
0
  6
CONTINUOUS
 62
     7
 66
     1
 10
0.0
 20
0.0
 30
0.0
  0
VERTEX
  5
6E5
  8
0
  6
CONTINUOUS
 62
     7
 10
29.3570571779
 20
-34.8007726234
 30
0.0
  0
VERTEX
  5
6E6
  8
0
  6
CONTINUOUS
 62
     7
 10
29.3028765558
 20
-35.0792580035
 30
0.0
  0
VERTEX
  5
6E7
  8
0
  6
CONTINUOUS
 62
     7
 10
29.2894893525
 20
-35.3983226915
 30
0.0
  0
SEQEND
  5
782
  8
0
  6
CONTINUOUS
 62
     7
  0
ARC
  5
20C
  8
0
  6
CONTINUOUS
 62
     7
 10
69.3433859585
 20
148.598015376
 30
0.0
 40
184.0126562297148
 50
262.236482732
 51
277.763517268
  0
LINE
  5
20D
  8
0
  6
CONTINUOUS
 62
     7
 10
227.3433857797
 20
-43.446450935
 30
0.0
 11
230.7433896898
 21
-43.446450935
 31
0.0
  0
LINE
  5
20E
  8
0
  6
CONTINUOUS
 62
     7
 10
227.3433857797
 20
-31.0464511377
 30
0.0
 11
209.9433833001
 21
-31.0464511377
 31
0.0
  0
LINE
  5
20F
  8
0
  6
CONTINUOUS
 62
     7
 10
209.9433833001
 20
-43.046451242
 30
0.0
 11
226.0433846353
 21
-43.046451242
 31
0.0
  0
LINE
  5
210
  8
0
  6
CONTINUOUS
 62
     7
 10
227.0433836816
 20
-43.046451242
 30
0.0
 11
227.3433857797
 21
-43.046451242
 31
0.0
  0
LINE
  5
211
  8
0
  6
CONTINUOUS
 62
     7
 10
230.7433896898
 20
-28.446451084
 30
0.0
 11
227.6675754426
 21
-28.446451084
 31
0.0
  0
LINE
  5
212
  8
0
  6
CONTINUOUS
 62
     7
 10
107.3433839916
 20
-43.446450935
 30
0.0
 11
110.7433834313
 21
-43.446450935
 31
0.0
  0
LINE
  5
213
  8
0
  6
CONTINUOUS
 62
     7
 10
107.3433839916
 20
-31.0464511377
 30
0.0
 11
89.9433844922
 21
-31.0464511377
 31
0.0
  0
LINE
  5
214
  8
0
  6
CONTINUOUS
 62
     7
 10
103.4288727878
 20
-43.046451242
 30
0.0
 11
106.0433843373
 21
-43.046451242
 31
0.0
  0
LINE
  5
215
  8
0
  6
CONTINUOUS
 62
     7
 10
107.0433833836
 20
-43.046451242
 30
0.0
 11
107.3433839916
 21
-43.046451242
 31
0.0
  0
LINE
  5
216
  8
0
  6
CONTINUOUS
 62
     7
 10
110.7433834313
 20
-28.446451084
 30
0.0
 11
107.6675751446
 21
-28.446451084
 31
0.0
  0
LINE
  5
217
  8
0
  6
CONTINUOUS
 62
     7
 10
27.9433780549
 20
-43.446450935
 30
0.0
 11
31.343381965
 21
-43.446450935
 31
0.0
  0
LINE
  5
218
  8
0
  6
CONTINUOUS
 62
     7
 10
31.343381965
 20
-43.046451242
 30
0.0
 11
31.6433840631
 21
-43.046451242
 31
0.0
  0
LINE
  5
219
  8
0
  6
CONTINUOUS
 62
     7
 10
32.6433831094
 20
-43.046451242
 30
0.0
 11
35.2572613595
 21
-43.046451242
 31
0.0
  0
LINE
  5
21A
  8
0
  6
CONTINUOUS
 62
     7
 10
48.7433844446
 20
-31.0464511377
 30
0.0
 11
31.343381965
 21
-31.0464511377
 31
0.0
  0
LINE
  5
21B
  8
0
  6
CONTINUOUS
 62
     7
 10
31.0197704671
 20
-28.446451084
 30
0.0
 11
27.9433780549
 21
-28.446451084
 31
0.0
  0
LINE
  5
21C
  8
0
  6
CONTINUOUS
 62
     7
 10
147.9433843134
 20
-43.446450935
 30
0.0
 11
151.3433837531
 21
-43.446450935
 31
0.0
  0
LINE
  5
21D
  8
0
  6
CONTINUOUS
 62
     7
 10
151.3433837531
 20
-43.046451242
 30
0.0
 11
151.6433843611
 21
-43.046451242
 31
0.0
  0
LINE
  5
21E
  8
0
  6
CONTINUOUS
 62
     7
 10
152.6433834074
 20
-43.046451242
 30
0.0
 11
168.7433832525
 21
-43.046451242
 31
0.0
  0
LINE
  5
21F
  8
0
  6
CONTINUOUS
 62
     7
 10
168.7433832525
 20
-31.0464511377
 30
0.0
 11
151.3433837531
 21
-31.0464511377
 31
0.0
  0
LINE
  5
220
  8
0
  6
CONTINUOUS
 62
     7
 10
151.0197722553
 20
-28.446451084
 30
0.0
 11
147.9433843134
 21
-28.446451084
 31
0.0
  0
LINE
  5
221
  8
0
  6
CONTINUOUS
 62
     7
 10
25.7433825372
 20
-32.9464512628
 30
0.0
 11
25.7433825372
 21
-32.3464511645
 31
0.0
  0
ARC
  5
222
  8
0
  6
CONTINUOUS
 62
     7
 10
26.1433838723
 20
-32.3464511734
 30
0.0
 40
0.4000000000000057
 50
90.0
 51
180.0
  0
LINE
  5
223
  8
0
  6
CONTINUOUS
 62
     7
 10
26.1433893083
 20
-31.9464510989
 30
0.0
 11
27.9433780549
 21
-31.9464510989
 31
0.0
  0
LINE
  5
224
  8
0
  6
CONTINUOUS
 62
     7
 10
48.7433844446
 20
-31.9464510989
 30
0.0
 11
51.3433867334
 21
-31.9464510989
 31
0.0
  0
LINE
  5
225
  8
0
  6
CONTINUOUS
 62
     7
 10
87.3433851836
 20
-31.9464510989
 30
0.0
 11
89.9433844922
 21
-31.9464510989
 31
0.0
  0
LINE
  5
226
  8
0
  6
CONTINUOUS
 62
     7
 10
110.7433834313
 20
-31.9464510989
 30
0.0
 11
147.9433843134
 21
-31.9464510989
 31
0.0
  0
LINE
  5
227
  8
0
  6
CONTINUOUS
 62
     7
 10
168.7433832525
 20
-31.9464510989
 30
0.0
 11
171.343382561
 21
-31.9464510989
 31
0.0
  0
LINE
  5
228
  8
0
  6
CONTINUOUS
 62
     7
 10
207.3433810113
 20
-31.9464510989
 30
0.0
 11
209.9433833001
 21
-31.9464510989
 31
0.0
  0
LINE
  5
229
  8
0
  6
CONTINUOUS
 62
     7
 10
230.7433896898
 20
-31.9464510989
 30
0.0
 11
232.5433784364
 21
-31.9464510989
 31
0.0
  0
LINE
  5
22A
  8
0
  6
CONTINUOUS
 62
     7
 10
232.9433852075
 20
-32.3464511645
 30
0.0
 11
232.9433852075
 21
-32.9464512628
 31
0.0
  0
ARC
  5
22B
  8
0
  6
CONTINUOUS
 62
     7
 10
232.5433838723
 20
-32.3464511734
 30
0.0
 40
0.4000000000000057
 50
0.0
 51
90.0
  0
LINE
  5
22C
  8
0
  6
CONTINUOUS
 62
     7
 10
232.9433852075
 20
-32.9464512628
 30
0.0
 11
232.9433852075
 21
-40.946451084
 31
0.0
  0
LINE
  5
22D
  8
0
  6
CONTINUOUS
 62
     7
 10
25.7433825372
 20
-40.946451084
 30
0.0
 11
25.7433825372
 21
-32.9464512628
 31
0.0
  0
LINE
  5
22E
  8
0
  6
CONTINUOUS
 62
     7
 10
232.9433852075
 20
-40.946451084
 30
0.0
 11
232.9433852075
 21
-41.5464511824
 31
0.0
  0
ARC
  5
22F
  8
0
  6
CONTINUOUS
 62
     7
 10
232.5433838723
 20
-41.5464511734
 30
0.0
 40
0.4000000000000057
 50
270.0
 51
0.0
  0
LINE
  5
230
  8
0
  6
CONTINUOUS
 62
     7
 10
232.5433784364
 20
-41.9464512479
 30
0.0
 11
230.7433896898
 21
-41.9464512479
 31
0.0
  0
LINE
  5
231
  8
0
  6
CONTINUOUS
 62
     7
 10
209.9433833001
 20
-41.9464512479
 30
0.0
 11
207.3433810113
 21
-41.9464512479
 31
0.0
  0
LINE
  5
232
  8
0
  6
CONTINUOUS
 62
     7
 10
171.343382561
 20
-41.9464512479
 30
0.0
 11
168.7433832525
 21
-41.9464512479
 31
0.0
  0
LINE
  5
233
  8
0
  6
CONTINUOUS
 62
     7
 10
147.9433843134
 20
-41.9464512479
 30
0.0
 11
110.7433834313
 21
-41.9464512479
 31
0.0
  0
LINE
  5
234
  8
0
  6
CONTINUOUS
 62
     7
 10
27.9433780549
 20
-41.9464512479
 30
0.0
 11
26.1433893083
 21
-41.9464512479
 31
0.0
  0
ARC
  5
235
  8
0
  6
CONTINUOUS
 62
     7
 10
26.1433838723
 20
-41.5464511734
 30
0.0
 40
0.3999999999999986
 50
180.0
 51
270.0
  0
LINE
  5
236
  8
0
  6
CONTINUOUS
 62
     7
 10
25.7433825372
 20
-41.5464511824
 30
0.0
 11
25.7433825372
 21
-40.946451084
 31
0.0
  0
ARC
  5
237
  8
0
  6
CONTINUOUS
 62
     7
 10
50.9290995869
 20
-56.9464511734
 30
0.0
 40
4.0
 50
200.0051900882
 51
270.0
  0
ARC
  5
238
  8
0
  6
CONTINUOUS
 62
     7
 10
122.3433838723
 20
-30.9464511734
 30
0.0
 40
80.0
 50
189.8685553009
 51
200.0051900882
  0
LINE
  5
239
  8
0
  6
CONTINUOUS
 62
     7
 10
42.3434489606
 20
-31.0464511377
 30
0.0
 11
42.3433833955
 21
-30.9464513075
 31
0.0
  0
LINE
  5
23A
  8
0
  6
CONTINUOUS
 62
     7
 10
42.3433833955
 20
-28.9464513522
 30
0.0
 11
42.3433833955
 21
-30.9464513075
 31
0.0
  0
POLYLINE
  5
23B
  8
0
  6
CONTINUOUS
 62
     7
 66
     1
 10
0.0
 20
0.0
 30
0.0
  0
VERTEX
  5
6E8
  8
0
  6
CONTINUOUS
 62
     7
 10
42.4213581918
 20
-28.1605089766
 30
0.0
  0
VERTEX
  5
6E9
  8
0
  6
CONTINUOUS
 62
     7
 10
42.3840993284
 20
-28.3771919769
 30
0.0
  0
VERTEX
  5
6EA
  8
0
  6
CONTINUOUS
 62
     7
 10
42.3433833955
 20
-28.9464513522
 30
0.0
  0
SEQEND
  5
781
  8
0
  6
CONTINUOUS
 62
     7
  0
LINE
  5
23C
  8
0
  6
CONTINUOUS
 62
     7
 10
66.3433843492
 20
-30.9464513075
 30
0.0
 11
66.3433843492
 21
-30.3464512092
 31
0.0
  0
LINE
  5
23D
  8
0
  6
CONTINUOUS
 62
     7
 10
66.3433843492
 20
-30.9464513075
 30
0.0
 11
66.3423829912
 21
-31.3464510006
 31
0.0
  0
ARC
  5
23E
  8
0
  6
CONTINUOUS
 62
     7
 10
-13.6566161277
 20
-30.9464511734
 30
0.0
 40
80.0
 50
339.9948099118
 51
348.883693452
  0
ARC
  5
23F
  8
0
  6
CONTINUOUS
 62
     7
 10
57.7576681578
 20
-56.9464511734
 30
0.0
 40
4.000000000000007
 50
270.0
 51
339.9948099118
  0
LINE
  5
240
  8
0
  6
CONTINUOUS
 62
     7
 10
50.9290986894
 20
-60.946450637
 30
0.0
 11
57.7576690553
 21
-60.946450637
 31
0.0
  0
ARC
  5
241
  8
0
  6
CONTINUOUS
 62
     7
 10
46.3433838723
 20
-28.9464511734
 30
0.0
 40
1.50000000000001
 50
270.0
 51
66.6219492715
  0
ARC
  5
242
  8
0
  6
CONTINUOUS
 62
     7
 10
46.3433838723
 20
-28.9464511734
 30
0.0
 40
1.500000000000004
 50
126.6959892436
 51
270.0
  0
CIRCLE
  5
243
  8
0
  6
CONTINUOUS
 62
     7
 10
62.3433838723
 20
-28.9464511734
 30
0.0
 40
1.500000000000004
  0
CIRCLE
  5
244
  8
0
  6
CONTINUOUS
 62
     7
 10
54.3433838723
 20
-56.9464511734
 30
0.0
 40
1.500000000000007
  0
ARC
  5
245
  8
0
  6
CONTINUOUS
 62
     7
 10
62.3433838723
 20
-28.9464511734
 30
0.0
 40
4.000000000000007
 50
0.0
 51
42.3395639092
  0
LINE
  5
246
  8
0
  6
CONTINUOUS
 62
     7
 10
216.3433843492
 20
-30.9464513075
 30
0.0
 11
216.3433843492
 21
-28.9464513522
 31
0.0
  0
LINE
  5
247
  8
0
  6
CONTINUOUS
 62
     7
 10
216.3433843492
 20
-30.9464513075
 30
0.0
 11
216.3433187841
 21
-31.0464511377
 31
0.0
  0
ARC
  5
248
  8
0
  6
CONTINUOUS
 62
     7
 10
136.3433838723
 20
-30.9464511734
 30
0.0
 40
80.00000000000001
 50
348.3806348491
 51
351.3006271703
  0
ARC
  5
249
  8
0
  6
CONTINUOUS
 62
     7
 10
272.3433838723
 20
-30.9464511734
 30
0.0
 40
79.99999999999997
 50
188.6269265587
 51
191.610065148
  0
LINE
  5
24A
  8
0
  6
CONTINUOUS
 62
     7
 10
192.3443847535
 20
-31.3464510006
 30
0.0
 11
192.3433833955
 21
-30.9464513075
 31
0.0
  0
LINE
  5
24B
  8
0
  6
CONTINUOUS
 62
     7
 10
192.3433833955
 20
-30.3464512092
 30
0.0
 11
192.3433833955
 21
-30.9464513075
 31
0.0
  0
ARC
  5
24C
  8
0
  6
CONTINUOUS
 62
     7
 10
212.3433838723
 20
-28.9464511734
 30
0.0
 40
1.500000000000007
 50
114.2154858328
 51
51.3575194393
  0
CIRCLE
  5
24D
  8
0
  6
CONTINUOUS
 62
     7
 10
196.3433838723
 20
-28.9464511734
 30
0.0
 40
1.500000000000007
  0
ARC
  5
24E
  8
0
  6
CONTINUOUS
 62
     7
 10
196.3433838723
 20
-28.9464511734
 30
0.0
 40
4.000000000000015
 50
137.5994299178
 51
180.0
  0
POLYLINE
  5
24F
  8
0
  6
CONTINUOUS
 62
     7
 66
     1
 10
0.0
 20
0.0
 30
0.0
  0
VERTEX
  5
6EB
  8
0
  6
CONTINUOUS
 62
     7
 10
216.3433843492
 20
-28.9464513522
 30
0.0
  0
VERTEX
  5
6EC
  8
0
  6
CONTINUOUS
 62
     7
 10
216.3026684163
 20
-28.3771919769
 30
0.0
  0
VERTEX
  5
6ED
  8
0
  6
CONTINUOUS
 62
     7
 10
216.2649684785
 20
-28.1583080751
 30
0.0
  0
SEQEND
  5
780
  8
0
  6
CONTINUOUS
 62
     7
  0
ARC
  5
250
  8
0
  6
CONTINUOUS
 62
     7
 10
189.3510013853
 20
-6.748629187
 30
0.0
 40
6.286210616521584
 50
261.3047148537
 51
278.4276105882
  0
LINE
  5
251
  8
0
  6
CONTINUOUS
 62
     7
 10
191.3433843492
 20
-12.3819361192
 30
0.0
 11
187.3433822034
 21
-12.3819361192
 31
0.0
  0
POLYLINE
  5
252
  8
0
  6
CONTINUOUS
 62
     7
 66
     1
 10
0.0
 20
0.0
 30
0.0
  0
VERTEX
  5
6EE
  8
0
  6
CONTINUOUS
 62
     7
 10
189.3433862565
 20
-12.5025878412
 30
0.0
  0
VERTEX
  5
6EF
  8
0
  6
CONTINUOUS
 62
     7
 10
189.073585832
 20
-12.5071073634
 30
0.0
  0
VERTEX
  5
6F0
  8
0
  6
CONTINUOUS
 62
     7
 10
188.8238006471
 20
-12.5203291637
 30
0.0
  0
VERTEX
  5
6F1
  8
0
  6
CONTINUOUS
 62
     7
 10
188.6125498651
 20
-12.5412742359
 30
0.0
  0
VERTEX
  5
6F2
  8
0
  6
CONTINUOUS
 62
     7
 10
188.4554975866
 20
-12.5683883888
 30
0.0
  0
VERTEX
  5
6F3
  8
0
  6
CONTINUOUS
 62
     7
 10
188.3643024801
 20
-12.5996614558
 30
0.0
  0
VERTEX
  5
6F4
  8
0
  6
CONTINUOUS
 62
     7
 10
188.3433812497
 20
-12.624456988
 30
0.0
  0
SEQEND
  5
77F
  8
0
  6
CONTINUOUS
 62
     7
  0
POLYLINE
  5
253
  8
0
  6
CONTINUOUS
 62
     7
 66
     1
 10
0.0
 20
0.0
 30
0.0
  0
VERTEX
  5
6F5
  8
0
  6
CONTINUOUS
 62
     7
 10
190.3433853029
 20
-12.624456988
 30
0.0
  0
VERTEX
  5
6F6
  8
0
  6
CONTINUOUS
 62
     7
 10
190.322470033
 20
-12.5996614558
 30
0.0
  0
VERTEX
  5
6F7
  8
0
  6
CONTINUOUS
 62
     7
 10
190.231268966
 20
-12.5683883888
 30
0.0
  0
VERTEX
  5
6F8
  8
0
  6
CONTINUOUS
 62
     7
 10
190.074222648
 20
-12.5412742359
 30
0.0
  0
VERTEX
  5
6F9
  8
0
  6
CONTINUOUS
 62
     7
 10
189.8629659055
 20
-12.5203291637
 30
0.0
  0
VERTEX
  5
6FA
  8
0
  6
CONTINUOUS
 62
     7
 10
189.6131807206
 20
-12.5071073634
 30
0.0
  0
VERTEX
  5
6FB
  8
0
  6
CONTINUOUS
 62
     7
 10
189.3433862565
 20
-12.5025878412
 30
0.0
  0
SEQEND
  5
77E
  8
0
  6
CONTINUOUS
 62
     7
  0
ARC
  5
254
  8
0
  6
CONTINUOUS
 62
     7
 10
191.3471003665
 20
-11.3856530149
 30
0.0
 40
0.9962900343945599
 50
269.7862945601
 51
359.7851379638
  0
LINE
  5
255
  8
0
  6
CONTINUOUS
 62
     7
 10
192.3433833955
 20
-11.3893891436
 30
0.0
 11
192.3433833955
 21
-12.9844317895
 31
0.0
  0
ARC
  5
256
  8
0
  6
CONTINUOUS
 62
     7
 10
187.3396686552
 20
-11.3856505273
 30
0.0
 40
0.9962925127945481
 50
180.2150045634
 51
270.2135629127
  0
LINE
  5
257
  8
0
  6
CONTINUOUS
 62
     7
 10
186.3433831571
 20
-11.3893891436
 30
0.0
 11
186.3433831571
 21
-7.4192072016
 31
0.0
  0
ARC
  5
258
  8
0
  6
CONTINUOUS
 62
     7
 10
187.3396722599
 20
-7.4229479539
 30
0.0
 40
0.9962961254760752
 50
89.7866451645
 51
179.7848733755
  0
LINE
  5
259
  8
0
  6
CONTINUOUS
 62
     7
 10
187.3433822034
 20
-6.4266587359
 30
0.0
 11
191.3433843492
 21
-6.4266587359
 31
0.0
  0
ARC
  5
25A
  8
0
  6
CONTINUOUS
 62
     7
 10
191.3470967619
 20
-7.4229454662
 30
0.0
 40
0.9962936469891307
 50
0.2149840936
 51
90.2134973664
  0
LINE
  5
25B
  8
0
  6
CONTINUOUS
 62
     7
 10
192.3433833955
 20
-7.4192072016
 30
0.0
 11
192.3433833955
 21
-11.3893891436
 31
0.0
  0
LINE
  5
25C
  8
0
  6
CONTINUOUS
 62
     7
 10
186.3433831571
 20
-12.9889602524
 30
0.0
 11
186.3433831571
 21
-11.3893891436
 31
0.0
  0
POLYLINE
  5
25D
  8
0
  6
CONTINUOUS
 62
     7
 66
     1
 10
0.0
 20
0.0
 30
0.0
  0
VERTEX
  5
6FC
  8
0
  6
CONTINUOUS
 62
     7
 10
216.0439365743
 20
-26.7603355211
 30
0.0
  0
VERTEX
  5
6FD
  8
0
  6
CONTINUOUS
 62
     7
 10
217.1250933049
 20
-26.8896835607
 30
0.0
  0
VERTEX
  5
6FE
  8
0
  6
CONTINUOUS
 62
     7
 10
218.173878753
 20
-27.0055833024
 30
0.0
  0
VERTEX
  5
6FF
  8
0
  6
CONTINUOUS
 62
     7
 10
219.1707187532
 20
-27.1051662725
 30
0.0
  0
VERTEX
  5
700
  8
0
  6
CONTINUOUS
 62
     7
 10
220.1056414483
 20
-27.1864617926
 30
0.0
  0
VERTEX
  5
701
  8
0
  6
CONTINUOUS
 62
     7
 10
220.9709578393
 20
-27.2479454738
 30
0.0
  0
VERTEX
  5
702
  8
0
  6
CONTINUOUS
 62
     7
 10
221.7509680627
 20
-27.2874655885
 30
0.0
  0
VERTEX
  5
703
  8
0
  6
CONTINUOUS
 62
     7
 10
222.4412554143
 20
-27.3033122283
 30
0.0
  0
VERTEX
  5
704
  8
0
  6
CONTINUOUS
 62
     7
 10
223.032450044
 20
-27.2943879229
 30
0.0
  0
VERTEX
  5
705
  8
0
  6
CONTINUOUS
 62
     7
 10
223.5141270994
 20
-27.2599371833
 30
0.0
  0
VERTEX
  5
706
  8
0
  6
CONTINUOUS
 62
     7
 10
223.8836699365
 20
-27.1983395082
 30
0.0
  0
VERTEX
  5
707
  8
0
  6
CONTINUOUS
 62
     7
 10
224.1344624399
 20
-27.1101671022
 30
0.0
  0
VERTEX
  5
708
  8
0
  6
CONTINUOUS
 62
     7
 10
224.2621117471
 20
-26.9965979022
 30
0.0
  0
VERTEX
  5
709
  8
0
  6
CONTINUOUS
 62
     7
 10
224.2789917825
 20
-26.9275295299
 30
0.0
  0
SEQEND
  5
77D
  8
0
  6
CONTINUOUS
 62
     7
  0
ARC
  5
25E
  8
0
  6
CONTINUOUS
 62
     7
 10
189.3433832763
 20
-210.5985586084
 30
0.0
 40
185.7670902348651
 50
81.7361790473
 51
98.2638209527
  0
POLYLINE
  5
25F
  8
0
  6
CONTINUOUS
 62
     7
 66
     1
 10
0.0
 20
0.0
 30
0.0
  0
VERTEX
  5
70A
  8
0
  6
CONTINUOUS
 62
     7
 10
154.4077747701
 20
-26.9275295299
 30
0.0
  0
VERTEX
  5
70B
  8
0
  6
CONTINUOUS
 62
     7
 10
154.4718616842
 20
-27.0550626081
 30
0.0
  0
VERTEX
  5
70C
  8
0
  6
CONTINUOUS
 62
     7
 10
154.6618812917
 20
-27.1573605698
 30
0.0
  0
VERTEX
  5
70D
  8
0
  6
CONTINUOUS
 62
     7
 10
154.9744659303
 20
-27.2328520876
 30
0.0
  0
VERTEX
  5
70E
  8
0
  6
CONTINUOUS
 62
     7
 10
155.4085337756
 20
-27.2809135479
 30
0.0
  0
VERTEX
  5
70F
  8
0
  6
CONTINUOUS
 62
     7
 10
155.9587800144
 20
-27.3023362023
 30
0.0
  0
VERTEX
  5
710
  8
0
  6
CONTINUOUS
 62
     7
 10
156.615214908
 20
-27.29762371
 30
0.0
  0
VERTEX
  5
711
  8
0
  6
CONTINUOUS
 62
     7
 10
157.3685818551
 20
-27.2677148444
 30
0.0
  0
VERTEX
  5
712
  8
0
  6
CONTINUOUS
 62
     7
 10
158.2143956064
 20
-27.2143925291
 30
0.0
  0
VERTEX
  5
713
  8
0
  6
CONTINUOUS
 62
     7
 10
159.1368728517
 20
-27.1397548479
 30
0.0
  0
VERTEX
  5
714
  8
0
  6
CONTINUOUS
 62
     7
 10
160.1186895011
 20
-27.0463111562
 30
0.0
  0
VERTEX
  5
715
  8
0
  6
CONTINUOUS
 62
     7
 10
161.1581676839
 20
-26.9354800445
 30
0.0
  0
VERTEX
  5
716
  8
0
  6
CONTINUOUS
 62
     7
 10
162.2356438278
 20
-26.8101456326
 30
0.0
  0
VERTEX
  5
717
  8
0
  6
CONTINUOUS
 62
     7
 10
162.6428299783
 20
-26.7603355211
 30
0.0
  0
SEQEND
  5
77C
  8
0
  6
CONTINUOUS
 62
     7
  0
LINE
  5
260
  8
0
  6
CONTINUOUS
 62
     7
 10
154.4077747701
 20
-22.4181155425
 30
0.0
 11
154.4077747701
 21
-26.9275295299
 31
0.0
  0
LINE
  5
261
  8
0
  6
CONTINUOUS
 62
     7
 10
224.2789917825
 20
-26.9275295299
 30
0.0
 11
224.2789917825
 21
-22.4196503621
 31
0.0
  0
POLYLINE
  5
262
  8
0
  6
CONTINUOUS
 62
     7
 66
     1
 10
0.0
 20
0.0
 30
0.0
  0
VERTEX
  5
718
  8
0
  6
CONTINUOUS
 62
     7
 10
229.4021421312
 20
-25.7889571351
 30
0.0
  0
VERTEX
  5
719
  8
0
  6
CONTINUOUS
 62
     7
 10
229.3999248384
 20
-25.8973459464
 30
0.0
  0
VERTEX
  5
71A
  8
0
  6
CONTINUOUS
 62
     7
 10
229.3391996263
 20
-26.3631398541
 30
0.0
  0
SEQEND
  5
77B
  8
0
  6
CONTINUOUS
 62
     7
  0
ARC
  5
263
  8
0
  6
CONTINUOUS
 62
     7
 10
69.3510025819
 20
-6.7486272565
 30
0.0
 40
6.286212525476867
 50
261.3047174731
 51
278.4276079687
  0
ARC
  5
264
  8
0
  6
CONTINUOUS
 62
     7
 10
67.3396673782
 20
-11.3856530149
 30
0.0
 40
0.996290034394597
 50
180.2148620362
 51
270.2137054399
  0
LINE
  5
265
  8
0
  6
CONTINUOUS
 62
     7
 10
66.3433843492
 20
-11.3893891436
 30
0.0
 11
66.3433843492
 21
-7.4192072016
 31
0.0
  0
ARC
  5
266
  8
0
  6
CONTINUOUS
 62
     7
 10
67.3396709828
 20
-7.4229454662
 30
0.0
 40
0.9962936469891687
 50
89.7865026336
 51
179.7850159064
  0
LINE
  5
267
  8
0
  6
CONTINUOUS
 62
     7
 10
67.3433833955
 20
-6.4266587359
 30
0.0
 11
71.3433855413
 21
-6.4266587359
 31
0.0
  0
ARC
  5
268
  8
0
  6
CONTINUOUS
 62
     7
 10
71.3470954848
 20
-7.4229479539
 30
0.0
 40
0.9962961254760324
 50
0.2151266245
 51
90.2133548355
  0
LINE
  5
269
  8
0
  6
CONTINUOUS
 62
     7
 10
72.3433845876
 20
-7.4192072016
 30
0.0
 11
72.3433845876
 21
-11.3893891436
 31
0.0
  0
ARC
  5
26A
  8
0
  6
CONTINUOUS
 62
     7
 10
71.3470990895
 20
-11.3856505273
 30
0.0
 40
0.9962925127944927
 50
269.7864370873
 51
359.7849954366
  0
LINE
  5
26B
  8
0
  6
CONTINUOUS
 62
     7
 10
71.3433855413
 20
-12.3819361192
 30
0.0
 11
67.3433833955
 21
-12.3819361192
 31
0.0
  0
LINE
  5
26C
  8
0
  6
CONTINUOUS
 62
     7
 10
66.3433843492
 20
-12.9889602524
 30
0.0
 11
66.3433843492
 21
-11.3893891436
 31
0.0
  0
LINE
  5
26D
  8
0
  6
CONTINUOUS
 62
     7
 10
72.3433845876
 20
-11.3893891436
 30
0.0
 11
72.3433845876
 21
-12.9844317895
 31
0.0
  0
POLYLINE
  5
26E
  8
0
  6
CONTINUOUS
 62
     7
 66
     1
 10
0.0
 20
0.0
 30
0.0
  0
VERTEX
  5
71B
  8
0
  6
CONTINUOUS
 62
     7
 10
69.3433814882
 20
-12.5025878412
 30
0.0
  0
VERTEX
  5
71C
  8
0
  6
CONTINUOUS
 62
     7
 10
69.073587024
 20
-12.5071073634
 30
0.0
  0
VERTEX
  5
71D
  8
0
  6
CONTINUOUS
 62
     7
 10
68.8238018392
 20
-12.5203291637
 30
0.0
  0
VERTEX
  5
71E
  8
0
  6
CONTINUOUS
 62
     7
 10
68.6125450967
 20
-12.5412742359
 30
0.0
  0
VERTEX
  5
71F
  8
0
  6
CONTINUOUS
 62
     7
 10
68.4554987787
 20
-12.5683883888
 30
0.0
  0
VERTEX
  5
720
  8
0
  6
CONTINUOUS
 62
     7
 10
68.3642977117
 20
-12.5996614558
 30
0.0
  0
VERTEX
  5
721
  8
0
  6
CONTINUOUS
 62
     7
 10
68.3433824418
 20
-12.624456988
 30
0.0
  0
SEQEND
  5
77A
  8
0
  6
CONTINUOUS
 62
     7
  0
POLYLINE
  5
26F
  8
0
  6
CONTINUOUS
 62
     7
 66
     1
 10
0.0
 20
0.0
 30
0.0
  0
VERTEX
  5
722
  8
0
  6
CONTINUOUS
 62
     7
 10
70.343386495
 20
-12.624456988
 30
0.0
  0
VERTEX
  5
723
  8
0
  6
CONTINUOUS
 62
     7
 10
70.3224652646
 20
-12.5996614558
 30
0.0
  0
VERTEX
  5
724
  8
0
  6
CONTINUOUS
 62
     7
 10
70.2312701581
 20
-12.5683883888
 30
0.0
  0
VERTEX
  5
725
  8
0
  6
CONTINUOUS
 62
     7
 10
70.0742178796
 20
-12.5412742359
 30
0.0
  0
VERTEX
  5
726
  8
0
  6
CONTINUOUS
 62
     7
 10
69.8629670976
 20
-12.5203291637
 30
0.0
  0
VERTEX
  5
727
  8
0
  6
CONTINUOUS
 62
     7
 10
69.6131819127
 20
-12.5071073634
 30
0.0
  0
VERTEX
  5
728
  8
0
  6
CONTINUOUS
 62
     7
 10
69.3433814882
 20
-12.5025878412
 30
0.0
  0
SEQEND
  5
779
  8
0
  6
CONTINUOUS
 62
     7
  0
POLYLINE
  5
270
  8
0
  6
CONTINUOUS
 62
     7
 66
     1
 10
0.0
 20
0.0
 30
0.0
  0
VERTEX
  5
729
  8
0
  6
CONTINUOUS
 62
     7
 10
96.0439377664
 20
-26.7603355211
 30
0.0
  0
VERTEX
  5
72A
  8
0
  6
CONTINUOUS
 62
     7
 10
97.1250915168
 20
-26.8896835607
 30
0.0
  0
VERTEX
  5
72B
  8
0
  6
CONTINUOUS
 62
     7
 10
98.1738799451
 20
-27.0055833024
 30
0.0
  0
VERTEX
  5
72C
  8
0
  6
CONTINUOUS
 62
     7
 10
99.1707199453
 20
-27.1051662725
 30
0.0
  0
VERTEX
  5
72D
  8
0
  6
CONTINUOUS
 62
     7
 10
100.1056426404
 20
-27.1864617926
 30
0.0
  0
VERTEX
  5
72E
  8
0
  6
CONTINUOUS
 62
     7
 10
100.9709560512
 20
-27.2479454738
 30
0.0
  0
VERTEX
  5
72F
  8
0
  6
CONTINUOUS
 62
     7
 10
101.7509692548
 20
-27.2874655885
 30
0.0
  0
VERTEX
  5
730
  8
0
  6
CONTINUOUS
 62
     7
 10
102.4412566064
 20
-27.3033122283
 30
0.0
  0
VERTEX
  5
731
  8
0
  6
CONTINUOUS
 62
     7
 10
103.0324482559
 20
-27.2943879229
 30
0.0
  0
VERTEX
  5
732
  8
0
  6
CONTINUOUS
 62
     7
 10
103.5141253112
 20
-27.2599371833
 30
0.0
  0
VERTEX
  5
733
  8
0
  6
CONTINUOUS
 62
     7
 10
103.8836741088
 20
-27.1983395082
 30
0.0
  0
VERTEX
  5
734
  8
0
  6
CONTINUOUS
 62
     7
 10
104.1344606517
 20
-27.1101671022
 30
0.0
  0
VERTEX
  5
735
  8
0
  6
CONTINUOUS
 62
     7
 10
104.262109959
 20
-26.9965979022
 30
0.0
  0
VERTEX
  5
736
  8
0
  6
CONTINUOUS
 62
     7
 10
104.2789929746
 20
-26.9275295299
 30
0.0
  0
SEQEND
  5
778
  8
0
  6
CONTINUOUS
 62
     7
  0
ARC
  5
271
  8
0
  6
CONTINUOUS
 62
     7
 10
69.3433844684
 20
-210.5985586084
 30
0.0
 40
185.7670902348648
 50
81.7361790473
 51
98.2638209527
  0
POLYLINE
  5
272
  8
0
  6
CONTINUOUS
 62
     7
 66
     1
 10
0.0
 20
0.0
 30
0.0
  0
VERTEX
  5
737
  8
0
  6
CONTINUOUS
 62
     7
 10
34.4077759622
 20
-26.9275295299
 30
0.0
  0
VERTEX
  5
738
  8
0
  6
CONTINUOUS
 62
     7
 10
34.4718628763
 20
-27.0550626081
 30
0.0
  0
VERTEX
  5
739
  8
0
  6
CONTINUOUS
 62
     7
 10
34.6618824838
 20
-27.1573605698
 30
0.0
  0
VERTEX
  5
73A
  8
0
  6
CONTINUOUS
 62
     7
 10
34.9744671224
 20
-27.2328520876
 30
0.0
  0
VERTEX
  5
73B
  8
0
  6
CONTINUOUS
 62
     7
 10
35.4085319875
 20
-27.2809135479
 30
0.0
  0
VERTEX
  5
73C
  8
0
  6
CONTINUOUS
 62
     7
 10
35.9587782262
 20
-27.3023362023
 30
0.0
  0
VERTEX
  5
73D
  8
0
  6
CONTINUOUS
 62
     7
 10
36.6152161001
 20
-27.29762371
 30
0.0
  0
VERTEX
  5
73E
  8
0
  6
CONTINUOUS
 62
     7
 10
37.3685830472
 20
-27.2677148444
 30
0.0
  0
VERTEX
  5
73F
  8
0
  6
CONTINUOUS
 62
     7
 10
38.2143967984
 20
-27.2143925291
 30
0.0
  0
VERTEX
  5
740
  8
0
  6
CONTINUOUS
 62
     7
 10
39.1368740438
 20
-27.1397548479
 30
0.0
  0
VERTEX
  5
741
  8
0
  6
CONTINUOUS
 62
     7
 10
40.118687713
 20
-27.0463111562
 30
0.0
  0
VERTEX
  5
742
  8
0
  6
CONTINUOUS
 62
     7
 10
41.158168876
 20
-26.9354800445
 30
0.0
  0
VERTEX
  5
743
  8
0
  6
CONTINUOUS
 62
     7
 10
42.2356420396
 20
-26.8101456326
 30
0.0
  0
VERTEX
  5
744
  8
0
  6
CONTINUOUS
 62
     7
 10
42.6428311704
 20
-26.7603355211
 30
0.0
  0
SEQEND
  5
777
  8
0
  6
CONTINUOUS
 62
     7
  0
LINE
  5
273
  8
0
  6
CONTINUOUS
 62
     7
 10
34.4077759622
 20
-22.4181155425
 30
0.0
 11
34.4077759622
 21
-26.9275295299
 31
0.0
  0
LINE
  5
274
  8
0
  6
CONTINUOUS
 62
     7
 10
104.2789929746
 20
-26.9275295299
 30
0.0
 11
104.2789929746
 21
-22.4196503621
 31
0.0
  0
POLYLINE
  5
275
  8
0
  6
CONTINUOUS
 62
     7
 66
     1
 10
0.0
 20
0.0
 30
0.0
  0
VERTEX
  5
745
  8
0
  6
CONTINUOUS
 62
     7
 10
109.402140343
 20
-25.7889571351
 30
0.0
  0
VERTEX
  5
746
  8
0
  6
CONTINUOUS
 62
     7
 10
109.3999230502
 20
-25.8973459464
 30
0.0
  0
VERTEX
  5
747
  8
0
  6
CONTINUOUS
 62
     7
 10
109.3392008184
 20
-26.3631398541
 30
0.0
  0
SEQEND
  5
776
  8
0
  6
CONTINUOUS
 62
     7
  0
LINE
  5
276
  8
0
  6
CONTINUOUS
 62
     7
 10
186.3433831571
 20
-26.2415247721
 30
0.0
 11
186.3433831571
 21
-28.9155388934
 31
0.0
  0
LINE
  5
277
  8
0
  6
CONTINUOUS
 62
     7
 10
192.3433833955
 20
-26.2460532349
 30
0.0
 11
192.3433833955
 21
-28.9155388934
 31
0.0
  0
ARC
  5
278
  8
0
  6
CONTINUOUS
 62
     7
 10
187.3433838723
 20
-30.3464511734
 30
0.0
 40
1.000000000000004
 50
180.0
 51
270.0
  0
LINE
  5
279
  8
0
  6
CONTINUOUS
 62
     7
 10
186.3433831571
 20
-28.9155388934
 30
0.0
 11
186.3433831571
 21
-30.3464512092
 31
0.0
  0
LINE
  5
27A
  8
0
  6
CONTINUOUS
 62
     7
 10
191.3433843492
 20
-31.3464510006
 30
0.0
 11
187.3433822034
 21
-31.3464510006
 31
0.0
  0
ARC
  5
27B
  8
0
  6
CONTINUOUS
 62
     7
 10
191.3433838723
 20
-30.3464511734
 30
0.0
 40
1.000000000000004
 50
270.0
 51
0.0
  0
LINE
  5
27C
  8
0
  6
CONTINUOUS
 62
     7
 10
192.3433833955
 20
-28.9155388934
 30
0.0
 11
192.3433833955
 21
-30.3464512092
 31
0.0
  0
LINE
  5
27D
  8
0
  6
CONTINUOUS
 62
     7
 10
207.3433810113
 20
-32.3464511645
 30
0.0
 11
207.3433810113
 21
-41.9464512479
 31
0.0
  0
LINE
  5
27E
  8
0
  6
CONTINUOUS
 62
     7
 10
171.343382561
 20
-32.3464511645
 30
0.0
 11
171.343382561
 21
-41.9464512479
 31
0.0
  0
LINE
  5
27F
  8
0
  6
CONTINUOUS
 62
     7
 10
207.3433810113
 20
-42.9464510393
 30
0.0
 11
171.343382561
 21
-42.9464510393
 31
0.0
  0
LINE
  5
280
  8
0
  6
CONTINUOUS
 62
     7
 10
207.3433810113
 20
-41.9464512479
 30
0.0
 11
207.3433810113
 21
-42.9464510393
 31
0.0
  0
LINE
  5
281
  8
0
  6
CONTINUOUS
 62
     7
 10
171.343382561
 20
-41.9464512479
 30
0.0
 11
171.343382561
 21
-42.9464510393
 31
0.0
  0
LINE
  5
282
  8
0
  6
CONTINUOUS
 62
     7
 10
187.3433822034
 20
-31.3464510006
 30
0.0
 11
171.343382561
 21
-31.3464510006
 31
0.0
  0
LINE
  5
283
  8
0
  6
CONTINUOUS
 62
     7
 10
207.3433810113
 20
-31.3464510006
 30
0.0
 11
191.3433843492
 21
-31.3464510006
 31
0.0
  0
LINE
  5
284
  8
0
  6
CONTINUOUS
 62
     7
 10
207.3433810113
 20
-31.3464510006
 30
0.0
 11
207.3433810113
 21
-32.3464511645
 31
0.0
  0
LINE
  5
285
  8
0
  6
CONTINUOUS
 62
     7
 10
171.343382561
 20
-31.3464510006
 30
0.0
 11
171.343382561
 21
-32.3464511645
 31
0.0
  0
LINE
  5
286
  8
0
  6
CONTINUOUS
 62
     7
 10
72.3433845876
 20
-26.2460532349
 30
0.0
 11
72.3433845876
 21
-28.9155388934
 31
0.0
  0
LINE
  5
287
  8
0
  6
CONTINUOUS
 62
     7
 10
66.3433843492
 20
-26.2415247721
 30
0.0
 11
66.3433843492
 21
-28.9155388934
 31
0.0
  0
ARC
  5
288
  8
0
  6
CONTINUOUS
 62
     7
 10
71.3433838723
 20
-30.3464511734
 30
0.0
 40
1.000000000000004
 50
270.0
 51
0.0
  0
LINE
  5
289
  8
0
  6
CONTINUOUS
 62
     7
 10
72.3433845876
 20
-28.9155388934
 30
0.0
 11
72.3433845876
 21
-30.3464512092
 31
0.0
  0
ARC
  5
28A
  8
0
  6
CONTINUOUS
 62
     7
 10
67.3433838723
 20
-30.3464511734
 30
0.0
 40
1.000000000000004
 50
180.0
 51
270.0
  0
LINE
  5
28B
  8
0
  6
CONTINUOUS
 62
     7
 10
66.3433843492
 20
-28.9155388934
 30
0.0
 11
66.3433843492
 21
-30.3464512092
 31
0.0
  0
LINE
  5
28C
  8
0
  6
CONTINUOUS
 62
     7
 10
71.3433855413
 20
-31.3464510006
 30
0.0
 11
67.3433833955
 21
-31.3464510006
 31
0.0
  0
LINE
  5
28D
  8
0
  6
CONTINUOUS
 62
     7
 10
87.3433851836
 20
-32.3464511645
 30
0.0
 11
87.3433851836
 21
-34.5242568043
 31
0.0
  0
LINE
  5
28E
  8
0
  6
CONTINUOUS
 62
     7
 10
51.3433867334
 20
-32.3464511645
 30
0.0
 11
51.3433867334
 21
-34.5292453405
 31
0.0
  0
LINE
  5
28F
  8
0
  6
CONTINUOUS
 62
     7
 10
67.3433833955
 20
-31.3464510006
 30
0.0
 11
51.3433867334
 21
-31.3464510006
 31
0.0
  0
LINE
  5
290
  8
0
  6
CONTINUOUS
 62
     7
 10
87.3433851836
 20
-31.3464510006
 30
0.0
 11
71.3433855413
 21
-31.3464510006
 31
0.0
  0
LINE
  5
291
  8
0
  6
CONTINUOUS
 62
     7
 10
87.3433851836
 20
-31.3464510006
 30
0.0
 11
87.3433851836
 21
-32.3464511645
 31
0.0
  0
LINE
  5
292
  8
0
  6
CONTINUOUS
 62
     7
 10
51.3433867334
 20
-31.3464510006
 30
0.0
 11
51.3433867334
 21
-32.3464511645
 31
0.0
  0
LINE
  5
293
  8
0
  6
CONTINUOUS
 62
     7
 10
214.6753126024
 20
-117.0400674206
 30
0.0
 11
214.5640664933
 21
-117.0464510781
 31
0.0
  0
ARC
  5
294
  8
0
  6
CONTINUOUS
 62
     7
 10
214.2038046704
 20
-102.1402844235
 30
0.0
 40
10.07562402994024
 50
280.5231071452
 51
0.5335843978
  0
POLYLINE
  5
295
  8
0
  6
CONTINUOUS
 62
     7
 66
     1
 10
0.0
 20
0.0
 30
0.0
  0
VERTEX
  5
748
  8
0
  6
CONTINUOUS
 62
     7
 10
152.6433834074
 20
-55.0826559526
 30
0.0
  0
VERTEX
  5
749
  8
0
  6
CONTINUOUS
 62
     7
 10
152.1110841273
 20
-55.7814727289
 30
0.0
  0
VERTEX
  5
74A
  8
0
  6
CONTINUOUS
 62
     7
 10
151.6433843611
 20
-56.5349261028
 30
0.0
  0
SEQEND
  5
775
  8
0
  6
CONTINUOUS
 62
     7
  0
LINE
  5
296
  8
0
  6
CONTINUOUS
 62
     7
 10
163.9991634725
 20
-47.0517906112
 30
0.0
 11
164.1227030395
 21
-47.0464515251
 31
0.0
  0
ARC
  5
297
  8
0
  6
CONTINUOUS
 62
     7
 10
164.4829637839
 20
-61.9526175385
 30
0.0
 40
10.07562594450488
 50
100.5231161222
 51
180.5335921794
  0
POLYLINE
  5
298
  8
0
  6
CONTINUOUS
 62
     7
 66
     1
 10
0.0
 20
0.0
 30
0.0
  0
VERTEX
  5
74B
  8
0
  6
CONTINUOUS
 62
     7
 10
226.0433846353
 20
-55.0826559526
 30
0.0
  0
VERTEX
  5
74C
  8
0
  6
CONTINUOUS
 62
     7
 10
226.5756839155
 20
-55.7814727289
 30
0.0
  0
VERTEX
  5
74D
  8
0
  6
CONTINUOUS
 62
     7
 10
227.0433836816
 20
-56.5349261028
 30
0.0
  0
SEQEND
  5
774
  8
0
  6
CONTINUOUS
 62
     7
  0
ARC
  5
299
  8
0
  6
CONTINUOUS
 62
     7
 10
214.2215416014
 20
-61.9380095109
 30
0.0
 40
10.05803477123321
 50
359.3822554468
 51
79.5610362516
  0
LINE
  5
29A
  8
0
  6
CONTINUOUS
 62
     7
 10
164.1227030395
 20
-117.0464510781
 30
0.0
 11
164.0295648216
 21
-117.0411939484
 31
0.0
  0
ARC
  5
29B
  8
0
  6
CONTINUOUS
 62
     7
 10
164.4652180436
 20
-102.1548965778
 30
0.0
 40
10.05802789364262
 50
179.3822394123
 51
259.5610690447
  0
LINE
  5
29C
  8
0
  6
CONTINUOUS
 62
     7
 10
154.4077747701
 20
-62.046449886
 30
0.0
 11
154.4077747701
 21
-102.0464534623
 31
0.0
  0
LINE
  5
29D
  8
0
  6
CONTINUOUS
 62
     7
 10
224.2789917825
 20
-102.0464534623
 30
0.0
 11
224.2789917825
 21
-62.046449886
 31
0.0
  0
LINE
  5
29E
  8
0
  6
CONTINUOUS
 62
     7
 10
226.0433846353
 20
-38.13732236
 30
0.0
 11
226.0433846353
 21
-55.0826559526
 31
0.0
  0
LINE
  5
29F
  8
0
  6
CONTINUOUS
 62
     7
 10
227.0433836816
 20
-38.13732236
 30
0.0
 11
227.0433836816
 21
-56.5349261028
 31
0.0
  0
LINE
  5
2A0
  8
0
  6
CONTINUOUS
 62
     7
 10
151.6433843611
 20
-38.13732236
 30
0.0
 11
151.6433843611
 21
-56.5349261028
 31
0.0
  0
LINE
  5
2A1
  8
0
  6
CONTINUOUS
 62
     7
 10
152.6433834074
 20
-38.13732236
 30
0.0
 11
152.6433834074
 21
-55.0826559526
 31
0.0
  0
LINE
  5
2A2
  8
0
  6
CONTINUOUS
 62
     7
 10
162.6428299783
 20
-112.046449886
 30
0.0
 11
216.0439365743
 21
-112.046449886
 31
0.0
  0
LINE
  5
2A3
  8
0
  6
CONTINUOUS
 62
     7
 10
162.6428299783
 20
-52.046450482
 30
0.0
 11
216.0439365743
 21
-52.046450482
 31
0.0
  0
LINE
  5
2A4
  8
0
  6
CONTINUOUS
 62
     7
 10
164.1227030395
 20
-47.0464515251
 30
0.0
 11
214.5640664933
 21
-47.0464515251
 31
0.0
  0
LINE
  5
2A5
  8
0
  6
CONTINUOUS
 62
     7
 10
214.5640664933
 20
-117.0464510781
 30
0.0
 11
164.1227030395
 21
-117.0464510781
 31
0.0
  0
LINE
  5
2A6
  8
0
  6
CONTINUOUS
 62
     7
 10
34.4077759622
 20
-34.256698632
 30
0.0
 11
34.4077759622
 21
-37.1791069846
 31
0.0
  0
POLYLINE
  5
2A7
  8
0
  6
CONTINUOUS
 62
     7
 66
     1
 10
0.0
 20
0.0
 30
0.0
  0
VERTEX
  5
74E
  8
0
  6
CONTINUOUS
 62
     7
 10
42.6428311704
 20
-34.7761231226
 30
0.0
  0
VERTEX
  5
74F
  8
0
  6
CONTINUOUS
 62
     7
 10
41.5616744397
 20
-34.6373521474
 30
0.0
  0
VERTEX
  5
750
  8
0
  6
CONTINUOUS
 62
     7
 10
40.5128889917
 20
-34.5078098339
 30
0.0
  0
VERTEX
  5
751
  8
0
  6
CONTINUOUS
 62
     7
 10
39.5160489915
 20
-34.3906239358
 30
0.0
  0
VERTEX
  5
752
  8
0
  6
CONTINUOUS
 62
     7
 10
38.5811262964
 20
-34.2878832233
 30
0.0
  0
VERTEX
  5
753
  8
0
  6
CONTINUOUS
 62
     7
 10
37.7158099054
 20
-34.2013801199
 30
0.0
  0
VERTEX
  5
754
  8
0
  6
CONTINUOUS
 62
     7
 10
36.935799682
 20
-34.1337443081
 30
0.0
  0
VERTEX
  5
755
  8
0
  6
CONTINUOUS
 62
     7
 10
36.2455123304
 20
-34.0867348698
 30
0.0
  0
VERTEX
  5
756
  8
0
  6
CONTINUOUS
 62
     7
 10
35.6543177007
 20
-34.0619436216
 30
0.0
  0
VERTEX
  5
757
  8
0
  6
CONTINUOUS
 62
     7
 10
35.1726406453
 20
-34.0607576755
 30
0.0
  0
VERTEX
  5
758
  8
0
  6
CONTINUOUS
 62
     7
 10
34.8030978082
 20
-34.084752084
 30
0.0
  0
VERTEX
  5
759
  8
0
  6
CONTINUOUS
 62
     7
 10
34.5523053048
 20
-34.1340637517
 30
0.0
  0
VERTEX
  5
75A
  8
0
  6
CONTINUOUS
 62
     7
 10
34.4246559976
 20
-34.2082359579
 30
0.0
  0
VERTEX
  5
75B
  8
0
  6
CONTINUOUS
 62
     7
 10
34.4077759622
 20
-34.256698632
 30
0.0
  0
SEQEND
  5
773
  8
0
  6
CONTINUOUS
 62
     7
  0
ARC
  5
2A8
  8
0
  6
CONTINUOUS
 62
     7
 10
69.3433844684
 20
148.3833013654
 30
0.0
 40
185.0953654881219
 50
261.7059781721
 51
278.2940218279
  0
POLYLINE
  5
2A9
  8
0
  6
CONTINUOUS
 62
     7
 66
     1
 10
0.0
 20
0.0
 30
0.0
  0
VERTEX
  5
75C
  8
0
  6
CONTINUOUS
 62
     7
 10
104.2789929746
 20
-34.256698632
 30
0.0
  0
VERTEX
  5
75D
  8
0
  6
CONTINUOUS
 62
     7
 10
104.2149060605
 20
-34.1690419924
 30
0.0
  0
VERTEX
  5
75E
  8
0
  6
CONTINUOUS
 62
     7
 10
104.024886453
 20
-34.1063325045
 30
0.0
  0
VERTEX
  5
75F
  8
0
  6
CONTINUOUS
 62
     7
 10
103.7123018144
 20
-34.0693938297
 30
0.0
  0
VERTEX
  5
760
  8
0
  6
CONTINUOUS
 62
     7
 10
103.278233969
 20
-34.0584535834
 30
0.0
  0
VERTEX
  5
761
  8
0
  6
CONTINUOUS
 62
     7
 10
102.7279877303
 20
-34.0723865417
 30
0.0
  0
VERTEX
  5
762
  8
0
  6
CONTINUOUS
 62
     7
 10
102.0715528367
 20
-34.1100063858
 30
0.0
  0
VERTEX
  5
763
  8
0
  6
CONTINUOUS
 62
     7
 10
101.3181858896
 20
-34.1698343617
 30
0.0
  0
VERTEX
  5
764
  8
0
  6
CONTINUOUS
 62
     7
 10
100.4723721383
 20
-34.2500318524
 30
0.0
  0
VERTEX
  5
765
  8
0
  6
CONTINUOUS
 62
     7
 10
99.549894893
 20
-34.3479730871
 30
0.0
  0
VERTEX
  5
766
  8
0
  6
CONTINUOUS
 62
     7
 10
98.5680782436
 20
-34.4606890094
 30
0.0
  0
VERTEX
  5
767
  8
0
  6
CONTINUOUS
 62
     7
 10
97.5286000608
 20
-34.5868599352
 30
0.0
  0
VERTEX
  5
768
  8
0
  6
CONTINUOUS
 62
     7
 10
96.4511239169
 20
-34.7233037216
 30
0.0
  0
VERTEX
  5
769
  8
0
  6
CONTINUOUS
 62
     7
 10
96.0439377664
 20
-34.7761231226
 30
0.0
  0
SEQEND
  5
772
  8
0
  6
CONTINUOUS
 62
     7
  0
LINE
  5
2AA
  8
0
  6
CONTINUOUS
 62
     7
 10
104.2789929746
 20
-37.1805239453
 30
0.0
 11
104.2789929746
 21
-34.256698632
 31
0.0
  0
POLYLINE
  5
2AB
  8
0
  6
CONTINUOUS
 62
     7
 66
     1
 10
0.0
 20
0.0
 30
0.0
  0
VERTEX
  5
76A
  8
0
  6
CONTINUOUS
 62
     7
 10
109.402140343
 20
-35.3994559248
 30
0.0
  0
VERTEX
  5
76B
  8
0
  6
CONTINUOUS
 62
     7
 10
109.3999230502
 20
-35.2906687868
 30
0.0
  0
VERTEX
  5
76C
  8
0
  6
CONTINUOUS
 62
     7
 10
109.3392008184
 20
-34.8231625494
 30
0.0
  0
SEQEND
  5
771
  8
0
  6
CONTINUOUS
 62
     7
  0
POLYLINE
  5
2AC
  8
0
  6
CONTINUOUS
 62
     7
 66
     1
 10
0.0
 20
0.0
 30
0.0
  0
VERTEX
  5
76D
  8
0
  6
CONTINUOUS
 62
     7
 10
29.3475681184
 20
-34.8231625494
 30
0.0
  0
VERTEX
  5
76E
  8
0
  6
CONTINUOUS
 62
     7
 10
29.2868429063
 20
-35.2906687868
 30
0.0
  0
VERTEX
  5
76F
  8
0
  6
CONTINUOUS
 62
     7
 10
29.2846256135
 20
-35.3994559248
 30
0.0
  0
SEQEND
  5
770
  8
0
  6
CONTINUOUS
 62
     7
  0
LINE
  5
2AD
  8
0
  6
CONTINUOUS
 62
     7
 10
32.6433831094
 20
-42.2917864037
 30
0.0
 11
32.6433831094
 21
-43.1351261896
 31
0.0
  0
LINE
  5
2AE
  8
0
  6
CONTINUOUS
 62
     7
 10
31.6433840631
 20
-41.8828977954
 30
0.0
 11
31.6433840631
 21
-43.1351261896
 31
0.0
  0
LINE
  5
2AF
  8
0
  6
CONTINUOUS
 62
     7
 10
106.0433843373
 20
-42.292792232
 30
0.0
 11
106.0433843373
 21
-43.1351261896
 31
0.0
  0
LINE
  5
2B0
  8
0
  6
CONTINUOUS
 62
     7
 10
107.0433833836
 20
-41.8860192162
 30
0.0
 11
107.0433833836
 21
-43.1351261896
 31
0.0
  0
LINE
  5
2B1
  8
0
  6
CONTINUOUS
 62
     7
 10
106.0433843373
 20
-31.2639782888
 30
0.0
 11
106.0433843373
 21
-32.492082448
 31
0.0
  0
LINE
  5
2B2
  8
0
  6
CONTINUOUS
 62
     7
 10
107.0433833836
 20
-31.2639782888
 30
0.0
 11
107.0433833836
 21
-32.6073492628
 31
0.0
  0
LINE
  5
2B3
  8
0
  6
CONTINUOUS
 62
     7
 10
32.6433831094
 20
-31.2639782888
 30
0.0
 11
32.6433831094
 21
-32.494199903
 31
0.0
  0
LINE
  5
2B4
  8
0
  6
CONTINUOUS
 62
     7
 10
31.6433840631
 20
-31.2639782888
 30
0.0
 11
31.6433840631
 21
-32.6092610818
 31
0.0
  0
LINE
  5
2B5
  8
0
  6
CONTINUOUS
 62
     7
 10
227.3433857797
 20
-31.4326441598
 30
0.0
 11
227.3433857797
 21
-43.446450935
 31
0.0
  0
LINE
  5
2B6
  8
0
  6
CONTINUOUS
 62
     7
 10
230.7433896898
 20
-31.4326441598
 30
0.0
 11
230.7433896898
 21
-43.446450935
 31
0.0
  0
LINE
  5
2B7
  8
0
  6
CONTINUOUS
 62
     7
 10
209.9433833001
 20
-31.0464511377
 30
0.0
 11
209.9433833001
 21
-43.046451242
 31
0.0
  0
LINE
  5
2B8
  8
0
  6
CONTINUOUS
 62
     7
 10
227.3433857797
 20
-28.446451084
 30
0.0
 11
227.3433857797
 21
-31.4326441598
 31
0.0
  0
LINE
  5
2B9
  8
0
  6
CONTINUOUS
 62
     7
 10
230.7433896898
 20
-28.446451084
 30
0.0
 11
230.7433896898
 21
-31.4326441598
 31
0.0
  0
LINE
  5
2BA
  8
0
  6
CONTINUOUS
 62
     7
 10
107.3433839916
 20
-31.4326441598
 30
0.0
 11
107.3433839916
 21
-32.6635683638
 31
0.0
  0
LINE
  5
2BB
  8
0
  6
CONTINUOUS
 62
     7
 10
107.3433839916
 20
-41.7320891035
 30
0.0
 11
107.3433839916
 21
-43.446450935
 31
0.0
  0
LINE
  5
2BC
  8
0
  6
CONTINUOUS
 62
     7
 10
110.7433834313
 20
-31.4326441598
 30
0.0
 11
110.7433834313
 21
-43.446450935
 31
0.0
  0
LINE
  5
2BD
  8
0
  6
CONTINUOUS
 62
     7
 10
89.9433844922
 20
-31.0464511377
 30
0.0
 11
89.9433844922
 21
-34.2504464772
 31
0.0
  0
LINE
  5
2BE
  8
0
  6
CONTINUOUS
 62
     7
 10
107.3433839916
 20
-28.446451084
 30
0.0
 11
107.3433839916
 21
-31.4326441598
 31
0.0
  0
LINE
  5
2BF
  8
0
  6
CONTINUOUS
 62
     7
 10
110.7433834313
 20
-28.446451084
 30
0.0
 11
110.7433834313
 21
-31.4326441598
 31
0.0
  0
LINE
  5
2C0
  8
0
  6
CONTINUOUS
 62
     7
 10
27.9433780549
 20
-31.4326441598
 30
0.0
 11
27.9433780549
 21
-43.446450935
 31
0.0
  0
LINE
  5
2C1
  8
0
  6
CONTINUOUS
 62
     7
 10
31.343381965
 20
-31.4326441598
 30
0.0
 11
31.343381965
 21
-32.665951432
 31
0.0
  0
LINE
  5
2C2
  8
0
  6
CONTINUOUS
 62
     7
 10
31.343381965
 20
-41.7360893202
 30
0.0
 11
31.343381965
 21
-43.446450935
 31
0.0
  0
LINE
  5
2C3
  8
0
  6
CONTINUOUS
 62
     7
 10
48.7433844446
 20
-31.0464511377
 30
0.0
 11
48.7433844446
 21
-34.2528973457
 31
0.0
  0
LINE
  5
2C4
  8
0
  6
CONTINUOUS
 62
     7
 10
27.9433780549
 20
-28.446451084
 30
0.0
 11
27.9433780549
 21
-31.4326441598
 31
0.0
  0
LINE
  5
2C5
  8
0
  6
CONTINUOUS
 62
     7
 10
31.343381965
 20
-28.557645784
 30
0.0
 11
31.343381965
 21
-31.4326441598
 31
0.0
  0
LINE
  5
2C6
  8
0
  6
CONTINUOUS
 62
     7
 10
151.3433837531
 20
-31.4326441598
 30
0.0
 11
151.3433837531
 21
-43.446450935
 31
0.0
  0
LINE
  5
2C7
  8
0
  6
CONTINUOUS
 62
     7
 10
147.9433843134
 20
-31.4326441598
 30
0.0
 11
147.9433843134
 21
-43.446450935
 31
0.0
  0
LINE
  5
2C8
  8
0
  6
CONTINUOUS
 62
     7
 10
168.7433832525
 20
-31.0464511377
 30
0.0
 11
168.7433832525
 21
-43.046451242
 31
0.0
  0
LINE
  5
2C9
  8
0
  6
CONTINUOUS
 62
     7
 10
151.3433837531
 20
-28.557645784
 30
0.0
 11
151.3433837531
 21
-31.4326441598
 31
0.0
  0
LINE
  5
2CA
  8
0
  6
CONTINUOUS
 62
     7
 10
147.9433843134
 20
-28.446451084
 30
0.0
 11
147.9433843134
 21
-31.4326441598
 31
0.0
  0
ENDSEC
  0
EOF
