  0
SECTION
  2
HEADER
  9
$ACADVER
  1
AC1021
  9
$ACADMAINTVER
 70
    25
  9
$DWGCODEPAGE
  3
ANSI_1252
  9
$INSBASE
 10
0.0
 20
0.0
 30
0.0
  9
$EXTMIN
 10
0.0
 20
0.0
 30
0.0
  9
$EXTMAX
 10
2100.0
 20
1485.0
 30
0.0
  9
$LIMMIN
 10
0.0
 20
0.0
  9
$LIMMAX
 10
2100.0
 20
1485.0
  9
$ORTHOMODE
 70
     0
  9
$REGENMODE
 70
     1
  9
$FILLMODE
 70
     1
  9
$QTEXTMODE
 70
     0
  9
$MIRRTEXT
 70
     1
  9
$LTSCALE
 40
5.0
  9
$ATTMODE
 70
     1
  9
$TEXTSIZE
 40
17.5
  9
$TRACEWID
 40
1.0
  9
$TEXTSTYLE
  7
Standard
  9
$CLAYER
  8
0
  9
$CELTYPE
  6
ByLayer
  9
$CECOLOR
 62
   256
  9
$CELTSCALE
 40
1.0
  9
$DISPSILH
 70
     0
  9
$DIMSCALE
 40
1.0
  9
$DIMASZ
 40
20.0
  9
$DIMEXO
 40
0.0
  9
$DIMDLI
 40
3.75
  9
$DIMRND
 40
0.0
  9
$DIMDLE
 40
0.0
  9
$DIMEXE
 40
10.0
  9
$DIMTP
 40
0.0
  9
$DIMTM
 40
0.0
  9
$DIMTXT
 40
17.5
  9
$DIMCEN
 40
2.5
  9
$DIMTSZ
 40
0.0
  9
$DIMTOL
 70
     0
  9
$DIMLIM
 70
     0
  9
$DIMTIH
 70
     1
  9
$DIMTOH
 70
     1
  9
$DIMSE1
 70
     0
  9
$DIMSE2
 70
     0
  9
$DIMTAD
 70
     1
  9
$DIMZIN
 70
     0
  9
$DIMBLK
  1

  9
$DIMASO
 70
     1
  9
$DIMSHO
 70
     1
  9
$DIMPOST
  1

  9
$DIMAPOST
  1

  9
$DIMALT
 70
     0
  9
$DIMALTD
 70
     3
  9
$DIMALTF
 40
0.0393700787
  9
$DIMLFAC
 40
1.0
  9
$DIMTOFL
 70
     1
  9
$DIMTVP
 40
0.0
  9
$DIMTIX
 70
     0
  9
$DIMSOXD
 70
     0
  9
$DIMSAH
 70
     0
  9
$DIMBLK1
  1

  9
$DIMBLK2
  1

  9
$DIMSTYLE
  2
ISO-25
  9
$DIMCLRD
 70
     0
  9
$DIMCLRE
 70
     0
  9
$DIMCLRT
 70
     0
  9
$DIMTFAC
 40
1.0
  9
$DIMGAP
 40
7.62
  9
$DIMJUST
 70
     0
  9
$DIMSD1
 70
     0
  9
$DIMSD2
 70
     0
  9
$DIMTOLJ
 70
     0
  9
$DIMTZIN
 70
     0
  9
$DIMALTZ
 70
     0
  9
$DIMALTTZ
 70
     0
  9
$DIMUPT
 70
     0
  9
$DIMDEC
 70
     2
  9
$DIMTDEC
 70
     2
  9
$DIMALTU
 70
     2
  9
$DIMALTTD
 70
     3
  9
$DIMTXSTY
  7
Standard
  9
$DIMAUNIT
 70
     0
  9
$DIMADEC
 70
     2
  9
$DIMALTRND
 40
0.0
  9
$DIMAZIN
 70
     0
  9
$DIMDSEP
 70
    44
  9
$DIMATFIT
 70
     3
  9
$DIMFRAC
 70
     0
  9
$DIMLDRBLK
  1

  9
$DIMLUNIT
 70
     2
  9
$DIMLWD
 70
    -2
  9
$DIMLWE
 70
    -2
  9
$DIMTMOVE
 70
     0
  9
$DIMFXL
 40
1.0
  9
$DIMFXLON
 70
     0
  9
$DIMJOGANG
 40
0.7853981634
  9
$DIMTFILL
 70
     0
  9
$DIMTFILLCLR
 70
     0
  9
$DIMARCSYM
 70
     0
  9
$DIMLTYPE
  6

  9
$DIMLTEX1
  6

  9
$DIMLTEX2
  6

  9
$LUNITS
 70
     2
  9
$LUPREC
 70
     2
  9
$SKETCHINC
 40
1.0
  9
$FILLETRAD
 40
10.0
  9
$AUNITS
 70
     0
  9
$AUPREC
 70
     2
  9
$MENU
  1
.
  9
$ELEVATION
 40
0.0
  9
$PELEVATION
 40
0.0
  9
$THICKNESS
 40
0.0
  9
$LIMCHECK
 70
     0
  9
$CHAMFERA
 40
10.0
  9
$CHAMFERB
 40
10.0
  9
$CHAMFERC
 40
20.0
  9
$CHAMFERD
 40
0.0
  9
$SKPOLY
 70
     0
  9
$TDCREATE
 40
2458117.648618808
  9
$TDUCREATE
 40
2458117.606952141
  9
$TDUPDATE
 40
2458117.648620602
  9
$TDUUPDATE
 40
2458117.606953935
  9
$TDINDWG
 40
0.0000000116
  9
$TDUSRTIMER
 40
0.0000000116
  9
$USRTIMER
 70
     1
  9
$ANGBASE
 50
0.0
  9
$ANGDIR
 70
     0
  9
$PDMODE
 70
     0
  9
$PDSIZE
 40
-1.0
  9
$PLINEWID
 40
0.0
  9
$SPLFRAME
 70
     0
  9
$SPLINETYPE
 70
     6
  9
$SPLINESEGS
 70
     8
  9
$HANDSEED
  5
251
  9
$SURFTAB1
 70
     6
  9
$SURFTAB2
 70
     6
  9
$SURFTYPE
 70
     6
  9
$SURFU
 70
     6
  9
$SURFV
 70
     6
  9
$UCSBASE
  2

  9
$UCSNAME
  2

  9
$UCSORG
 10
0.0
 20
0.0
 30
0.0
  9
$UCSXDIR
 10
1.0
 20
0.0
 30
0.0
  9
$UCSYDIR
 10
0.0
 20
1.0
 30
0.0
  9
$UCSORTHOREF
  2

  9
$UCSORTHOVIEW
 70
     0
  9
$UCSORGTOP
 10
0.0
 20
0.0
 30
0.0
  9
$UCSORGBOTTOM
 10
0.0
 20
0.0
 30
0.0
  9
$UCSORGLEFT
 10
0.0
 20
0.0
 30
0.0
  9
$UCSORGRIGHT
 10
0.0
 20
0.0
 30
0.0
  9
$UCSORGFRONT
 10
0.0
 20
0.0
 30
0.0
  9
$UCSORGBACK
 10
0.0
 20
0.0
 30
0.0
  9
$PUCSBASE
  2

  9
$PUCSNAME
  2

  9
$PUCSORG
 10
0.0
 20
0.0
 30
0.0
  9
$PUCSXDIR
 10
1.0
 20
0.0
 30
0.0
  9
$PUCSYDIR
 10
0.0
 20
1.0
 30
0.0
  9
$PUCSORTHOREF
  2

  9
$PUCSORTHOVIEW
 70
     0
  9
$PUCSORGTOP
 10
0.0
 20
0.0
 30
0.0
  9
$PUCSORGBOTTOM
 10
0.0
 20
0.0
 30
0.0
  9
$PUCSORGLEFT
 10
0.0
 20
0.0
 30
0.0
  9
$PUCSORGRIGHT
 10
0.0
 20
0.0
 30
0.0
  9
$PUCSORGFRONT
 10
0.0
 20
0.0
 30
0.0
  9
$PUCSORGBACK
 10
0.0
 20
0.0
 30
0.0
  9
$USERI1
 70
     0
  9
$USERI2
 70
     0
  9
$USERI3
 70
     0
  9
$USERI4
 70
     0
  9
$USERI5
 70
     0
  9
$USERR1
 40
0.0
  9
$USERR2
 40
0.0
  9
$USERR3
 40
0.0
  9
$USERR4
 40
0.0
  9
$USERR5
 40
0.0
  9
$WORLDVIEW
 70
     1
  9
$SHADEDGE
 70
     3
  9
$SHADEDIF
 70
    70
  9
$TILEMODE
 70
     1
  9
$MAXACTVP
 70
    64
  9
$PINSBASE
 10
0.0
 20
0.0
 30
0.0
  9
$PLIMCHECK
 70
     0
  9
$PEXTMIN
 10
1.0000000000E+20
 20
1.0000000000E+20
 30
1.0000000000E+20
  9
$PEXTMAX
 10
-1.0000000000E+20
 20
-1.0000000000E+20
 30
-1.0000000000E+20
  9
$PLIMMIN
 10
0.0
 20
0.0
  9
$PLIMMAX
 10
420.0
 20
297.0
  9
$UNITMODE
 70
     0
  9
$VISRETAIN
 70
     1
  9
$PLINEGEN
 70
     0
  9
$PSLTSCALE
 70
     1
  9
$TREEDEPTH
 70
  3020
  9
$CMLSTYLE
  2
Standard
  9
$CMLJUST
 70
     0
  9
$CMLSCALE
 40
20.0
  9
$PROXYGRAPHICS
 70
     1
  9
$MEASUREMENT
 70
     1
  9
$CELWEIGHT
370
    -1
  9
$ENDCAPS
280
     0
  9
$JOINSTYLE
280
     0
  9
$LWDISPLAY
290
     1
  9
$INSUNITS
 70
     4
  9
$HYPERLINKBASE
  1

  9
$STYLESHEET
  1

  9
$XEDIT
290
     1
  9
$CEPSNTYPE
380
     0
  9
$PSTYLEMODE
290
     1
  9
$FINGERPRINTGUID
  2
{AA85E84C-EE4C-4B91-860A-6578A65DF2BB}
  9
$VERSIONGUID
  2
{FAEB1C32-E019-11D5-929B-00C0DF256EC4}
  9
$EXTNAMES
290
     1
  9
$PSVPSCALE
 40
0.0
  9
$OLESTARTUP
290
     0
  9
$SORTENTS
280
   127
  9
$INDEXCTL
280
     0
  9
$HIDETEXT
280
     1
  9
$XCLIPFRAME
290
     0
  9
$HALOGAP
280
     0
  9
$OBSCOLOR
 70
   257
  9
$OBSLTYPE
280
     0
  9
$INTERSECTIONDISPLAY
280
     0
  9
$INTERSECTIONCOLOR
 70
   257
  9
$DIMASSOC
280
     2
  9
$PROJECTNAME
  1

  9
$CAMERADISPLAY
290
     0
  9
$LENSLENGTH
 40
50.0
  9
$CAMERAHEIGHT
 40
0.0
  9
$STEPSPERSEC
 40
2.0
  9
$STEPSIZE
 40
6.0
  9
$3DDWFPREC
 40
2.0
  9
$PSOLWIDTH
 40
5.0
  9
$PSOLHEIGHT
 40
80.0
  9
$LOFTANG1
 40
1.5707963268
  9
$LOFTANG2
 40
1.5707963268
  9
$LOFTMAG1
 40
0.0
  9
$LOFTMAG2
 40
0.0
  9
$LOFTPARAM
 70
     7
  9
$LOFTNORMALS
280
     1
  9
$LATITUDE
 40
37.795
  9
$LONGITUDE
 40
-122.394
  9
$NORTHDIRECTION
 40
0.0
  9
$TIMEZONE
 70
 -8000
  9
$LIGHTGLYPHDISPLAY
280
     1
  9
$TILEMODELIGHTSYNCH
280
     1
  9
$SOLIDHIST
280
     1
  9
$SHOWHIST
280
     1
  9
$DWFFRAME
280
     2
  9
$DGNFRAME
280
     2
  9
$REALWORLDSCALE
290
     1
  9
$INTERFERECOLOR
 62
   256
  9
$CSHADOW
280
     0
  9
$SHADOWPLANELOCATION
 40
0.0
  0
ENDSEC
  0
SECTION
  2
CLASSES
  0
CLASS
  1
ACDBDICTIONARYWDFLT
  2
AcDbDictionaryWithDefault
  3
ObjectDBX Classes
 90
        0
 91
        4
280
     0
281
     0
  0
CLASS
  1
VISUALSTYLE
  2
AcDbVisualStyle
  3
ObjectDBX Classes
 90
     4095
 91
        4
280
     0
281
     0
  0
CLASS
  1
MATERIAL
  2
AcDbMaterial
  3
ObjectDBX Classes
 90
     1153
 91
        4
280
     0
281
     0
  0
ENDSEC
  0
SECTION
  2
TABLES
  0
TABLE
  2
VPORT
  5
8
330
0
100
AcDbSymbolTable
 70
     1
  0
VPORT
  5
29
330
8
100
AcDbSymbolTableRecord
100
AcDbViewportTableRecord
  2
*Active
 70
     0
 10
0.0
 20
0.0
 11
1.0
 21
1.0
 12
1050.0
 22
742.5
 13
0.0
 23
0.0
 14
10.0
 24
10.0
 15
10.0
 25
10.0
 16
0.0
 26
0.0
 36
1.0
 17
0.0
 27
0.0
 37
0.0
 40
1485.0
 41
1.4141414141
 42
50.0
 43
0.0
 44
0.0
 50
0.0
 51
0.0
 71
     0
 72
  2000
 73
     1
 74
     3
 75
     0
 76
     0
 77
     0
 78
     0
281
     0
 65
     1
110
0.0
120
0.0
130
0.0
111
1.0
121
0.0
131
0.0
112
0.0
122
1.0
132
0.0
 79
     0
146
0.0
 60
     3
 61
     5
292
     1
282
     1
141
0.0
142
0.0
 63
   250
  0
ENDTAB
  0
TABLE
  2
LTYPE
  5
5
330
0
100
AcDbSymbolTable
 70
     6
  0
LTYPE
  5
14
330
5
100
AcDbSymbolTableRecord
100
AcDbLinetypeTableRecord
  2
ByBlock
 70
     0
  3

 72
    65
 73
     0
 40
0.0
  0
LTYPE
  5
15
330
5
100
AcDbSymbolTableRecord
100
AcDbLinetypeTableRecord
  2
ByLayer
 70
     0
  3

 72
    65
 73
     0
 40
0.0
  0
LTYPE
  5
16
330
5
100
AcDbSymbolTableRecord
100
AcDbLinetypeTableRecord
  2
Continuous
 70
     0
  3
Solid line
 72
    65
 73
     0
 40
0.0
  0
LTYPE
  5
3F
330
5
100
AcDbSymbolTableRecord
100
AcDbLinetypeTableRecord
  2
HIDDEN
 70
     0
  3
Hidden __ __ __ __ __ __ __ __ __ __ __ __ __ __
 72
    65
 73
     2
 40
1.905
 49
1.27
 74
     0
 49
-0.635
 74
     0
  0
LTYPE
  5
40
330
5
100
AcDbSymbolTableRecord
100
AcDbLinetypeTableRecord
  2
PHANTOM
 70
     0
  3
Phantom ______  __  __  ______  __  __  ______
 72
    65
 73
     6
 40
12.7
 49
6.35
 74
     0
 49
-1.27
 74
     0
 49
1.27
 74
     0
 49
-1.27
 74
     0
 49
1.27
 74
     0
 49
-1.27
 74
     0
  0
LTYPE
  5
41
330
5
100
AcDbSymbolTableRecord
100
AcDbLinetypeTableRecord
  2
CENTER
 70
     0
  3
Center ____ _ ____ _ ____ _ ____ _ ____ _ ____
 72
    65
 73
     4
 40
10.16
 49
6.35
 74
     0
 49
-1.27
 74
     0
 49
1.27
 74
     0
 49
-1.27
 74
     0
  0
LTYPE
  5
42
330
5
100
AcDbSymbolTableRecord
100
AcDbLinetypeTableRecord
  2
CENTERX2
 70
     0
  3
Center (2x) ________  __  ________  __  _____
 72
    65
 73
     4
 40
20.32
 49
12.7
 74
     0
 49
-2.54
 74
     0
 49
2.54
 74
     0
 49
-2.54
 74
     0
  0
LTYPE
  5
43
330
5
100
AcDbSymbolTableRecord
100
AcDbLinetypeTableRecord
  2
DOT2
 70
     0
  3
Dot (.5x) ........................................
 72
    65
 73
     2
 40
0.635
 49
0.0
 74
     0
 49
-0.635
 74
     0
  0
ENDTAB
  0
TABLE
  2
LAYER
  5
2
330
0
100
AcDbSymbolTable
 70
     2
  0
LAYER
  5
10
330
2
100
AcDbSymbolTableRecord
100
AcDbLayerTableRecord
  2
0
 70
     0
 62
     7
  6
Continuous
370
    -3
390
F
347
3E
  0
LAYER
  5
44
330
2
100
AcDbSymbolTableRecord
100
AcDbLayerTableRecord
  2
FORMAT
 70
     0
 62
     7
  6
Continuous
370
    -3
390
F
347
3E
  0
ENDTAB
  0
TABLE
  2
STYLE
  5
3
330
0
100
AcDbSymbolTable
 70
     1
  0
STYLE
  5
11
330
3
100
AcDbSymbolTableRecord
100
AcDbTextStyleTableRecord
  2
Standard
 70
     0
 40
0.0
 41
1.0
 50
0.0
 71
     0
 42
17.5
  3
txt
  4

  0
ENDTAB
  0
TABLE
  2
VIEW
  5
6
330
0
100
AcDbSymbolTable
 70
     0
  0
ENDTAB
  0
TABLE
  2
UCS
  5
7
330
0
100
AcDbSymbolTable
 70
     0
  0
ENDTAB
  0
TABLE
  2
APPID
  5
9
330
0
100
AcDbSymbolTable
 70
     1
  0
APPID
  5
12
330
9
100
AcDbSymbolTableRecord
100
AcDbRegAppTableRecord
  2
ACAD
 70
     0
  0
ENDTAB
  0
TABLE
  2
DIMSTYLE
  5
A
330
0
100
AcDbSymbolTable
 70
     1
100
AcDbDimStyleTable
  0
DIMSTYLE
105
27
330
A
100
AcDbSymbolTableRecord
100
AcDbDimStyleTableRecord
  2
ISO-25
 70
     0
 41
2.5
 42
0.625
 43
3.75
 44
1.25
 73
     0
 74
     0
 77
     1
 78
     8
140
2.5
141
2.5
143
0.0393700787
147
0.625
171
     3
172
     1
178
     0
271
     2
272
     2
274
     3
278
    44
283
     0
284
     8
340
11
  0
ENDTAB
  0
TABLE
  2
BLOCK_RECORD
  5
1
330
0
100
AcDbSymbolTable
 70
     1
  0
BLOCK_RECORD
  5
1F
330
1
100
AcDbSymbolTableRecord
100
AcDbBlockTableRecord
  2
*Model_Space
340
22
 70
     0
280
     1
281
     0
  0
BLOCK_RECORD
  5
1B
330
1
100
AcDbSymbolTableRecord
100
AcDbBlockTableRecord
  2
*Paper_Space
340
1E
 70
     0
280
     1
281
     0
  0
BLOCK_RECORD
  5
23
330
1
100
AcDbSymbolTableRecord
100
AcDbBlockTableRecord
  2
*Paper_Space0
340
26
 70
     0
280
     1
281
     0
  0
ENDTAB
  0
ENDSEC
  0
SECTION
  2
BLOCKS
  0
BLOCK
  5
20
330
1F
100
AcDbEntity
  8
0
100
AcDbBlockBegin
  2
*Model_Space
 70
     0
 10
0.0
 20
0.0
 30
0.0
  3
*Model_Space
  1

  0
ENDBLK
  5
21
330
1F
100
AcDbEntity
  8
0
100
AcDbBlockEnd
  0
BLOCK
  5
1C
330
1B
100
AcDbEntity
 67
     1
  8
0
100
AcDbBlockBegin
  2
*Paper_Space
 70
     0
 10
0.0
 20
0.0
 30
0.0
  3
*Paper_Space
  1

  0
ENDBLK
  5
1D
330
1B
100
AcDbEntity
 67
     1
  8
0
100
AcDbBlockEnd
  0
BLOCK
  5
24
330
23
100
AcDbEntity
  8
0
100
AcDbBlockBegin
  2
*Paper_Space0
 70
     0
 10
0.0
 20
0.0
 30
0.0
  3
*Paper_Space0
  1

  0
ENDBLK
  5
25
330
23
100
AcDbEntity
  8
0
100
AcDbBlockEnd
  0
ENDSEC
  0
SECTION
  2
ENTITIES
  0
LINE
  5
45
330
1F
100
AcDbEntity
  8
0
  6
Continuous
 62
     7
370
     0
100
AcDbLine
 10
2074.25
 20
25.75
 30
0.0
 11
25.75
 21
25.75
 31
0.0
  0
LINE
  5
46
330
1F
100
AcDbEntity
  8
0
  6
Continuous
 62
     7
370
     0
100
AcDbLine
 10
2075.0
 20
25.0
 30
0.0
 11
2075.0
 21
1385.0
 31
0.0
  0
LINE
  5
47
330
1F
100
AcDbEntity
  8
0
  6
Continuous
 62
     7
370
     0
100
AcDbLine
 10
2075.0
 20
1385.0
 30
0.0
 11
25.0
 21
1385.0
 31
0.0
  0
LINE
  5
48
330
1F
100
AcDbEntity
  8
0
  6
Continuous
 62
     7
370
     0
100
AcDbLine
 10
25.75
 20
1384.25
 30
0.0
 11
25.75
 21
25.75
 31
0.0
  0
SPLINE
  5
49
330
1F
100
AcDbEntity
  8
0
  6
Continuous
 62
     7
370
    40
100
AcDbSpline
210
0.0
220
0.0
230
1.0
 70
     8
 71
     3
 72
    63
 73
    59
 74
     0
 42
0.00000001
 43
0.00000001
 12
1.0
 22
0.0
 32
0.0
 13
1.0
 23
0.0
 33
0.0
 40
0.0
 40
0.0
 40
0.0
 40
0.0
 40
0.0125362109324749
 40
0.027880064061136
 40
0.0403581858005307
 40
0.0499707554172971
 40
0.0576543615490873
 40
0.0653390773851868
 40
0.0772660833819361
 40
0.0900814884228101
 40
0.1041585639700372
 40
0.1197948667621027
 40
0.1367490738480838
 40
0.1526497763434598
 40
0.1672839268813583
 40
0.1808606190596853
 40
0.1936700310993648
 40
0.2060227299159492
 40
0.2172354157604764
 40
0.2256621351062212
 40
0.2319904181357864
 40
0.2397761997432871
 40
0.2495296458919599
 40
0.2612518361388282
 40
0.2749434561088907
 40
0.2958519105222926
 40
0.3200366101349169
 40
0.3452547864833463
 40
0.4133939659590614
 40
0.4824056412902193
 40
0.5267832409579343
 40
0.5715231724127076
 40
0.6153121245611669
 40
0.655954125250349
 40
0.6759743960568844
 40
0.6951233324244637
 40
0.7134016415622357
 40
0.730810161851056
 40
0.7473498907985318
 40
0.7623834490826736
 40
0.772748488695226
 40
0.7808018858456742
 40
0.7839623595022667
 40
0.7869103869788656
 40
0.7905993825727284
 40
0.7951794666298909
 40
0.8044751096366105
 40
0.8162449676887381
 40
0.8301656419385639
 40
0.8440758814122629
 40
0.8577109516975121
 40
0.8800162769625541
 40
0.9021018882577124
 40
0.9244035541492581
 40
0.9423709449149477
 40
0.96184014848293
 40
0.9829140763733498
 40
1.0
 40
1.0
 40
1.0
 40
1.0
 10
664.1423953981941
 20
962.2592156738762
 30
0.0
 10
662.496563340947
 20
962.037984444487
 30
0.0
 10
658.8362944257955
 20
961.5459744678749
 30
0.0
 10
653.5340238089533
 20
960.8647987057554
 30
0.0
 10
648.6126618580606
 20
960.250028141589
 30
0.0
 10
644.6996036621624
 20
959.7731348427751
 30
0.0
 10
641.4075659497087
 20
959.3830485828322
 30
0.0
 10
637.8676974245795
 20
958.9912040731152
 30
0.0
 10
633.8452285971913
 20
958.5812173458966
 30
0.0
 10
629.4483874305143
 20
958.1782817647071
 30
0.0
 10
625.1450535469766
 20
957.8209537602407
 30
0.0
 10
620.9524860802164
 20
957.4982060337502
 30
0.0
 10
617.1660693663389
 20
957.2121444039543
 30
0.0
 10
612.9069593129968
 20
956.8658302500313
 30
0.0
 10
608.5149712049268
 20
956.5158021245015
 30
0.0
 10
603.9752092687959
 20
956.1791706302627
 30
0.0
 10
599.3112462150116
 20
955.8586400866429
 30
0.0
 10
594.627364138996
 20
955.5590305291373
 30
0.0
 10
590.4221332453419
 20
955.3086456252001
 30
0.0
 10
587.018693315049
 20
955.1154018697705
 30
0.0
 10
584.0502895401834
 20
954.9531991920394
 30
0.0
 10
580.9015539709632
 20
954.7869625205717
 30
0.0
 10
577.0380789433993
 20
954.5914661174227
 30
0.0
 10
572.3921409212267
 20
954.3683720959284
 30
0.0
 10
566.2700181047768
 20
954.092536618659
 30
0.0
 10
558.4977431297383
 20
953.7728549694087
 30
0.0
 10
549.1986052525859
 20
953.4363709458729
 30
0.0
 10
533.6467650429157
 20
952.9535847339573
 30
0.0
 10
512.1493930834794
 20
952.484202624594
 30
0.0
 10
488.1036203602487
 20
952.2561340878761
 30
0.0
 10
467.1558283518921
 20
952.2646569453145
 30
0.0
 10
449.5508118931895
 20
952.4090977918595
 30
0.0
 10
432.4444387943595
 20
952.6849922917625
 30
0.0
 10
418.6162494746354
 20
953.0167304478528
 30
0.0
 10
408.054472275089
 20
953.3325439708537
 30
0.0
 10
400.4547239583143
 20
953.5898140613309
 30
0.0
 10
393.2034618741026
 20
953.8636814470967
 30
0.0
 10
386.3006737808173
 20
954.1512705637887
 30
0.0
 10
379.8307373095712
 20
954.4459369778383
 30
0.0
 10
374.2951291833396
 20
954.7190482777506
 30
0.0
 10
369.8822924844912
 20
954.9508857268875
 30
0.0
 10
367.0388605364702
 20
955.1072005544531
 30
0.0
 10
365.1746843249903
 20
955.2124795062883
 30
0.0
 10
363.8894086224833
 20
955.2864844442249
 30
0.0
 10
362.5460314156691
 20
955.3657686884126
 30
0.0
 10
360.5948330309756
 20
955.4809330210039
 30
0.0
 10
357.9849275317924
 20
955.630378077566
 30
0.0
 10
354.6459455575997
 20
955.8247904677643
 30
0.0
 10
351.0893828282371
 20
956.0421417233397
 30
0.0
 10
347.0533898178425
 20
956.3092238477557
 30
0.0
 10
341.9234330276344
 20
956.6760079753054
 30
0.0
 10
335.5104784175976
 20
957.1801342333781
 30
0.0
 10
327.6136777214419
 20
957.8777576588236
 30
0.0
 10
319.8449934053539
 20
958.643657041654
 30
0.0
 10
312.1777383581517
 20
959.4723197458886
 30
0.0
 10
304.5634934271596
 20
960.3585845156825
 30
0.0
 10
297.0122895758587
 20
961.292415017432
 30
0.0
 10
292.0021120292778
 20
961.9623111944975
 30
0.0
 10
289.7588247125401
 20
962.2622545764575
 30
0.0
  0
LINE
  5
4A
330
1F
100
AcDbEntity
  8
0
  6
Continuous
 62
     7
370
    40
100
AcDbLine
 10
289.0206242588
 20
956.9543260537
 30
0.0
 11
288.9488153327
 21
956.6378192802
 31
0.0
  0
LINE
  5
4B
330
1F
100
AcDbEntity
  8
0
  6
Continuous
 62
     7
370
    40
100
AcDbLine
 10
289.6892249016
 20
962.2767183477
 30
0.0
 11
289.6726010468
 21
962.1417406838
 31
0.0
  0
SPLINE
  5
4C
330
1F
100
AcDbEntity
  8
0
  6
Continuous
 62
     7
370
    40
100
AcDbSpline
210
0.0
220
0.0
230
1.0
 70
     8
 71
     3
 72
     9
 73
     5
 74
     0
 42
0.00000001
 43
0.00000001
 12
1.0
 22
0.0
 32
0.0
 13
1.0
 23
0.0
 33
0.0
 40
0.0
 40
0.0
 40
0.0
 40
0.0
 40
0.3357699973285921
 40
1.0
 40
1.0
 40
1.0
 40
1.0
 10
289.5108469541527
 20
960.8283756533247
 30
0.0
 10
289.452602160047
 20
960.3517676565828
 30
0.0
 10
289.2791358153196
 20
958.9323198186761
 30
0.0
 10
289.0812714925861
 20
957.4129195849906
 30
0.0
 10
288.9498440729682
 20
956.4036883637108
 30
0.0
  0
SPLINE
  5
4D
330
1F
100
AcDbEntity
  8
0
  6
Continuous
 62
     7
370
    40
100
AcDbSpline
210
0.0
220
0.0
230
1.0
 70
     8
 71
     3
 72
     9
 73
     5
 74
     0
 42
0.00000001
 43
0.00000001
 12
1.0
 22
0.0
 32
0.0
 13
1.0
 23
0.0
 33
0.0
 40
0.0
 40
0.0
 40
0.0
 40
0.0
 40
0.6677959760842758
 40
1.0
 40
1.0
 40
1.0
 40
1.0
 10
664.9530818290949
 20
956.3956454875487
 30
0.0
 10
664.8214475473901
 20
957.4063289674534
 30
0.0
 10
664.6243300348278
 20
958.919790437873
 30
0.0
 10
664.4515165964613
 20
960.3337125624665
 30
0.0
 10
664.3941072768494
 20
960.80342318176
 30
0.0
  0
LINE
  5
4E
330
1F
100
AcDbEntity
  8
0
  6
Continuous
 62
     7
370
    40
100
AcDbLine
 10
664.2236742022
 20
962.1871902716
 30
0.0
 11
664.21264793
 21
962.2767139311
 31
0.0
  0
LINE
  5
4F
330
1F
100
AcDbEntity
  8
0
  6
Continuous
 62
     7
370
    40
100
AcDbLine
 10
664.9530550586
 20
956.6378083088
 30
0.0
 11
664.8812892325
 21
956.9541245263
 31
0.0
  0
LINE
  5
50
330
1F
100
AcDbEntity
  8
0
  6
Continuous
 62
     7
370
    40
100
AcDbLine
 10
288.4509359606
 20
904.6850733085
 30
0.0
 11
292.4509359606
 21
904.6850733085
 31
0.0
  0
LINE
  5
51
330
1F
100
AcDbEntity
  8
0
  6
Continuous
 62
     7
370
    40
100
AcDbLine
 10
288.4509359606
 20
904.3404512142
 30
0.0
 11
370.4509359606
 21
904.3404512142
 31
0.0
  0
LINE
  5
52
330
1F
100
AcDbEntity
  8
0
  6
Continuous
 62
     7
370
    40
100
AcDbLine
 10
370.4509359606
 20
965.3404512142
 30
0.0
 11
288.4509359606
 21
965.3404512142
 31
0.0
  0
LINE
  5
53
330
1F
100
AcDbEntity
  8
0
  6
Continuous
 62
     7
370
    40
100
AcDbLine
 10
661.4509359606
 20
904.6850733085
 30
0.0
 11
665.4509359606
 21
904.6850733085
 31
0.0
  0
LINE
  5
54
330
1F
100
AcDbEntity
  8
0
  6
Continuous
 62
     7
370
    40
100
AcDbLine
 10
665.4509359606
 20
965.3404512142
 30
0.0
 11
583.4509359606
 21
965.3404512142
 31
0.0
  0
LINE
  5
55
330
1F
100
AcDbEntity
  8
0
  6
Continuous
 62
     7
370
    40
100
AcDbLine
 10
583.4509359606
 20
904.3404512142
 30
0.0
 11
665.4509359606
 21
904.3404512142
 31
0.0
  0
LINE
  5
56
330
1F
100
AcDbEntity
  8
0
  6
Continuous
 62
     7
370
    40
100
AcDbLine
 10
286.9509359606
 20
966.8404512142
 30
0.0
 11
272.9509359606
 21
966.8404512142
 31
0.0
  0
LINE
  5
57
330
1F
100
AcDbEntity
  8
0
  6
Continuous
 62
     7
370
    40
100
AcDbLine
 10
286.9509359606
 20
904.8404512142
 30
0.0
 11
288.4509359606
 21
904.8404512142
 31
0.0
  0
LINE
  5
58
330
1F
100
AcDbEntity
  8
0
  6
Continuous
 62
     7
370
    40
100
AcDbLine
 10
370.4509359606
 20
904.8404512142
 30
0.0
 11
372.1509359606
 21
904.8404512142
 31
0.0
  0
LINE
  5
59
330
1F
100
AcDbEntity
  8
0
  6
Continuous
 62
     7
370
    40
100
AcDbLine
 10
372.1509359606
 20
964.8404512142
 30
0.0
 11
370.4509359606
 21
964.8404512142
 31
0.0
  0
LINE
  5
5A
330
1F
100
AcDbEntity
  8
0
  6
Continuous
 62
     7
370
    40
100
AcDbLine
 10
288.4509359606
 20
964.8404512142
 30
0.0
 11
286.9509359606
 21
964.8404512142
 31
0.0
  0
LINE
  5
5B
330
1F
100
AcDbEntity
  8
0
  6
Continuous
 62
     7
370
    40
100
AcDbLine
 10
372.1509359606
 20
922.8404512142
 30
0.0
 11
374.1509359606
 21
922.8404512142
 31
0.0
  0
LINE
  5
5C
330
1F
100
AcDbEntity
  8
0
  6
Continuous
 62
     7
370
    40
100
AcDbLine
 10
680.9509359606
 20
966.8404512142
 30
0.0
 11
666.9509359606
 21
966.8404512142
 31
0.0
  0
LINE
  5
5D
330
1F
100
AcDbEntity
  8
0
  6
Continuous
 62
     7
370
    40
100
AcDbLine
 10
666.9509359606
 20
964.8404512142
 30
0.0
 11
665.4509359606
 21
964.8404512142
 31
0.0
  0
LINE
  5
5E
330
1F
100
AcDbEntity
  8
0
  6
Continuous
 62
     7
370
    40
100
AcDbLine
 10
583.4509359606
 20
964.8404512142
 30
0.0
 11
581.7509359606
 21
964.8404512142
 31
0.0
  0
LINE
  5
5F
330
1F
100
AcDbEntity
  8
0
  6
Continuous
 62
     7
370
    40
100
AcDbLine
 10
581.7509359606
 20
904.8404512142
 30
0.0
 11
583.4509359606
 21
904.8404512142
 31
0.0
  0
LINE
  5
60
330
1F
100
AcDbEntity
  8
0
  6
Continuous
 62
     7
370
    40
100
AcDbLine
 10
665.4509359606
 20
904.8404512142
 30
0.0
 11
666.9509359606
 21
904.8404512142
 31
0.0
  0
LINE
  5
61
330
1F
100
AcDbEntity
  8
0
  6
Continuous
 62
     7
370
    40
100
AcDbLine
 10
579.7509359606
 20
922.8404512142
 30
0.0
 11
581.7509359606
 21
922.8404512142
 31
0.0
  0
SPLINE
  5
62
330
1F
100
AcDbEntity
  8
0
  6
Continuous
 62
     7
370
    40
100
AcDbSpline
210
0.0
220
0.0
230
1.0
 70
     8
 71
     3
 72
     9
 73
     5
 74
     0
 42
0.00000001
 43
0.00000001
 12
1.0
 22
0.0
 32
0.0
 13
1.0
 23
0.0
 33
0.0
 40
0.0
 40
0.0
 40
0.0
 40
0.0
 40
0.0831092556953592
 40
0.9999999999999999
 40
0.9999999999999999
 40
0.9999999999999999
 40
0.9999999999999999
 10
634.6543591161186
 20
1334.535943744673
 30
0.0
 10
634.5717098475768
 20
1334.568679894718
 30
0.0
 10
633.5772445759262
 20
1334.962572846487
 30
0.0
 10
632.5818425840994
 20
1335.355154192279
 30
0.0
 10
631.6691677109311
 20
1335.715108394623
 30
0.0
  0
LINE
  5
63
330
1F
100
AcDbEntity
  8
0
  6
Continuous
 62
     7
370
    40
100
AcDbLine
 10
322.2308376869
 20
1335.7150462884
 30
0.0
 11
319.2499559053
 21
1334.5361777971
 31
0.0
  0
SPLINE
  5
64
330
1F
100
AcDbEntity
  8
0
  6
Continuous
 62
     7
370
    40
100
AcDbSpline
210
0.0
220
0.0
230
1.0
 70
     8
 71
     3
 72
    11
 73
     7
 74
     0
 42
0.00000001
 43
0.00000001
 12
1.0
 22
0.0
 32
0.0
 13
1.0
 23
0.0
 33
0.0
 40
0.0
 40
0.0
 40
0.0
 40
0.0
 40
0.207544228633066
 40
0.4155831871066698
 40
0.8089804964003152
 40
1.0
 40
1.0
 40
1.0
 40
1.0
 10
288.9505798262813
 20
954.5357105972483
 30
0.0
 10
288.9506036210899
 20
954.8347530083176
 30
0.0
 10
288.9506512674276
 20
955.4335506674518
 30
0.0
 10
288.9515218033401
 20
956.1117768848223
 30
0.0
 10
288.9533642040963
 20
956.4778883855296
 30
0.0
 10
288.9542888937791
 20
956.4103631802026
 30
0.0
 10
288.9545911331402
 20
956.3882922354293
 30
0.0
  0
SPLINE
  5
65
330
1F
100
AcDbEntity
  8
0
  6
Continuous
 62
     7
370
    40
100
AcDbSpline
210
0.0
220
0.0
230
1.0
 70
     8
 71
     3
 72
    32
 73
    28
 74
     0
 42
0.00000001
 43
0.00000001
 12
1.0
 22
0.0
 32
0.0
 13
1.0
 23
0.0
 33
0.0
 40
0.0
 40
0.0
 40
0.0
 40
0.0
 40
0.1249999999999972
 40
0.1249999999999972
 40
0.1874999999999958
 40
0.1874999999999958
 40
0.2499999999999943
 40
0.2499999999999943
 40
0.3749999999999928
 40
0.3749999999999928
 40
0.437499999999993
 40
0.437499999999993
 40
0.4999999999999931
 40
0.4999999999999931
 40
0.6249999999999933
 40
0.6249999999999933
 40
0.6874999999999951
 40
0.6874999999999951
 40
0.7499999999999968
 40
0.7499999999999968
 40
0.8750000000000028
 40
0.8750000000000028
 40
0.9062500000000021
 40
0.9062500000000021
 40
0.9375000000000014
 40
0.9375000000000014
 40
1.0
 40
1.0
 40
1.0
 40
1.0
 10
319.3884321977332
 20
936.8870880854254
 30
0.0
 10
317.1565748510553
 20
937.1601031196814
 30
0.0
 10
315.0201435771229
 20
937.5925580183264
 30
0.0
 10
311.9397666515873
 20
938.4392615522606
 30
0.0
 10
310.9338561458731
 20
938.7547195302105
 30
0.0
 10
308.9623371970736
 20
939.4469941460568
 30
0.0
 10
307.9933174651475
 20
939.8256204427072
 30
0.0
 10
305.2048722645377
 20
941.0193612307629
 30
0.0
 10
303.4834036394012
 20
941.8978583214392
 30
0.0
 10
301.0796036396629
 20
943.2926057576612
 30
0.0
 10
300.3068041470534
 20
943.771628685719
 30
0.0
 10
298.8414313453532
 20
944.7325270891943
 30
0.0
 10
298.1457794839941
 20
945.216061580506
 30
0.0
 10
296.1627735101524
 20
946.663925399043
 30
0.0
 10
294.9781928093093
 20
947.6258400819534
 30
0.0
 10
293.4009806079482
 20
949.0133637330119
 30
0.0
 10
292.9146943903905
 20
949.4614262336563
 30
0.0
 10
292.0235737098499
 20
950.3162875361368
 30
0.0
 10
291.6178553284873
 20
950.7238820461774
 30
0.0
 10
290.5200445694649
 20
951.875409476455
 30
0.0
 10
289.9452744461943
 20
952.5433290387537
 30
0.0
 10
289.451693777818
 20
953.2613188961092
 30
0.0
 10
289.3644178260284
 20
953.3990305730969
 30
0.0
 10
289.2148344880052
 20
953.6605408626061
 30
0.0
 10
289.1522687876931
 20
953.7846983509002
 30
0.0
 10
289.0016029660144
 20
954.1382264678816
 30
0.0
 10
288.9504534246876
 20
954.3486839651839
 30
0.0
 10
288.9504474646903
 20
954.5357219956529
 30
0.0
  0
SPLINE
  5
66
330
1F
100
AcDbEntity
  8
0
  6
Continuous
 62
     7
370
    40
100
AcDbSpline
210
0.0
220
0.0
230
1.0
 70
     8
 71
     3
 72
    26
 73
    22
 74
     0
 42
0.00000001
 43
0.00000001
 12
1.0
 22
0.0
 32
0.0
 13
1.0
 23
0.0
 33
0.0
 40
0.0
 40
0.0
 40
0.0
 40
0.0
 40
0.125
 40
0.125
 40
0.25
 40
0.25
 40
0.375
 40
0.375
 40
0.4375
 40
0.4375
 40
0.46875
 40
0.46875
 40
0.5
 40
0.5
 40
0.625
 40
0.625
 40
0.75
 40
0.75
 40
0.875
 40
0.875
 40
1.0
 40
1.0
 40
1.0
 40
1.0
 10
634.5134397235081
 20
936.8870880848244
 30
0.0
 10
621.4583554700996
 20
935.2901068988592
 30
0.0
 10
608.3851523882539
 20
933.834415306522
 30
0.0
 10
582.1968576991906
 20
931.2840919307718
 30
0.0
 10
569.0817387271113
 20
930.1898388483096
 30
0.0
 10
542.8054797896269
 20
928.418891844864
 30
0.0
 10
529.6443516317596
 20
927.7420280652061
 30
0.0
 10
509.866397138934
 20
927.0629073600514
 30
0.0
 10
503.2677141308451
 20
926.8923881459681
 30
0.0
 10
493.3605159941536
 20
926.7219467248725
 30
0.0
 10
490.0562166137992
 20
926.6793529269924
 30
0.0
 10
483.4518969585089
 20
926.6227905882519
 30
0.0
 10
480.1509946200576
 20
926.6088027747147
 30
0.0
 10
463.6527601049262
 20
926.6102386793478
 30
0.0
 10
450.4742934760731
 20
926.8403840064999
 30
0.0
 10
424.1568040530677
 20
927.7469322842135
 30
0.0
 10
411.017793548591
 20
928.4235474928499
 30
0.0
 10
384.7773935236521
 20
930.1933640363333
 30
0.0
 10
371.6760140053099
 20
931.2867400138307
 30
0.0
 10
345.5076244239364
 20
933.835477358793
 30
0.0
 10
332.4405922392515
 20
935.2904646071039
 30
0.0
 10
319.3884321975887
 20
936.8870880848349
 30
0.0
  0
SPLINE
  5
67
330
1F
100
AcDbEntity
  8
0
  6
Continuous
 62
     7
370
    40
100
AcDbSpline
210
0.0
220
0.0
230
1.0
 70
     8
 71
     3
 72
    36
 73
    32
 74
     0
 42
0.00000001
 43
0.00000001
 12
1.0
 22
0.0
 32
0.0
 13
1.0
 23
0.0
 33
0.0
 40
0.0
 40
0.0
 40
0.0
 40
0.0
 40
0.125000000000002
 40
0.125000000000002
 40
0.1875000000000045
 40
0.1875000000000045
 40
0.2500000000000069
 40
0.2500000000000069
 40
0.3750000000000092
 40
0.3750000000000092
 40
0.4062500000000094
 40
0.4062500000000094
 40
0.4375000000000097
 40
0.4375000000000097
 40
0.5000000000000103
 40
0.5000000000000103
 40
0.6250000000000115
 40
0.6250000000000115
 40
0.6562500000000117
 40
0.6562500000000117
 40
0.6875000000000119
 40
0.6875000000000119
 40
0.7500000000000105
 40
0.7500000000000105
 40
0.8125000000000093
 40
0.8125000000000093
 40
0.8437500000000081
 40
0.8437500000000081
 40
0.8750000000000068
 40
0.8750000000000068
 40
1.0
 40
1.0
 40
1.0
 40
1.0
 10
664.9514241719128
 20
954.5349184604596
 30
0.0
 10
664.9511192339523
 20
954.1613162301344
 30
0.0
 10
664.7482258568953
 20
953.6978421824091
 30
0.0
 10
664.168408979995
 20
952.8500162263267
 30
0.0
 10
663.9289090717431
 20
952.5418501914506
 30
0.0
 10
663.3589412641949
 20
951.8695286307563
 30
0.0
 10
663.0269730476343
 20
951.5034504625123
 30
0.0
 10
661.9189782176403
 20
950.3404728147341
 30
0.0
 10
661.0273564847696
 20
949.477046853524
 30
0.0
 10
659.7251398745881
 20
948.3307801794241
 30
0.0
 10
659.4552003388168
 20
948.0981502001222
 30
0.0
 10
658.8959725203906
 20
947.6271338093671
 30
0.0
 10
658.6060523921379
 20
947.3882445574191
 30
0.0
 10
657.7117542272384
 20
946.6686439918032
 30
0.0
 10
657.0836603473299
 20
946.1855172504066
 30
0.0
 10
655.102204239109
 20
944.7383351920797
 30
0.0
 10
653.6528427438998
 20
943.7763915987401
 30
0.0
 10
651.6588724999401
 20
942.6171334821837
 30
0.0
 10
651.2508706170938
 20
942.3874461320061
 30
0.0
 10
650.415490808317
 20
941.9334469068457
 30
0.0
 10
649.9886186624191
 20
941.7094582514027
 30
0.0
 10
648.6903688657327
 20
941.0534603018472
 30
0.0
 10
647.7976133753647
 20
940.6353173741235
 30
0.0
 10
645.9546483935616
 20
939.8444074920473
 30
0.0
 10
645.0044510398718
 20
939.4716198836414
 30
0.0
 10
643.5326379863029
 20
938.9521579589252
 30
0.0
 10
643.0342669223866
 20
938.7856305987574
 30
0.0
 10
642.0212233092943
 20
938.4668976929087
 30
0.0
 10
641.5054193935458
 20
938.3143837364721
 30
0.0
 10
638.8967253871231
 20
937.594218591761
 30
0.0
 10
636.7420704986794
 20
937.1597084244505
 30
0.0
 10
634.5134397233423
 20
936.8870880855012
 30
0.0
  0
SPLINE
  5
68
330
1F
100
AcDbEntity
  8
0
  6
Continuous
 62
     7
370
    40
100
AcDbSpline
210
0.0
220
0.0
230
1.0
 70
     8
 71
     3
 72
    11
 73
     7
 74
     0
 42
0.00000001
 43
0.00000001
 12
1.0
 22
0.0
 32
0.0
 13
1.0
 23
0.0
 33
0.0
 40
0.0
 40
0.0
 40
0.0
 40
0.0
 40
0.0807876400426512
 40
0.3858356009992626
 40
0.6924091856500728
 40
1.0
 40
1.0
 40
1.0
 40
1.0
 10
664.9471899984943
 20
956.4178583450755
 30
0.0
 10
664.9473047627905
 20
956.429673229439
 30
0.0
 10
664.9478528683072
 20
956.4861002151354
 30
0.0
 10
664.9494916709514
 20
956.3090398531336
 30
0.0
 10
664.9511574924863
 20
955.7951592824747
 30
0.0
 10
664.9512471713787
 20
954.9554547499682
 30
0.0
 10
664.9512920850915
 20
954.534907089786
 30
0.0
  0
SPLINE
  5
69
330
1F
100
AcDbEntity
  8
0
  6
Continuous
 62
     7
370
    40
100
AcDbSpline
210
0.0
220
0.0
230
1.0
 70
     8
 71
     3
 72
     9
 73
     5
 74
     0
 42
0.00000001
 43
0.00000001
 12
1.0
 22
0.0
 32
0.0
 13
1.0
 23
0.0
 33
0.0
 40
0.0
 40
0.0
 40
0.0
 40
0.0
 40
0.7497850448607661
 40
1.0
 40
1.0
 40
1.0
 40
1.0
 10
300.9192015073876
 20
961.4138602791062
 30
0.0
 10
299.5118400492722
 20
961.4168030269311
 30
0.0
 10
297.6348201383497
 20
961.4207278155694
 30
0.0
 10
296.3806395014203
 20
961.4267581925062
 30
0.0
 10
296.0668247496146
 20
961.428267083001
 30
0.0
  0
SPLINE
  5
6A
330
1F
100
AcDbEntity
  8
0
  6
Continuous
 62
     7
370
    40
100
AcDbSpline
210
0.0
220
0.0
230
1.0
 70
     8
 71
     3
 72
     9
 73
     5
 74
     0
 42
0.00000001
 43
0.00000001
 12
1.0
 22
0.0
 32
0.0
 13
1.0
 23
0.0
 33
0.0
 40
0.0
 40
0.0
 40
0.0
 40
0.0
 40
0.366803333414899
 40
1.0
 40
1.0
 40
1.0
 40
1.0
 10
289.6838627451255
 20
962.2019913439489
 30
0.0
 10
289.6694223916014
 20
962.1430283448727
 30
0.0
 10
289.6300542828397
 20
961.9822800808718
 30
0.0
 10
289.5454754106346
 20
961.1717511236631
 30
0.0
 10
289.4919203506907
 20
960.6585268897879
 30
0.0
  0
SPLINE
  5
6B
330
1F
100
AcDbEntity
  8
0
  6
Continuous
 62
     7
370
    40
100
AcDbSpline
210
0.0
220
0.0
230
1.0
 70
     8
 71
     3
 72
    13
 73
     9
 74
     0
 42
0.00000001
 43
0.00000001
 12
1.0
 22
0.0
 32
0.0
 13
1.0
 23
0.0
 33
0.0
 40
0.0
 40
0.0
 40
0.0
 40
0.0
 40
0.173550240511897
 40
0.3471872888578562
 40
0.525978862882349
 40
0.6917236332845776
 40
0.8625986956553163
 40
1.0
 40
1.0
 40
1.0
 40
1.0
 10
300.9191527036584
 20
961.4136738233465
 30
0.0
 10
301.3166145401509
 20
961.4018785992951
 30
0.0
 10
302.1117370189749
 20
961.3782822513568
 30
0.0
 10
303.8045260282686
 20
961.1848698597853
 30
0.0
 10
305.8049898579214
 20
960.8730262502427
 30
0.0
 10
308.1418546147799
 20
960.4385948217191
 30
0.0
 10
310.539193193747
 20
959.9452016236386
 30
0.0
 10
312.3085833124401
 20
959.5558368544985
 30
0.0
 10
313.0972149963845
 20
959.3822937843121
 30
0.0
  0
SPLINE
  5
6C
330
1F
100
AcDbEntity
  8
0
  6
Continuous
 62
     7
370
    40
100
AcDbSpline
210
0.0
220
0.0
230
1.0
 70
     8
 71
     3
 72
    16
 73
    12
 74
     0
 42
0.00000001
 43
0.00000001
 12
1.0
 22
0.0
 32
0.0
 13
1.0
 23
0.0
 33
0.0
 40
0.0
 40
0.0
 40
0.0
 40
0.0
 40
0.1667627663041196
 40
0.3321869316695
 40
0.410912771647425
 40
0.4929992047134447
 40
0.5782991091842263
 40
0.6666374024340348
 40
0.7721252947008256
 40
0.888928648298222
 40
1.0
 40
1.0
 40
1.0
 40
1.0
 10
640.2245980078462
 20
959.2557807147648
 30
0.0
 10
641.2165843812652
 20
959.4742673896548
 30
0.0
 10
643.192594476007
 20
959.9094869518559
 30
0.0
 10
645.3482349623727
 20
960.3537697526134
 30
0.0
 10
646.9225454466371
 20
960.6549164769824
 30
0.0
 10
648.0325614843644
 20
960.8537798661448
 30
0.0
 10
649.1005836327787
 20
961.0297203717965
 30
0.0
 10
650.1668095453597
 20
961.1858988098361
 30
0.0
 10
651.2226274766512
 20
961.3124263719267
 30
0.0
 10
652.2054276811759
 20
961.3979036709903
 30
0.0
 10
652.7280036962071
 20
961.4085060035646
 30
0.0
 10
652.9827192175294
 20
961.4136738233481
 30
0.0
  0
SPLINE
  5
6D
330
1F
100
AcDbEntity
  8
0
  6
Continuous
 62
     7
370
    40
100
AcDbSpline
210
0.0
220
0.0
230
1.0
 70
     8
 71
     3
 72
     9
 73
     5
 74
     0
 42
0.00000001
 43
0.00000001
 12
1.0
 22
0.0
 32
0.0
 13
1.0
 23
0.0
 33
0.0
 40
0.0
 40
0.0
 40
0.0
 40
0.0
 40
0.8346858418285538
 40
1.0
 40
1.0
 40
1.0
 40
1.0
 10
652.9827002189987
 20
961.4136686508597
 30
0.0
 10
654.5867223958027
 20
961.4173866252098
 30
0.0
 10
656.508430056843
 20
961.4218409649914
 30
0.0
 10
657.6791754393641
 20
961.4272967975951
 30
0.0
 10
657.8727162267087
 20
961.4281987239691
 30
0.0
  0
SPLINE
  5
6E
330
1F
100
AcDbEntity
  8
0
  6
Continuous
 62
     7
370
    40
100
AcDbSpline
210
0.0
220
0.0
230
1.0
 70
     8
 71
     3
 72
    11
 73
     7
 74
     0
 42
0.00000001
 43
0.00000001
 12
1.0
 22
0.0
 32
0.0
 13
1.0
 23
0.0
 33
0.0
 40
0.0
 40
0.0
 40
0.0
 40
0.0
 40
0.1466449845757765
 40
0.6250802652487092
 40
0.8117672333416692
 40
0.9999999999999999
 40
0.9999999999999999
 40
0.9999999999999999
 40
0.9999999999999999
 10
664.0121910631158
 20
961.4107772935208
 30
0.0
 10
664.0291422429948
 20
961.3900049743471
 30
0.0
 10
664.1013973429262
 20
961.3014621113465
 30
0.0
 10
664.1190070242623
 20
961.2822060502658
 30
0.0
 10
664.129794924011
 20
961.7531351358587
 30
0.0
 10
664.1346519856281
 20
961.9941576160478
 30
0.0
 10
664.1370905292985
 20
962.1151657254313
 30
0.0
  0
SPLINE
  5
6F
330
1F
100
AcDbEntity
  8
0
  6
Continuous
 62
     7
370
    40
100
AcDbSpline
210
0.0
220
0.0
230
1.0
 70
     8
 71
     3
 72
    11
 73
     7
 74
     0
 42
0.00000001
 43
0.00000001
 12
1.0
 22
0.0
 32
0.0
 13
1.0
 23
0.0
 33
0.0
 40
0.0
 40
0.0
 40
0.0
 40
0.0
 40
0.1457955357902352
 40
0.424094104354417
 40
0.7079786304403413
 40
1.0
 40
1.0
 40
1.0
 40
1.0
 10
664.1459966667331
 20
962.2322836041068
 30
0.0
 10
664.1487959808903
 20
962.2834997122227
 30
0.0
 10
664.1569387036687
 20
962.43247855017
 30
0.0
 10
664.1949686059595
 20
962.3921325469653
 30
0.0
 10
664.2725206783003
 20
961.9758332916878
 30
0.0
 10
664.3637123368746
 20
961.1017435677956
 30
0.0
 10
664.409952379268
 20
960.6585237983522
 30
0.0
  0
SPLINE
  5
70
330
1F
100
AcDbEntity
  8
0
  6
Continuous
 62
     7
370
    40
100
AcDbSpline
210
0.0
220
0.0
230
1.0
 70
     8
 71
     3
 72
    32
 73
    28
 74
     0
 42
0.00000001
 43
0.00000001
 12
1.0
 22
0.0
 32
0.0
 13
1.0
 23
0.0
 33
0.0
 40
0.0
 40
0.0
 40
0.0
 40
0.0
 40
0.1249999999999986
 40
0.1249999999999986
 40
0.1874999999999979
 40
0.1874999999999979
 40
0.2499999999999972
 40
0.2499999999999972
 40
0.3749999999999986
 40
0.3749999999999986
 40
0.4374999999999984
 40
0.4374999999999984
 40
0.4999999999999983
 40
0.4999999999999983
 40
0.6250000000000001
 40
0.6250000000000001
 40
0.6562500000000001
 40
0.6562500000000001
 40
0.6875000000000001
 40
0.6875000000000001
 40
0.7500000000000001
 40
0.7500000000000001
 40
0.8125000000000001
 40
0.8125000000000001
 40
0.875
 40
0.875
 40
1.0
 40
1.0
 40
1.0
 40
1.0
 10
664.4099523764976
 20
960.658526925935
 30
0.0
 10
664.4399723692175
 20
960.3187994552583
 30
0.0
 10
664.265622177287
 20
959.8962314959531
 30
0.0
 10
663.7221278347234
 20
959.1273081089482
 30
0.0
 10
663.493638788034
 20
958.8483803509207
 30
0.0
 10
662.9424910546367
 20
958.2422368767869
 30
0.0
 10
662.6182734428912
 20
957.9137559394716
 30
0.0
 10
661.5266832350958
 20
956.8728469970836
 30
0.0
 10
660.6387303736108
 20
956.0956557127342
 30
0.0
 10
659.0728353179101
 20
954.8438229552432
 30
0.0
 10
658.5100986498942
 20
954.411450325173
 30
0.0
 10
657.3083697291216
 20
953.5299164111005
 30
0.0
 10
656.674650338514
 20
953.0845705778521
 30
0.0
 10
654.6743686989438
 20
951.7465656905849
 30
0.0
 10
653.2098773588922
 20
950.851800666396
 30
0.0
 10
651.1963768103877
 20
949.7683911358472
 30
0.0
 10
650.7844353150125
 20
949.5534743620418
 30
0.0
 10
649.9411663967635
 20
949.1282155694439
 30
0.0
 10
649.510518121025
 20
948.9182593588663
 30
0.0
 10
648.2012173800812
 20
948.3028021463571
 30
0.0
 10
647.3015005193851
 20
947.9097765416524
 30
0.0
 10
645.4457731215596
 20
947.1654097223379
 30
0.0
 10
644.4897710445965
 20
946.8140529224614
 30
0.0
 10
642.5172621068052
 20
946.1607370428939
 30
0.0
 10
641.4985561309724
 20
945.8581838239525
 30
0.0
 10
638.3564427404428
 20
945.0416132612006
 30
0.0
 10
636.196766776155
 20
944.6307059393223
 30
0.0
 10
633.9667516846205
 20
944.3729016490312
 30
0.0
  0
SPLINE
  5
71
330
1F
100
AcDbEntity
  8
0
  6
Continuous
 62
     7
370
    40
100
AcDbSpline
210
0.0
220
0.0
230
1.0
 70
     8
 71
     3
 72
    37
 73
    33
 74
     0
 42
0.00000001
 43
0.00000001
 12
1.0
 22
0.0
 32
0.0
 13
1.0
 23
0.0
 33
0.0
 40
0.0
 40
0.0
 40
0.0
 40
0.0
 40
0.01176572045125
 40
0.0234497012938995
 40
0.0350519866664778
 40
0.0465726216465223
 40
0.058011652276861
 40
0.0693691255928039
 40
0.0806450896502758
 40
0.0918395935549312
 40
0.1029526874922915
 40
0.1139844227589449
 40
0.1249348517948559
 40
0.1882332175681768
 40
0.2498671238683327
 40
0.3128513169830072
 40
0.3749478540094267
 40
0.4375824569354579
 40
0.4999471412316233
 40
0.500000053941489
 40
0.562331281506606
 40
0.6249356696092674
 40
0.6870245508677192
 40
0.7500055529476249
 40
0.8116773254327607
 40
0.8750204723428132
 40
0.895164555191386
 40
0.9155825657678055
 40
0.9362748188840634
 40
0.957241616998427
 40
0.9784832508408329
 40
1.0
 40
1.0
 40
1.0
 40
1.0
 10
633.9667534612944
 20
944.3728863451821
 30
0.0
 10
632.7436859204436
 20
944.2321755200298
 30
0.0
 10
630.306047816253
 20
943.9517314254834
 30
0.0
 10
626.6603775740065
 20
943.5414551996732
 30
0.0
 10
623.0388071047263
 20
943.1406697201903
 30
0.0
 10
619.441227317794
 20
942.7500023387904
 30
0.0
 10
615.8677062979656
 20
942.3692867142975
 30
0.0
 10
612.3182641488016
 20
941.9985669358849
 30
0.0
 10
608.792932769324
 20
941.6378313158251
 30
0.0
 10
605.2917397752469
 20
941.2870829106873
 30
0.0
 10
601.8147136836744
 20
940.9463210224937
 30
0.0
 10
598.3618792018112
 20
940.6155453797403
 30
0.0
 10
589.4613737627752
 20
939.7827956927764
 30
0.0
 10
575.2623664221633
 20
938.5637119112702
 30
0.0
 10
555.5912491265514
 20
937.1497193164483
 30
0.0
 10
536.0161160298168
 20
936.0370215082395
 30
0.0
 10
516.3127456471705
 20
935.2262668141028
 30
0.0
 10
496.6583977006038
 20
934.737628304628
 30
0.0
 10
483.516067725209
 20
934.6278466400091
 30
0.0
 10
470.4060022799575
 20
934.6277546357882
 30
0.0
 10
457.2703619677634
 20
934.7372422590265
 30
0.0
 10
437.6234884728539
 20
935.2251621494197
 30
0.0
 10
417.9243894456934
 20
936.0351328788129
 30
0.0
 10
398.3463724057342
 20
937.147387859608
 30
0.0
 10
378.6668713858387
 20
938.5614844731487
 30
0.0
 10
363.4985324411873
 20
939.8635877330756
 30
0.0
 10
352.6557995840134
 20
940.8882963312836
 30
0.0
 10
346.2680359359678
 20
941.517912682665
 30
0.0
 10
339.7989352691082
 20
942.1810132748606
 30
0.0
 10
333.2487894086357
 20
942.8781444581593
 30
0.0
 10
326.6173199452232
 20
943.6072332694268
 30
0.0
 10
322.1720528442685
 20
944.116576251058
 30
0.0
 10
319.9351184598878
 20
944.3728863451822
 30
0.0
  0
SPLINE
  5
72
330
1F
100
AcDbEntity
  8
0
  6
Continuous
 62
     7
370
    40
100
AcDbSpline
210
0.0
220
0.0
230
1.0
 70
     8
 71
     3
 72
    38
 73
    34
 74
     0
 42
0.00000001
 43
0.00000001
 12
1.0
 22
0.0
 32
0.0
 13
1.0
 23
0.0
 33
0.0
 40
0.0
 40
0.0
 40
0.0
 40
0.0
 40
0.0101694865385063
 40
0.0203930076211961
 40
0.03067130443172
 40
0.0410050830867683
 40
0.0513950145191997
 40
0.0618417343760802
 40
0.0723458429366462
 40
0.0829079050528729
 40
0.0935284501154827
 40
0.1042079720485357
 40
0.1149469293358667
 40
0.1257457450828531
 40
0.1862092855358766
 40
0.2505617776894464
 40
0.2810742673161228
 40
0.3130440723614222
 40
0.3757860642980166
 40
0.4380543850286642
 40
0.5002766613319404
 40
0.5629018675838002
 40
0.6255009013857579
 40
0.6910195690838753
 40
0.7501098991106602
 40
0.8130204163703079
 40
0.8751984108080221
 40
0.8959634968676536
 40
0.9167597861016783
 40
0.937574573259513
 40
0.9583949349439704
 40
0.9792077965632384
 40
1.0
 40
1.0
 40
1.0
 40
1.0
 10
319.935118483024
 20
944.3728863451822
 30
0.0
 10
319.7556818681392
 20
944.3942470546182
 30
0.0
 10
319.3958552199585
 20
944.437081971472
 30
0.0
 10
318.8567913260208
 20
944.5093460952011
 30
0.0
 10
318.3166512533245
 20
944.58767398172
 30
0.0
 10
317.775757013011
 20
944.6726388765252
 30
0.0
 10
317.2342586961541
 20
944.7640869566291
 30
0.0
 10
316.6923584954223
 20
944.8620601858519
 30
0.0
 10
316.1502500065144
 20
944.9665470172383
 30
0.0
 10
315.6081347236693
 20
945.0775496019434
 30
0.0
 10
315.0662165446895
 20
945.195065936731
 30
0.0
 10
314.5247064340178
 20
945.3190933520972
 30
0.0
 10
313.9838084052848
 20
945.44963241065
 30
0.0
 10
312.6168902772147
 20
945.7964889626854
 30
0.0
 10
310.4106709658165
 20
946.4492138502642
 30
0.0
 10
308.0164563262433
 20
947.3252082610735
 30
0.0
 10
306.1548818049851
 20
948.10445070962
 30
0.0
 10
304.3786722129769
 20
948.9089160155619
 30
0.0
 10
302.2725678735911
 20
949.9744045404291
 30
0.0
 10
299.9600244688012
 20
951.2992217103596
 30
0.0
 10
297.8528453052173
 20
952.6446226156042
 30
0.0
 10
295.95254451839
 20
953.9805867812643
 30
0.0
 10
294.2413613215336
 20
955.2958014601965
 30
0.0
 10
292.7938371473837
 20
956.5055643375356
 30
0.0
 10
291.5840090253112
 20
957.6103501931353
 30
0.0
 10
290.6391061027105
 20
958.5660769232758
 30
0.0
 10
290.1032716636606
 20
959.2207093505436
 30
0.0
 10
289.8273543326513
 20
959.6357483398848
 30
0.0
 10
289.6935488328066
 20
959.8703155240416
 30
0.0
 10
289.5919968762305
 20
960.0902410170361
 30
0.0
 10
289.5239733095478
 20
960.2951032657702
 30
0.0
 10
289.4867503405652
 20
960.4861773757177
 30
0.0
 10
289.490196857382
 20
960.6010940235836
 30
0.0
 10
289.4919192601401
 20
960.6585238177079
 30
0.0
  0
LINE
  5
73
330
1F
100
AcDbEntity
  8
0
  6
Continuous
 62
     7
370
    40
100
AcDbLine
 10
292.4509359606
 20
949.9620490746
 30
0.0
 11
292.4509359606
 21
944.3719769794
 31
0.0
  0
LINE
  5
74
330
1F
100
AcDbEntity
  8
0
  6
Continuous
 62
     7
370
    40
100
AcDbLine
 10
288.4509359606
 20
944.3719769794
 30
0.0
 11
288.4509359606
 21
952.8404512142
 31
0.0
  0
LINE
  5
75
330
1F
100
AcDbEntity
  8
0
  6
Continuous
 62
     7
370
    40
100
AcDbLine
 10
288.882059236
 20
955.5624564472
 30
0.0
 11
288.4509359606
 21
952.8404512142
 31
0.0
  0
LINE
  5
76
330
1F
100
AcDbEntity
  8
0
  6
Continuous
 62
     7
370
    40
100
AcDbLine
 10
288.4509359606
 20
934.7477605702
 30
0.0
 11
288.4509359606
 21
944.3719769794
 31
0.0
  0
LINE
  5
77
330
1F
100
AcDbEntity
  8
0
  6
Continuous
 62
     7
370
    40
100
AcDbLine
 10
292.4509359606
 20
934.7477605702
 30
0.0
 11
292.4509359606
 21
944.3719769794
 31
0.0
  0
LINE
  5
78
330
1F
100
AcDbEntity
  8
0
  6
Continuous
 62
     7
370
    40
100
AcDbLine
 10
288.4509359606
 20
904.6850733085
 30
0.0
 11
288.4509359606
 21
934.7477605702
 31
0.0
  0
LINE
  5
79
330
1F
100
AcDbEntity
  8
0
  6
Continuous
 62
     7
370
    40
100
AcDbLine
 10
292.4509359606
 20
904.6850733085
 30
0.0
 11
292.4509359606
 21
934.7477605702
 31
0.0
  0
LINE
  5
7A
330
1F
100
AcDbEntity
  8
0
  6
Continuous
 62
     7
370
    40
100
AcDbLine
 10
370.4509359606
 20
955.0337362536
 30
0.0
 11
370.4509359606
 21
965.3404512142
 31
0.0
  0
LINE
  5
7B
330
1F
100
AcDbEntity
  8
0
  6
Continuous
 62
     7
370
    40
100
AcDbLine
 10
370.4509359606
 20
904.3404512142
 30
0.0
 11
370.4509359606
 21
931.4802404094
 31
0.0
  0
LINE
  5
7C
330
1F
100
AcDbEntity
  8
0
  6
Continuous
 62
     7
370
    40
100
AcDbLine
 10
288.4509359606
 20
952.8404512142
 30
0.0
 11
288.4509359606
 21
965.3404512142
 31
0.0
  0
LINE
  5
7D
330
1F
100
AcDbEntity
  8
0
  6
Continuous
 62
     7
370
    40
100
AcDbLine
 10
288.4509359606
 20
904.3404512142
 30
0.0
 11
288.4509359606
 21
904.6850733085
 31
0.0
  0
LINE
  5
7E
330
1F
100
AcDbEntity
  8
0
  6
Continuous
 62
     7
370
    40
100
AcDbLine
 10
665.0057403589
 20
955.6513056186
 30
0.0
 11
665.4509359606
 21
952.8404512142
 31
0.0
  0
LINE
  5
7F
330
1F
100
AcDbEntity
  8
0
  6
Continuous
 62
     7
370
    40
100
AcDbLine
 10
665.4509359606
 20
952.8404512142
 30
0.0
 11
665.4509359606
 21
944.3719769794
 31
0.0
  0
LINE
  5
80
330
1F
100
AcDbEntity
  8
0
  6
Continuous
 62
     7
370
    40
100
AcDbLine
 10
661.4509359606
 20
944.3719769794
 30
0.0
 11
661.4509359606
 21
949.9190453667
 31
0.0
  0
LINE
  5
81
330
1F
100
AcDbEntity
  8
0
  6
Continuous
 62
     7
370
    40
100
AcDbLine
 10
665.4509359606
 20
944.3719769794
 30
0.0
 11
665.4509359606
 21
934.7477605702
 31
0.0
  0
LINE
  5
82
330
1F
100
AcDbEntity
  8
0
  6
Continuous
 62
     7
370
    40
100
AcDbLine
 10
661.4509359606
 20
944.3719769794
 30
0.0
 11
661.4509359606
 21
934.7477605702
 31
0.0
  0
LINE
  5
83
330
1F
100
AcDbEntity
  8
0
  6
Continuous
 62
     7
370
    40
100
AcDbLine
 10
665.4509359606
 20
934.7477605702
 30
0.0
 11
665.4509359606
 21
904.6850733085
 31
0.0
  0
LINE
  5
84
330
1F
100
AcDbEntity
  8
0
  6
Continuous
 62
     7
370
    40
100
AcDbLine
 10
661.4509359606
 20
934.7477605702
 30
0.0
 11
661.4509359606
 21
904.6850733085
 31
0.0
  0
LINE
  5
85
330
1F
100
AcDbEntity
  8
0
  6
Continuous
 62
     7
370
    40
100
AcDbLine
 10
583.4509359606
 20
965.3404512142
 30
0.0
 11
583.4509359606
 21
955.0135612966
 31
0.0
  0
LINE
  5
86
330
1F
100
AcDbEntity
  8
0
  6
Continuous
 62
     7
370
    40
100
AcDbLine
 10
583.4509359606
 20
931.5583631249
 30
0.0
 11
583.4509359606
 21
904.3404512142
 31
0.0
  0
LINE
  5
87
330
1F
100
AcDbEntity
  8
0
  6
Continuous
 62
     7
370
    40
100
AcDbLine
 10
665.4509359606
 20
904.6850733085
 30
0.0
 11
665.4509359606
 21
904.3404512142
 31
0.0
  0
LINE
  5
88
330
1F
100
AcDbEntity
  8
0
  6
Continuous
 62
     7
370
    40
100
AcDbLine
 10
665.4509359606
 20
965.3404512142
 30
0.0
 11
665.4509359606
 21
952.8404512142
 31
0.0
  0
LINE
  5
89
330
1F
100
AcDbEntity
  8
0
  6
Continuous
 62
     7
370
    40
100
AcDbLine
 10
286.9509359606
 20
966.8404512142
 30
0.0
 11
286.9509359606
 21
906.1567512414
 31
0.0
  0
LINE
  5
8A
330
1F
100
AcDbEntity
  8
0
  6
Continuous
 62
     7
370
    40
100
AcDbLine
 10
272.9509359606
 20
966.8404512142
 30
0.0
 11
272.9509359606
 21
906.1567512414
 31
0.0
  0
LINE
  5
8B
330
1F
100
AcDbEntity
  8
0
  6
Continuous
 62
     7
370
    40
100
AcDbLine
 10
372.1509359606
 20
964.8404512142
 30
0.0
 11
372.1509359606
 21
954.8894702798
 31
0.0
  0
LINE
  5
8C
330
1F
100
AcDbEntity
  8
0
  6
Continuous
 62
     7
370
    40
100
AcDbLine
 10
372.1509359606
 20
931.3416216379
 30
0.0
 11
372.1509359606
 21
904.8404512142
 31
0.0
  0
LINE
  5
8D
330
1F
100
AcDbEntity
  8
0
  6
Continuous
 62
     7
370
    40
100
AcDbLine
 10
286.9509359606
 20
874.8404512142
 30
0.0
 11
277.9509359606
 21
874.8404512142
 31
0.0
  0
LINE
  5
8E
330
1F
100
AcDbEntity
  8
0
  6
Continuous
 62
     7
370
    40
100
AcDbLine
 10
277.9509359606
 20
874.8404512142
 30
0.0
 11
277.9509359606
 21
734.461554795
 31
0.0
  0
LINE
  5
8F
330
1F
100
AcDbEntity
  8
0
  6
Continuous
 62
     7
370
    40
100
AcDbLine
 10
272.9509359606
 20
906.1567512414
 30
0.0
 11
272.9509359606
 21
734.461554795
 31
0.0
  0
LINE
  5
90
330
1F
100
AcDbEntity
  8
0
  6
Continuous
 62
     7
370
    40
100
AcDbLine
 10
286.9509359606
 20
906.1567512414
 30
0.0
 11
286.9509359606
 21
874.8404512142
 31
0.0
  0
LINE
  5
91
330
1F
100
AcDbEntity
  8
0
  6
Continuous
 62
     7
370
    40
100
AcDbLine
 10
374.1509359606
 20
931.1526575851
 30
0.0
 11
374.1509359606
 21
922.8404512142
 31
0.0
  0
LINE
  5
92
330
1F
100
AcDbEntity
  8
0
  6
Continuous
 62
     7
370
    40
100
AcDbLine
 10
277.9509359606
 20
724.8404512142
 30
0.0
 11
272.9509359606
 21
724.8404512142
 31
0.0
  0
LINE
  5
93
330
1F
100
AcDbEntity
  8
0
  6
Continuous
 62
     7
370
    40
100
AcDbLine
 10
277.9509359606
 20
734.461554795
 30
0.0
 11
277.9509359606
 21
724.8404512142
 31
0.0
  0
LINE
  5
94
330
1F
100
AcDbEntity
  8
0
  6
Continuous
 62
     7
370
    40
100
AcDbLine
 10
272.9509359606
 20
734.461554795
 30
0.0
 11
272.9509359606
 21
724.8404512142
 31
0.0
  0
LINE
  5
95
330
1F
100
AcDbEntity
  8
0
  6
Continuous
 62
     7
370
    40
100
AcDbLine
 10
286.9509359606
 20
874.8404512142
 30
0.0
 11
289.9509359606
 21
871.8404512142
 31
0.0
  0
LINE
  5
96
330
1F
100
AcDbEntity
  8
0
  6
Continuous
 62
     7
370
    40
100
AcDbLine
 10
277.9509359606
 20
874.8404512142
 30
0.0
 11
280.9509359606
 21
871.8404512142
 31
0.0
  0
LINE
  5
97
330
1F
100
AcDbEntity
  8
0
  6
Continuous
 62
     7
370
    40
100
AcDbLine
 10
280.9509359606
 20
724.8404512142
 30
0.0
 11
277.9509359606
 21
724.8404512142
 31
0.0
  0
LINE
  5
98
330
1F
100
AcDbEntity
  8
0
  6
Continuous
 62
     7
370
    40
100
AcDbLine
 10
320.9509359606
 20
904.3404512142
 30
0.0
 11
320.9509359606
 21
739.8404512142
 31
0.0
  0
ARC
  5
99
330
1F
100
AcDbEntity
  8
0
  6
Continuous
 62
     7
370
    40
100
AcDbCircle
 10
305.9509359606
 20
739.8404512142
 30
0.0
 40
15.00000000000011
100
AcDbArc
 50
270.0
 51
0.0
  0
CIRCLE
  5
9A
330
1F
100
AcDbEntity
  8
0
  6
Continuous
 62
     7
370
    40
100
AcDbCircle
 10
306.9509359606
 20
744.8404512142
 30
0.0
 40
5.5
  0
CIRCLE
  5
9B
330
1F
100
AcDbEntity
  8
0
  6
Continuous
 62
     7
370
    40
100
AcDbCircle
 10
306.9509359606
 20
894.8404512142
 30
0.0
 40
5.5
  0
LINE
  5
9C
330
1F
100
AcDbEntity
  8
0
  6
Continuous
 62
     7
370
    40
100
AcDbLine
 10
305.9509359606
 20
724.8404512142
 30
0.0
 11
280.9509359606
 21
724.8404512142
 31
0.0
  0
LINE
  5
9D
330
1F
100
AcDbEntity
  8
0
  6
Continuous
 62
     7
370
    40
100
AcDbLine
 10
666.9509359606
 20
966.8404512142
 30
0.0
 11
666.9509359606
 21
906.1567512414
 31
0.0
  0
LINE
  5
9E
330
1F
100
AcDbEntity
  8
0
  6
Continuous
 62
     7
370
    40
100
AcDbLine
 10
680.9509359606
 20
966.8404512142
 30
0.0
 11
680.9509359606
 21
906.1567512414
 31
0.0
  0
LINE
  5
9F
330
1F
100
AcDbEntity
  8
0
  6
Continuous
 62
     7
370
    40
100
AcDbLine
 10
581.7509359606
 20
964.8404512142
 30
0.0
 11
581.7509359606
 21
954.8888101636
 31
0.0
  0
LINE
  5
A0
330
1F
100
AcDbEntity
  8
0
  6
Continuous
 62
     7
370
    40
100
AcDbLine
 10
581.7509359606
 20
931.4170319007
 30
0.0
 11
581.7509359606
 21
904.8404512142
 31
0.0
  0
LINE
  5
A1
330
1F
100
AcDbEntity
  8
0
  6
Continuous
 62
     7
370
    40
100
AcDbLine
 10
675.9509359606
 20
874.8404512142
 30
0.0
 11
675.9509359606
 21
734.461554795
 31
0.0
  0
LINE
  5
A2
330
1F
100
AcDbEntity
  8
0
  6
Continuous
 62
     7
370
    40
100
AcDbLine
 10
666.9509359606
 20
874.8404512142
 30
0.0
 11
675.9509359606
 21
874.8404512142
 31
0.0
  0
LINE
  5
A3
330
1F
100
AcDbEntity
  8
0
  6
Continuous
 62
     7
370
    40
100
AcDbLine
 10
680.9509359606
 20
906.1567512414
 30
0.0
 11
680.9509359606
 21
734.461554795
 31
0.0
  0
LINE
  5
A4
330
1F
100
AcDbEntity
  8
0
  6
Continuous
 62
     7
370
    40
100
AcDbLine
 10
666.9509359606
 20
906.1567512414
 30
0.0
 11
666.9509359606
 21
874.8404512142
 31
0.0
  0
LINE
  5
A5
330
1F
100
AcDbEntity
  8
0
  6
Continuous
 62
     7
370
    40
100
AcDbLine
 10
579.7509359606
 20
931.2296759285
 30
0.0
 11
579.7509359606
 21
922.8404512142
 31
0.0
  0
LINE
  5
A6
330
1F
100
AcDbEntity
  8
0
  6
Continuous
 62
     7
370
    40
100
AcDbLine
 10
675.9509359606
 20
724.8404512142
 30
0.0
 11
680.9509359606
 21
724.8404512142
 31
0.0
  0
LINE
  5
A7
330
1F
100
AcDbEntity
  8
0
  6
Continuous
 62
     7
370
    40
100
AcDbLine
 10
675.9509359606
 20
734.461554795
 30
0.0
 11
675.9509359606
 21
724.8404512142
 31
0.0
  0
LINE
  5
A8
330
1F
100
AcDbEntity
  8
0
  6
Continuous
 62
     7
370
    40
100
AcDbLine
 10
680.9509359606
 20
734.461554795
 30
0.0
 11
680.9509359606
 21
724.8404512142
 31
0.0
  0
LINE
  5
A9
330
1F
100
AcDbEntity
  8
0
  6
Continuous
 62
     7
370
    40
100
AcDbLine
 10
666.9509359606
 20
874.8404512142
 30
0.0
 11
663.9509359606
 21
871.8404512142
 31
0.0
  0
LINE
  5
AA
330
1F
100
AcDbEntity
  8
0
  6
Continuous
 62
     7
370
    40
100
AcDbLine
 10
675.9509359606
 20
874.8404512142
 30
0.0
 11
672.9509359606
 21
871.8404512142
 31
0.0
  0
LINE
  5
AB
330
1F
100
AcDbEntity
  8
0
  6
Continuous
 62
     7
370
    40
100
AcDbLine
 10
672.9509359606
 20
724.8404512142
 30
0.0
 11
675.9509359606
 21
724.8404512142
 31
0.0
  0
ARC
  5
AC
330
1F
100
AcDbEntity
  8
0
  6
Continuous
 62
     7
370
    40
100
AcDbCircle
 10
647.9509359606
 20
739.8404512142
 30
0.0
 40
15.00000000000011
100
AcDbArc
 50
180.0
 51
270.0
  0
CIRCLE
  5
AD
330
1F
100
AcDbEntity
  8
0
  6
Continuous
 62
     7
370
    40
100
AcDbCircle
 10
646.9509359606
 20
744.8404512142
 30
0.0
 40
5.5
  0
CIRCLE
  5
AE
330
1F
100
AcDbEntity
  8
0
  6
Continuous
 62
     7
370
    40
100
AcDbCircle
 10
646.9509359606
 20
894.8404512142
 30
0.0
 40
5.5
  0
LINE
  5
AF
330
1F
100
AcDbEntity
  8
0
  6
Continuous
 62
     7
370
    40
100
AcDbLine
 10
632.9509359606
 20
904.3404512142
 30
0.0
 11
632.9509359606
 21
739.8404512142
 31
0.0
  0
LINE
  5
B0
330
1F
100
AcDbEntity
  8
0
  6
Continuous
 62
     7
370
    40
100
AcDbLine
 10
647.9509359606
 20
724.8404512142
 30
0.0
 11
672.9509359606
 21
724.8404512142
 31
0.0
  0
SPLINE
  5
B1
330
1F
100
AcDbEntity
  8
0
  6
Continuous
 62
     7
370
    40
100
AcDbSpline
210
0.0
220
0.0
230
1.0
 70
     8
 71
     3
 72
    17
 73
    13
 74
     0
 42
0.00000001
 43
0.00000001
 12
1.0
 22
0.0
 32
0.0
 13
1.0
 23
0.0
 33
0.0
 40
0.0
 40
0.0
 40
0.0
 40
0.0
 40
0.1027884152166896
 40
0.2055775922145574
 40
0.3083597951117418
 40
0.4111416022510693
 40
0.5140166622155788
 40
0.6168893695552737
 40
0.7193926476484537
 40
0.821897439434609
 40
0.9109470265300924
 40
1.0
 40
1.0
 40
1.0
 40
1.0
 10
652.0775666536283
 20
1298.070159070862
 30
0.0
 10
652.1896258951941
 20
1300.282941572032
 30
0.0
 10
652.4137452088147
 20
1304.708522973652
 30
0.0
 10
651.5550866634154
 20
1311.155573498122
 30
0.0
 10
649.7985930414528
 20
1317.224233554912
 30
0.0
 10
647.118119865067
 20
1322.77257869287
 30
0.0
 10
643.5493770198331
 20
1327.628193050162
 30
0.0
 10
639.2055609906165
 20
1331.684771675126
 30
0.0
 10
634.1686702576987
 20
1334.807269414192
 30
0.0
 10
628.8429405807249
 20
1336.839114069824
 30
0.0
 10
623.4257243173022
 20
1337.93014972686
 30
0.0
 10
619.8514419399281
 20
1337.948669373936
 30
0.0
 10
618.0642667712175
 20
1337.957929373537
 30
0.0
  0
SPLINE
  5
B2
330
1F
100
AcDbEntity
  8
0
  6
Continuous
 62
     7
370
    40
100
AcDbSpline
210
0.0
220
0.0
230
1.0
 70
     8
 71
     3
 72
    11
 73
     7
 74
     0
 42
0.00000001
 43
0.00000001
 12
1.0
 22
0.0
 32
0.0
 13
1.0
 23
0.0
 33
0.0
 40
0.0
 40
0.0
 40
0.0
 40
0.0
 40
0.2494254638793235
 40
0.4989333509671712
 40
0.7495660021170535
 40
1.0
 40
1.0
 40
1.0
 40
1.0
 10
645.3695943835748
 20
1224.95450423107
 30
0.0
 10
645.9251686398261
 20
1231.049315766085
 30
0.0
 10
647.0365007430978
 20
1243.240952880367
 30
0.0
 10
648.7226774237664
 20
1261.541428080545
 30
0.0
 10
650.4036968542322
 20
1279.853193601356
 30
0.0
 10
651.519757459764
 20
1291.999442447741
 30
0.0
 10
652.0775665254093
 20
1298.070159115379
 30
0.0
  0
SPLINE
  5
B3
330
1F
100
AcDbEntity
  8
0
  6
Continuous
 62
     7
370
    40
100
AcDbSpline
210
0.0
220
0.0
230
1.0
 70
     8
 71
     3
 72
    16
 73
    12
 74
     0
 42
0.00000001
 43
0.00000001
 12
1.0
 22
0.0
 32
0.0
 13
1.0
 23
0.0
 33
0.0
 40
0.0
 40
0.0
 40
0.0
 40
0.0
 40
0.1144528146114961
 40
0.2288997840928978
 40
0.3433780281686736
 40
0.457856254115905
 40
0.5719076729793602
 40
0.6859606972874522
 40
0.8002598914601664
 40
0.9145591612601497
 40
1.0
 40
1.0
 40
1.0
 40
1.0
 10
604.7505258172507
 20
1182.952273679176
 30
0.0
 10
607.101337796499
 20
1183.158197440202
 30
0.0
 10
611.8028416985173
 20
1183.570034445682
 30
0.0
 10
618.580303329383
 20
1185.763022942379
 30
0.0
 10
624.9034491818798
 20
1189.088795049849
 30
0.0
 10
630.6146678830163
 20
1193.517821446879
 30
0.0
 10
635.5402945910866
 20
1198.930273599836
 30
0.0
 10
639.6079245663087
 20
1205.141235759575
 30
0.0
 10
642.6681384479228
 20
1212.009482403076
 30
0.0
 10
644.5977676989581
 20
1218.699388247566
 30
0.0
 10
645.1383533572623
 20
1223.080457740531
 30
0.0
 10
645.3695943052817
 20
1224.954504244224
 30
0.0
  0
SPLINE
  5
B4
330
1F
100
AcDbEntity
  8
0
  6
Continuous
 62
     7
370
    40
100
AcDbSpline
210
0.0
220
0.0
230
1.0
 70
     8
 71
     3
 72
    21
 73
    17
 74
     0
 42
0.00000001
 43
0.00000001
 12
1.0
 22
0.0
 32
0.0
 13
1.0
 23
0.0
 33
0.0
 40
0.0
 40
0.0
 40
0.0
 40
0.0
 40
0.0574739673394781
 40
0.1149490793974923
 40
0.1724234716929716
 40
0.2543176507418593
 40
0.3362116826659162
 40
0.4181057241842975
 40
0.4999999999999999
 40
0.581894275815702
 40
0.6637883173340834
 40
0.7456823492581406
 40
0.8275765283070285
 40
0.8850509206025075
 40
0.9425260326605213
 40
1.0
 40
1.0
 40
1.0
 40
1.0
 10
349.1513462517151
 20
1182.952273705288
 30
0.0
 10
353.8438235405556
 20
1182.796652775922
 30
0.0
 10
363.2288715790847
 20
1182.485407817662
 30
0.0
 10
377.5750813600073
 20
1182.086420346873
 30
0.0
 10
394.1396716014134
 20
1181.688704580575
 30
0.0
 10
413.0073574145467
 20
1181.328658676198
 30
0.0
 10
434.1899551115359
 20
1181.041617559317
 30
0.0
 10
455.5311009515794
 20
1180.869134754285
 30
0.0
 10
476.9509359605909
 20
1180.811494410329
 30
0.0
 10
498.3707709696024
 20
1180.869134754285
 30
0.0
 10
519.7119168096459
 20
1181.041617559317
 30
0.0
 10
540.8945145066351
 20
1181.328658676198
 30
0.0
 10
559.7622003197686
 20
1181.688704580575
 30
0.0
 10
576.3267905611744
 20
1182.086420346873
 30
0.0
 10
590.6730003420971
 20
1182.485407817662
 30
0.0
 10
600.0580483806262
 20
1182.796652775922
 30
0.0
 10
604.7505256694668
 20
1182.952273705288
 30
0.0
  0
SPLINE
  5
B5
330
1F
100
AcDbEntity
  8
0
  6
Continuous
 62
     7
370
    40
100
AcDbSpline
210
0.0
220
0.0
230
1.0
 70
     8
 71
     3
 72
    16
 73
    12
 74
     0
 42
0.00000001
 43
0.00000001
 12
1.0
 22
0.0
 32
0.0
 13
1.0
 23
0.0
 33
0.0
 40
0.0
 40
0.0
 40
0.0
 40
0.0
 40
0.1144966919242426
 40
0.2289936046711638
 40
0.3434921655910278
 40
0.4579895836758855
 40
0.5724168573208742
 40
0.6868429083924288
 40
0.8009449494020415
 40
0.9150505045394862
 40
1.0
 40
1.0
 40
1.0
 40
1.0
 10
308.5322776159
 20
1224.954504244225
 30
0.0
 10
308.8702859039777
 20
1222.443925128763
 30
0.0
 10
309.5463031320286
 20
1217.422762055842
 30
0.0
 10
311.9194964572764
 20
1210.193883095684
 30
0.0
 10
315.2630941788466
 20
1203.466654865631
 30
0.0
 10
319.5643786888652
 20
1197.418400932983
 30
0.0
 10
324.732158683432
 20
1192.256535007818
 30
0.0
 10
330.6063224717275
 20
1188.088010883672
 30
0.0
 10
337.0612408529515
 20
1185.098177761888
 30
0.0
 10
343.3158258079907
 20
1183.38106996799
 30
0.0
 10
347.4058652242427
 20
1183.080532289454
 30
0.0
 10
349.1513461039315
 20
1182.952273679176
 30
0.0
  0
SPLINE
  5
B6
330
1F
100
AcDbEntity
  8
0
  6
Continuous
 62
     7
370
    40
100
AcDbSpline
210
0.0
220
0.0
230
1.0
 70
     8
 71
     3
 72
    11
 73
     7
 74
     0
 42
0.00000001
 43
0.00000001
 12
1.0
 22
0.0
 32
0.0
 13
1.0
 23
0.0
 33
0.0
 40
0.0
 40
0.0
 40
0.0
 40
0.0
 40
0.2504335976914366
 40
0.5010669253798592
 40
0.7505747521947574
 40
1.0
 40
1.0
 40
1.0
 40
1.0
 10
301.824284182866
 20
1298.070351691787
 30
0.0
 10
302.3820957605506
 20
1291.999641819207
 30
0.0
 10
303.4981637911512
 20
1279.853380459839
 30
0.0
 10
305.1791827692229
 20
1261.541552615528
 30
0.0
 10
306.8653665994597
 20
1243.241003741316
 30
0.0
 10
307.9767018710343
 20
1231.0493314484
 30
0.0
 10
308.5322775376071
 20
1224.95450423107
 30
0.0
  0
SPLINE
  5
B7
330
1F
100
AcDbEntity
  8
0
  6
Continuous
 62
     7
370
    40
100
AcDbSpline
210
0.0
220
0.0
230
1.0
 70
     8
 71
     3
 72
    17
 73
    13
 74
     0
 42
0.00000001
 43
0.00000001
 12
1.0
 22
0.0
 32
0.0
 13
1.0
 23
0.0
 33
0.0
 40
0.0
 40
0.0
 40
0.0
 40
0.0
 40
0.1027882614913144
 40
0.2055707704355414
 40
0.3083886670735964
 40
0.4112057739812693
 40
0.5135058861837779
 40
0.6158083809792415
 40
0.7183542571279383
 40
0.8209000491878905
 40
0.91045020226387
 40
1.0
 40
1.0
 40
1.0
 40
1.0
 10
335.837851171692
 20
1337.957919834225
 30
0.0
 10
333.7759374642476
 20
1337.932701252759
 30
0.0
 10
329.6522254444001
 20
1337.882265501184
 30
0.0
 10
323.7592252626657
 20
1336.461445632486
 30
0.0
 10
318.3084308847002
 20
1334.055362469961
 30
0.0
 10
313.4441366250741
 20
1330.672861465297
 30
0.0
 10
309.3175361116818
 20
1326.397501392099
 30
0.0
 10
305.9891947508428
 20
1321.370140169021
 30
0.0
 10
303.554963417242
 20
1315.68757156214
 30
0.0
 10
302.1095261625365
 20
1309.780474527611
 30
0.0
 10
301.4994965829424
 20
1303.852770358989
 30
0.0
 10
301.71602170261
 20
1299.99782200011
 30
0.0
 10
301.8242840476475
 20
1298.070351644838
 30
0.0
  0
SPLINE
  5
B8
330
1F
100
AcDbEntity
  8
0
  6
Continuous
 62
     7
370
    40
100
AcDbSpline
210
0.0
220
0.0
230
1.0
 70
     8
 71
     3
 72
    23
 73
    19
 74
     0
 42
0.00000001
 43
0.00000001
 12
1.0
 22
0.0
 32
0.0
 13
1.0
 23
0.0
 33
0.0
 40
0.0
 40
0.0
 40
0.0
 40
0.0
 40
0.0590102836015405
 40
0.1180213000596771
 40
0.1770310475707669
 40
0.2416253723007538
 40
0.3062199534172131
 40
0.3708128325966057
 40
0.4354069888608493
 40
0.500000460270981
 40
0.564593931681113
 40
0.6291880879453572
 40
0.6937809671247498
 40
0.7583755482412082
 40
0.8229698729711947
 40
0.8819793136339146
 40
0.9409900232421017
 40
1.0
 40
1.0
 40
1.0
 40
1.0
 10
618.0642662189221
 20
1337.957929659722
 30
0.0
 10
612.7783418119596
 20
1337.760707575912
 30
0.0
 10
602.2064273514335
 20
1337.366260958964
 30
0.0
 10
585.9900631269693
 20
1336.862445637992
 30
0.0
 10
569.0381192481555
 20
1336.410533155445
 30
0.0
 10
551.3339414142695
 20
1336.026074632023
 30
0.0
 10
532.9107526149128
 20
1335.716668670893
 30
0.0
 10
514.3394679169862
 20
1335.495174436377
 30
0.0
 10
495.6698967677756
 20
1335.362069895153
 30
0.0
 10
476.9509359605912
 20
1335.317600013273
 30
0.0
 10
458.2319751534047
 20
1335.362069895157
 30
0.0
 10
439.5624040042002
 20
1335.495174436363
 30
0.0
 10
420.9911193062511
 20
1335.716668670947
 30
0.0
 10
402.5679305069783
 20
1336.026074631824
 30
0.0
 10
384.8637815385536
 20
1336.410532529322
 30
0.0
 10
367.9118940661993
 20
1336.862443294258
 30
0.0
 10
351.6956123410972
 20
1337.366255466159
 30
0.0
 10
341.1237500476336
 20
1337.760699385407
 30
0.0
 10
335.8378517239286
 20
1337.957920120379
 30
0.0
  0
SPLINE
  5
B9
330
1F
100
AcDbEntity
  8
0
  6
Continuous
 62
     7
370
    40
100
AcDbSpline
210
0.0
220
0.0
230
1.0
 70
     8
 71
     3
 72
    16
 73
    12
 74
     0
 42
0.00000001
 43
0.00000001
 12
1.0
 22
0.0
 32
0.0
 13
1.0
 23
0.0
 33
0.0
 40
0.0
 40
0.0
 40
0.0
 40
0.0
 40
0.1146664664437443
 40
0.2293331550663442
 40
0.3440014379931947
 40
0.458668602254094
 40
0.573267022363097
 40
0.6878642699130173
 40
0.8021464626714593
 40
0.9164321092057341
 40
1.0
 40
1.0
 40
1.0
 40
1.0
 10
648.2273867462789
 20
1224.482646389189
 30
0.0
 10
647.8837371415501
 20
1221.972795031278
 30
0.0
 10
647.1964372662337
 20
1216.953087452346
 30
0.0
 10
644.8072253394789
 20
1209.730403568769
 30
0.0
 10
641.4489378989169
 20
1203.012197127294
 30
0.0
 10
637.1348718892909
 20
1196.975662249774
 30
0.0
 10
631.9568924510777
 20
1191.827833369521
 30
0.0
 10
626.0753671794231
 20
1187.675106531137
 30
0.0
 10
619.6165139491701
 20
1184.70227490051
 30
0.0
 10
613.391503115535
 20
1183.010538704813
 30
0.0
 10
609.3353052106415
 20
1182.716287703564
 30
0.0
 10
607.6220788102805
 20
1182.59200417611
 30
0.0
  0
SPLINE
  5
BA
330
1F
100
AcDbEntity
  8
0
  6
Continuous
 62
     7
370
    40
100
AcDbSpline
210
0.0
220
0.0
230
1.0
 70
     8
 71
     3
 72
    16
 73
    12
 74
     0
 42
0.00000001
 43
0.00000001
 12
1.0
 22
0.0
 32
0.0
 13
1.0
 23
0.0
 33
0.0
 40
0.0
 40
0.0
 40
0.0
 40
0.0
 40
0.1146246338077411
 40
0.2292435935014383
 40
0.3438929211977628
 40
0.4585422302516141
 40
0.5727770095740643
 40
0.6870133492841349
 40
0.8014889312557213
 40
0.9159645767115712
 40
1.0
 40
1.0
 40
1.0
 40
1.0
 10
346.2797931109017
 20
1182.59200417611
 30
0.0
 10
343.9307351830512
 20
1182.797139196405
 30
0.0
 10
339.232735609707
 20
1183.207399082465
 30
0.0
 10
332.458935317432
 20
1185.398446076126
 30
0.0
 10
326.138132661619
 20
1188.722330570798
 30
0.0
 10
320.4277182256955
 20
1193.149735740394
 30
0.0
 10
315.5015255397782
 20
1198.561002181004
 30
0.0
 10
311.4325224969244
 20
1204.771253250645
 30
0.0
 10
308.3703170220905
 20
1211.639063840773
 30
0.0
 10
306.4486219713942
 20
1218.296022829472
 30
0.0
 10
305.9047301618722
 20
1222.642611052608
 30
0.0
 10
305.6744851749029
 20
1224.482646389188
 30
0.0
  0
SPLINE
  5
BB
330
1F
100
AcDbEntity
  8
0
  6
Continuous
 62
     7
370
    40
100
AcDbSpline
210
0.0
220
0.0
230
1.0
 70
     8
 71
     3
 72
    11
 73
     7
 74
     0
 42
0.00000001
 43
0.00000001
 12
1.0
 22
0.0
 32
0.0
 13
1.0
 23
0.0
 33
0.0
 40
0.0
 40
0.0
 40
0.0
 40
0.0
 40
0.2503821505502067
 40
0.5007544243943273
 40
0.7507168757250914
 40
1.0
 40
1.0
 40
1.0
 40
1.0
 10
648.227386746279
 20
1224.482646389189
 30
0.0
 10
648.7935346779082
 20
1230.53427539294
 30
0.0
 10
649.9258082085975
 20
1242.6372946847
 30
0.0
 10
651.6241467424275
 20
1260.767744756988
 30
0.0
 10
653.3211988171428
 20
1278.858636807619
 30
0.0
 10
654.4501102688279
 20
1290.831353463821
 30
0.0
 10
655.0137979356927
 20
1296.809566110964
 30
0.0
  0
SPLINE
  5
BC
330
1F
100
AcDbEntity
  8
0
  6
Continuous
 62
     7
370
    40
100
AcDbSpline
210
0.0
220
0.0
230
1.0
 70
     8
 71
     3
 72
    11
 73
     7
 74
     0
 42
0.00000001
 43
0.00000001
 12
1.0
 22
0.0
 32
0.0
 13
1.0
 23
0.0
 33
0.0
 40
0.0
 40
0.0
 40
0.0
 40
0.0
 40
0.2492830773380114
 40
0.4992454559620679
 40
0.7496177845855934
 40
0.9999999999999999
 40
0.9999999999999999
 40
0.9999999999999999
 40
0.9999999999999999
 10
298.8880461689546
 20
1296.809786286098
 30
0.0
 10
299.4517360976396
 20
1290.831569464215
 30
0.0
 10
300.5806520211461
 20
1278.85884506209
 30
0.0
 10
302.2777117260333
 20
1260.767890824184
 30
0.0
 10
303.976056699289
 20
1242.637368997688
 30
0.0
 10
305.1083348978785
 20
1230.53430024549
 30
0.0
 10
305.6744851749029
 20
1224.482646389188
 30
0.0
  0
SPLINE
  5
BD
330
1F
100
AcDbEntity
  8
0
  6
Continuous
 62
     7
370
    40
100
AcDbSpline
210
0.0
220
0.0
230
1.0
 70
     8
 71
     3
 72
    15
 73
    11
 74
     0
 42
0.00000001
 43
0.00000001
 12
1.0
 22
0.0
 32
0.0
 13
1.0
 23
0.0
 33
0.0
 40
0.0
 40
0.0
 40
0.0
 40
0.0
 40
0.0968892910905274
 40
0.2311338252618779
 40
0.3647330342726035
 40
0.4983352549456088
 40
0.6322521680788773
 40
0.7661688783064913
 40
0.8830846632155315
 40
0.9999999999999999
 40
0.9999999999999999
 40
0.9999999999999999
 40
0.9999999999999999
 10
634.6087172438644
 20
1334.43065797201
 30
0.0
 10
635.9359548702674
 20
1333.891139605436
 30
0.0
 10
639.1021407941109
 20
1332.60409392204
 30
0.0
 10
643.4578348007992
 20
1329.432258438318
 30
0.0
 10
647.5860384337961
 20
1325.1724410472
 30
0.0
 10
650.8982312782551
 20
1320.127134993472
 30
0.0
 10
653.3202641690211
 20
1314.437516311632
 30
0.0
 10
654.7523633047879
 20
1308.5236531607
 30
0.0
 10
655.3499207794525
 20
1302.592471484826
 30
0.0
 10
655.1258387404657
 20
1298.737198772778
 30
0.0
 10
655.0137979356928
 20
1296.809566110964
 30
0.0
  0
SPLINE
  5
BE
330
1F
100
AcDbEntity
  8
0
  6
Continuous
 62
     7
370
    40
100
AcDbSpline
210
0.0
220
0.0
230
1.0
 70
     8
 71
     3
 72
    15
 73
    11
 74
     0
 42
0.00000001
 43
0.00000001
 12
1.0
 22
0.0
 32
0.0
 13
1.0
 23
0.0
 33
0.0
 40
0.0
 40
0.0
 40
0.0
 40
0.0
 40
0.1342195341789987
 40
0.268440043737427
 40
0.40265121251951
 40
0.536861966135447
 40
0.671201334870719
 40
0.8055377261038904
 40
0.9394163851957509
 40
1.0
 40
1.0
 40
1.0
 40
1.0
 10
298.8880461689546
 20
1296.809786286099
 30
0.0
 10
298.7716383053451
 20
1299.022868959708
 30
0.0
 10
298.5388217321849
 20
1303.449050389498
 30
0.0
 10
299.3838851729695
 20
1309.89991864409
 30
0.0
 10
301.1261804229823
 20
1315.975717147869
 30
0.0
 10
303.7944757893464
 20
1321.529351531808
 30
0.0
 10
307.3441850161246
 20
1326.407499317434
 30
0.0
 10
311.6968443627493
 20
1330.431443000304
 30
0.0
 10
315.7418514241113
 20
1333.132316079197
 30
0.0
 10
318.4555450399956
 20
1334.102586314029
 30
0.0
 10
319.3009808431856
 20
1334.404868484166
 30
0.0
  0
SPLINE
  5
BF
330
1F
100
AcDbEntity
  8
0
  6
Continuous
 62
     7
370
    40
100
AcDbSpline
210
0.0
220
0.0
230
1.0
 70
     8
 71
     3
 72
    21
 73
    17
 74
     0
 42
0.00000001
 43
0.00000001
 12
1.0
 22
0.0
 32
0.0
 13
1.0
 23
0.0
 33
0.0
 40
0.0
 40
0.0
 40
0.0
 40
0.0
 40
0.0580862808052133
 40
0.1161726691051756
 40
0.1742590209420989
 40
0.2556943003901965
 40
0.3371295255069902
 40
0.4185647268869127
 40
0.4999999999999996
 40
0.5814352731130866
 40
0.662870474493009
 40
0.744305699609803
 40
0.8257409790579008
 40
0.8838273308948238
 40
0.9419137191947861
 40
1.0
 40
1.0
 40
1.0
 40
1.0
 10
346.2797931109016
 20
1182.59200417611
 30
0.0
 10
351.1266789762339
 20
1182.432865616983
 30
0.0
 10
360.8204596765687
 20
1182.114588204227
 30
0.0
 10
375.6445953909112
 20
1181.707294608622
 30
0.0
 10
392.6500757495948
 20
1181.304799103591
 30
0.0
 10
411.9200602195608
 20
1180.942815672619
 30
0.0
 10
433.4628728477233
 20
1180.655442745088
 30
0.0
 10
455.1668994144279
 20
1180.482770519366
 30
0.0
 10
476.9509359605909
 20
1180.425058783984
 30
0.0
 10
498.7349725067539
 20
1180.482770519366
 30
0.0
 10
520.4389990734586
 20
1180.655442745088
 30
0.0
 10
541.981811701621
 20
1180.942815672619
 30
0.0
 10
561.251796171587
 20
1181.304799103591
 30
0.0
 10
578.2572765302707
 20
1181.707294608622
 30
0.0
 10
593.0814122446131
 20
1182.114588204227
 30
0.0
 10
602.775192944948
 20
1182.432865616983
 30
0.0
 10
607.6220788102804
 20
1182.59200417611
 30
0.0
  0
SPLINE
  5
C0
330
1F
100
AcDbEntity
  8
0
  6
HIDDEN
 62
     7
370
     0
100
AcDbSpline
210
0.0
220
0.0
230
1.0
 70
     8
 71
     3
 72
    22
 73
    18
 74
     0
 42
0.00000001
 43
0.00000001
 12
1.0
 22
0.0
 32
0.0
 13
1.0
 23
0.0
 33
0.0
 40
0.0
 40
0.0
 40
0.0
 40
0.0
 40
0.1250000000000004
 40
0.1250000000000004
 40
0.1875000000000005
 40
0.1875000000000005
 40
0.2500000000000006
 40
0.2500000000000006
 40
0.3750000000000007
 40
0.3750000000000007
 40
0.5000000000000008
 40
0.5000000000000008
 40
0.6250000000000009
 40
0.6250000000000009
 40
0.750000000000001
 40
0.750000000000001
 40
1.0
 40
1.0
 40
1.0
 40
1.0
 10
654.798156400713
 20
955.6092226948587
 30
0.0
 10
655.5568233173103
 20
955.6092344264792
 30
0.0
 10
656.3344708299998
 20
955.6092335843668
 30
0.0
 10
657.4509298641386
 20
955.6091984208994
 30
0.0
 10
657.8147582597051
 20
955.609181037162
 30
0.0
 10
658.512062604098
 20
955.6091322028493
 30
0.0
 10
658.8440335284172
 20
955.6088003655175
 30
0.0
 10
659.7790353187019
 20
955.6090171772487
 30
0.0
 10
660.3181829516062
 20
955.6088754868023
 30
0.0
 10
661.2649465377041
 20
955.6087185064945
 30
0.0
 10
661.6724119067903
 20
955.6086680131448
 30
0.0
 10
662.3927888233511
 20
955.6087380923918
 30
0.0
 10
662.7071099091108
 20
955.6091162041258
 30
0.0
 10
663.2814885429581
 20
955.6098420579646
 30
0.0
 10
663.5388787581802
 20
955.6097808285595
 30
0.0
 10
664.2317738471661
 20
955.6106910051168
 30
0.0
 10
664.5802795723924
 20
955.6109422253076
 30
0.0
 10
664.8068816273764
 20
955.6086380685931
 30
0.0
  0
SPLINE
  5
C1
330
1F
100
AcDbEntity
  8
0
  6
HIDDEN
 62
     7
370
     0
100
AcDbSpline
210
0.0
220
0.0
230
1.0
 70
     8
 71
     3
 72
    22
 73
    18
 74
     0
 42
0.00000001
 43
0.00000001
 12
1.0
 22
0.0
 32
0.0
 13
1.0
 23
0.0
 33
0.0
 40
0.0
 40
0.0
 40
0.0
 40
0.0
 40
0.2500000000000022
 40
0.2500000000000022
 40
0.3750000000000035
 40
0.3750000000000035
 40
0.4375000000000041
 40
0.4375000000000041
 40
0.5000000000000048
 40
0.5000000000000048
 40
0.7500000000000041
 40
0.7500000000000041
 40
0.8125000000000031
 40
0.8125000000000031
 40
0.8750000000000021
 40
0.8750000000000021
 40
1.0
 40
1.0
 40
1.0
 40
1.0
 10
635.5979419964162
 20
952.048972727783
 30
0.0
 10
637.9189548440861
 20
952.573991970252
 30
0.0
 10
640.0785778057879
 20
953.063395857667
 30
0.0
 10
643.0909680502832
 20
953.7264918150084
 30
0.0
 10
644.0569240914482
 20
953.9355481195947
 30
0.0
 10
645.4475604550286
 20
954.2274587275215
 30
0.0
 10
645.8993318333321
 20
954.3206987854828
 30
0.0
 10
646.7734646866644
 20
954.4973397931565
 30
0.0
 10
647.196846758993
 20
954.5809625535493
 30
0.0
 10
649.2467633789312
 20
954.975285108226
 30
0.0
 10
650.6748219447505
 20
955.2145686754747
 30
0.0
 10
652.1925822109703
 20
955.4138321360322
 30
0.0
 10
652.4824382589736
 20
955.4486533353412
 30
0.0
 10
653.0294813269005
 20
955.5077752566996
 30
0.0
 10
653.2874162197534
 20
955.5321788629313
 30
0.0
 10
654.0147644422584
 20
955.5903931039718
 30
0.0
 10
654.4378774458468
 20
955.60921715107
 30
0.0
 10
654.7981564117085
 20
955.6092226978499
 30
0.0
  0
SPLINE
  5
C2
330
1F
100
AcDbEntity
  8
0
  6
HIDDEN
 62
     7
370
     0
100
AcDbSpline
210
0.0
220
0.0
230
1.0
 70
     8
 71
     3
 72
     9
 73
     5
 74
     0
 42
0.00000001
 43
0.00000001
 12
1.0
 22
0.0
 32
0.0
 13
1.0
 23
0.0
 33
0.0
 40
0.0
 40
0.0
 40
0.0
 40
0.0
 40
0.6185438547133452
 40
1.0
 40
1.0
 40
1.0
 40
1.0
 10
318.3039289612873
 20
952.0489729970861
 30
0.0
 10
322.6836491596321
 20
951.0635311049837
 30
0.0
 10
329.7643438670019
 20
949.4703669589117
 30
0.0
 10
337.0488307104449
 20
948.0011431501655
 30
0.0
 10
339.827542982136
 20
947.4406986995177
 30
0.0
  0
SPLINE
  5
C3
330
1F
100
AcDbEntity
  8
0
  6
HIDDEN
 62
     7
370
     0
100
AcDbSpline
210
0.0
220
0.0
230
1.0
 70
     8
 71
     3
 72
    13
 73
     9
 74
     0
 42
0.00000001
 43
0.00000001
 12
1.0
 22
0.0
 32
0.0
 13
1.0
 23
0.0
 33
0.0
 40
0.0
 40
0.0
 40
0.0
 40
0.0
 40
0.132592709008117
 40
0.3265596479506476
 40
0.5207876406695912
 40
0.7550822376042019
 40
0.9897863777045232
 40
1.0
 40
1.0
 40
1.0
 40
1.0
 10
446.6674368650168
 20
934.2858814782936
 30
0.0
 10
449.230607605533
 20
934.1748399665015
 30
0.0
 10
455.5433840841335
 20
933.9013582851177
 30
0.0
 10
465.644767564217
 20
933.6753601324872
 30
0.0
 10
477.7292958233184
 20
933.5666867178161
 30
0.0
 10
490.6006118612948
 20
933.7176278553505
 30
0.0
 10
499.9005588085958
 20
933.9279237620318
 30
0.0
 10
504.6286941581828
 20
934.1615401596505
 30
0.0
 10
504.8258680509629
 20
934.1712824895819
 30
0.0
  0
SPLINE
  5
C4
330
1F
100
AcDbEntity
  8
0
  6
HIDDEN
 62
     7
370
     0
100
AcDbSpline
210
0.0
220
0.0
230
1.0
 70
     8
 71
     3
 72
     9
 73
     5
 74
     0
 42
0.00000001
 43
0.00000001
 12
1.0
 22
0.0
 32
0.0
 13
1.0
 23
0.0
 33
0.0
 40
0.0
 40
0.0
 40
0.0
 40
0.0
 40
0.4002665743702298
 40
1.0
 40
1.0
 40
1.0
 40
1.0
 10
615.1113795055281
 20
947.6452876554272
 30
0.0
 10
617.8830700801018
 20
948.2103504229318
 30
0.0
 10
624.8076817065775
 20
949.6220665233675
 30
0.0
 10
631.5527187736558
 20
951.139135826813
 30
0.0
 10
635.5979429598946
 20
952.0489729970861
 30
0.0
  0
SPLINE
  5
C5
330
1F
100
AcDbEntity
  8
0
  6
HIDDEN
 62
     7
370
     0
100
AcDbSpline
210
0.0
220
0.0
230
1.0
 70
     8
 71
     3
 72
    22
 73
    18
 74
     0
 42
0.00000001
 43
0.00000001
 12
1.0
 22
0.0
 32
0.0
 13
1.0
 23
0.0
 33
0.0
 40
0.0
 40
0.0
 40
0.0
 40
0.0
 40
0.2499999999999987
 40
0.2499999999999987
 40
0.3749999999999974
 40
0.3749999999999974
 40
0.4374999999999973
 40
0.4374999999999973
 40
0.4999999999999972
 40
0.4999999999999972
 40
0.7499999999999977
 40
0.7499999999999977
 40
0.8124999999999983
 40
0.8124999999999983
 40
0.874999999999999
 40
0.874999999999999
 40
1.0
 40
1.0
 40
1.0
 40
1.0
 10
299.103715509473
 20
955.6092226978499
 30
0.0
 10
299.8243917874601
 20
955.6092116024536
 30
0.0
 10
300.7887605939216
 20
955.5339761455958
 30
0.0
 10
302.5871840902475
 20
955.2989193785094
 30
0.0
 10
303.2458834446375
 20
955.2001811648066
 30
0.0
 10
304.3263579993373
 20
955.020208214555
 30
0.0
 10
304.701359212049
 20
954.9549870351532
 30
0.0
 10
305.4732295161168
 20
954.8156271958954
 30
0.0
 10
305.8711211871466
 20
954.7413213251152
 30
0.0
 10
307.9197002124155
 20
954.3475078985006
 30
0.0
 10
309.7455200243188
 20
953.9607750478693
 30
0.0
 10
312.2734211026197
 20
953.4046130258383
 30
0.0
 10
312.7926410754733
 20
953.2894475130576
 30
0.0
 10
313.8474266502757
 20
953.0541692302257
 30
0.0
 10
314.3835840260624
 20
952.9339303583419
 30
0.0
 10
316.0183556818699
 20
952.5661344249071
 30
0.0
 10
317.14319327804
 20
952.3115344260319
 30
0.0
 10
318.3039299247448
 20
952.0489727277889
 30
0.0
  0
SPLINE
  5
C6
330
1F
100
AcDbEntity
  8
0
  6
HIDDEN
 62
     7
370
     0
100
AcDbSpline
210
0.0
220
0.0
230
1.0
 70
     8
 71
     3
 72
    22
 73
    18
 74
     0
 42
0.00000001
 43
0.00000001
 12
1.0
 22
0.0
 32
0.0
 13
1.0
 23
0.0
 33
0.0
 40
0.0
 40
0.0
 40
0.0
 40
0.0
 40
0.2500000000000008
 40
0.2500000000000008
 40
0.3750000000000006
 40
0.3750000000000006
 40
0.5000000000000004
 40
0.5000000000000004
 40
0.6250000000000002
 40
0.6250000000000002
 40
0.7499999999999999
 40
0.7499999999999999
 40
0.8124999999999998
 40
0.8124999999999998
 40
0.8749999999999997
 40
0.8749999999999997
 40
1.0
 40
1.0
 40
1.0
 40
1.0
 10
289.0949902593837
 20
955.608638068243
 30
0.0
 10
289.3216080226726
 20
955.6109423849102
 30
0.0
 10
289.6701652845981
 20
955.6106909498058
 30
0.0
 10
290.3631191224902
 20
955.6097806466074
 30
0.0
 10
290.6205328980336
 20
955.6098420764048
 30
0.0
 10
291.1949767296223
 20
955.6091157252598
 30
0.0
 10
291.5093396751488
 20
955.6087380121999
 30
0.0
 10
292.2298657291258
 20
955.6086680289588
 30
0.0
 10
292.6374056118279
 20
955.6087185747557
 30
0.0
 10
293.5841484005533
 20
955.6088755743546
 30
0.0
 10
294.1233123525816
 20
955.6090166118453
 30
0.0
 10
295.0584399708511
 20
955.6088004538698
 30
0.0
 10
295.3904434436992
 20
955.6091322555824
 30
0.0
 10
296.0875546472736
 20
955.609181059709
 30
0.0
 10
296.4512843949601
 20
955.6091984346192
 30
0.0
 10
297.5675460336062
 20
955.6092335830526
 30
0.0
 10
298.3451207502557
 20
955.6092344253635
 30
0.0
 10
299.1037155204693
 20
955.6092226948587
 30
0.0
  0
SPLINE
  5
C7
330
1F
100
AcDbEntity
  8
0
  6
HIDDEN
 62
     7
370
     0
100
AcDbSpline
210
0.0
220
0.0
230
1.0
 70
     8
 71
     3
 72
    13
 73
     9
 74
     0
 42
0.00000001
 43
0.00000001
 12
1.0
 22
0.0
 32
0.0
 13
1.0
 23
0.0
 33
0.0
 40
0.0
 40
0.0
 40
0.0
 40
0.0
 40
0.1210895905034696
 40
0.3034412507251673
 40
0.4853725649060415
 40
0.6668986023873075
 40
0.9693604021481441
 40
1.0
 40
1.0
 40
1.0
 40
1.0
 10
296.0668247496146
 20
961.428267083001
 30
0.0
 10
295.3937480806071
 20
961.4313127847158
 30
0.0
 10
293.7070694368988
 20
961.4389450802241
 30
0.0
 10
292.3284580658066
 20
961.4443771520437
 30
0.0
 10
291.0441465207869
 20
961.4517620719902
 30
0.0
 10
290.1380640873739
 20
961.4572185069841
 30
0.0
 10
289.9766388250709
 20
961.440563626276
 30
0.0
 10
290.0429357035616
 20
961.448991717812
 30
0.0
 10
290.0490338758009
 20
961.4497669572352
 30
0.0
  0
SPLINE
  5
C8
330
1F
100
AcDbEntity
  8
0
  6
HIDDEN
 62
     7
370
     0
100
AcDbSpline
210
0.0
220
0.0
230
1.0
 70
     8
 71
     3
 72
    11
 73
     7
 74
     0
 42
0.00000001
 43
0.00000001
 12
1.0
 22
0.0
 32
0.0
 13
1.0
 23
0.0
 33
0.0
 40
0.0
 40
0.0
 40
0.0
 40
0.0
 40
0.0995158855901513
 40
0.5515774479069923
 40
0.7756737609787093
 40
1.0
 40
1.0
 40
1.0
 40
1.0
 10
289.9004369774723
 20
961.4283800064992
 30
0.0
 10
289.8885864756472
 20
961.41661116493
 30
0.0
 10
289.8229038008222
 20
961.3513811008143
 30
0.0
 10
289.7966306315611
 20
961.2628523220479
 30
0.0
 10
289.7747013535698
 20
961.5103256286561
 30
0.0
 10
289.7711734906263
 20
961.7857174688005
 30
0.0
 10
289.7694086547093
 20
961.9234839916224
 30
0.0
  0
SPLINE
  5
C9
330
1F
100
AcDbEntity
  8
0
  6
HIDDEN
 62
     7
370
     0
100
AcDbSpline
210
0.0
220
0.0
230
1.0
 70
     8
 71
     3
 72
    10
 73
     6
 74
     0
 42
0.00000001
 43
0.00000001
 12
1.0
 22
0.0
 32
0.0
 13
1.0
 23
0.0
 33
0.0
 40
0.0
 40
0.0
 40
0.0
 40
0.0
 40
0.0925651405708705
 40
0.5466894417570287
 40
1.0
 40
1.0
 40
1.0
 40
1.0
 10
313.0972149963844
 20
959.3822937843121
 30
0.0
 10
313.2954677434757
 20
959.3391592643575
 30
0.0
 10
314.4663478714129
 20
959.084406919263
 30
0.0
 10
316.8526087128719
 20
958.5429198606042
 30
0.0
 10
319.1435119713573
 20
958.0237229058226
 30
0.0
 10
320.2879364159263
 20
957.7643572235761
 30
0.0
  0
SPLINE
  5
CA
330
1F
100
AcDbEntity
  8
0
  6
HIDDEN
 62
     7
370
     0
100
AcDbSpline
210
0.0
220
0.0
230
1.0
 70
     8
 71
     3
 72
    10
 73
     6
 74
     0
 42
0.00000001
 43
0.00000001
 12
1.0
 22
0.0
 32
0.0
 13
1.0
 23
0.0
 33
0.0
 40
0.0
 40
0.0
 40
0.0
 40
0.0
 40
0.4900642765884014
 40
0.9273785535819714
 40
1.0
 40
1.0
 40
1.0
 40
1.0
 10
320.2879364267584
 20
957.7643572192217
 30
0.0
 10
323.4898977761445
 20
957.0489507294783
 30
0.0
 10
329.5491647471852
 20
955.6951433467
 30
0.0
 10
336.1678121030322
 20
954.270576610747
 30
0.0
 10
339.5960752374725
 20
953.589009426349
 30
0.0
 10
340.0843042751618
 20
953.4919454386941
 30
0.0
  0
SPLINE
  5
CB
330
1F
100
AcDbEntity
  8
0
  6
HIDDEN
 62
     7
370
     0
100
AcDbSpline
210
0.0
220
0.0
230
1.0
 70
     8
 71
     3
 72
     9
 73
     5
 74
     0
 42
0.00000001
 43
0.00000001
 12
1.0
 22
0.0
 32
0.0
 13
1.0
 23
0.0
 33
0.0
 40
0.0
 40
0.0
 40
0.0
 40
0.0
 40
0.4747347547663574
 40
1.0
 40
1.0
 40
1.0
 40
1.0
 10
438.3407312943476
 20
940.7141056298275
 30
0.0
 10
444.4324749156525
 20
940.4026271627295
 30
0.0
 10
457.2643637970618
 20
939.7465166421266
 30
0.0
 10
470.1713465169844
 20
939.6564144444093
 30
0.0
 10
476.9509359605909
 20
939.6090868914292
 30
0.0
  0
SPLINE
  5
CC
330
1F
100
AcDbEntity
  8
0
  6
HIDDEN
 62
     7
370
     0
100
AcDbSpline
210
0.0
220
0.0
230
1.0
 70
     8
 71
     3
 72
    10
 73
     6
 74
     0
 42
0.00000001
 43
0.00000001
 12
1.0
 22
0.0
 32
0.0
 13
1.0
 23
0.0
 33
0.0
 40
0.0
 40
0.0
 40
0.0
 40
0.0
 40
0.4887140465581533
 40
0.9779427626800794
 40
1.0
 40
1.0
 40
1.0
 40
1.0
 10
476.9509359605909
 20
939.6090868914292
 30
0.0
 10
481.4592720817586
 20
939.6400630238405
 30
0.0
 10
490.4806920971553
 20
939.7020479099325
 30
0.0
 10
499.7043823149228
 20
939.9257371773048
 30
0.0
 10
504.3961690865024
 20
940.1571384487563
 30
0.0
 10
504.5985760831713
 20
940.1671212631212
 30
0.0
  0
SPLINE
  5
CD
330
1F
100
AcDbEntity
  8
0
  6
HIDDEN
 62
     7
370
     0
100
AcDbSpline
210
0.0
220
0.0
230
1.0
 70
     8
 71
     3
 72
    10
 73
     6
 74
     0
 42
0.00000001
 43
0.00000001
 12
1.0
 22
0.0
 32
0.0
 13
1.0
 23
0.0
 33
0.0
 40
0.0
 40
0.0
 40
0.0
 40
0.0
 40
0.2422837479821223
 40
0.5995853185224062
 40
1.0
 40
1.0
 40
1.0
 40
1.0
 10
609.2984247133619
 20
952.5900695067984
 30
0.0
 10
611.2951036876067
 20
952.9843307900111
 30
0.0
 10
616.2363323450398
 20
953.9600185075944
 30
0.0
 10
624.353907631781
 20
955.691509899825
 30
0.0
 10
630.4123535317507
 20
957.047686525829
 30
0.0
 10
633.613935494425
 20
957.7643572192221
 30
0.0
  0
SPLINE
  5
CE
330
1F
100
AcDbEntity
  8
0
  6
HIDDEN
 62
     7
370
     0
100
AcDbSpline
210
0.0
220
0.0
230
1.0
 70
     8
 71
     3
 72
    10
 73
     6
 74
     0
 42
0.00000001
 43
0.00000001
 12
1.0
 22
0.0
 32
0.0
 13
1.0
 23
0.0
 33
0.0
 40
0.0
 40
0.0
 40
0.0
 40
0.0
 40
0.4987774741382128
 40
0.9984601672274737
 40
1.0
 40
1.0
 40
1.0
 40
1.0
 10
633.6139355053268
 20
957.764357223603
 30
0.0
 10
634.7583221777296
 20
958.0235682840673
 30
0.0
 10
637.0491724417166
 20
958.5424608407642
 30
0.0
 10
639.238610023135
 20
959.0407261993013
 30
0.0
 10
640.2215781783261
 20
959.2551220576775
 30
0.0
 10
640.2245980078462
 20
959.2557807147648
 30
0.0
  0
SPLINE
  5
CF
330
1F
100
AcDbEntity
  8
0
  6
HIDDEN
 62
     7
370
     0
100
AcDbSpline
210
0.0
220
0.0
230
1.0
 70
     8
 71
     3
 72
    12
 73
     8
 74
     0
 42
0.00000001
 43
0.00000001
 12
1.0
 22
0.0
 32
0.0
 13
1.0
 23
0.0
 33
0.0
 40
0.0
 40
0.0
 40
0.0
 40
0.0
 40
0.163946030936873
 40
0.3682536797782776
 40
0.5720247948821655
 40
0.7754825962389581
 40
1.0
 40
1.0
 40
1.0
 40
1.0
 10
657.8727162267087
 20
961.4281987239691
 30
0.0
 10
658.7236089785653
 20
961.4320094478236
 30
0.0
 10
660.6348744430429
 20
961.4405690517007
 30
0.0
 10
662.0838843457243
 20
961.4466334655158
 30
0.0
 10
663.3062670586418
 20
961.4553553896214
 30
0.0
 10
663.8682102622871
 20
961.4503449123761
 30
0.0
 10
663.8446580718762
 20
961.4492798188154
 30
0.0
 10
663.832302504122
 20
961.4487210667238
 30
0.0
  0
LINE
  5
D0
330
1F
100
AcDbEntity
  8
0
  6
HIDDEN
 62
     7
370
     0
100
AcDbLine
 10
314.1308328161
 20
948.7731551231
 30
0.0
 11
314.7565706762
 21
952.7239084855
 31
0.0
  0
SPLINE
  5
D1
330
1F
100
AcDbEntity
  8
0
  6
HIDDEN
 62
     7
370
     0
100
AcDbSpline
210
0.0
220
0.0
230
1.0
 70
    24
 71
     3
 72
    26
 73
    22
 74
     0
 42
0.00000001
 43
0.00000001
 12
1.0
 22
0.0
 32
0.0
 13
1.0
 23
0.0
 33
0.0
 40
0.0
 40
0.0
 40
0.0
 40
0.0
 40
0.0194626149449857
 40
0.0388871921809055
 40
0.0582917768786581
 40
0.0776944699904672
 40
0.0971133777581618
 40
0.1165665611477833
 40
0.1783133384229716
 40
0.2400935251264374
 40
0.3044144953392133
 40
0.3687690105884428
 40
0.5000066822648013
 40
0.6312443539411531
 40
0.6955653268355274
 40
0.7599198448039798
 40
0.8216666194948914
 40
0.8834468049917148
 40
0.922299465760124
 40
0.9611022152949997
 40
1.0
 40
1.0
 40
1.0
 40
1.0
 10
314.1308328160644
 20
948.7731551231246
 30
0.0
 10
314.1299438068405
 20
948.7732959283529
 30
0.0
 10
314.1281675258714
 20
948.77357726362
 30
0.0
 10
314.1138954981924
 20
948.7758377307364
 30
0.0
 10
314.0911182648877
 20
948.7794452900854
 30
0.0
 10
314.0590086310414
 20
948.7845309564711
 30
0.0
 10
314.0177839318603
 20
948.7910603073785
 30
0.0
 10
313.9309458368598
 20
948.8048141104541
 30
0.0
 10
313.7613751671726
 20
948.8316714660679
 30
0.0
 10
313.4474483763164
 20
948.8813925851406
 30
0.0
 10
313.038966071681
 20
948.9460898263427
 30
0.0
 10
312.3604747792858
 20
949.0535522899537
 30
0.0
 10
311.2879079920303
 20
949.2234301802639
 30
0.0
 10
309.9667024382335
 20
949.4326885824557
 30
0.0
 10
308.8052657406907
 20
949.6166420837683
 30
0.0
 10
307.9079882037083
 20
949.7587568842791
 30
0.0
 10
306.9876584412105
 20
949.9045227986263
 30
0.0
 10
306.1694239232553
 20
950.0341184148068
 30
0.0
 10
305.4568259860932
 20
950.1469828402608
 30
0.0
 10
304.8566151844571
 20
950.2420468921547
 30
0.0
 10
304.455001738754
 20
950.305656212979
 30
0.0
 10
304.253949410113
 20
950.3374997735268
 30
0.0
  0
LINE
  5
D2
330
1F
100
AcDbEntity
  8
0
  6
HIDDEN
 62
     7
370
     0
100
AcDbLine
 10
314.7565706762
 20
952.7239084855
 30
0.0
 11
304.8796872703
 21
954.2882531359
 31
0.0
  0
LINE
  5
D3
330
1F
100
AcDbEntity
  8
0
  6
HIDDEN
 62
     7
370
     0
100
AcDbLine
 10
304.2539494101
 20
950.3374997735
 30
0.0
 11
292.4509359606
 21
952.2069134529
 31
0.0
  0
LINE
  5
D4
330
1F
100
AcDbEntity
  8
0
  6
HIDDEN
 62
     7
370
     0
100
AcDbLine
 10
292.4509359606
 20
952.2069134529
 30
0.0
 11
292.4509359606
 21
949.9620490746
 31
0.0
  0
LINE
  5
D5
330
1F
100
AcDbEntity
  8
0
  6
HIDDEN
 62
     7
370
     0
100
AcDbLine
 10
289.0766738208
 20
956.7912045766
 30
0.0
 11
288.882059236
 21
955.5624564472
 31
0.0
  0
LINE
  5
D6
330
1F
100
AcDbEntity
  8
0
  6
HIDDEN
 62
     7
370
     0
100
AcDbLine
 10
289.0766738208
 20
956.7912045766
 30
0.0
 11
304.8796872703
 21
954.2882531359
 31
0.0
  0
LINE
  5
D7
330
1F
100
AcDbEntity
  8
0
  6
HIDDEN
 62
     7
370
     0
100
AcDbLine
 10
288.4509359606
 20
904.753527296
 30
0.0
 11
292.4509359606
 21
904.753527296
 31
0.0
  0
LINE
  5
D8
330
1F
100
AcDbEntity
  8
0
  6
HIDDEN
 62
     7
370
     0
100
AcDbLine
 10
372.9097085857
 20
943.5133562846
 30
0.0
 11
314.7565706762
 21
952.7239084855
 31
0.0
  0
SPLINE
  5
D9
330
1F
100
AcDbEntity
  8
0
  6
HIDDEN
 62
     7
370
     0
100
AcDbSpline
210
0.0
220
0.0
230
1.0
 70
    24
 71
     3
 72
    44
 73
    40
 74
     0
 42
0.00000001
 43
0.00000001
 12
1.0
 22
0.0
 32
0.0
 13
1.0
 23
0.0
 33
0.0
 40
0.0
 40
0.0
 40
0.0
 40
0.0
 40
0.00873043886371
 40
0.0174574799123097
 40
0.0261816813730754
 40
0.0349036020185084
 40
0.0436238010595598
 40
0.0523428380384352
 40
0.0610612727210807
 40
0.0697796649894544
 40
0.0784985747336848
 40
0.087218561744223
 40
0.0959401856040897
 40
0.1046640055813217
 40
0.1133905805217223
 40
0.122120468742016
 40
0.1532718261118732
 40
0.1843986381279133
 40
0.2155263753770412
 40
0.2466805061768418
 40
0.309793927033046
 40
0.3729110976772146
 40
0.4364539038387952
 40
0.5000004852904341
 40
0.5635432914681849
 40
0.6270898729256127
 40
0.6902032938278574
 40
0.7533204644899308
 40
0.7844718219194083
 40
0.8155986339427047
 40
0.8467263711972091
 40
0.8778805020509904
 40
0.895335930338629
 40
0.9127806365728182
 40
0.930219094099519
 40
0.947655781073971
 40
0.9650951770153625
 40
0.9825417593562487
 40
1.0
 40
1.0
 40
1.0
 40
1.0
 10
372.2839707255314
 20
939.5626029222182
 30
0.0
 10
371.9701885891433
 20
939.6123011302739
 30
0.0
 10
371.3427464377978
 20
939.7116782042507
 30
0.0
 10
370.4091130487894
 20
939.859551206037
 30
0.0
 10
369.4812562061986
 20
940.0065092927522
 30
0.0
 10
368.5596998823939
 20
940.1524694753255
 30
0.0
 10
367.6443037589252
 20
940.2974539780164
 30
0.0
 10
366.735105435718
 20
940.4414568455816
 30
0.0
 10
365.8320948547532
 20
940.5844796710547
 30
0.0
 10
364.9352747272187
 20
940.726522025026
 30
0.0
 10
364.0446443325371
 20
940.8675840216238
 30
0.0
 10
363.1602039080036
 20
941.0076656232638
 30
0.0
 10
362.2819532890504
 20
941.1467668560114
 30
0.0
 10
361.4098929588426
 20
941.2848876433407
 30
0.0
 10
360.5440212085687
 20
941.4220282559006
 30
0.0
 10
358.9485015913145
 20
941.6747337375061
 30
0.0
 10
356.6582598586413
 20
942.0374723925436
 30
0.0
 10
353.73201645017
 20
942.5009438170475
 30
0.0
 10
350.8944417112675
 20
942.9503715039477
 30
0.0
 10
347.2074848927388
 20
943.5343280961512
 30
0.0
 10
342.8163020514168
 20
944.2298231328366
 30
0.0
 10
337.9246711115778
 20
945.0045813615172
 30
0.0
 10
333.4413078741734
 20
945.7146763386451
 30
0.0
 10
329.3873317016024
 20
946.3567630858267
 30
0.0
 10
325.7841924892746
 20
946.9274442733825
 30
0.0
 10
322.6536865360802
 20
947.423267706712
 30
0.0
 10
320.0002883328683
 20
947.8435246960858
 30
0.0
 10
318.1976371195867
 20
948.1290365996017
 30
0.0
 10
317.0006480705778
 20
948.3186210402037
 30
0.0
 10
316.2277188324952
 20
948.4410410049877
 30
0.0
 10
315.5742517820703
 20
948.5445400180398
 30
0.0
 10
315.1187645056608
 20
948.6166821153889
 30
0.0
 10
314.8076313575642
 20
948.6659607649166
 30
0.0
 10
314.5988885531931
 20
948.6990223771587
 30
0.0
 10
314.4281492653391
 20
948.7260648237068
 30
0.0
 10
314.2951662384008
 20
948.7471272660011
 30
0.0
 10
314.2008627674991
 20
948.7620634684606
 30
0.0
 10
314.1417914010898
 20
948.7714194537685
 30
0.0
 10
314.1344864910259
 20
948.7725764378606
 30
0.0
 10
314.1308328160644
 20
948.7731551231244
 30
0.0
  0
LINE
  5
DA
330
1F
100
AcDbEntity
  8
0
  6
HIDDEN
 62
     7
370
     0
100
AcDbLine
 10
376.3450546558
 20
942.96925092
 30
0.0
 11
372.9097085857
 21
943.5133562846
 31
0.0
  0
SPLINE
  5
DB
330
1F
100
AcDbEntity
  8
0
  6
HIDDEN
 62
     7
370
     0
100
AcDbSpline
210
0.0
220
0.0
230
1.0
 70
    24
 71
     3
 72
    10
 73
     6
 74
     0
 42
0.00000001
 43
0.00000001
 12
1.0
 22
0.0
 32
0.0
 13
1.0
 23
0.0
 33
0.0
 40
0.0
 40
0.0
 40
0.0
 40
0.0
 40
0.2499836323824556
 40
0.6249918161912266
 40
1.0
 40
1.0
 40
1.0
 40
1.0
 10
375.6043952934121
 20
939.0366993353945
 30
0.0
 10
375.6040616437734
 20
939.0367521803058
 30
0.0
 10
375.6032274759853
 20
939.0368842995041
 30
0.0
 10
374.470721540472
 20
939.2162556182645
 30
0.0
 10
373.0128876638449
 20
939.4471538209002
 30
0.0
 10
372.2839707255314
 20
939.5626029222182
 30
0.0
  0
LINE
  5
DC
330
1F
100
AcDbEntity
  8
0
  6
HIDDEN
 62
     7
370
     0
100
AcDbLine
 10
306.8550639515
 20
953.9753842058
 30
0.0
 11
306.2293260913
 21
950.0246308434
 31
0.0
  0
SPLINE
  5
DD
330
1F
100
AcDbEntity
  8
0
  6
HIDDEN
 62
     7
370
     0
100
AcDbSpline
210
0.0
220
0.0
230
1.0
 70
     8
 71
     3
 72
     8
 73
     4
 74
     0
 42
0.00000001
 43
0.00000001
 12
1.0
 22
0.0
 32
0.0
 13
1.0
 23
0.0
 33
0.0
 40
0.0
 40
0.0
 40
0.0
 40
0.0
 40
1.0
 40
1.0
 40
1.0
 40
1.0
 10
292.5682178330318
 20
953.059655913568
 30
0.0
 10
297.167557334282
 20
952.3661584830534
 30
0.0
 10
301.772587856507
 20
951.6754663200437
 30
0.0
 10
306.382232336597
 20
950.9900428812721
 30
0.0
  0
LINE
  5
DE
330
1F
100
AcDbEntity
  8
0
  6
HIDDEN
 62
     7
370
     0
100
AcDbLine
 10
288.5810535654
 20
953.6619814389
 30
0.0
 11
292.6813960892
 21
953.6619814389
 31
0.0
  0
LINE
  5
DF
330
1F
100
AcDbEntity
  8
0
  6
HIDDEN
 62
     7
370
     0
100
AcDbLine
 10
370.4509359606
 20
934.8404512142
 30
0.0
 11
370.4509359606
 21
955.0337362536
 31
0.0
  0
LINE
  5
E0
330
1F
100
AcDbEntity
  8
0
  6
HIDDEN
 62
     7
370
     0
100
AcDbLine
 10
370.4509359606
 20
931.4802404094
 30
0.0
 11
370.4509359606
 21
934.8404512142
 31
0.0
  0
LINE
  5
E1
330
1F
100
AcDbEntity
  8
0
  6
HIDDEN
 62
     7
370
     0
100
AcDbLine
 10
293.0766738208
 20
956.1576668153
 30
0.0
 11
292.6813960892
 21
953.6619814389
 31
0.0
  0
LINE
  5
E2
330
1F
100
AcDbEntity
  8
0
  6
HIDDEN
 62
     7
370
     0
100
AcDbLine
 10
649.0221846509
 20
954.2882531359
 30
0.0
 11
664.8251981004
 21
956.7912045766
 31
0.0
  0
LINE
  5
E3
330
1F
100
AcDbEntity
  8
0
  6
HIDDEN
 62
     7
370
     0
100
AcDbLine
 10
664.8251981004
 20
956.7912045766
 30
0.0
 11
665.0057403589
 21
955.6513056186
 31
0.0
  0
LINE
  5
E4
330
1F
100
AcDbEntity
  8
0
  6
HIDDEN
 62
     7
370
     0
100
AcDbLine
 10
661.4509359606
 20
949.9190453667
 30
0.0
 11
661.4509359606
 21
952.2069134529
 31
0.0
  0
LINE
  5
E5
330
1F
100
AcDbEntity
  8
0
  6
HIDDEN
 62
     7
370
     0
100
AcDbLine
 10
661.4509359606
 20
952.2069134529
 30
0.0
 11
649.6479225111
 21
950.3374997735
 31
0.0
  0
LINE
  5
E6
330
1F
100
AcDbEntity
  8
0
  6
HIDDEN
 62
     7
370
     0
100
AcDbLine
 10
639.145301245
 20
952.7239084855
 30
0.0
 11
639.7710391051
 21
948.7731551231
 31
0.0
  0
LINE
  5
E7
330
1F
100
AcDbEntity
  8
0
  6
HIDDEN
 62
     7
370
     0
100
AcDbLine
 10
649.0221846509
 20
954.2882531359
 30
0.0
 11
639.145301245
 21
952.7239084855
 31
0.0
  0
LINE
  5
E8
330
1F
100
AcDbEntity
  8
0
  6
HIDDEN
 62
     7
370
     0
100
AcDbLine
 10
649.6479225111
 20
950.3374997735
 30
0.0
 11
639.7710391051
 21
948.7731551231
 31
0.0
  0
LINE
  5
E9
330
1F
100
AcDbEntity
  8
0
  6
HIDDEN
 62
     7
370
     0
100
AcDbLine
 10
665.4509359606
 20
904.753527296
 30
0.0
 11
661.4509359606
 21
904.753527296
 31
0.0
  0
LINE
  5
EA
330
1F
100
AcDbEntity
  8
0
  6
HIDDEN
 62
     7
370
     0
100
AcDbLine
 10
639.145301245
 20
952.7239084855
 30
0.0
 11
580.9921633355
 21
943.5133562846
 31
0.0
  0
LINE
  5
EB
330
1F
100
AcDbEntity
  8
0
  6
HIDDEN
 62
     7
370
     0
100
AcDbLine
 10
639.7710391051
 20
948.7731551231
 30
0.0
 11
581.6179011957
 21
939.5626029222
 31
0.0
  0
LINE
  5
EC
330
1F
100
AcDbEntity
  8
0
  6
HIDDEN
 62
     7
370
     0
100
AcDbLine
 10
580.9921633355
 20
943.5133562846
 30
0.0
 11
577.5568172654
 21
942.96925092
 31
0.0
  0
LINE
  5
ED
330
1F
100
AcDbEntity
  8
0
  6
HIDDEN
 62
     7
370
     0
100
AcDbLine
 10
581.6179011957
 20
939.5626029222
 30
0.0
 11
578.1825551256
 21
939.0184975576
 31
0.0
  0
LINE
  5
EE
330
1F
100
AcDbEntity
  8
0
  6
HIDDEN
 62
     7
370
     0
100
AcDbLine
 10
647.0468079697
 20
953.9753842058
 30
0.0
 11
647.6725458299
 21
950.0246308434
 31
0.0
  0
LINE
  5
EF
330
1F
100
AcDbEntity
  8
0
  6
HIDDEN
 62
     7
370
     0
100
AcDbLine
 10
661.220475832
 20
953.6619814389
 30
0.0
 11
665.3208183557
 21
953.6619814389
 31
0.0
  0
SPLINE
  5
F0
330
1F
100
AcDbEntity
  8
0
  6
HIDDEN
 62
     7
370
     0
100
AcDbSpline
210
0.0
220
0.0
230
1.0
 70
     8
 71
     3
 72
     8
 73
     4
 74
     0
 42
0.00000001
 43
0.00000001
 12
1.0
 22
0.0
 32
0.0
 13
1.0
 23
0.0
 33
0.0
 40
0.0
 40
0.0
 40
0.0
 40
0.0
 40
1.0
 40
1.0
 40
1.0
 40
1.0
 10
647.5196395845848
 20
950.9900428812721
 30
0.0
 10
652.1292821857891
 20
951.6754660406659
 30
0.0
 10
656.73431664446
 20
952.3661587932959
 30
0.0
 10
661.3336540881498
 20
953.059655913568
 30
0.0
  0
LINE
  5
F1
330
1F
100
AcDbEntity
  8
0
  6
HIDDEN
 62
     7
370
     0
100
AcDbLine
 10
583.4509359606
 20
955.0135612966
 30
0.0
 11
583.4509359606
 21
931.5583631249
 31
0.0
  0
LINE
  5
F2
330
1F
100
AcDbEntity
  8
0
  6
HIDDEN
 62
     7
370
     0
100
AcDbLine
 10
661.220475832
 20
953.6619814389
 30
0.0
 11
660.8251981004
 21
956.1576668153
 31
0.0
  0
LINE
  5
F3
330
1F
100
AcDbEntity
  8
0
  6
HIDDEN
 62
     7
370
     0
100
AcDbLine
 10
372.1509359606
 20
954.8894702798
 30
0.0
 11
372.1509359606
 21
931.3416216379
 31
0.0
  0
LINE
  5
F4
330
1F
100
AcDbEntity
  8
0
  6
HIDDEN
 62
     7
370
     0
100
AcDbLine
 10
374.1509359606
 20
946.8404512142
 30
0.0
 11
374.1509359606
 21
931.1526575851
 31
0.0
  0
LINE
  5
F5
330
1F
100
AcDbEntity
  8
0
  6
HIDDEN
 62
     7
370
     0
100
AcDbLine
 10
286.9509359606
 20
924.8404512142
 30
0.0
 11
272.9509359606
 21
924.8404512142
 31
0.0
  0
LINE
  5
F6
330
1F
100
AcDbEntity
  8
0
  6
HIDDEN
 62
     7
370
     0
100
AcDbLine
 10
286.9509359606
 20
924.8404512142
 30
0.0
 11
289.9509359606
 21
924.8404512142
 31
0.0
  0
ARC
  5
F7
330
1F
100
AcDbEntity
  8
0
  6
HIDDEN
 62
     7
370
     0
100
AcDbCircle
 10
305.9509359606
 20
909.8404512142
 30
0.0
 40
15.0
100
AcDbArc
 50
0.0
 51
90.0
  0
LINE
  5
F8
330
1F
100
AcDbEntity
  8
0
  6
HIDDEN
 62
     7
370
     0
100
AcDbLine
 10
320.9509359606
 20
909.8404512142
 30
0.0
 11
320.9509359606
 21
904.3404512142
 31
0.0
  0
LINE
  5
F9
330
1F
100
AcDbEntity
  8
0
  6
HIDDEN
 62
     7
370
     0
100
AcDbLine
 10
289.9509359606
 20
924.8404512142
 30
0.0
 11
305.9509359606
 21
924.8404512142
 31
0.0
  0
LINE
  5
FA
330
1F
100
AcDbEntity
  8
0
  6
HIDDEN
 62
     7
370
     0
100
AcDbLine
 10
581.7509359606
 20
954.8888101636
 30
0.0
 11
581.7509359606
 21
931.4170319007
 31
0.0
  0
LINE
  5
FB
330
1F
100
AcDbEntity
  8
0
  6
HIDDEN
 62
     7
370
     0
100
AcDbLine
 10
579.7509359606
 20
946.8404512142
 30
0.0
 11
579.7509359606
 21
931.2296759285
 31
0.0
  0
LINE
  5
FC
330
1F
100
AcDbEntity
  8
0
  6
HIDDEN
 62
     7
370
     0
100
AcDbLine
 10
666.9509359606
 20
924.8404512142
 30
0.0
 11
680.9509359606
 21
924.8404512142
 31
0.0
  0
LINE
  5
FD
330
1F
100
AcDbEntity
  8
0
  6
HIDDEN
 62
     7
370
     0
100
AcDbLine
 10
666.9509359606
 20
924.8404512142
 30
0.0
 11
663.9509359606
 21
924.8404512142
 31
0.0
  0
LINE
  5
FE
330
1F
100
AcDbEntity
  8
0
  6
HIDDEN
 62
     7
370
     0
100
AcDbLine
 10
632.9509359606
 20
909.8404512142
 30
0.0
 11
632.9509359606
 21
904.3404512142
 31
0.0
  0
ARC
  5
FF
330
1F
100
AcDbEntity
  8
0
  6
HIDDEN
 62
     7
370
     0
100
AcDbCircle
 10
647.9509359606
 20
909.8404512142
 30
0.0
 40
15.0
100
AcDbArc
 50
90.0
 51
180.0
  0
LINE
  5
100
330
1F
100
AcDbEntity
  8
0
  6
HIDDEN
 62
     7
370
     0
100
AcDbLine
 10
663.9509359606
 20
924.8404512142
 30
0.0
 11
647.9509359606
 21
924.8404512142
 31
0.0
  0
SPLINE
  5
101
330
1F
100
AcDbEntity
  8
0
  6
HIDDEN
 62
     7
370
     0
100
AcDbSpline
210
0.0
220
0.0
230
1.0
 70
     8
 71
     3
 72
    10
 73
     6
 74
     0
 42
0.00000001
 43
0.00000001
 12
1.0
 22
0.0
 32
0.0
 13
1.0
 23
0.0
 33
0.0
 40
0.0
 40
0.0
 40
0.0
 40
0.0
 40
0.4389255459227744
 40
0.8778274649784208
 40
1.0
 40
1.0
 40
1.0
 40
1.0
 10
621.113365948748
 20
1336.789950894579
 30
0.0
 10
623.1656051723837
 20
1336.746061560552
 30
0.0
 10
627.2699731499321
 20
1336.658285255012
 30
0.0
 10
631.8216149414163
 20
1335.734050529373
 30
0.0
 10
634.1103508271992
 20
1334.663719771625
 30
0.0
 10
634.6087172438644
 20
1334.43065797201
 30
0.0
  0
SPLINE
  5
102
330
1F
100
AcDbEntity
  8
0
  6
HIDDEN
 62
     7
370
     0
100
AcDbSpline
210
0.0
220
0.0
230
1.0
 70
     8
 71
     3
 72
    10
 73
     6
 74
     0
 42
0.00000001
 43
0.00000001
 12
1.0
 22
0.0
 32
0.0
 13
1.0
 23
0.0
 33
0.0
 40
0.0
 40
0.0
 40
0.0
 40
0.0
 40
0.2396113217593832
 40
0.6197987040158744
 40
1.0
 40
1.0
 40
1.0
 40
1.0
 10
319.3009808431856
 20
1334.404868484166
 30
0.0
 10
320.2989655145437
 20
1334.823754312362
 30
0.0
 10
322.8804362121456
 20
1335.907279462761
 30
0.0
 10
327.4433131126419
 20
1336.728456817895
 30
0.0
 10
331.006913568135
 20
1336.769446715915
 30
0.0
 10
332.7887463995798
 20
1336.789942039945
 30
0.0
  0
SPLINE
  5
103
330
1F
100
AcDbEntity
  8
0
  6
HIDDEN
 62
     7
370
     0
100
AcDbSpline
210
0.0
220
0.0
230
1.0
 70
     8
 71
     3
 72
    23
 73
    19
 74
     0
 42
0.00000001
 43
0.00000001
 12
1.0
 22
0.0
 32
0.0
 13
1.0
 23
0.0
 33
0.0
 40
0.0
 40
0.0
 40
0.0
 40
0.0
 40
0.0595950349466795
 40
0.1191901945269432
 40
0.1787853061611737
 40
0.2430283254006769
 40
0.3072713805688342
 40
0.3715143063771599
 40
0.4357573769638218
 40
0.5000004405938976
 40
0.5642435042239736
 40
0.6284865748106355
 40
0.692729500618961
 40
0.756972555787118
 40
0.8212155750266208
 40
0.8808103929308911
 40
0.9404052587817823
 40
1.0
 40
1.0
 40
1.0
 40
1.0
 10
621.113365948748
 20
1336.78995089458
 30
0.0
 10
615.6627867970604
 20
1336.596882389581
 30
0.0
 10
604.7616170946619
 20
1336.210744975811
 30
0.0
 10
588.031955793165
 20
1335.718459402307
 30
0.0
 10
570.6330248912516
 20
1335.28010615664
 30
0.0
 10
552.5523134675404
 20
1334.90959465869
 30
0.0
 10
533.8275950950407
 20
1334.612863050262
 30
0.0
 10
514.9521817648371
 20
1334.400459119683
 30
0.0
 10
495.9766617046828
 20
1334.272812243606
 30
0.0
 10
476.9509359605912
 20
1334.230169938586
 30
0.0
 10
457.9252102164975
 20
1334.272812243609
 30
0.0
 10
438.9496901563496
 20
1334.40045911967
 30
0.0
 10
420.0742768261225
 20
1334.612863050311
 30
0.0
 10
401.3495584537109
 20
1334.909594658506
 30
0.0
 10
383.2688752666692
 20
1335.280105578672
 30
0.0
 10
365.8699995299834
 20
1335.718457234892
 30
0.0
 10
349.1404188659128
 20
1336.210739885593
 30
0.0
 10
338.2393000887097
 20
1336.596874789751
 30
0.0
 10
332.7887463995798
 20
1336.789942039945
 30
0.0
  0
ARC
  5
104
330
1F
100
AcDbEntity
  8
0
  6
HIDDEN
 62
     7
370
     0
100
AcDbCircle
 10
366.2244971059
 20
1235.8682342506
 30
0.0
 40
15.27502324093887
100
AcDbArc
 50
179.2072467254
 51
266.2173747747
  0
ARC
  5
105
330
1F
100
AcDbEntity
  8
0
  6
HIDDEN
 62
     7
370
     0
100
AcDbCircle
 10
367.151548089
 20
1236.2159481501
 30
0.0
 40
15.2750232409392
100
AcDbArc
 50
179.2072467254
 51
266.2173747747
  0
LINE
  5
106
330
1F
100
AcDbEntity
  8
0
  6
HIDDEN
 62
     7
370
     0
100
AcDbLine
 10
351.8779869437
 20
1265.2111273905
 30
0.0
 11
351.8779869437
 21
1236.4272889929
 31
0.0
  0
ARC
  5
107
330
1F
100
AcDbEntity
  8
0
  6
HIDDEN
 62
     7
370
     0
100
AcDbCircle
 10
365.8125603012
 20
1265.5984069213
 30
0.0
 40
13.93995409210138
100
AcDbArc
 50
88.638273046
 51
181.5919950597
  0
LINE
  5
108
330
1F
100
AcDbEntity
  8
0
  6
HIDDEN
 62
     7
370
     0
100
AcDbLine
 10
366.1438346881
 20
1279.5344241921
 30
0.0
 11
378.5843004731
 21
1279.0418097375
 31
0.0
  0
LINE
  5
109
330
1F
100
AcDbEntity
  8
0
  6
HIDDEN
 62
     7
370
     0
100
AcDbLine
 10
366.1438346881
 20
1220.9742012452
 30
0.0
 11
378.5843004731
 21
1220.4815867907
 31
0.0
  0
ARC
  5
10A
330
1F
100
AcDbEntity
  8
0
  6
HIDDEN
 62
     7
370
     0
100
AcDbCircle
 10
586.7503238322
 20
1236.2159481501
 30
0.0
 40
15.27502324093926
100
AcDbArc
 50
273.7826252253
 51
0.7927532746
  0
ARC
  5
10B
330
1F
100
AcDbEntity
  8
0
  6
HIDDEN
 62
     7
370
     0
100
AcDbCircle
 10
587.6773748153
 20
1235.8682342506
 30
0.0
 40
15.27502324094049
100
AcDbArc
 50
273.7826252253
 51
0.7927532746
  0
ARC
  5
10C
330
1F
100
AcDbEntity
  8
0
  6
HIDDEN
 62
     7
370
     0
100
AcDbCircle
 10
588.08931162
 20
1265.5984069213
 30
0.0
 40
13.93995409210124
100
AcDbArc
 50
358.4080049403
 51
91.361726954
  0
LINE
  5
10D
330
1F
100
AcDbEntity
  8
0
  6
HIDDEN
 62
     7
370
     0
100
AcDbLine
 10
602.0238849775
 20
1265.2111273905
 30
0.0
 11
602.0238849775
 21
1236.4272889929
 31
0.0
  0
LINE
  5
10E
330
1F
100
AcDbEntity
  8
0
  6
HIDDEN
 62
     7
370
     0
100
AcDbLine
 10
575.3175714481
 20
1220.4815867907
 30
0.0
 11
587.758037233
 21
1220.9742012452
 31
0.0
  0
LINE
  5
10F
330
1F
100
AcDbEntity
  8
0
  6
HIDDEN
 62
     7
370
     0
100
AcDbLine
 10
575.3175714481
 20
1279.0418097375
 30
0.0
 11
587.758037233
 21
1279.5344241921
 31
0.0
  0
LINE
  5
110
330
1F
100
AcDbEntity
  8
0
  6
HIDDEN
 62
     7
370
     0
100
AcDbLine
 10
350.9509359606
 20
1264.863413491
 30
0.0
 11
350.9509359606
 21
1236.0795750934
 31
0.0
  0
LINE
  5
111
330
1F
100
AcDbEntity
  8
0
  6
HIDDEN
 62
     7
370
     0
100
AcDbLine
 10
602.9509359606
 20
1264.863413491
 30
0.0
 11
602.9509359606
 21
1236.0795750934
 31
0.0
  0
ARC
  5
112
330
1F
100
AcDbEntity
  8
0
  6
HIDDEN
 62
     7
370
     0
100
AcDbCircle
 10
377.2405006316
 20
1201.6631890223
 30
0.0
 40
18.47538476445946
100
AcDbArc
 50
80.0202350488
 51
88.7074707028
  0
ARC
  5
113
330
1F
100
AcDbEntity
  8
0
  6
HIDDEN
 62
     7
370
     0
100
AcDbCircle
 10
377.9175022997
 20
1190.9284926004
 30
0.0
 40
29.56061562322161
100
AcDbArc
 50
80.0202350488
 51
88.7074707028
  0
LINE
  5
114
330
1F
100
AcDbEntity
  8
0
  6
HIDDEN
 62
     7
370
     0
100
AcDbLine
 10
383.0403677484
 20
1220.0418270989
 30
0.0
 11
403.5240373476
 21
1215.7180543429
 31
0.0
  0
ELLIPSE
  5
115
330
1F
100
AcDbEntity
  8
0
  6
HIDDEN
 62
     7
370
     0
100
AcDbEllipse
 10
407.8541643665
 20
1216.0227277014
 30
0.0
 11
5.012547586199162
 21
-0.005371139393218981
 31
0.0
210
0.0
220
0.0
230
1.0
 40
0.1224725148
 41
3.669642263229791
 42
4.721137975985418
  0
LINE
  5
116
330
1F
100
AcDbEntity
  8
0
  6
HIDDEN
 62
     7
370
     0
100
AcDbLine
 10
546.0045111491
 20
1215.4088048969
 30
0.0
 11
407.8973607721
 21
1215.4088048969
 31
0.0
  0
ELLIPSE
  5
117
330
1F
100
AcDbEntity
  8
0
  6
HIDDEN
 62
     7
370
     0
100
AcDbEllipse
 10
546.0477075546
 20
1216.0227277014
 30
0.0
 11
5.012547586199162
 21
0.005371139392991608
 31
0.0
210
0.0
220
0.0
230
1.0
 40
0.1224725148
 41
4.703639984783949
 42
5.755135697540026
  0
LINE
  5
118
330
1F
100
AcDbEntity
  8
0
  6
HIDDEN
 62
     7
370
     0
100
AcDbLine
 10
550.3778345736
 20
1215.7180543429
 30
0.0
 11
570.8615041728
 21
1220.0418270989
 31
0.0
  0
ARC
  5
119
330
1F
100
AcDbEntity
  8
0
  6
HIDDEN
 62
     7
370
     0
100
AcDbCircle
 10
575.9843696215
 20
1190.9284926004
 30
0.0
 40
29.56061562322276
100
AcDbArc
 50
91.2925292972
 51
99.9797649512
  0
ARC
  5
11A
330
1F
100
AcDbEntity
  8
0
  6
HIDDEN
 62
     7
370
     0
100
AcDbCircle
 10
576.6613712896
 20
1201.6631890223
 30
0.0
 40
18.47538476446174
100
AcDbArc
 50
91.2925292972
 51
99.9797649512
  0
LINE
  5
11B
330
1F
100
AcDbEntity
  8
0
  6
HIDDEN
 62
     7
370
     0
100
AcDbLine
 10
552.9759107849
 20
1215.5352503278
 30
0.0
 11
573.4595803841
 21
1219.8590230838
 31
0.0
  0
ELLIPSE
  5
11C
330
1F
100
AcDbEntity
  8
0
  6
HIDDEN
 62
     7
370
     0
100
AcDbEllipse
 10
546.0477075546
 20
1216.0227277014
 30
0.0
 11
8.020076137918636
 21
0.00859382302883205
 31
0.0
210
0.0
220
0.0
230
1.0
 40
0.1224725148
 41
4.703639984783967
 42
5.755135697539757
  0
LINE
  5
11D
330
1F
100
AcDbEntity
  8
0
  6
HIDDEN
 62
     7
370
     0
100
AcDbLine
 10
545.9785933058
 20
1215.0404512142
 30
0.0
 11
407.9232786154
 21
1215.0404512142
 31
0.0
  0
ELLIPSE
  5
11E
330
1F
100
AcDbEntity
  8
0
  6
HIDDEN
 62
     7
370
     0
100
AcDbEllipse
 10
407.8541643665
 20
1216.0227277014
 30
0.0
 11
8.020076137918693
 21
-0.00859382302883205
 31
0.0
210
0.0
220
0.0
230
1.0
 40
0.1224725148
 41
3.669642263229792
 42
4.721137975985402
  0
LINE
  5
11F
330
1F
100
AcDbEntity
  8
0
  6
HIDDEN
 62
     7
370
     0
100
AcDbLine
 10
380.442291537
 20
1219.8590230838
 30
0.0
 11
400.9259611363
 21
1215.5352503278
 31
0.0
  0
LINE
  5
120
330
1F
100
AcDbEntity
  8
0
  6
HIDDEN
 62
     7
370
     0
100
AcDbLine
 10
576.2446224312
 20
1220.1338728912
 30
0.0
 11
588.6850882162
 21
1220.6264873457
 31
0.0
  0
LINE
  5
121
330
1F
100
AcDbEntity
  8
0
  6
HIDDEN
 62
     7
370
     0
100
AcDbLine
 10
365.216783705
 20
1220.6264873457
 30
0.0
 11
377.65724949
 21
1220.1338728912
 31
0.0
  0
ARC
  5
122
330
1F
100
AcDbEntity
  8
0
  6
HIDDEN
 62
     7
370
     0
100
AcDbCircle
 10
364.8855093181
 20
1265.2506930218
 30
0.0
 40
13.93995409210026
100
AcDbArc
 50
88.638273046
 51
181.5919950597
  0
ARC
  5
123
330
1F
100
AcDbEntity
  8
0
  6
HIDDEN
 62
     7
370
     0
100
AcDbCircle
 10
589.0163626031
 20
1265.2506930218
 30
0.0
 40
13.93995409210048
100
AcDbArc
 50
358.4080049403
 51
91.361726954
  0
ARC
  5
124
330
1F
100
AcDbEntity
  8
0
  6
HIDDEN
 62
     7
370
     0
100
AcDbCircle
 10
377.9175022997
 20
1249.4887155474
 30
0.0
 40
29.56061562311753
100
AcDbArc
 50
80.0202350488
 51
88.7074707028
  0
ARC
  5
125
330
1F
100
AcDbEntity
  8
0
  6
HIDDEN
 62
     7
370
     0
100
AcDbCircle
 10
575.9843696215
 20
1249.4887155472
 30
0.0
 40
29.56061562324123
100
AcDbArc
 50
91.2925292972
 51
99.9797649512
  0
ARC
  5
126
330
1F
100
AcDbEntity
  8
0
  6
HIDDEN
 62
     7
370
     0
100
AcDbCircle
 10
576.6613712896
 20
1260.223411969
 30
0.0
 40
18.47538476455424
100
AcDbArc
 50
91.2925292972
 51
99.9797649512
  0
ARC
  5
127
330
1F
100
AcDbEntity
  8
0
  6
HIDDEN
 62
     7
370
     0
100
AcDbCircle
 10
377.2405006316
 20
1260.2234119691
 30
0.0
 40
18.47538476446379
100
AcDbArc
 50
80.0202350488
 51
88.7074707028
  0
LINE
  5
128
330
1F
100
AcDbEntity
  8
0
  6
HIDDEN
 62
     7
370
     0
100
AcDbLine
 10
576.2446224312
 20
1278.694095838
 30
0.0
 11
588.6850882162
 21
1279.1867102925
 31
0.0
  0
LINE
  5
129
330
1F
100
AcDbEntity
  8
0
  6
HIDDEN
 62
     7
370
     0
100
AcDbLine
 10
365.216783705
 20
1279.1867102925
 30
0.0
 11
377.65724949
 21
1278.694095838
 31
0.0
  0
LINE
  5
12A
330
1F
100
AcDbEntity
  8
0
  6
HIDDEN
 62
     7
370
     0
100
AcDbLine
 10
383.0403677484
 20
1278.6020500457
 30
0.0
 11
399.3415450895
 21
1275.161134045
 31
0.0
  0
LINE
  5
12B
330
1F
100
AcDbEntity
  8
0
  6
HIDDEN
 62
     7
370
     0
100
AcDbLine
 10
554.5603268316
 20
1275.161134045
 30
0.0
 11
570.8615041728
 21
1278.6020500457
 31
0.0
  0
LINE
  5
12C
330
1F
100
AcDbEntity
  8
0
  6
HIDDEN
 62
     7
370
     0
100
AcDbLine
 10
380.442291537
 20
1278.4192460306
 30
0.0
 11
396.7434688782
 21
1274.9783300298
 31
0.0
  0
LINE
  5
12D
330
1F
100
AcDbEntity
  8
0
  6
HIDDEN
 62
     7
370
     0
100
AcDbLine
 10
557.158403043
 20
1274.9783300298
 30
0.0
 11
573.4595803841
 21
1278.4192460306
 31
0.0
  0
ELLIPSE
  5
12E
330
1F
100
AcDbEntity
  8
0
  6
HIDDEN
 62
     7
370
     0
100
AcDbEllipse
 10
550.2301998127
 20
1275.4658074035
 30
0.0
 11
5.012547586199162
 21
0.005371139392991608
 31
0.0
210
0.0
220
0.0
230
1.0
 40
0.1224725148
 41
4.703639984783978
 42
5.755135697540037
  0
ELLIPSE
  5
12F
330
1F
100
AcDbEntity
  8
0
  6
HIDDEN
 62
     7
370
     0
100
AcDbEllipse
 10
403.6716721085
 20
1275.4658074035
 30
0.0
 11
5.012547586199162
 21
-0.005371139392991608
 31
0.0
210
0.0
220
0.0
230
1.0
 40
0.1224725148
 41
3.669642263229514
 42
4.721137975985405
  0
ELLIPSE
  5
130
330
1F
100
AcDbEntity
  8
0
  6
HIDDEN
 62
     7
370
     0
100
AcDbEllipse
 10
403.6716721085
 20
1275.4658074035
 30
0.0
 11
8.020076137918636
 21
-0.008593823028604676
 31
0.0
210
0.0
220
0.0
230
1.0
 40
0.1224725148
 41
3.669642263230317
 42
4.721137975985387
  0
ELLIPSE
  5
131
330
1F
100
AcDbEntity
  8
0
  6
HIDDEN
 62
     7
370
     0
100
AcDbEllipse
 10
550.2301998127
 20
1275.4658074035
 30
0.0
 11
8.02007613791875
 21
0.00859382302883205
 31
0.0
210
0.0
220
0.0
230
1.0
 40
0.1224725148
 41
4.703639984783992
 42
5.755135697539052
  0
CIRCLE
  5
132
330
1F
100
AcDbEntity
  8
0
  6
HIDDEN
 62
     7
370
     0
100
AcDbCircle
 10
416.9509359606
 20
1244.8404512142
 30
0.0
 40
5.5
  0
CIRCLE
  5
133
330
1F
100
AcDbEntity
  8
0
  6
HIDDEN
 62
     7
370
     0
100
AcDbCircle
 10
536.9509359606
 20
1244.8404512142
 30
0.0
 40
5.5
  0
LINE
  5
134
330
1F
100
AcDbEntity
  8
0
  6
HIDDEN
 62
     7
370
     0
100
AcDbLine
 10
403.714868514
 20
1274.851884599
 30
0.0
 11
550.1870034072
 21
1274.851884599
 31
0.0
  0
LINE
  5
135
330
1F
100
AcDbEntity
  8
0
  6
HIDDEN
 62
     7
370
     0
100
AcDbLine
 10
403.7407863573
 20
1274.4835309162
 30
0.0
 11
550.1610855639
 21
1274.4835309162
 31
0.0
  0
SPLINE
  5
136
330
1F
100
AcDbEntity
  8
0
  6
HIDDEN
 62
     7
370
     0
100
AcDbSpline
210
0.0
220
0.0
230
1.0
 70
     8
 71
     3
 72
    43
 73
    39
 74
     0
 42
0.00000001
 43
0.00000001
 12
1.0
 22
0.0
 32
0.0
 13
1.0
 23
0.0
 33
0.0
 40
0.0
 40
0.0
 40
0.0
 40
0.0
 40
0.0567585442886863
 40
0.1247264602059073
 40
0.1875431819860827
 40
0.2453648986566706
 40
0.2982464575287547
 40
0.3461816481586208
 40
0.3891291440773521
 40
0.4270259825482361
 40
0.4598535290821632
 40
0.4861576223223641
 40
0.5081487682731518
 40
0.5260852781304605
 40
0.5409095667383359
 40
0.5532196636911394
 40
0.5628662166199316
 40
0.5726409908256992
 40
0.585761525970683
 40
0.6022335593451297
 40
0.6262032060631336
 40
0.6548963239856309
 40
0.6864474007733854
 40
0.7190934181677756
 40
0.7528347780951391
 40
0.7876638507297854
 40
0.8120260254539857
 40
0.8362556321238677
 40
0.8575789353514658
 40
0.8756872692312938
 40
0.8838569987320732
 40
0.8928850431091744
 40
0.903354693318374
 40
0.9155970550172602
 40
0.9350195779421662
 40
0.958253100628975
 40
0.9854700862105148
 40
1.0
 40
1.0
 40
1.0
 40
1.0
 10
288.9652526615262
 20
955.6388946056095
 30
0.0
 10
291.4378184249927
 20
955.1161746881044
 30
0.0
 10
296.8712624847084
 20
953.9675017295814
 30
0.0
 10
305.1408664766133
 20
952.152562393161
 30
0.0
 10
313.635452405747
 20
950.3615865542772
 30
0.0
 10
321.6987764697751
 20
948.7493872552036
 30
0.0
 10
329.3389943233783
 20
947.3147480931149
 30
0.0
 10
336.5373663643357
 20
946.0420987046097
 30
0.0
 10
343.2578031601461
 20
944.9157953929861
 30
0.0
 10
349.4544428781051
 20
943.9260083406144
 30
0.0
 10
355.003441920558
 20
943.0773212530082
 30
0.0
 10
359.9082583556219
 20
942.355275669359
 30
0.0
 10
364.1514961105053
 20
941.7509695641332
 30
0.0
 10
367.9595264817574
 20
941.2246846579831
 30
0.0
 10
371.2120122006701
 20
940.7881205235129
 30
0.0
 10
373.8437293720119
 20
940.444000811558
 30
0.0
 10
376.1206749956165
 20
940.1525163601777
 30
0.0
 10
378.4503126733384
 20
939.8600157432651
 30
0.0
 10
381.2614834556743
 20
939.5151519050115
 30
0.0
 10
385.0832315481508
 20
939.0605583856066
 30
0.0
 10
390.0116895874998
 20
938.4994726210912
 30
0.0
 10
396.0205480410607
 20
937.8556062939069
 30
0.0
 10
402.6207904025971
 20
937.1991348381348
 30
0.0
 10
409.5168709532071
 20
936.5695143670857
 30
0.0
 10
416.5876002345296
 20
935.9837041456516
 30
0.0
 10
423.0258940322746
 20
935.5068507709394
 30
0.0
 10
428.7637480995107
 20
935.1257270431455
 30
0.0
 10
433.5472578040214
 20
934.8383886373483
 30
0.0
 10
437.8613257688902
 20
934.6051375229698
 30
0.0
 10
441.0502617017782
 20
934.4490334212177
 30
0.0
 10
443.3689687669153
 20
934.343603001353
 30
0.0
 10
444.7497255116068
 20
934.2842849896192
 30
0.0
 10
445.9384546730568
 20
934.2363724169047
 30
0.0
 10
447.076618902986
 20
934.1946230885737
 30
0.0
 10
448.0487685908503
 20
934.1653318094026
 30
0.0
 10
448.7515023609703
 20
934.1529143820381
 30
0.0
 10
449.0897968999886
 20
934.1553552285792
 30
0.0
 10
449.0731705073114
 20
934.1629902855734
 30
0.0
 10
449.0673837289908
 20
934.1656476498705
 30
0.0
  0
SPLINE
  5
137
330
1F
100
AcDbEntity
  8
0
  6
HIDDEN
 62
     7
370
     0
100
AcDbSpline
210
0.0
220
0.0
230
1.0
 70
     8
 71
     3
 72
    27
 73
    23
 74
     0
 42
0.00000001
 43
0.00000001
 12
1.0
 22
0.0
 32
0.0
 13
1.0
 23
0.0
 33
0.0
 40
0.0
 40
0.0
 40
0.0
 40
0.0
 40
0.0392766685858541
 40
0.0696772193669148
 40
0.0869752357429766
 40
0.1000878933797409
 40
0.1054240547113563
 40
0.1102461741257619
 40
0.1196045274723664
 40
0.1595990690692613
 40
0.2032566940864759
 40
0.2375913986025603
 40
0.2817954661085884
 40
0.3359372785327394
 40
0.4000184250366405
 40
0.4740399597216124
 40
0.558002634303011
 40
0.6519070155321324
 40
0.7557535272871847
 40
0.8695424557023124
 40
0.9932739972530251
 40
1.0
 40
1.0
 40
1.0
 40
1.0
 10
449.0764711774164
 20
934.1716365578451
 30
0.0
 10
448.9992102948308
 20
934.1774330504735
 30
0.0
 10
448.8621486840015
 20
934.1877160888004
 30
0.0
 10
448.2839905284702
 20
934.2145698334822
 30
0.0
 10
447.5255325268467
 20
934.2479840376149
 30
0.0
 10
446.7889999473041
 20
934.2803465966007
 30
0.0
 10
446.0864794764517
 20
934.3117866872751
 30
0.0
 10
445.3687578649651
 20
934.3443511058888
 30
0.0
 10
443.0586148043618
 20
934.4517409957496
 30
0.0
 10
439.2332208190435
 20
934.6472002171874
 30
0.0
 10
434.3021192882832
 20
934.9360653877883
 30
0.0
 10
429.2243770450882
 20
935.2699271029786
 30
0.0
 10
423.7045867400755
 20
935.6722857357518
 30
0.0
 10
416.953982742299
 20
936.2250933988133
 30
0.0
 10
408.9700251715844
 20
936.9652104398967
 30
0.0
 10
399.758960346051
 20
937.9358412107999
 30
0.0
 10
389.3271559448565
 20
939.1862135222032
 30
0.0
 10
377.6844441595402
 20
940.7749830933712
 30
0.0
 10
364.8404899357556
 20
942.7543321740666
 30
0.0
 10
350.820319069354
 20
945.2377014218812
 30
0.0
 10
340.8066636692493
 20
947.1280438210558
 30
0.0
 10
335.4947589340618
 20
948.3086807341459
 30
0.0
 10
335.2208929339553
 20
948.3695508598514
 30
0.0
  0
SPLINE
  5
138
330
1F
100
AcDbEntity
  8
0
  6
HIDDEN
 62
     7
370
     0
100
AcDbSpline
210
0.0
220
0.0
230
1.0
 70
     8
 71
     3
 72
    28
 73
    24
 74
     0
 42
0.00000001
 43
0.00000001
 12
1.0
 22
0.0
 32
0.0
 13
1.0
 23
0.0
 33
0.0
 40
0.0
 40
0.0
 40
0.0
 40
0.0
 40
0.0067113753697287
 40
0.1302846563981001
 40
0.2439280415827069
 40
0.3476417271485465
 40
0.4414259988645818
 40
0.5252812800674466
 40
0.5992081367836178
 40
0.6632073197667321
 40
0.7172798817691424
 40
0.7614274099182883
 40
0.7957181986116171
 40
0.8393199828634368
 40
0.8792633690466324
 40
0.8886097523750515
 40
0.8934257026265803
 40
0.8987550356887877
 40
0.9118509101267893
 40
0.9291267831335931
 40
0.9594884155884024
 40
0.9987148018170129
 40
1.0
 40
1.0
 40
1.0
 40
1.0
 10
618.6801782369058
 20
948.3693740759666
 30
0.0
 10
618.406557817105
 20
948.3085586944864
 30
0.0
 10
613.0948980732553
 20
947.1279793581547
 30
0.0
 10
603.0814883605484
 20
945.237691498232
 30
0.0
 10
589.0613178403652
 20
942.7543211068479
 30
0.0
 10
576.217363343627
 20
940.7749738240533
 30
0.0
 10
564.5746514639548
 20
939.1862052225887
 30
0.0
 10
554.1428469488419
 20
937.9358339279116
 30
0.0
 10
544.9317820442375
 20
936.9652040199746
 30
0.0
 10
536.947824362718
 20
936.2250877320702
 30
0.0
 10
530.1972203743086
 20
935.672280706416
 30
0.0
 10
524.6774297623882
 20
935.2699225865165
 30
0.0
 10
519.5996881764968
 20
934.9360613687755
 30
0.0
 10
514.6685834877886
 20
934.647196580978
 30
0.0
 10
510.8431979521528
 20
934.451737947204
 30
0.0
 10
508.5330453789908
 20
934.3443480239556
 30
0.0
 10
507.8153345357775
 20
934.3117839614414
 30
0.0
 10
507.1127575124837
 20
934.2803424193613
 30
0.0
 10
506.3768452290343
 20
934.2479965904085
 30
0.0
 10
505.6140827182286
 20
934.2144668493733
 30
0.0
 10
505.0686717216777
 20
934.1884927107209
 30
0.0
 10
504.8184482012932
 20
934.1750484148523
 30
0.0
 10
504.8256398999732
 20
934.1713982870192
 30
0.0
 10
504.8258680509629
 20
934.1712824895819
 30
0.0
  0
SPLINE
  5
139
330
1F
100
AcDbEntity
  8
0
  6
HIDDEN
 62
     7
370
     0
100
AcDbSpline
210
0.0
220
0.0
230
1.0
 70
     8
 71
     3
 72
    42
 73
    38
 74
     0
 42
0.00000001
 43
0.00000001
 12
1.0
 22
0.0
 32
0.0
 13
1.0
 23
0.0
 33
0.0
 40
0.0
 40
0.0
 40
0.0
 40
0.0
 40
0.0145356003129493
 40
0.0417633470342762
 40
0.0650060576699722
 40
0.0844362638678655
 40
0.0966834706093183
 40
0.1071572665837603
 40
0.1161888883988989
 40
0.1301521414190119
 40
0.1460687402203158
 40
0.1642588423931761
 40
0.1882846305479435
 40
0.2124103606375543
 40
0.2478767334823116
 40
0.2822148031262741
 40
0.3154167637961827
 40
0.3474766372592025
 40
0.3763102939102587
 40
0.4002432152088516
 40
0.4183049609547203
 40
0.4319855540453348
 40
0.4423874860064203
 40
0.4551600633613709
 40
0.4710999936748669
 40
0.4895582667335397
 40
0.512520797796433
 40
0.5403440615914322
 40
0.5731846004601618
 40
0.6110964333424225
 40
0.6540609185605786
 40
0.702015068362601
 40
0.7549175395267096
 40
0.8127621186268537
 40
0.875603673751242
 40
0.9435984542836607
 40
1.0
 40
1.0
 40
1.0
 40
1.0
 10
504.8344218982505
 20
934.1656450189244
 30
0.0
 10
504.8286371132949
 20
934.1629877613894
 30
0.0
 10
504.8120164043858
 20
934.1553529911562
 30
0.0
 10
505.1502386131792
 20
934.1529090895693
 30
0.0
 10
505.8532162916774
 20
934.165336945914
 30
0.0
 10
506.8247115582167
 20
934.1946001312771
 30
0.0
 10
507.9643454637154
 20
934.2364122969884
 30
0.0
 10
509.1490834655867
 20
934.2841538401822
 30
0.0
 10
510.8333742968708
 20
934.356509671484
 30
0.0
 10
513.5068530761735
 20
934.4799414810991
 30
0.0
 10
516.6981805328496
 20
934.6402546049645
 30
0.0
 10
520.6525522846414
 20
934.8560668748207
 30
0.0
 10
525.1854832019088
 20
935.1288433686993
 30
0.0
 10
530.9362903474984
 20
935.5109791339247
 30
0.0
 10
537.4410052151178
 20
935.9932868093567
 30
0.0
 10
544.6358022416779
 20
936.5910489608377
 30
0.0
 10
551.6482302937202
 20
937.2339190424775
 30
0.0
 10
558.3362389736118
 20
937.9025187962158
 30
0.0
 10
564.3853056691967
 20
938.554267230656
 30
0.0
 10
569.4328586326067
 20
939.1319079651133
 30
0.0
 10
573.4044634520582
 20
939.6074548005123
 30
0.0
 10
576.413667545644
 20
939.9797742780214
 30
0.0
 10
579.0561867970297
 20
940.3147562967954
 30
0.0
 10
581.8566386961102
 20
940.677920574408
 30
0.0
 10
585.2483178793649
 20
941.1300506790761
 30
0.0
 10
589.2949285981332
 20
941.6868613927862
 30
0.0
 10
593.7497208262453
 20
942.3195885674818
 30
0.0
 10
598.8125315476398
 20
943.0641771602935
 30
0.0
 10
604.4472151477794
 20
943.9259775549494
 30
0.0
 10
610.6440426966997
 20
944.9157899184497
 30
0.0
 10
617.3644189260056
 20
946.0420842896342
 30
0.0
 10
624.5628110303735
 20
947.314735931104
 30
0.0
 10
632.2030228136883
 20
948.7493726142831
 30
0.0
 10
640.2663545637297
 20
950.3615755073075
 30
0.0
 10
648.760921152855
 20
952.1525331814548
 30
0.0
 10
657.013877310429
 20
953.9638686545312
 30
0.0
 10
662.4308324566157
 20
955.1090794808605
 30
0.0
 10
664.8868908671351
 20
955.6283203838989
 30
0.0
  0
SPLINE
  5
13A
330
1F
100
AcDbEntity
  8
0
  6
HIDDEN
 62
     7
370
     0
100
AcDbSpline
210
0.0
220
0.0
230
1.0
 70
     8
 71
     3
 72
    58
 73
    54
 74
     0
 42
0.00000001
 43
0.00000001
 12
1.0
 22
0.0
 32
0.0
 13
1.0
 23
0.0
 33
0.0
 40
0.0
 40
0.0
 40
0.0
 40
0.0
 40
0.0391351423098933
 40
0.0813686055387351
 40
0.1205267203327028
 40
0.1566031637931704
 40
0.1895931990725495
 40
0.2194937683481809
 40
0.2463027722600999
 40
0.2700166308321945
 40
0.2906372574385458
 40
0.3081746484331168
 40
0.3226471375584246
 40
0.3340856624600378
 40
0.3424835963040147
 40
0.3497102638674114
 40
0.3559887694616277
 40
0.3617991749794652
 40
0.3698510355495894
 40
0.3805689967366737
 40
0.3939531147613661
 40
0.4115367991408259
 40
0.4298751174097316
 40
0.448374012333052
 40
0.4670337891597165
 40
0.4858547482362178
 40
0.512866703209463
 40
0.5402014373369992
 40
0.5663014710806206
 40
0.5898934979396021
 40
0.6007491680506815
 40
0.6109780295671877
 40
0.620580168617178
 40
0.6295033771325116
 40
0.6369229077168296
 40
0.6425542382877998
 40
0.6463974028573
 40
0.6498189732371263
 40
0.6553836226107346
 40
0.6631661755535906
 40
0.6731739225469766
 40
0.6854111182714333
 40
0.6998805668072554
 40
0.7165837567770581
 40
0.7355205435247592
 40
0.7566887397461474
 40
0.7836091242095536
 40
0.8134373440077365
 40
0.8461712764719904
 40
0.8818082495149486
 40
0.9203447380627806
 40
0.9617762077340783
 40
1.0
 40
1.0
 40
1.0
 40
1.0
 10
664.9446623591646
 20
956.3536596560783
 30
0.0
 10
660.1937830098179
 20
955.7622689402679
 30
0.0
 10
650.3158982003545
 20
954.5326672310673
 30
0.0
 10
635.6360487180909
 20
952.9231863007649
 30
0.0
 10
621.293791811729
 20
951.5146272101149
 30
0.0
 10
608.0421749201325
 20
950.3881622945544
 30
0.0
 10
595.8881190429922
 20
949.5124825487906
 30
0.0
 10
584.836283578355
 20
948.8545168383306
 30
0.0
 10
574.8913716478385
 20
948.3800113796955
 30
0.0
 10
566.0551885928211
 20
948.0291396922835
 30
0.0
 10
558.3293005765536
 20
947.7567556079231
 30
0.0
 10
551.714670149934
 20
947.5394845605956
 30
0.0
 10
546.21094886577
 20
947.3670807538607
 30
0.0
 10
541.8236204880002
 20
947.2362244012623
 30
0.0
 10
538.3272288827632
 20
947.1383335923997
 30
0.0
 10
535.499306207933
 20
947.0633834059528
 30
0.0
 10
533.0042252997047
 20
947.0003613046997
 30
0.0
 10
530.4017105628434
 20
946.9375138220232
 30
0.0
 10
527.2246106587595
 20
946.8647578268113
 30
0.0
 10
523.0681825709378
 20
946.776512269059
 30
0.0
 10
517.6790796598721
 20
946.673516947136
 30
0.0
 10
511.3043713025514
 20
946.5688853139658
 30
0.0
 10
504.2676361691093
 20
946.4750614426058
 30
0.0
 10
497.0911741432687
 20
946.4017583410631
 30
0.0
 10
489.8518714372669
 20
946.3503810098055
 30
0.0
 10
481.5113545907666
 20
946.3172475549047
 30
0.0
 10
472.0487585676407
 20
946.3156863068236
 30
0.0
 10
461.6450230181664
 20
946.3609225216587
 30
0.0
 10
451.6841297816873
 20
946.4487835026312
 30
0.0
 10
443.85491144436
 20
946.550728023912
 30
0.0
 10
438.0785058185503
 20
946.6429758334846
 30
0.0
 10
434.1112203415747
 20
946.7135547073841
 30
0.0
 10
430.3940690437484
 20
946.786107213138
 30
0.0
 10
427.0406026661717
 20
946.8570317236413
 30
0.0
 10
424.200302673043
 20
946.9212406638864
 30
0.0
 10
422.0175435904795
 20
946.9731562805534
 30
0.0
 10
420.3498296356062
 20
947.0142324300821
 30
0.0
 10
418.6974117563094
 20
947.0561221100509
 30
0.0
 10
416.5726592775494
 20
947.1110359310692
 30
0.0
 10
413.629475465228
 20
947.1876648552494
 30
0.0
 10
409.8653858359953
 20
947.2861937976652
 30
0.0
 10
405.2781106941788
 20
947.4080897380921
 30
0.0
 10
399.8686653884816
 20
947.5578302714448
 30
0.0
 10
393.6370948228121
 20
947.7449861274608
 30
0.0
 10
386.5841217689958
 20
947.9860380153691
 30
0.0
 10
378.2735846127821
 20
948.3245534175794
 30
0.0
 10
368.6237259670374
 20
948.8123451511098
 30
0.0
 10
357.5544434748916
 20
949.4962198667524
 30
0.0
 10
345.4213256896956
 20
950.3915039579246
 30
0.0
 10
332.228649013758
 20
951.5273002892673
 30
0.0
 10
317.9823883960137
 20
952.9355642208501
 30
0.0
 10
303.436166235944
 20
954.5370779609606
 30
0.0
 10
293.6524506986946
 20
955.7633599627499
 30
0.0
 10
288.9575855863379
 20
956.3518100833807
 30
0.0
  0
SPLINE
  5
13B
330
1F
100
AcDbEntity
  8
0
  6
HIDDEN
 62
     7
370
     0
100
AcDbSpline
210
0.0
220
0.0
230
1.0
 70
     8
 71
     3
 72
    63
 73
    59
 74
     0
 42
0.00000001
 43
0.00000001
 12
1.0
 22
0.0
 32
0.0
 13
1.0
 23
0.0
 33
0.0
 40
0.0
 40
0.0
 40
0.0
 40
0.0
 40
0.0385597442322477
 40
0.0817429075836184
 40
0.121010238575887
 40
0.1563895909561292
 40
0.1879016341797762
 40
0.2155617224273489
 40
0.2393822505309048
 40
0.2593790805051871
 40
0.2755651997993772
 40
0.286153283233216
 40
0.2941207163808591
 40
0.299505313558016
 40
0.3008827744255245
 40
0.3019339454020639
 40
0.3048556516377096
 40
0.3077990593531241
 40
0.3126873186781731
 40
0.3222728180036764
 40
0.3423611532084034
 40
0.3576077764069489
 40
0.377094280810766
 40
0.4008493035021345
 40
0.4181458839591869
 40
0.437188437226756
 40
0.4579920540002242
 40
0.480573752158736
 40
0.5049487516191691
 40
0.5310436151941246
 40
0.5559791926414568
 40
0.5783003752802429
 40
0.6006134183421918
 40
0.6195543483773254
 40
0.6352112455113994
 40
0.6478474188531441
 40
0.6620642145782867
 40
0.6803418448432943
 40
0.7026684076133801
 40
0.7278964878112141
 40
0.7530913780603175
 40
0.7781098136551767
 40
0.8029578744586804
 40
0.8276404268499986
 40
0.8518692890947938
 40
0.8729611375994579
 40
0.8883245180318716
 40
0.9008207077791135
 40
0.9059994869408474
 40
0.9118014228233735
 40
0.9198065562240977
 40
0.9300062888705991
 40
0.9423832705387837
 40
0.9568179992335694
 40
0.970605851096863
 40
0.9835668052380607
 40
0.9971767792528182
 40
1.0
 40
1.0
 40
1.0
 40
1.0
 10
289.9009055247984
 20
961.4312898934247
 30
0.0
 10
290.4118657944794
 20
961.3815175755733
 30
0.0
 10
291.4950518719563
 20
961.2760051024135
 30
0.0
 10
293.1647747467853
 20
961.0146185213267
 30
0.0
 10
294.8281309555073
 20
960.6851911401865
 30
0.0
 10
296.3554998099555
 20
960.3360309349976
 30
0.0
 10
297.7408536259816
 20
959.9933591994393
 30
0.0
 10
298.9869879812018
 20
959.6736591742027
 30
0.0
 10
300.0988105329123
 20
959.3870748779655
 30
0.0
 10
301.0899111725374
 20
959.1359048693935
 30
0.0
 10
301.9434893008419
 20
958.9255743464846
 30
0.0
 10
302.6680023803241
 20
958.7524540893656
 30
0.0
 10
303.2628064415637
 20
958.6145761086138
 30
0.0
 10
303.7184985458048
 20
958.5117896728235
 30
0.0
 10
304.061068333525
 20
958.4369721262943
 30
0.0
 10
304.3508842144686
 20
958.3745456187663
 30
0.0
 10
304.9702870926258
 20
958.2458227541197
 30
0.0
 10
305.7999172985849
 20
958.0727039297475
 30
0.0
 10
307.1540277617531
 20
957.7911785473929
 30
0.0
 10
309.6798929111175
 20
957.2679505316661
 30
0.0
 10
312.6747393521732
 20
956.653117665315
 30
0.0
 10
316.1558935518775
 20
955.9494840422515
 30
0.0
 10
319.8894739061125
 20
955.2100439555419
 30
0.0
 10
323.7396636297429
 20
954.4676147772346
 30
0.0
 10
327.5677627303039
 20
953.7492032512099
 30
0.0
 10
331.2117752165884
 20
953.0821430638655
 30
0.0
 10
335.2007504209278
 20
952.3720726428835
 30
0.0
 10
339.5392820369468
 20
951.623211706321
 30
0.0
 10
344.2350042425772
 20
950.8392668841574
 30
0.0
 10
349.0743427121983
 20
950.0600271440032
 30
0.0
 10
353.8792299635265
 20
949.3144981030815
 30
0.0
 10
358.5762234032839
 20
948.6111378558254
 30
0.0
 10
363.0165185442884
 20
947.9689259628727
 30
0.0
 10
367.1771470413254
 20
947.3873275960617
 30
0.0
 10
370.8026628815633
 20
946.8956685036553
 30
0.0
 10
374.3298242549313
 20
946.4304452165227
 30
0.0
 10
378.1498826872923
 20
945.9418514794006
 30
0.0
 10
382.7718493402235
 20
945.3733466272062
 30
0.0
 10
388.337843823852
 20
944.7227698115678
 30
0.0
 10
394.4875961425051
 20
944.0486097101992
 30
0.0
 10
400.8211138359539
 20
943.4028086167364
 30
0.0
 10
407.0833726292006
 20
942.8118693966239
 30
0.0
 10
413.2573113813172
 20
942.2758472479592
 30
0.0
 10
419.3190308021815
 20
941.7950795284211
 30
0.0
 10
425.0177234365333
 20
941.385402305234
 30
0.0
 10
429.9410138599542
 20
941.065699205054
 30
0.0
 10
433.8925646720709
 20
940.8314321959649
 30
0.0
 10
436.5408350600899
 20
940.6859377114572
 30
0.0
 10
438.4066877625307
 20
940.5885293739334
 30
0.0
 10
439.8982807210962
 20
940.5131832997205
 30
0.0
 10
441.7699203218499
 20
940.4225931503325
 30
0.0
 10
444.1477134493704
 20
940.3141530196391
 30
0.0
 10
446.9977358281681
 20
940.1939067037803
 30
0.0
 10
450.1935625814448
 20
940.0722601910288
 30
0.0
 10
453.0759884045712
 20
939.9760664075518
 30
0.0
 10
454.8456301456382
 20
939.9252587154187
 30
0.0
 10
455.4832110181686
 20
939.9107387235475
 30
0.0
 10
455.3407073676245
 20
939.9184222498236
 30
0.0
 10
455.3162252587836
 20
939.91974227865
 30
0.0
  0
SPLINE
  5
13C
330
1F
100
AcDbEntity
  8
0
  6
HIDDEN
 62
     7
370
     0
100
AcDbSpline
210
0.0
220
0.0
230
1.0
 70
     8
 71
     3
 72
    33
 73
    29
 74
     0
 42
0.00000001
 43
0.00000001
 12
1.0
 22
0.0
 32
0.0
 13
1.0
 23
0.0
 33
0.0
 40
0.0
 40
0.0
 40
0.0
 40
0.0
 40
0.0362397085251742
 40
0.0790129935233512
 40
0.1107751452109846
 40
0.1392107338138353
 40
0.1630270656881824
 40
0.1822145805447835
 40
0.1967694188236999
 40
0.2067057763420869
 40
0.2111752441270472
 40
0.21250571108083
 40
0.2167973411869001
 40
0.2219761358542097
 40
0.2353394912731196
 40
0.2565475433057649
 40
0.2843634268252985
 40
0.3187875648387395
 40
0.3598202708494224
 40
0.4074618443379419
 40
0.4686667896253645
 40
0.538162848294951
 40
0.6159507639802262
 40
0.7020317585921381
 40
0.7964069912606596
 40
0.8763789176923038
 40
0.9614729251343687
 40
1.0
 40
1.0
 40
1.0
 40
1.0
 10
455.0519462251603
 20
939.935466400112
 30
0.0
 10
454.6525612757233
 20
939.9519143507699
 30
0.0
 10
453.7817871523257
 20
939.987775616539
 30
0.0
 10
451.6493826066767
 20
940.0721442425686
 30
0.0
 10
449.3855818574429
 20
940.16660120749
 30
0.0
 10
447.4998065686767
 20
940.2497814010584
 30
0.0
 10
445.8563169032427
 20
940.3256037509065
 30
0.0
 10
444.4868071853464
 20
940.3911596829837
 30
0.0
 10
443.4013454158004
 20
940.4446507530416
 30
0.0
 10
442.6211769325166
 20
940.4839653821392
 30
0.0
 10
442.1500223002869
 20
940.5080540274896
 30
0.0
 10
441.7659202727049
 20
940.5278220987931
 30
0.0
 10
441.2470490764345
 20
940.5547125977348
 30
0.0
 10
440.2376663713533
 20
940.6080785251281
 30
0.0
 10
438.4351607790787
 20
940.7065728058094
 30
0.0
 10
435.6342182170721
 20
940.8693695405519
 30
0.0
 10
431.8767213659802
 20
941.1059617956166
 30
0.0
 10
427.2330702719687
 20
941.4271491513955
 30
0.0
 10
421.6994090844751
 20
941.8514184301644
 30
0.0
 10
414.9672839963696
 20
942.4270814526664
 30
0.0
 10
406.9643184934218
 20
943.1983659407538
 30
0.0
 10
397.6211205826989
 20
944.2210924227932
 30
0.0
 10
387.1808883136272
 20
945.518212370354
 30
0.0
 10
375.6526157288896
 20
947.1418142457675
 30
0.0
 10
364.0571395217131
 20
948.9831789308291
 30
0.0
 10
352.5417776046254
 20
951.0281667708932
 30
0.0
 10
343.5251825773231
 20
952.7456447240909
 30
0.0
 10
338.0760546900917
 20
953.9129795764798
 30
0.0
 10
336.3778090984439
 20
954.2767848143219
 30
0.0
  0
SPLINE
  5
13D
330
1F
100
AcDbEntity
  8
0
  6
HIDDEN
 62
     7
370
     0
100
AcDbSpline
210
0.0
220
0.0
230
1.0
 70
     8
 71
     3
 72
    29
 73
    25
 74
     0
 42
0.00000001
 43
0.00000001
 12
1.0
 22
0.0
 32
0.0
 13
1.0
 23
0.0
 33
0.0
 40
0.0
 40
0.0
 40
0.0
 40
0.0
 40
0.0902328078955104
 40
0.1916080400707909
 40
0.2855175163582362
 40
0.3704829931632146
 40
0.4482469129025052
 40
0.5188097004730642
 40
0.5821718564164072
 40
0.645434356638891
 40
0.6994000250615425
 40
0.7440701850199332
 40
0.7794470265978318
 40
0.8082821055272431
 40
0.835495065371514
 40
0.8612050160859287
 40
0.8735048029731818
 40
0.8794677734192504
 40
0.885823341208663
 40
0.8933170491797815
 40
0.9076419791135864
 40
0.9263637910440525
 40
0.9587524308659828
 40
1.0
 40
1.0
 40
1.0
 40
1.0
 10
618.2591339033038
 20
954.4236376192637
 30
0.0
 10
614.5348278953451
 20
953.6462879702984
 30
0.0
 10
606.6263188790325
 20
951.9955974270049
 30
0.0
 10
594.7830856432038
 20
949.831697212704
 30
0.0
 10
583.1266770795977
 20
947.8942839284351
 30
0.0
 10
572.4234953651061
 20
946.3028318512668
 30
0.0
 10
562.6737360060818
 20
945.0016359822026
 30
0.0
 10
553.8115607482027
 20
943.9430130069399
 30
0.0
 10
545.5451388907136
 20
943.0593929739706
 30
0.0
 10
537.9657600360696
 20
942.3390241225669
 30
0.0
 10
531.1648290969172
 20
941.7670416435012
 30
0.0
 10
525.5316149007866
 20
941.3450267479924
 30
0.0
 10
520.9539282828179
 20
941.0361700230837
 30
0.0
 10
517.1086889668709
 20
940.7996659982673
 30
0.0
 10
513.6675264726777
 20
940.6058797934355
 30
0.0
 10
510.9180689694362
 20
940.4645834431966
 30
0.0
 10
509.0738835900753
 20
940.3762728137303
 30
0.0
 10
508.030151836749
 20
940.3280752726363
 30
0.0
 10
507.3292552044697
 20
940.2964044887992
 30
0.0
 10
506.5890036350368
 20
940.2635114453027
 30
0.0
 10
505.8982015406592
 20
940.2332267227772
 30
0.0
 10
505.2174590964054
 20
940.20295641442
 30
0.0
 10
504.7152094388381
 20
940.1786838684139
 30
0.0
 10
504.6201200292761
 20
940.1692363483368
 30
0.0
 10
504.5668553779526
 20
940.1639442883155
 30
0.0
  0
SPLINE
  5
13E
330
1F
100
AcDbEntity
  8
0
  6
HIDDEN
 62
     7
370
     0
100
AcDbSpline
210
0.0
220
0.0
230
1.0
 70
     8
 71
     3
 72
    62
 73
    58
 74
     0
 42
0.00000001
 43
0.00000001
 12
1.0
 22
0.0
 32
0.0
 13
1.0
 23
0.0
 33
0.0
 40
0.0
 40
0.0
 40
0.0
 40
0.0
 40
0.0125320196184537
 40
0.0310528779250058
 40
0.0474153696042673
 40
0.0616696225563223
 40
0.0739012495753683
 40
0.0865506259977968
 40
0.0967154617230729
 40
0.1063876447270081
 40
0.1167067914697041
 40
0.1280984245591962
 40
0.1429113660378048
 40
0.15870486554463
 40
0.1826513439186987
 40
0.206573140386842
 40
0.2304639096399815
 40
0.2543194891932463
 40
0.2781375713593878
 40
0.3004780669265645
 40
0.3195223890166578
 40
0.3352526395166885
 40
0.3465246830528687
 40
0.3551245231163958
 40
0.3621389656361763
 40
0.371028803369119
 40
0.3820531832155289
 40
0.3991713275502602
 40
0.4165960462667139
 40
0.4340424968987624
 40
0.4641593407695178
 40
0.4952591003533454
 40
0.5167979468427656
 40
0.5391309286498616
 40
0.5623479510131778
 40
0.5845877342985587
 40
0.6047935587694905
 40
0.6230771426024285
 40
0.6395776342127357
 40
0.6544741289841878
 40
0.6680012149919133
 40
0.6785308179939148
 40
0.6864294451814198
 40
0.6889796766375995
 40
0.6923287574596645
 40
0.701980820684234
 40
0.7159416169679447
 40
0.7343630646898509
 40
0.7547145483451042
 40
0.7787356155909998
 40
0.8064571983776804
 40
0.8378985235218654
 40
0.8730778737903276
 40
0.9112879837690034
 40
0.9531489963964754
 40
0.9985777713906238
 40
1.0
 40
1.0
 40
1.0
 40
1.0
 10
504.581249877512
 20
940.160840458061
 30
0.0
 10
504.5836328406329
 20
940.1582471386237
 30
0.0
 10
504.5895375443555
 20
940.1518211965683
 30
0.0
 10
504.8412863898109
 20
940.1481564237761
 30
0.0
 10
505.3191968879458
 20
940.153537903859
 30
0.0
 10
506.0033563879787
 20
940.1704845754057
 30
0.0
 10
506.9323031453127
 20
940.2008645529919
 30
0.0
 10
508.1713742137708
 20
940.2482321975266
 30
0.0
 10
509.9015648879131
 20
940.321080364186
 30
0.0
 10
512.3721846573328
 20
940.4335019650495
 30
0.0
 10
514.958824704653
 20
940.5599881595678
 30
0.0
 10
518.006178542984
 20
940.7195024088797
 30
0.0
 10
521.5402749935813
 20
940.9195823407856
 30
0.0
 10
526.1600561845554
 20
941.2041008270796
 30
0.0
 10
531.572279044826
 20
941.5721217947959
 30
0.0
 10
537.7055880206935
 20
942.0360750488982
 30
0.0
 10
543.8605392920678
 20
942.548370106195
 30
0.0
 10
550.0338219868765
 20
943.1087074003229
 30
0.0
 10
556.1015619864337
 20
943.7049659321575
 30
0.0
 10
561.7656611106046
 20
944.3026509430781
 30
0.0
 10
566.7246610529172
 20
944.8580285132139
 30
0.0
 10
570.7249143501207
 20
945.3276570153132
 30
0.0
 10
573.8206141013374
 20
945.7040410593934
 30
0.0
 10
576.1620900547758
 20
945.9959148807111
 30
0.0
 10
578.3037017194639
 20
946.2680695032083
 30
0.0
 10
580.6540978960991
 20
946.5725567580051
 30
0.0
 10
583.8834216432288
 20
947.000777935674
 30
0.0
 10
587.863343058149
 20
947.5460021260712
 30
0.0
 10
592.2429003577995
 20
948.1678853217451
 30
0.0
 10
597.488134285901
 20
948.9371539264841
 30
0.0
 10
603.3939470046412
 20
949.8390240162377
 30
0.0
 10
608.9057751335326
 20
950.7187872338767
 30
0.0
 10
613.3141244081597
 20
951.4468937995749
 30
0.0
 10
616.8649135120987
 20
952.0510337972679
 30
0.0
 10
619.9062269415797
 20
952.5857725324742
 30
0.0
 10
622.9015489900322
 20
953.1300367966192
 30
0.0
 10
625.9687270444937
 20
953.7023510879617
 30
0.0
 10
629.0177659187896
 20
954.2834644846213
 30
0.0
 10
632.0772237615789
 20
954.8755381569144
 30
0.0
 10
635.1488864797994
 20
955.4767588724683
 30
0.0
 10
638.1198185682955
 20
956.0628276306302
 30
0.0
 10
640.7261384694445
 20
956.5817286314625
 30
0.0
 10
642.6228758751521
 20
956.9591335996624
 30
0.0
 10
643.7429233613062
 20
957.1869715394018
 30
0.0
 10
644.6831303373631
 20
957.3835894560295
 30
0.0
 10
645.8666229222343
 20
957.6392063295553
 30
0.0
 10
647.2812586831619
 20
957.9562953672971
 30
0.0
 10
648.7474379656506
 20
958.2974765917041
 30
0.0
 10
650.2746986450014
 20
958.6646441238507
 30
0.0
 10
651.8727955118919
 20
959.0582305318562
 30
0.0
 10
653.5994598594139
 20
959.4858515162487
 30
0.0
 10
655.4595574648471
 20
959.935214183475
 30
0.0
 10
657.4416738246259
 20
960.3837087762279
 30
0.0
 10
659.5419152832245
 20
960.8039882840252
 30
0.0
 10
661.7328782839937
 20
961.1600919240591
 30
0.0
 10
663.2299437890055
 20
961.325622820109
 30
0.0
 10
663.9891045289315
 20
961.4085229261343
 30
0.0
 10
664.0121499290382
 20
961.4110394763347
 30
0.0
  0
SPLINE
  5
13F
330
1F
100
AcDbEntity
  8
0
  6
HIDDEN
 62
     7
370
     0
100
AcDbSpline
210
0.0
220
0.0
230
1.0
 70
     8
 71
     3
 72
     9
 73
     5
 74
     0
 42
0.00000001
 43
0.00000001
 12
1.0
 22
0.0
 32
0.0
 13
1.0
 23
0.0
 33
0.0
 40
0.0
 40
0.0
 40
0.0
 40
0.0
 40
0.4999023640545347
 40
0.9999999999999999
 40
0.9999999999999999
 40
0.9999999999999999
 40
0.9999999999999999
 10
289.0175212682917
 20
955.6114280400152
 30
0.0
 10
289.2174459744552
 20
956.5927011118256
 30
0.0
 10
289.617373481383
 20
958.5556305603915
 30
0.0
 10
290.0272657190428
 20
960.5124253746461
 30
0.0
 10
290.2322518580889
 20
961.491013835285
 30
0.0
  0
SPLINE
  5
140
330
1F
100
AcDbEntity
  8
0
  6
HIDDEN
 62
     7
370
     0
100
AcDbSpline
210
0.0
220
0.0
230
1.0
 70
     8
 71
     3
 72
     9
 73
     5
 74
     0
 42
0.00000001
 43
0.00000001
 12
1.0
 22
0.0
 32
0.0
 13
1.0
 23
0.0
 33
0.0
 40
0.0
 40
0.0
 40
0.0
 40
0.0
 40
0.655341305365903
 40
1.0
 40
1.0
 40
1.0
 40
1.0
 10
290.0392636722607
 20
961.4477145895365
 30
0.0
 10
289.8169084288001
 20
960.4660591765063
 30
0.0
 10
289.4776115744129
 20
958.9681291589834
 30
0.0
 10
289.1377578127006
 20
957.4704977427133
 30
0.0
 10
289.0206242588224
 20
956.9543260537386
 30
0.0
  0
SPLINE
  5
141
330
1F
100
AcDbEntity
  8
0
  6
HIDDEN
 62
     7
370
     0
100
AcDbSpline
210
0.0
220
0.0
230
1.0
 70
     8
 71
     3
 72
     9
 73
     5
 74
     0
 42
0.00000001
 43
0.00000001
 12
1.0
 22
0.0
 32
0.0
 13
1.0
 23
0.0
 33
0.0
 40
0.0
 40
0.0
 40
0.0
 40
0.0
 40
0.3438113009244474
 40
1.0
 40
1.0
 40
1.0
 40
1.0
 10
664.8812892324523
 20
956.9541245262512
 30
0.0
 10
664.7644382599443
 20
957.4690501345416
 30
0.0
 10
664.4245687670166
 20
958.9667484559923
 30
0.0
 10
664.0852569380581
 20
960.4647457844351
 30
0.0
 10
663.862604350433
 20
961.4477147026046
 30
0.0
  0
SPLINE
  5
142
330
1F
100
AcDbEntity
  8
0
  6
HIDDEN
 62
     7
370
     0
100
AcDbSpline
210
0.0
220
0.0
230
1.0
 70
     8
 71
     3
 72
     9
 73
     5
 74
     0
 42
0.00000001
 43
0.00000001
 12
1.0
 22
0.0
 32
0.0
 13
1.0
 23
0.0
 33
0.0
 40
0.0
 40
0.0
 40
0.0
 40
0.0
 40
0.500097863797879
 40
1.0
 40
1.0
 40
1.0
 40
1.0
 10
663.6696174024838
 20
961.4910189668316
 30
0.0
 10
663.8748768944041
 20
960.5111271572239
 30
0.0
 10
664.285315544075
 20
958.5517270466814
 30
0.0
 10
664.6857529459257
 20
956.5861635792983
 30
0.0
 10
664.885932458526
 20
955.6035742031125
 30
0.0
  0
LINE
  5
143
330
1F
100
AcDbEntity
  8
0
  6
HIDDEN
 62
     7
370
     0
100
AcDbLine
 10
375.7191188151
 20
939.0172475576
 30
0.0
 11
376.3450546558
 21
942.96925092
 31
0.0
  0
LINE
  5
144
330
1F
100
AcDbEntity
  8
0
  6
HIDDEN
 62
     7
370
     0
100
AcDbLine
 10
577.5568172654
 20
942.96925092
 30
0.0
 11
578.1825551256
 21
939.0184975576
 31
0.0
  0
LINE
  5
145
330
1F
100
AcDbEntity
  8
0
  6
HIDDEN
 62
     7
370
     0
100
AcDbLine
 10
288.4509359606
 20
904.8404512142
 30
0.0
 11
370.4509359606
 21
904.8404512142
 31
0.0
  0
LINE
  5
146
330
1F
100
AcDbEntity
  8
0
  6
HIDDEN
 62
     7
370
     0
100
AcDbLine
 10
370.4509359606
 20
964.8404512142
 30
0.0
 11
288.4509359606
 21
964.8404512142
 31
0.0
  0
LINE
  5
147
330
1F
100
AcDbEntity
  8
0
  6
HIDDEN
 62
     7
370
     0
100
AcDbLine
 10
374.1509359606
 20
946.8404512142
 30
0.0
 11
372.1509359606
 21
946.8404512142
 31
0.0
  0
LINE
  5
148
330
1F
100
AcDbEntity
  8
0
  6
HIDDEN
 62
     7
370
     0
100
AcDbLine
 10
665.4509359606
 20
964.8404512142
 30
0.0
 11
583.4509359606
 21
964.8404512142
 31
0.0
  0
LINE
  5
149
330
1F
100
AcDbEntity
  8
0
  6
HIDDEN
 62
     7
370
     0
100
AcDbLine
 10
583.4509359606
 20
904.8404512142
 30
0.0
 11
665.4509359606
 21
904.8404512142
 31
0.0
  0
LINE
  5
14A
330
1F
100
AcDbEntity
  8
0
  6
HIDDEN
 62
     7
370
     0
100
AcDbLine
 10
581.7509359606
 20
946.8404512142
 30
0.0
 11
579.7509359606
 21
946.8404512142
 31
0.0
  0
LINE
  5
14B
330
1F
100
AcDbEntity
  8
0
  6
HIDDEN
 62
     7
370
     0
100
AcDbLine
 10
360.8760562482
 20
1278.69082199
 30
0.0
 11
359.949005265
 21
1278.3431080905
 31
0.0
  0
LINE
  5
14C
330
1F
100
AcDbEntity
  8
0
  6
HIDDEN
 62
     7
370
     0
100
AcDbLine
 10
593.9528666561
 20
1278.3431080905
 30
0.0
 11
593.025815673
 21
1278.69082199
 31
0.0
  0
SPLINE
  5
14D
330
1F
100
AcDbEntity
  8
0
  6
Continuous
 62
     7
370
    40
100
AcDbSpline
210
0.0
220
0.0
230
1.0
 70
     8
 71
     3
 72
    32
 73
    28
 74
     0
 42
0.00000001
 43
0.00000001
 12
1.0
 22
0.0
 32
0.0
 13
1.0
 23
0.0
 33
0.0
 40
0.0
 40
0.0
 40
0.0
 40
0.0
 40
0.0141667451934939
 40
0.0969385368371147
 40
0.1721044823684511
 40
0.239564718870843
 40
0.2909422561513704
 40
0.3366877336851743
 40
0.3773467799679243
 40
0.4166830789022353
 40
0.4554818129424859
 40
0.4938036499756934
 40
0.5317046084547119
 40
0.5692363664005167
 40
0.6187860169731052
 40
0.66836459143454
 40
0.7184737814140272
 40
0.7333831870264593
 40
0.7484709820127728
 40
0.7667175824030695
 40
0.7888180424563276
 40
0.8148926804834445
 40
0.8453569254699435
 40
0.8807471327213738
 40
0.921508998073889
 40
0.9677553319311909
 40
1.0
 40
1.0
 40
1.0
 40
1.0
 10
1369.013120678433
 20
939.0628233578391
 30
0.0
 10
1369.779331445875
 20
939.1285543410487
 30
0.0
 10
1375.022268315998
 20
939.5783305775927
 30
0.0
 10
1384.339949142174
 20
940.2644051824377
 30
0.0
 10
1396.549888086533
 20
941.0548534096234
 30
0.0
 10
1407.064186548092
 20
941.6537233402139
 30
0.0
 10
1415.985995719745
 20
942.124140897963
 30
0.0
 10
1423.455901281286
 20
942.4995592645209
 30
0.0
 10
1430.273446561661
 20
942.8327814879026
 30
0.0
 10
1436.71433774999
 20
943.1477587159151
 30
0.0
 10
1443.028034890345
 20
943.4662150660798
 30
0.0
 10
1449.262965400654
 20
943.7989913689202
 30
0.0
 10
1455.427843066341
 20
944.153781775509
 30
0.0
 10
1462.19875681882
 20
944.5819081965957
 30
0.0
 10
1469.599711450887
 20
945.0997273865588
 30
0.0
 10
1477.670737045507
 20
945.7795084339361
 30
0.0
 10
1483.875507803513
 20
946.2880339076667
 30
0.0
 10
1488.225041042764
 20
946.3344819600796
 30
0.0
 10
1490.843439627273
 20
946.2509356834189
 30
0.0
 10
1493.84288690097
 20
945.9769968770827
 30
0.0
 10
1497.39407236909
 20
945.3087598876228
 30
0.0
 10
1501.46739247968
 20
943.9921511635939
 30
0.0
 10
1505.999380957756
 20
941.8747049906943
 30
0.0
 10
1510.938341384117
 20
938.8372752501133
 30
0.0
 10
1516.258002606286
 20
934.845409685904
 30
0.0
 10
1521.185734251589
 20
930.6440994608009
 30
0.0
 10
1524.361454231027
 20
927.8035680130628
 30
0.0
 10
1525.666062837155
 20
926.6366572663055
 30
0.0
  0
LINE
  5
14E
330
1F
100
AcDbEntity
  8
0
  6
Continuous
 62
     7
370
    40
100
AcDbLine
 10
1525.7059426924
 20
926.6499675168
 30
0.0
 11
1525.7059426924
 21
934.6779920711
 31
0.0
  0
SPLINE
  5
14F
330
1F
100
AcDbEntity
  8
0
  6
Continuous
 62
     7
370
    40
100
AcDbSpline
210
0.0
220
0.0
230
1.0
 70
     8
 71
     3
 72
    12
 73
     8
 74
     0
 42
0.00000001
 43
0.00000001
 12
1.0
 22
0.0
 32
0.0
 13
1.0
 23
0.0
 33
0.0
 40
0.0
 40
0.0
 40
0.0
 40
0.0
 40
0.233577069224774
 40
0.4516816070354991
 40
0.6543380341656719
 40
0.8414605305184233
 40
1.0
 40
1.0
 40
1.0
 40
1.0
 10
1018.439144716345
 20
1334.244384039747
 30
0.0
 10
1019.25664104896
 20
1329.813167902162
 30
0.0
 10
1020.837481404935
 20
1321.244266713407
 30
0.0
 10
1023.190073118614
 20
1308.842132566445
 30
0.0
 10
1025.499770222399
 20
1297.345142555996
 30
0.0
 10
1027.597354602646
 20
1286.976564724332
 30
0.0
 10
1028.731916316297
 20
1280.405200422619
 30
0.0
 10
1029.252288326975
 20
1277.391213599831
 30
0.0
  0
SPLINE
  5
150
330
1F
100
AcDbEntity
  8
0
  6
Continuous
 62
     7
370
    40
100
AcDbSpline
210
0.0
220
0.0
230
1.0
 70
     8
 71
     3
 72
    11
 73
     7
 74
     0
 42
0.00000001
 43
0.00000001
 12
1.0
 22
0.0
 32
0.0
 13
1.0
 23
0.0
 33
0.0
 40
0.0
 40
0.0
 40
0.0
 40
0.0
 40
0.1669788348825958
 40
0.4153768451281759
 40
0.6930508015772054
 40
1.0
 40
1.0
 40
1.0
 40
1.0
 10
1036.042866629626
 20
1218.781912072926
 30
0.0
 10
1036.243259902117
 20
1216.651337314462
 30
0.0
 10
1036.741758561368
 20
1211.351315775189
 30
0.0
 10
1037.436484697023
 20
1202.496225637361
 30
0.0
 10
1038.186583739762
 20
1191.846814695684
 30
0.0
 10
1038.668580996363
 20
1184.36993813216
 30
0.0
 10
1038.921647728877
 20
1180.44429603476
 30
0.0
  0
LINE
  5
151
330
1F
100
AcDbEntity
  8
0
  6
Continuous
 62
     7
370
    40
100
AcDbLine
 10
1024.339667631
 20
1335.3324232548
 30
0.0
 11
1018.4391447163
 21
1334.2443840397
 31
0.0
  0
LINE
  5
152
330
1F
100
AcDbEntity
  8
0
  6
Continuous
 62
     7
370
    40
100
AcDbLine
 10
1038.9216477289
 20
1180.4442960348
 30
0.0
 11
1044.9091919574
 21
1180.8307078766
 31
0.0
  0
SPLINE
  5
153
330
1F
100
AcDbEntity
  8
0
  6
Continuous
 62
     7
370
    40
100
AcDbSpline
210
0.0
220
0.0
230
1.0
 70
     8
 71
     3
 72
    14
 73
    10
 74
     0
 42
0.00000001
 43
0.00000001
 12
1.0
 22
0.0
 32
0.0
 13
1.0
 23
0.0
 33
0.0
 40
0.0
 40
0.0
 40
0.0
 40
0.0
 40
0.1250000000000004
 40
0.1250000000000004
 40
0.2500000000000007
 40
0.2500000000000007
 40
0.5000000000000014
 40
0.5000000000000014
 40
1.0
 40
1.0
 40
1.0
 40
1.0
 10
1484.015927805018
 20
954.5357105972483
 30
0.0
 10
1481.609138993406
 20
954.9404852959034
 30
0.0
 10
1479.191568900165
 20
955.2517315861139
 30
0.0
 10
1474.342589174249
 20
955.7541651690321
 30
0.0
 10
1471.909355950301
 20
955.9473206283873
 30
0.0
 10
1464.611344345249
 20
956.3794656715893
 30
0.0
 10
1459.747376107425
 20
956.4693499339377
 30
0.0
 10
1445.157896881419
 20
956.3888079816254
 30
0.0
 10
1435.434816506257
 20
955.8674473215291
 30
0.0
 10
1425.709913897954
 20
955.6091932962129
 30
0.0
  0
SPLINE
  5
154
330
1F
100
AcDbEntity
  8
0
  6
Continuous
 62
     7
370
    40
100
AcDbSpline
210
0.0
220
0.0
230
1.0
 70
     8
 71
     3
 72
    22
 73
    18
 74
     0
 42
0.00000001
 43
0.00000001
 12
1.0
 22
0.0
 32
0.0
 13
1.0
 23
0.0
 33
0.0
 40
0.0
 40
0.0
 40
0.0
 40
0.0
 40
0.0379574306882791
 40
0.077397370113025
 40
0.1183203953527565
 40
0.1607270229395832
 40
0.2046177170258698
 40
0.2499928962215044
 40
0.3098850783978163
 40
0.3749900638688661
 40
0.499992521601561
 40
0.6249968801034098
 40
0.6874936226202463
 40
0.7499997965301135
 40
0.8409257276912196
 40
0.9242587090615347
 40
1.0
 40
1.0
 40
1.0
 40
1.0
 10
1425.709913277077
 20
955.6092163563211
 30
0.0
 10
1425.077449279388
 20
955.5959726279642
 30
0.0
 10
1423.78781904824
 20
955.5689679090797
 30
0.0
 10
1421.81611968346
 20
955.5378069209295
 30
0.0
 10
1419.770186759241
 20
955.5123411476532
 30
0.0
 10
1417.650001974602
 20
955.4933896791317
 30
0.0
 10
1415.455570177339
 20
955.4807119230048
 30
0.0
 10
1412.969695412304
 20
955.4738132621486
 30
0.0
 10
1410.130250796914
 20
955.4747921897809
 30
0.0
 10
1405.963751590747
 20
955.4879260361585
 30
0.0
 10
1400.712173317185
 20
955.5220093059481
 30
0.0
 10
1395.504121813226
 20
955.5625344177333
 30
0.0
 10
1391.337587846472
 20
955.5927155828172
 30
0.0
 10
1387.738957059852
 20
955.6134382693214
 30
0.0
 10
1383.793033168098
 20
955.6277366146312
 30
0.0
 10
1379.626489590584
 20
955.6294284499826
 30
0.0
 10
1376.975375929279
 20
955.615606398771
 30
0.0
 10
1375.713080221636
 20
955.6090251962485
 30
0.0
  0
SPLINE
  5
155
330
1F
100
AcDbEntity
  8
0
  6
Continuous
 62
     7
370
    40
100
AcDbSpline
210
0.0
220
0.0
230
1.0
 70
     8
 71
     3
 72
     8
 73
     4
 74
     0
 42
0.00000001
 43
0.00000001
 12
1.0
 22
0.0
 32
0.0
 13
1.0
 23
0.0
 33
0.0
 40
0.0
 40
0.0
 40
0.0
 40
0.0
 40
1.0
 40
1.0
 40
1.0
 40
1.0
 10
1375.713080281725
 20
955.6090322988431
 30
0.0
 10
1359.044223979445
 20
955.7267994629798
 30
0.0
 10
1342.37488076475
 20
955.639708043268
 30
0.0
 10
1325.705984000715
 20
955.6091943002544
 30
0.0
  0
SPLINE
  5
156
330
1F
100
AcDbEntity
  8
0
  6
Continuous
 62
     7
370
    40
100
AcDbSpline
210
0.0
220
0.0
230
1.0
 70
     8
 71
     3
 72
    23
 73
    19
 74
     0
 42
0.00000001
 43
0.00000001
 12
1.0
 22
0.0
 32
0.0
 13
1.0
 23
0.0
 33
0.0
 40
0.0
 40
0.0
 40
0.0
 40
0.0
 40
0.0383734927513584
 40
0.0800453041169342
 40
0.1250157525781888
 40
0.1745923034476579
 40
0.2500303973450317
 40
0.3196650121092705
 40
0.375044322635462
 40
0.4405503011080147
 40
0.5000444921191436
 40
0.6314135731894869
 40
0.7500493764620323
 40
0.8022074014682795
 40
0.853270742747
 40
0.9032497831159045
 40
0.9521555959963908
 40
1.0
 40
1.0
 40
1.0
 40
1.0
 10
1325.705980377715
 20
955.6091110308353
 30
0.0
 10
1325.186959885373
 20
955.6306233276603
 30
0.0
 10
1324.104307508075
 20
955.6754969687636
 30
0.0
 10
1322.413696243661
 20
955.7522796028076
 30
0.0
 10
1320.571774603246
 20
955.8399823344351
 30
0.0
 10
1318.273558858943
 20
955.9552850663797
 30
0.0
 10
1315.642020819872
 20
956.0900243405276
 30
0.0
 10
1312.931960868555
 20
956.2274032974383
 30
0.0
 10
1310.355847130504
 20
956.3512751719916
 30
0.0
 10
1307.916323383965
 20
956.4573662089063
 30
0.0
 10
1304.448245843949
 20
956.5873071290996
 30
0.0
 10
1300.259519052574
 20
956.6906261481153
 30
0.0
 10
1296.168620722498
 20
956.6995799185014
 30
0.0
 10
1293.165784975983
 20
956.6420455108101
 30
0.0
 10
1291.09295153317
 20
956.5734574109989
 30
0.0
 10
1289.065367491821
 20
956.4761624975005
 30
0.0
 10
1287.082761665049
 20
956.353211196799
 30
0.0
 10
1285.77745029558
 20
956.2455300993778
 30
0.0
 10
1285.131954641692
 20
956.1922802143182
 30
0.0
  0
SPLINE
  5
157
330
1F
100
AcDbEntity
  8
0
  6
Continuous
 62
     7
370
    40
100
AcDbSpline
210
0.0
220
0.0
230
1.0
 70
     8
 71
     3
 72
    48
 73
    44
 74
     0
 42
0.00000001
 43
0.00000001
 12
1.0
 22
0.0
 32
0.0
 13
1.0
 23
0.0
 33
0.0
 40
0.0
 40
0.0
 40
0.0
 40
0.0
 40
0.0156250000000002
 40
0.0156250000000002
 40
0.0312500000000005
 40
0.0312500000000005
 40
0.0625000000000009
 40
0.0625000000000009
 40
0.1250000000000018
 40
0.1250000000000018
 40
0.1875000000000027
 40
0.1875000000000027
 40
0.2031250000000031
 40
0.2031250000000031
 40
0.2187500000000036
 40
0.2187500000000036
 40
0.2500000000000037
 40
0.2500000000000037
 40
0.3750000000000031
 40
0.3750000000000031
 40
0.4062500000000029
 40
0.4062500000000029
 40
0.4375000000000027
 40
0.4375000000000027
 40
0.5000000000000024
 40
0.5000000000000024
 40
0.5625000000000021
 40
0.5625000000000021
 40
0.6250000000000018
 40
0.6250000000000018
 40
0.7500000000000012
 40
0.7500000000000012
 40
0.8125000000000007
 40
0.8125000000000007
 40
0.8437500000000006
 40
0.8437500000000006
 40
0.8750000000000004
 40
0.8750000000000004
 40
0.9375000000000003
 40
0.9375000000000003
 40
0.9687500000000002
 40
0.9687500000000002
 40
1.0
 40
1.0
 40
1.0
 40
1.0
 10
1483.577667120596
 20
960.6585268897879
 30
0.0
 10
1482.042850380835
 20
960.8927923380069
 30
0.0
 10
1480.511953280631
 20
961.0924702736695
 30
0.0
 10
1477.47006091501
 20
961.4382348996654
 30
0.0
 10
1475.96180006697
 20
961.5846315260758
 30
0.0
 10
1471.457769461009
 20
961.9644463398902
 30
0.0
 10
1468.482302803035
 20
962.1352057656452
 30
0.0
 10
1459.629619879348
 20
962.4585921269804
 30
0.0
 10
1453.826442811508
 20
962.4229840513782
 30
0.0
 10
1442.363467081623
 20
962.151173451424
 30
0.0
 10
1436.703211134235
 20
961.9143754974633
 30
0.0
 10
1429.679397392435
 20
961.6732957273376
 30
0.0
 10
1428.277236281701
 20
961.6277107078603
 30
0.0
 10
1425.477076822989
 20
961.5466403172802
 30
0.0
 10
1424.078445102
 20
961.5109004812495
 30
0.0
 10
1419.87339901956
 20
961.4199687752838
 30
0.0
 10
1417.061883914592
 20
961.3794912230742
 30
0.0
 10
1402.971155975668
 20
961.2539873115682
 30
0.0
 10
1391.591328029236
 20
961.4008474662153
 30
0.0
 10
1377.332370096142
 20
961.5136731753126
 30
0.0
 10
1374.478085241823
 20
961.5319302729803
 30
0.0
 10
1368.776840502323
 20
961.5559364317619
 30
0.0
 10
1365.928777071203
 20
961.5624886787467
 30
0.0
 10
1357.390257867594
 20
961.569823317299
 30
0.0
 10
1351.705468213999
 20
961.5582796297825
 30
0.0
 10
1340.340279363146
 20
961.5240714174457
 30
0.0
 10
1334.659865356489
 20
961.5013945341365
 30
0.0
 10
1323.292830327008
 20
961.4668010951946
 30
0.0
 10
1317.605284918345
 20
961.4566835910205
 30
0.0
 10
1300.538901642399
 20
961.4421692191033
 30
0.0
 10
1289.15681887812
 20
961.4519187000994
 30
0.0
 10
1272.112048586641
 20
961.4542401273236
 30
0.0
 10
1266.433848002596
 20
961.4524500172992
 30
0.0
 10
1257.916988715157
 20
961.4484823679522
 30
0.0
 10
1255.078243290733
 20
961.4469616355098
 30
0.0
 10
1249.400833672272
 20
961.4439979007582
 30
0.0
 10
1246.563755181385
 20
961.4425632711602
 30
0.0
 10
1238.067155830244
 20
961.4377770100047
 30
0.0
 10
1232.418717329489
 20
961.4340300652925
 30
0.0
 10
1223.971992517123
 20
961.4245603435778
 30
0.0
 10
1221.150373079147
 20
961.4212715580301
 30
0.0
 10
1215.479537987938
 20
961.4165401675509
 30
0.0
 10
1212.632570465138
 20
961.4148426551045
 30
0.0
 10
1209.773488103896
 20
961.4138602791062
 30
0.0
  0
SPLINE
  5
158
330
1F
100
AcDbEntity
  8
0
  6
Continuous
 62
     7
370
    40
100
AcDbSpline
210
0.0
220
0.0
230
1.0
 70
     8
 71
     3
 72
    14
 73
    10
 74
     0
 42
0.00000001
 43
0.00000001
 12
1.0
 22
0.0
 32
0.0
 13
1.0
 23
0.0
 33
0.0
 40
0.0
 40
0.0
 40
0.0
 40
0.0
 40
0.1332175797069692
 40
0.2696346870636613
 40
0.4092597868503465
 40
0.552101030735176
 40
0.6981663308549635
 40
0.8474634343739369
 40
1.0
 40
1.0
 40
1.0
 40
1.0
 10
1285.131954641692
 20
956.192280214318
 30
0.0
 10
1284.721524655782
 20
956.1573222739781
 30
0.0
 10
1283.890807260557
 20
956.0865667976761
 30
0.0
 10
1282.628996087065
 20
955.9907686170126
 30
0.0
 10
1281.336980364637
 20
955.9008293981742
 30
0.0
 10
1280.014693190666
 20
955.8175898241963
 30
0.0
 10
1278.662166166324
 20
955.7409634985336
 30
0.0
 10
1277.279417502351
 20
955.670345164376
 30
0.0
 10
1276.347443071109
 20
955.6293945874919
 30
0.0
 10
1275.876454597902
 20
955.6086995458286
 30
0.0
  0
SPLINE
  5
159
330
1F
100
AcDbEntity
  8
0
  6
Continuous
 62
     7
370
    40
100
AcDbSpline
210
0.0
220
0.0
230
1.0
 70
     8
 71
     3
 72
     8
 73
     4
 74
     0
 42
0.00000001
 43
0.00000001
 12
1.0
 22
0.0
 32
0.0
 13
1.0
 23
0.0
 33
0.0
 40
0.0
 40
0.0
 40
0.0
 40
0.0
 40
1.0
 40
1.0
 40
1.0
 40
1.0
 10
1325.705982238401
 20
955.6090857702844
 30
0.0
 10
1312.181340916406
 20
955.5583268139204
 30
0.0
 10
1298.656703614113
 20
955.5030667143683
 30
0.0
 10
1285.131954641692
 20
955.572851537191
 30
0.0
  0
SPLINE
  5
15A
330
1F
100
AcDbEntity
  8
0
  6
Continuous
 62
     7
370
    40
100
AcDbSpline
210
0.0
220
0.0
230
1.0
 70
     8
 71
     3
 72
    10
 73
     6
 74
     0
 42
0.00000001
 43
0.00000001
 12
1.0
 22
0.0
 32
0.0
 13
1.0
 23
0.0
 33
0.0
 40
0.0
 40
0.0
 40
0.0
 40
0.0
 40
0.5
 40
0.5
 40
1.0
 40
1.0
 40
1.0
 40
1.0
 10
1425.709913943896
 20
955.609191399471
 30
0.0
 10
1417.377109039119
 20
955.3872095058316
 30
0.0
 10
1409.044303522574
 20
955.357473791402
 30
0.0
 10
1392.378692047239
 20
955.4369762496759
 30
0.0
 10
1384.045886086692
 20
955.5467665664484
 30
0.0
 10
1375.713080277378
 20
955.6090322988766
 30
0.0
  0
SPLINE
  5
15B
330
1F
100
AcDbEntity
  8
0
  6
Continuous
 62
     7
370
    40
100
AcDbSpline
210
0.0
220
0.0
230
1.0
 70
     8
 71
     3
 72
    32
 73
    28
 74
     0
 42
0.00000001
 43
0.00000001
 12
1.0
 22
0.0
 32
0.0
 13
1.0
 23
0.0
 33
0.0
 40
0.0
 40
0.0
 40
0.0
 40
0.0
 40
0.1249999999999972
 40
0.1249999999999972
 40
0.1874999999999958
 40
0.1874999999999958
 40
0.2499999999999943
 40
0.2499999999999943
 40
0.3749999999999928
 40
0.3749999999999928
 40
0.437499999999993
 40
0.437499999999993
 40
0.4999999999999931
 40
0.4999999999999931
 40
0.6249999999999933
 40
0.6249999999999933
 40
0.6874999999999951
 40
0.6874999999999951
 40
0.7499999999999968
 40
0.7499999999999968
 40
0.8750000000000028
 40
0.8750000000000028
 40
0.9062500000000021
 40
0.9062500000000021
 40
0.9375000000000014
 40
0.9375000000000014
 40
1.0
 40
1.0
 40
1.0
 40
1.0
 10
1518.248186456222
 20
936.8870880854254
 30
0.0
 10
1518.03643529218
 20
937.1601031196814
 30
0.0
 10
1517.617352479464
 20
937.5925580183264
 30
0.0
 10
1516.709629637451
 20
938.4392615522606
 30
0.0
 10
1516.360108363642
 20
938.7547195302105
 30
0.0
 10
1515.567842452277
 20
939.4469941460568
 30
0.0
 10
1515.122812778739
 20
939.8256204427072
 30
0.0
 10
1513.678203783163
 20
941.0193612307629
 30
0.0
 10
1512.56429492167
 20
941.8978583214392
 30
0.0
 10
1510.674135584895
 20
943.2926057576612
 30
0.0
 10
1510.005273594637
 20
943.771628685719
 30
0.0
 10
1508.613725919745
 20
944.7325270891943
 30
0.0
 10
1507.888906738342
 20
945.216061580506
 30
0.0
 10
1505.625866336088
 20
946.663925399043
 30
0.0
 10
1504.000246604871
 20
947.6258400819534
 30
0.0
 10
1501.360664668077
 20
949.0133637330119
 30
0.0
 10
1500.456465525442
 20
949.4614262336563
 30
0.0
 10
1498.606826914877
 20
950.3162875361368
 30
0.0
 10
1497.659903659849
 20
950.7238820461774
 30
0.0
 10
1494.748375409904
 20
951.875409476455
 30
0.0
 10
1492.711919666734
 20
952.5433290387537
 30
0.0
 10
1490.039687085542
 20
953.2613188961092
 30
0.0
 10
1489.498953724096
 20
953.3990305730969
 30
0.0
 10
1488.415220565676
 20
953.6605408626061
 30
0.0
 10
1487.870925166735
 20
953.7846983509002
 30
0.0
 10
1486.230902782745
 20
954.1382264678816
 30
0.0
 10
1485.128053026216
 20
954.3486839651839
 30
0.0
 10
1484.015929722706
 20
954.5357219956529
 30
0.0
  0
SPLINE
  5
15C
330
1F
100
AcDbEntity
  8
0
  6
Continuous
 62
     7
370
    40
100
AcDbSpline
210
0.0
220
0.0
230
1.0
 70
     8
 71
     3
 72
    15
 73
    11
 74
     0
 42
0.00000001
 43
0.00000001
 12
1.0
 22
0.0
 32
0.0
 13
1.0
 23
0.0
 33
0.0
 40
0.0
 40
0.0
 40
0.0
 40
0.0
 40
0.0377532004832661
 40
0.1747027512316494
 40
0.3117237357966102
 40
0.4490783144888685
 40
0.586499645920562
 40
0.7242439281790826
 40
0.8620446492162827
 40
1.0
 40
1.0
 40
1.0
 40
1.0
 10
1525.677890740528
 20
926.6499677672934
 30
0.0
 10
1525.686137208606
 20
926.6379499731082
 30
0.0
 10
1525.724297699442
 20
926.5823376890897
 30
0.0
 10
1525.510289279057
 20
926.8943518258825
 30
0.0
 10
1525.027272554728
 20
927.5955786012814
 30
0.0
 10
1524.240099825132
 20
928.7289220562786
 30
0.0
 10
1523.177521965087
 20
930.2396317705347
 30
0.0
 10
1521.826380956473
 20
932.1224219476023
 30
0.0
 10
1520.214107126761
 20
934.322332849132
 30
0.0
 10
1518.903738275941
 20
936.0318501366337
 30
0.0
 10
1518.248186456983
 20
936.8870880848349
 30
0.0
  0
SPLINE
  5
15D
330
1F
100
AcDbEntity
  8
0
  6
Continuous
 62
     7
370
    40
100
AcDbSpline
210
0.0
220
0.0
230
1.0
 70
     8
 71
     3
 72
    32
 73
    28
 74
     0
 42
0.00000001
 43
0.00000001
 12
1.0
 22
0.0
 32
0.0
 13
1.0
 23
0.0
 33
0.0
 40
0.0
 40
0.0
 40
0.0
 40
0.0
 40
0.0177585115556133
 40
0.0355798240946642
 40
0.0534622523820619
 40
0.0714040684374184
 40
0.0894035022914254
 40
0.1074587428100001
 40
0.1255679385860348
 40
0.1872779493013792
 40
0.2511854211738013
 40
0.3804843896657949
 40
0.5003481358343622
 40
0.535485759685039
 40
0.5707799324614165
 40
0.606213877213012
 40
0.6417702915234742
 40
0.6774313990699058
 40
0.7131790045554915
 40
0.7489945516496145
 40
0.7848591835269397
 40
0.8207538055595647
 40
0.8566591496847291
 40
0.8925558399458668
 40
0.9284244586873109
 40
0.9642456128732696
 40
1.0
 40
1.0
 40
1.0
 40
1.0
 10
1209.7734743002
 20
961.4136738233465
 30
0.0
 10
1209.594657406192
 20
961.413348926086
 30
0.0
 10
1209.236391252296
 20
961.4126979826021
 30
0.0
 10
1208.701020052362
 20
961.4085972184255
 30
0.0
 10
1208.166160658181
 20
961.4022349043693
 30
0.0
 10
1207.632223605269
 20
961.3934001493006
 30
0.0
 10
1207.099365593297
 20
961.382189932256
 30
0.0
 10
1206.567805648489
 20
961.3685632785894
 30
0.0
 10
1205.61290022081
 20
961.3400484507498
 30
0.0
 10
1204.229051372314
 20
961.2818124666586
 30
0.0
 10
1201.834588285195
 20
961.1343877774489
 30
0.0
 10
1199.018565819913
 20
960.8723708462736
 30
0.0
 10
1196.642320186809
 20
960.5426290556272
 30
0.0
 10
1195.139814132583
 20
960.2857867392345
 30
0.0
 10
1194.326701326737
 20
960.1342392068449
 30
0.0
 10
1193.534241604951
 20
959.9738151393127
 30
0.0
 10
1192.763876561146
 20
959.8049627395574
 30
0.0
 10
1192.017030925844
 20
959.628152287235
 30
0.0
 10
1191.295066317202
 20
959.443875972079
 30
0.0
 10
1190.599281502209
 20
959.2526451926279
 30
0.0
 10
1189.930908313281
 20
959.0549875538794
 30
0.0
 10
1189.291080405294
 20
958.8514464459896
 30
0.0
 10
1188.680918019546
 20
958.6425695613418
 30
0.0
 10
1188.101179117371
 20
958.4289382371353
 30
0.0
 10
1187.553532236774
 20
958.2110439536727
 30
0.0
 10
1187.035787545035
 20
957.9897342425277
 30
0.0
 10
1186.717999162897
 20
957.8394361629012
 30
0.0
 10
1186.559253191424
 20
957.7643572235761
 30
0.0
  0
LINE
  5
15E
330
1F
100
AcDbEntity
  8
0
  6
Continuous
 62
     7
370
    40
100
AcDbLine
 10
1186.5592531849
 20
957.7643572192
 30
0.0
 11
1184.5828304877
 21
956.7912045766
 31
0.0
  0
SPLINE
  5
15F
330
1F
100
AcDbEntity
  8
0
  6
Continuous
 62
     7
370
    40
100
AcDbSpline
210
0.0
220
0.0
230
1.0
 70
     8
 71
     3
 72
    14
 73
    10
 74
     0
 42
0.00000001
 43
0.00000001
 12
1.0
 22
0.0
 32
0.0
 13
1.0
 23
0.0
 33
0.0
 40
0.0
 40
0.0
 40
0.0
 40
0.0
 40
0.1195711052024921
 40
0.2662485838645127
 40
0.4124234176241157
 40
0.5587545155745006
 40
0.7057122015524638
 40
0.8509463602922153
 40
1.0
 40
1.0
 40
1.0
 40
1.0
 10
1525.670352723462
 20
934.6779925037985
 30
0.0
 10
1525.664289599315
 20
934.6866254269368
 30
0.0
 10
1525.650788860861
 20
934.7058483282915
 30
0.0
 10
1525.225083690669
 20
935.3038147547396
 30
0.0
 10
1524.494451825217
 20
936.320239287663
 30
0.0
 10
1523.436683356856
 20
937.7686494388125
 30
0.0
 10
1522.062313149418
 20
939.6047961983993
 30
0.0
 10
1520.386232663333
 20
941.7889398493174
 30
0.0
 10
1519.001377726771
 20
943.5041504299893
 30
0.0
 10
1518.299963431477
 20
944.3728863451822
 30
0.0
  0
SPLINE
  5
160
330
1F
100
AcDbEntity
  8
0
  6
Continuous
 62
     7
370
    40
100
AcDbSpline
210
0.0
220
0.0
230
1.0
 70
     8
 71
     3
 72
    38
 73
    34
 74
     0
 42
0.00000001
 43
0.00000001
 12
1.0
 22
0.0
 32
0.0
 13
1.0
 23
0.0
 33
0.0
 40
0.0
 40
0.0
 40
0.0
 40
0.0
 40
0.0101694865385063
 40
0.0203930076211961
 40
0.03067130443172
 40
0.0410050830867683
 40
0.0513950145191997
 40
0.0618417343760802
 40
0.0723458429366462
 40
0.0829079050528729
 40
0.0935284501154827
 40
0.1042079720485357
 40
0.1149469293358667
 40
0.1257457450828531
 40
0.1862092855358766
 40
0.2505617776894464
 40
0.2810742673161228
 40
0.3130440723614222
 40
0.3757860642980166
 40
0.4380543850286642
 40
0.5002766613319404
 40
0.5629018675838002
 40
0.6255009013857579
 40
0.6910195690838753
 40
0.7501098991106602
 40
0.8130204163703079
 40
0.8751984108080221
 40
0.8959634968676536
 40
0.9167597861016783
 40
0.937574573259513
 40
0.9583949349439704
 40
0.9792077965632384
 40
1.0
 40
1.0
 40
1.0
 40
1.0
 10
1518.299963186768
 20
944.3728863451822
 30
0.0
 10
1518.28218057196
 20
944.3942470546182
 30
0.0
 10
1518.24652085621
 20
944.437081971472
 30
0.0
 10
1518.182238994996
 20
944.5093460952011
 30
0.0
 10
1518.109772826445
 20
944.58767398172
 30
0.0
 10
1518.028256359901
 20
944.6726388765252
 30
0.0
 10
1517.937805224948
 20
944.7640869566291
 30
0.0
 10
1517.838275571931
 20
944.8620601858519
 30
0.0
 10
1517.729599545582
 20
944.9665470172383
 30
0.0
 10
1517.611695025461
 20
945.0775496019434
 30
0.0
 10
1517.484489881966
 20
945.195065936731
 30
0.0
 10
1517.347917131956
 20
945.3190933520972
 30
0.0
 10
1517.201911039501
 20
945.44963241065
 30
0.0
 10
1516.808362309941
 20
945.7964889626854
 30
0.0
 10
1516.038186016767
 20
946.4492138502642
 30
0.0
 10
1514.933182041954
 20
947.3252082610735
 30
0.0
 10
1513.904226298582
 20
948.10445070962
 30
0.0
 10
1512.808650457267
 20
948.9089160155619
 30
0.0
 10
1511.289286597679
 20
949.9744045404291
 30
0.0
 10
1509.264600164754
 20
951.2992217103596
 30
0.0
 10
1507.042496872511
 20
952.6446226156042
 30
0.0
 10
1504.627586468529
 20
953.9805867812643
 30
0.0
 10
1501.987746584182
 20
955.2958014601965
 30
0.0
 10
1499.222407960487
 20
956.5055643375356
 30
0.0
 10
1496.297693966644
 20
957.6103501931353
 30
0.0
 10
1493.290925022925
 20
958.5660769232758
 30
0.0
 10
1490.823263093232
 20
959.2207093505436
 30
0.0
 10
1489.039135526755
 20
959.6357483398848
 30
0.0
 10
1487.95846274356
 20
959.8703155240416
 30
0.0
 10
1486.870205843194
 20
960.0902410170361
 30
0.0
 10
1485.776166121803
 20
960.2951032657702
 30
0.0
 10
1484.678415407149
 20
960.4861773757177
 30
0.0
 10
1483.944461918117
 20
960.6010940235836
 30
0.0
 10
1483.577667388737
 20
960.6585238177079
 30
0.0
  0
LINE
  5
161
330
1F
100
AcDbEntity
  8
0
  6
Continuous
 62
     7
370
    40
100
AcDbLine
 10
1285.1319546417
 20
956.1922802143
 30
0.0
 11
1285.1319546417
 21
955.9973269715
 31
0.0
  0
ARC
  5
162
330
1F
100
AcDbEntity
  8
0
  6
Continuous
 62
     7
370
    40
100
AcDbCircle
 10
1360.5711132492
 20
944.3719769794
 30
0.0
 40
10.0
100
AcDbArc
 50
285.7570898053
 51
0.0
  0
ARC
  5
163
330
1F
100
AcDbEntity
  8
0
  6
Continuous
 62
     7
370
    40
100
AcDbCircle
 10
1146.0390747318
 20
1704.6850733085
 30
0.0
 40
800.000000000001
100
AcDbArc
 50
269.7008989492
 51
285.7570898053
  0
LINE
  5
164
330
1F
100
AcDbEntity
  8
0
  6
Continuous
 62
     7
370
    40
100
AcDbLine
 10
1370.5711132492
 20
952.8404512142
 30
0.0
 11
1157.0286263599
 21
952.8404512142
 31
0.0
  0
LINE
  5
165
330
1F
100
AcDbEntity
  8
0
  6
Continuous
 62
     7
370
    40
100
AcDbLine
 10
1370.5711132492
 20
944.3719769794
 30
0.0
 11
1370.5711132492
 21
952.8404512142
 31
0.0
  0
LINE
  5
166
330
1F
100
AcDbEntity
  8
0
  6
Continuous
 62
     7
370
    40
100
AcDbLine
 10
1154.5711132492
 20
956.0064617027
 30
0.0
 11
1154.5711132492
 21
956.7912045766
 31
0.0
  0
LINE
  5
167
330
1F
100
AcDbEntity
  8
0
  6
Continuous
 62
     7
370
    40
100
AcDbLine
 10
1154.5711132492
 20
956.7912045766
 30
0.0
 11
1285.747465996
 21
956.7912045766
 31
0.0
  0
LINE
  5
168
330
1F
100
AcDbEntity
  8
0
  6
Continuous
 62
     7
370
    40
100
AcDbLine
 10
1312.9739850954
 20
956.7912045766
 30
0.0
 11
1370.5711132492
 21
956.7912045766
 31
0.0
  0
LINE
  5
169
330
1F
100
AcDbEntity
  8
0
  6
Continuous
 62
     7
370
    40
100
AcDbLine
 10
1370.5711132492
 20
956.7912045766
 30
0.0
 11
1370.5711132492
 21
952.8404512142
 31
0.0
  0
LINE
  5
16A
330
1F
100
AcDbEntity
  8
0
  6
Continuous
 62
     7
370
    40
100
AcDbLine
 10
1005.5711132492
 20
724.8404512142
 30
0.0
 11
1005.5711132492
 21
924.8404512142
 31
0.0
  0
LINE
  5
16B
330
1F
100
AcDbEntity
  8
0
  6
Continuous
 62
     7
370
    40
100
AcDbLine
 10
1005.5711132492
 20
924.8404512142
 30
0.0
 11
1011.5711132492
 21
924.8404512142
 31
0.0
  0
LINE
  5
16C
330
1F
100
AcDbEntity
  8
0
  6
Continuous
 62
     7
370
    40
100
AcDbLine
 10
1011.5711132492
 20
724.8404512142
 30
0.0
 11
1005.5711132492
 21
724.8404512142
 31
0.0
  0
ARC
  5
16D
330
1F
100
AcDbEntity
  8
0
  6
Continuous
 62
     7
370
    40
100
AcDbCircle
 10
1015.5711132492
 20
1071.2809274046
 30
0.0
 40
146.440476190476
100
AcDbArc
 50
270.0
 51
310.1261453322
  0
ARC
  5
16E
330
1F
100
AcDbEntity
  8
0
  6
Continuous
 62
     7
370
    40
100
AcDbCircle
 10
1130.5711132492
 20
934.8404512142
 30
0.0
 40
32.0000000000002
100
AcDbArc
 50
296.3156177595
 51
130.1261453322
  0
ARC
  5
16F
330
1F
100
AcDbEntity
  8
0
  6
Continuous
 62
     7
370
    40
100
AcDbCircle
 10
1233.4203184873
 20
726.8836264118
 30
0.0
 40
200.0000000000002
100
AcDbArc
 50
116.3156177595
 51
177.8285636581
  0
ARC
  5
170
330
1F
100
AcDbEntity
  8
0
  6
Continuous
 62
     7
370
    40
100
AcDbCircle
 10
1023.5711132492
 20
734.8404512142
 30
0.0
 40
10.0
100
AcDbArc
 50
270.0
 51
357.8285636581
  0
LINE
  5
171
330
1F
100
AcDbEntity
  8
0
  6
Continuous
 62
     7
370
    40
100
AcDbLine
 10
1023.5711132492
 20
724.8404512142
 30
0.0
 11
1011.5711132492
 21
724.8404512142
 31
0.0
  0
LINE
  5
172
330
1F
100
AcDbEntity
  8
0
  6
Continuous
 62
     7
370
    40
100
AcDbLine
 10
1011.5711132492
 20
924.8404512142
 30
0.0
 11
1015.5711132492
 21
924.8404512142
 31
0.0
  0
SPLINE
  5
173
330
1F
100
AcDbEntity
  8
0
  6
Continuous
 62
     7
370
    40
100
AcDbSpline
210
0.0
220
0.0
230
1.0
 70
     8
 71
     3
 72
    16
 73
    12
 74
     0
 42
0.00000001
 43
0.00000001
 12
1.0
 22
0.0
 32
0.0
 13
1.0
 23
0.0
 33
0.0
 40
0.0
 40
0.0
 40
0.0
 40
0.0
 40
0.1146246338077413
 40
0.2292435935014385
 40
0.3438929211977623
 40
0.4585422302516138
 40
0.5727770095740639
 40
0.6870133492841355
 40
0.8014889312557221
 40
0.9159645767115719
 40
1.0
 40
1.0
 40
1.0
 40
1.0
 10
1063.47006411557
 20
1182.59200417611
 30
0.0
 10
1064.394069547243
 20
1182.797139196406
 30
0.0
 10
1066.24203467075
 20
1183.207399082465
 30
0.0
 10
1069.002659604458
 20
1185.398446076126
 30
0.0
 10
1071.630953558851
 20
1188.722330570798
 30
0.0
 10
1074.02697146745
 20
1193.149735740394
 30
0.0
 10
1076.072220521351
 20
1198.561002181004
 30
0.0
 10
1077.688810269362
 20
1204.771253250645
 30
0.0
 10
1078.757432115478
 20
1211.639063840773
 30
0.0
 10
1079.235268134116
 20
1218.296022829472
 30
0.0
 10
1079.139232065125
 20
1222.642611052608
 30
0.0
 10
1079.098577245424
 20
1224.482646389188
 30
0.0
  0
SPLINE
  5
174
330
1F
100
AcDbEntity
  8
0
  6
Continuous
 62
     7
370
    40
100
AcDbSpline
210
0.0
220
0.0
230
1.0
 70
    24
 71
     3
 72
    14
 73
    10
 74
     0
 42
0.00000001
 43
0.00000001
 12
1.0
 22
0.0
 32
0.0
 13
1.0
 23
0.0
 33
0.0
 40
0.0
 40
0.0
 40
0.0
 40
0.0
 40
0.1161725616104263
 40
0.2323453382103512
 40
0.3485180418841979
 40
0.5113886007803933
 40
0.674259051013981
 40
0.8371294537738261
 40
1.0
 40
1.0
 40
1.0
 40
1.0
 10
1063.47006411557
 20
1182.59200417611
 30
0.0
 10
1061.651117016008
 20
1182.432866925345
 30
0.0
 10
1058.013219450732
 20
1182.114592129315
 30
0.0
 10
1053.357608030255
 20
1181.707278908241
 30
0.0
 10
1048.758029987462
 20
1181.304867972494
 30
0.0
 10
1044.615472487495
 20
1180.942441153242
 30
0.0
 10
1041.350866047381
 20
1180.656825098859
 30
0.0
 10
1039.302492364889
 20
1180.477615622976
 30
0.0
 10
1039.048595978155
 20
1180.455402567426
 30
0.0
 10
1038.921647728877
 20
1180.44429603476
 30
0.0
  0
SPLINE
  5
175
330
1F
100
AcDbEntity
  8
0
  6
Continuous
 62
     7
370
    40
100
AcDbSpline
210
0.0
220
0.0
230
1.0
 70
    24
 71
     3
 72
    15
 73
    11
 74
     0
 42
0.00000001
 43
0.00000001
 12
1.0
 22
0.0
 32
0.0
 13
1.0
 23
0.0
 33
0.0
 40
0.0
 40
0.0
 40
0.0
 40
0.0
 40
0.1284862404806589
 40
0.2569724948745021
 40
0.385458459711417
 40
0.5139446832682231
 40
0.6424308349676574
 40
0.7616205758047431
 40
0.8808104125351546
 40
1.0
 40
1.0
 40
1.0
 40
1.0
 10
1018.439144716345
 20
1334.244384039747
 30
0.0
 10
1018.532945599935
 20
1334.25259055369
 30
0.0
 10
1018.720547377273
 20
1334.269003582464
 30
0.0
 10
1020.234755847193
 20
1334.401479657797
 30
0.0
 10
1022.647752944837
 20
1334.612589548961
 30
0.0
 10
1026.043376600819
 20
1334.909668124461
 30
0.0
 10
1030.277289199473
 20
1335.280087479202
 30
0.0
 10
1035.287931843587
 20
1335.718461907542
 30
0.0
 10
1040.914681528075
 20
1336.210738717433
 30
0.0
 10
1045.328232579945
 20
1336.596874400364
 30
0.0
 10
1047.535005798327
 20
1336.789942039945
 30
0.0
  0
SPLINE
  5
176
330
1F
100
AcDbEntity
  8
0
  6
Continuous
 62
     7
370
    40
100
AcDbSpline
210
0.0
220
0.0
230
1.0
 70
     8
 71
     3
 72
    17
 73
    13
 74
     0
 42
0.00000001
 43
0.00000001
 12
1.0
 22
0.0
 32
0.0
 13
1.0
 23
0.0
 33
0.0
 40
0.0
 40
0.0
 40
0.0
 40
0.0
 40
0.1027794022562205
 40
0.2055595514150082
 40
0.3083325478190561
 40
0.4111052263071718
 40
0.5139763925837245
 40
0.6168452788204312
 40
0.7193636539622723
 40
0.8218834501050394
 40
0.910940095448323
 40
1.0
 40
1.0
 40
1.0
 40
1.0
 10
1073.446307621902
 20
1296.809786286099
 30
0.0
 10
1073.060610429205
 20
1299.022853829496
 30
0.0
 10
1072.289213240934
 20
1303.449004998751
 30
0.0
 10
1070.376241337438
 20
1309.900100203353
 30
0.0
 10
1067.984399004828
 20
1315.975036354597
 30
0.0
 10
1065.185804311616
 20
1321.531894186476
 30
0.0
 10
1062.105199791676
 20
1326.397999728918
 30
0.0
 10
1058.876703955872
 20
1330.466842950666
 30
0.0
 10
1055.624906270193
 20
1333.602789798086
 30
0.0
 10
1052.605109182882
 20
1335.647821307799
 30
0.0
 10
1049.872443760659
 20
1336.751229232176
 30
0.0
 10
1048.314161290348
 20
1336.777037613274
 30
0.0
 10
1047.535005798327
 20
1336.789942039945
 30
0.0
  0
SPLINE
  5
177
330
1F
100
AcDbEntity
  8
0
  6
Continuous
 62
     7
370
    40
100
AcDbSpline
210
0.0
220
0.0
230
1.0
 70
     8
 71
     3
 72
    11
 73
     7
 74
     0
 42
0.00000001
 43
0.00000001
 12
1.0
 22
0.0
 32
0.0
 13
1.0
 23
0.0
 33
0.0
 40
0.0
 40
0.0
 40
0.0
 40
0.0
 40
0.2492830773380112
 40
0.4992454559620676
 40
0.7496177845855929
 40
1.0
 40
1.0
 40
1.0
 40
1.0
 10
1073.446307621902
 20
1296.809786286098
 30
0.0
 10
1074.251473688907
 20
1290.831569464215
 30
0.0
 10
1075.863999916278
 20
1278.85884506209
 30
0.0
 10
1077.230230323116
 20
1260.767890824184
 30
0.0
 10
1078.287890129627
 20
1242.637368997688
 30
0.0
 10
1078.828344649952
 20
1230.53430024549
 30
0.0
 10
1079.098577245424
 20
1224.482646389188
 30
0.0
  0
SPLINE
  5
178
330
1F
100
AcDbEntity
  8
0
  6
Continuous
 62
     7
370
    40
100
AcDbSpline
210
0.0
220
0.0
230
1.0
 70
     8
 71
     3
 72
    17
 73
    13
 74
     0
 42
0.00000001
 43
0.00000001
 12
1.0
 22
0.0
 32
0.0
 13
1.0
 23
0.0
 33
0.0
 40
0.0
 40
0.0
 40
0.0
 40
0.0
 40
0.1027882614913143
 40
0.2055707704355413
 40
0.3083886670735962
 40
0.411205773981269
 40
0.5135058861837776
 40
0.6158083809792411
 40
0.7183542571279371
 40
0.8209000491878901
 40
0.9104502022638694
 40
1.0
 40
1.0
 40
1.0
 40
1.0
 10
1052.631812719261
 20
1337.957919834225
 30
0.0
 10
1053.530650520152
 20
1337.932701252758
 30
0.0
 10
1055.328275818459
 20
1337.882265501184
 30
0.0
 10
1058.370246128052
 20
1336.461445632486
 30
0.0
 10
1061.562550219953
 20
1334.05536246996
 30
0.0
 10
1064.814854759164
 20
1330.672861465297
 30
0.0
 10
1068.004101816665
 20
1326.397501392098
 30
0.0
 10
1071.011682657656
 20
1321.370140169021
 30
0.0
 10
1073.711483679404
 20
1315.68757156214
 30
0.0
 10
1075.886725240127
 20
1309.780474527611
 30
0.0
 10
1077.535590477829
 20
1303.852770358989
 30
0.0
 10
1078.198684044184
 20
1299.99782200011
 30
0.0
 10
1078.530230169563
 20
1298.070351644838
 30
0.0
  0
SPLINE
  5
179
330
1F
100
AcDbEntity
  8
0
  6
Continuous
 62
     7
370
    40
100
AcDbSpline
210
0.0
220
0.0
230
1.0
 70
     8
 71
     3
 72
    11
 73
     7
 74
     0
 42
0.00000001
 43
0.00000001
 12
1.0
 22
0.0
 32
0.0
 13
1.0
 23
0.0
 33
0.0
 40
0.0
 40
0.0
 40
0.0
 40
0.0
 40
0.2504335976914366
 40
0.5010669253798592
 40
0.7505747521947574
 40
1.0
 40
1.0
 40
1.0
 40
1.0
 10
1078.530230403498
 20
1298.070351691787
 30
0.0
 10
1079.359391430823
 20
1291.999641819207
 30
0.0
 10
1081.018374771861
 20
1279.853380459839
 30
0.0
 10
1082.428570671313
 20
1261.541552615528
 30
0.0
 10
1083.512360111686
 20
1243.241003741316
 30
0.0
 10
1084.072911525467
 20
1231.0493314484
 30
0.0
 10
1084.353140843589
 20
1224.95450423107
 30
0.0
  0
SPLINE
  5
17A
330
1F
100
AcDbEntity
  8
0
  6
Continuous
 62
     7
370
    40
100
AcDbSpline
210
0.0
220
0.0
230
1.0
 70
     8
 71
     3
 72
    14
 73
    10
 74
     0
 42
0.00000001
 43
0.00000001
 12
1.0
 22
0.0
 32
0.0
 13
1.0
 23
0.0
 33
0.0
 40
0.0
 40
0.0
 40
0.0
 40
0.0
 40
0.1149479346789563
 40
0.2298981587949845
 40
0.3448469433859432
 40
0.5086353014837188
 40
0.6724233653318326
 40
0.8362114483685954
 40
1.0
 40
1.0
 40
1.0
 40
1.0
 10
1068.778230220756
 20
1182.952273705288
 30
0.0
 10
1067.027478167938
 20
1182.796654049495
 30
0.0
 10
1063.525939192283
 20
1182.485411638407
 30
0.0
 10
1059.036615701481
 20
1182.086405063615
 30
0.0
 10
1054.563039641251
 20
1181.688772173275
 30
0.0
 10
1050.507326586799
 20
1181.328284412061
 30
0.0
 10
1047.297569887308
 20
1181.042998254774
 30
0.0
 10
1045.28365869266
 20
1180.86398622866
 30
0.0
 10
1045.034014321521
 20
1180.841800671224
 30
0.0
 10
1044.909191957395
 20
1180.830707876638
 30
0.0
  0
SPLINE
  5
17B
330
1F
100
AcDbEntity
  8
0
  6
Continuous
 62
     7
370
    40
100
AcDbSpline
210
0.0
220
0.0
230
1.0
 70
     8
 71
     3
 72
    16
 73
    12
 74
     0
 42
0.00000001
 43
0.00000001
 12
1.0
 22
0.0
 32
0.0
 13
1.0
 23
0.0
 33
0.0
 40
0.0
 40
0.0
 40
0.0
 40
0.0
 40
0.1144966919242426
 40
0.2289936046711639
 40
0.3434921655910279
 40
0.4579895836758862
 40
0.5724168573208743
 40
0.6868429083924289
 40
0.8009449494020419
 40
0.9150505045394862
 40
1.0
 40
1.0
 40
1.0
 40
1.0
 10
1084.353140987575
 20
1224.954504244225
 30
0.0
 10
1084.393860322384
 20
1222.443925128763
 30
0.0
 10
1084.475299070537
 20
1217.422762055842
 30
0.0
 10
1083.800323952214
 20
1210.193883095684
 30
0.0
 10
1082.576800343823
 20
1203.466654865631
 30
0.0
 10
1080.844158860173
 20
1197.418400932983
 30
0.0
 10
1078.691423424265
 20
1192.256535007818
 30
0.0
 10
1076.234250556091
 20
1188.088010883672
 30
0.0
 10
1073.575662293768
 20
1185.098177761888
 30
0.0
 10
1071.053367911115
 20
1183.381069967989
 30
0.0
 10
1069.458753564702
 20
1183.080532289454
 30
0.0
 10
1068.778229841366
 20
1182.952273679176
 30
0.0
  0
LINE
  5
17C
330
1F
100
AcDbEntity
  8
0
  6
Continuous
 62
     7
370
    40
100
AcDbLine
 10
1052.6319168321
 20
1337.9579296597
 30
0.0
 11
1048.3759041501
 21
1337.5630408484
 31
0.0
  0
SPLINE
  5
17D
330
1F
100
AcDbEntity
  8
0
  6
Continuous
 62
     7
370
    40
100
AcDbSpline
210
0.0
220
0.0
230
1.0
 70
     8
 71
     3
 72
    15
 73
    11
 74
     0
 42
0.00000001
 43
0.00000001
 12
1.0
 22
0.0
 32
0.0
 13
1.0
 23
0.0
 33
0.0
 40
0.0
 40
0.0
 40
0.0
 40
0.0
 40
0.1291870617423755
 40
0.2583754931942358
 40
0.3875613704740418
 40
0.516750651631113
 40
0.6459394200147682
 40
0.7639584099816407
 40
0.8819799378417839
 40
1.0
 40
1.0
 40
1.0
 40
1.0
 10
1024.339667631004
 20
1335.332423254845
 30
0.0
 10
1024.431874179326
 20
1335.34098146162
 30
0.0
 10
1024.616288253593
 20
1335.358097965908
 30
0.0
 10
1026.104618603147
 20
1335.496238708402
 30
0.0
 10
1028.476404118636
 20
1335.716383432948
 30
0.0
 10
1031.814023318757
 20
1336.026151289833
 30
0.0
 10
1035.955513609805
 20
1336.410513963072
 30
0.0
 10
1040.825470802444
 20
1336.862448055131
 30
0.0
 10
1046.254892709401
 20
1337.366254275948
 30
0.0
 10
1050.506182378669
 20
1337.760698988671
 30
0.0
 10
1052.631814014097
 20
1337.957920120379
 30
0.0
  0
LWPOLYLINE
  5
17E
330
1F
100
AcDbEntity
  8
0
  6
Continuous
 62
     7
370
    40
100
AcDbPolyline
 90
       11
 70
   128
 43
0.0
 10
1050.304179982
 20
1264.863413491
 10
1049.961569193
 20
1267.1854850842
 10
1049.5141100067
 20
1269.436469967
 10
1048.9728203535
 20
1271.5609414209
 10
1048.3510285809
 20
1273.506587908
 10
1047.6640452661
 20
1275.2255011546
 10
1046.9287862182
 20
1276.6753558118
 10
1046.1633559552
 20
1277.8204516461
 10
1045.3866019104
 20
1278.6325925978
 10
1044.6176503464
 20
1279.0917810612
 10
1043.8754354026
 20
1279.1867102925
  0
LINE
  5
17F
330
1F
100
AcDbEntity
  8
0
  6
Continuous
 62
     7
370
    40
100
AcDbLine
 10
1043.8754354026
 20
1279.1867102925
 30
0.0
 11
1046.5942749339
 21
1279.5205418105
 31
0.0
  0
LWPOLYLINE
  5
180
330
1F
100
AcDbEntity
  8
0
  6
Continuous
 62
     7
370
    40
100
AcDbPolyline
 90
       11
 70
   128
 43
0.0
 10
1046.7073378583
 20
1279.5344241921
 10
1047.4495528021
 20
1279.4394949608
 10
1048.2185043661
 20
1278.9803064973
 10
1048.9952584109
 20
1278.1681655456
 10
1049.7606886739
 20
1277.0230697113
 10
1050.4959477218
 20
1275.5732150541
 10
1051.1829310366
 20
1273.8543018075
 10
1051.8047228092
 20
1271.9086553204
 10
1052.3460124625
 20
1269.7841838665
 10
1052.7934716487
 20
1267.5331989838
 10
1053.1360824378
 20
1265.2111273905
  0
LINE
  5
181
330
1F
100
AcDbEntity
  8
0
  6
Continuous
 62
     7
370
    40
100
AcDbLine
 10
1050.304179982
 20
1264.863413491
 30
0.0
 11
1053.8383909408
 21
1236.0795750934
 31
0.0
  0
LWPOLYLINE
  5
182
330
1F
100
AcDbEntity
  8
0
  6
Continuous
 62
     7
370
    40
100
AcDbPolyline
 90
       11
 70
   128
 43
0.0
 10
1051.0657266635
 20
1220.6264873457
 10
1051.7629291918
 20
1220.8981548193
 10
1052.3979518646
 20
1221.5297296429
 10
1052.9551583161
 20
1222.5056603484
 10
1053.4208282742
 20
1223.8019162828
 10
1053.783495399
 20
1225.386579323
 10
1054.0342296225
 20
1227.2206298058
 10
1054.1668570357
 20
1229.2589073213
 10
1054.1781119116
 20
1231.4512227126
 10
1054.0677171179
 20
1233.7435938988
 10
1053.8383909408
 20
1236.0795750934
  0
LINE
  5
183
330
1F
100
AcDbEntity
  8
0
  6
Continuous
 62
     7
370
    40
100
AcDbLine
 10
1051.0657266635
 20
1220.6264873457
 30
0.0
 11
1047.0537038904
 21
1220.1338728912
 31
0.0
  0
LINE
  5
184
330
1F
100
AcDbEntity
  8
0
  6
Continuous
 62
     7
370
    40
100
AcDbLine
 10
1043.8754354026
 20
1279.1867102925
 30
0.0
 11
1039.8634126295
 21
1278.694095838
 31
0.0
  0
LINE
  5
185
330
1F
100
AcDbEntity
  8
0
  6
Continuous
 62
     7
370
    40
100
AcDbLine
 10
1053.1360824378
 20
1265.2111273905
 30
0.0
 11
1056.6702933965
 21
1236.4272889929
 31
0.0
  0
LINE
  5
186
330
1F
100
AcDbEntity
  8
0
  6
Continuous
 62
     7
370
    40
100
AcDbLine
 10
1053.4629854086
 20
1220.9208337081
 30
0.0
 11
1051.0657266635
 21
1220.6264873457
 31
0.0
  0
LWPOLYLINE
  5
187
330
1F
100
AcDbEntity
  8
0
  6
Continuous
 62
     7
370
    40
100
AcDbPolyline
 90
       11
 70
   128
 43
0.0
 10
1056.6702933965
 20
1236.4272889929
 10
1056.8996195737
 20
1234.0913077984
 10
1057.0100143674
 20
1231.7989366122
 10
1056.9987594914
 20
1229.6066212209
 10
1056.8661320782
 20
1227.5683437053
 10
1056.6153978548
 20
1225.7342932225
 10
1056.2527307299
 20
1224.1496301823
 10
1055.7870607718
 20
1222.8533742479
 10
1055.2298543203
 20
1221.8774435424
 10
1054.5948316475
 20
1221.2458687188
 10
1053.8976291192
 20
1220.9742012452
  0
LINE
  5
188
330
1F
100
AcDbEntity
  8
0
  6
Continuous
 62
     7
370
    40
100
AcDbLine
 10
1047.0537038904
 20
1220.1338728912
 30
0.0
 11
1044.8152318433
 21
1219.8590230838
 31
0.0
  0
LINE
  5
189
330
1F
100
AcDbEntity
  8
0
  6
Continuous
 62
     7
370
    40
100
AcDbLine
 10
1037.6249405824
 20
1278.4192460306
 30
0.0
 11
1039.8634126295
 21
1278.694095838
 31
0.0
  0
LINE
  5
18A
330
1F
100
AcDbEntity
  8
0
  6
Continuous
 62
     7
370
    40
100
AcDbLine
 10
1044.8152318433
 20
1219.8590230838
 30
0.0
 11
1009.6009286426
 21
1215.5352503278
 31
0.0
  0
LINE
  5
18B
330
1F
100
AcDbEntity
  8
0
  6
Continuous
 62
     7
370
    40
100
AcDbLine
 10
1037.6249405824
 20
1278.4192460306
 30
0.0
 11
1009.6009286426
 21
1274.9783300298
 31
0.0
  0
LINE
  5
18C
330
1F
100
AcDbEntity
  8
0
  6
Continuous
 62
     7
370
    40
100
AcDbLine
 10
1005.5711132492
 20
1215.0404512142
 30
0.0
 11
1005.5711132492
 21
1274.4835309162
 31
0.0
  0
LINE
  5
18D
330
1F
100
AcDbEntity
  8
0
  6
Continuous
 62
     7
370
    40
100
AcDbLine
 10
1009.6009286426
 20
1215.5352503278
 30
0.0
 11
1005.5711132492
 21
1215.0404512142
 31
0.0
  0
LINE
  5
18E
330
1F
100
AcDbEntity
  8
0
  6
Continuous
 62
     7
370
    40
100
AcDbLine
 10
1005.5711132492
 20
1274.4835309162
 30
0.0
 11
1009.6009286426
 21
1274.9783300298
 31
0.0
  0
SPLINE
  5
18F
330
1F
100
AcDbEntity
  8
0
  6
Continuous
 62
     7
370
    40
100
AcDbSpline
210
0.0
220
0.0
230
1.0
 70
     8
 71
     3
 72
    32
 73
    28
 74
     0
 42
0.00000001
 43
0.00000001
 12
1.0
 22
0.0
 32
0.0
 13
1.0
 23
0.0
 33
0.0
 40
0.0
 40
0.0
 40
0.0
 40
0.0
 40
0.0141667511824101
 40
0.0969385778173657
 40
0.1721045551247064
 40
0.2395648201455548
 40
0.2909423791456632
 40
0.3366878760181245
 40
0.3773469394892704
 40
0.4166832550527926
 40
0.4554820054950019
 40
0.4938038587285623
 40
0.5317048332300095
 40
0.5692366070421656
 40
0.6187862785616055
 40
0.6683648739821191
 40
0.7184740851450001
 40
0.733383497060304
 40
0.748471298424903
 40
0.7667179065288527
 40
0.788818375924963
 40
0.8148930249749947
 40
0.8453572828400914
 40
0.880747505052544
 40
0.9215093876369209
 40
0.9677557410446148
 40
1.0
 40
1.0
 40
1.0
 40
1.0
 10
1839.173985304365
 20
1173.319833325519
 30
0.0
 10
1839.121636554033
 20
1174.087074559184
 30
0.0
 10
1838.763430685771
 20
1179.337062582313
 30
0.0
 10
1838.240076526243
 20
1188.665297933418
 30
0.0
 10
1837.662841505182
 20
1200.887172468664
 30
0.0
 10
1837.247562595536
 20
1211.410321273072
 30
0.0
 10
1836.932923724479
 20
1220.338981528388
 30
0.0
 10
1836.687930363865
 20
1227.814301341047
 30
0.0
 10
1836.47374146298
 20
1234.636623805932
 30
0.0
 10
1836.271221258361
 20
1241.082031125936
 30
0.0
 10
1836.063002619257
 20
1247.400324489292
 30
0.0
 10
1835.839091541234
 20
1253.640113136775
 30
0.0
 10
1835.5919471216
 20
1259.810243808108
 30
0.0
 10
1835.282054645001
 20
1266.587598153935
 30
0.0
 10
1834.893478789671
 20
1273.996462775728
 30
0.0
 10
1834.354660095282
 20
1282.078122929184
 30
0.0
 10
1833.954500253565
 20
1288.290823663801
 30
0.0
 10
1833.983969097318
 20
1292.640505078363
 30
0.0
 10
1834.113200005791
 20
1295.257046784504
 30
0.0
 10
1834.43944466281
 20
1298.251256336483
 30
0.0
 10
1835.169556608752
 20
1301.790238598237
 30
0.0
 10
1836.557054044591
 20
1305.839960332268
 30
0.0
 10
1838.753271827072
 20
1310.334304033466
 30
0.0
 10
1841.876435687772
 20
1315.219501782587
 30
0.0
 10
1845.960534204382
 20
1320.468685094188
 30
0.0
 10
1850.247189962086
 20
1325.322326197998
 30
0.0
 10
1853.142697070595
 20
1328.44797162437
 30
0.0
 10
1854.332183025705
 20
1329.731999325217
 30
0.0
  0
LINE
  5
190
330
1F
100
AcDbEntity
  8
0
  6
Continuous
 62
     7
370
    40
100
AcDbLine
 10
1854.3195589475
 20
1329.7721570793
 30
0.0
 11
1846.2928155756
 21
1329.912264406
 31
0.0
  0
SPLINE
  5
191
330
1F
100
AcDbEntity
  8
0
  6
Continuous
 62
     7
370
    40
100
AcDbSpline
210
0.0
220
0.0
230
1.0
 70
     8
 71
     3
 72
    12
 73
     8
 74
     0
 42
0.00000001
 43
0.00000001
 12
1.0
 22
0.0
 32
0.0
 13
1.0
 23
0.0
 33
0.0
 40
0.0
 40
0.0
 40
0.0
 40
0.0
 40
0.2335770692247743
 40
0.4516816070354996
 40
0.6543380341656726
 40
0.8414605305184241
 40
1.0
 40
1.0
 40
1.0
 40
1.0
 10
1727.10235900206
 20
1334.244384039747
 30
0.0
 10
1727.919855334674
 20
1329.813167902162
 30
0.0
 10
1729.500695690649
 20
1321.244266713407
 30
0.0
 10
1731.853287404328
 20
1308.842132566445
 30
0.0
 10
1734.162984508114
 20
1297.345142555996
 30
0.0
 10
1736.26056888836
 20
1286.976564724332
 30
0.0
 10
1737.395130602011
 20
1280.405200422619
 30
0.0
 10
1737.915502612689
 20
1277.391213599831
 30
0.0
  0
SPLINE
  5
192
330
1F
100
AcDbEntity
  8
0
  6
Continuous
 62
     7
370
    40
100
AcDbSpline
210
0.0
220
0.0
230
1.0
 70
     8
 71
     3
 72
    11
 73
     7
 74
     0
 42
0.00000001
 43
0.00000001
 12
1.0
 22
0.0
 32
0.0
 13
1.0
 23
0.0
 33
0.0
 40
0.0
 40
0.0
 40
0.0
 40
0.0
 40
0.1669788348825958
 40
0.4153768451281759
 40
0.6930508015772054
 40
1.0
 40
1.0
 40
1.0
 40
1.0
 10
1744.70608091534
 20
1218.781912072926
 30
0.0
 10
1744.906474187831
 20
1216.651337314462
 30
0.0
 10
1745.404972847082
 20
1211.351315775189
 30
0.0
 10
1746.099698982737
 20
1202.496225637361
 30
0.0
 10
1746.849798025476
 20
1191.846814695684
 30
0.0
 10
1747.331795282077
 20
1184.36993813216
 30
0.0
 10
1747.584862014591
 20
1180.44429603476
 30
0.0
  0
LINE
  5
193
330
1F
100
AcDbEntity
  8
0
  6
Continuous
 62
     7
370
    40
100
AcDbLine
 10
1733.0028819167
 20
1335.3324232548
 30
0.0
 11
1727.1023590021
 21
1334.2443840397
 31
0.0
  0
LINE
  5
194
330
1F
100
AcDbEntity
  8
0
  6
Continuous
 62
     7
370
    40
100
AcDbLine
 10
1747.5848620146
 20
1180.4442960348
 30
0.0
 11
1753.5724062431
 21
1180.8307078766
 31
0.0
  0
SPLINE
  5
195
330
1F
100
AcDbEntity
  8
0
  6
Continuous
 62
     7
370
    40
100
AcDbSpline
210
0.0
220
0.0
230
1.0
 70
     8
 71
     3
 72
    12
 73
     8
 74
     0
 42
0.00000001
 43
0.00000001
 12
1.0
 22
0.0
 32
0.0
 13
1.0
 23
0.0
 33
0.0
 40
0.0
 40
0.0
 40
0.0
 40
0.0
 40
0.1040729460700607
 40
0.2083939741626976
 40
0.4056628513744512
 40
0.6034482130073978
 40
1.0
 40
1.0
 40
1.0
 40
1.0
 10
1825.710530392029
 20
1288.57516408441
 30
0.0
 10
1825.376964857397
 20
1286.575991455833
 30
0.0
 10
1824.709038657259
 20
1282.572880706703
 30
0.0
 10
1823.885369138547
 20
1274.713872182647
 30
0.0
 10
1823.315337346432
 20
1265.002390425476
 30
0.0
 10
1823.217313487723
 20
1249.586131256128
 30
0.0
 10
1823.45862429178
 20
1238.016331315927
 30
0.0
 10
1823.619630937235
 20
1230.296765322041
 30
0.0
  0
SPLINE
  5
196
330
1F
100
AcDbEntity
  8
0
  6
Continuous
 62
     7
370
    40
100
AcDbSpline
210
0.0
220
0.0
230
1.0
 70
     8
 71
     3
 72
    14
 73
    10
 74
     0
 42
0.00000001
 43
0.00000001
 12
1.0
 22
0.0
 32
0.0
 13
1.0
 23
0.0
 33
0.0
 40
0.0
 40
0.0
 40
0.0
 40
0.0
 40
0.1363123558817917
 40
0.2835778632481877
 40
0.4234689050174665
 40
0.5714231312309552
 40
0.7142806145279648
 40
0.8655098524479781
 40
1.0
 40
1.0
 40
1.0
 40
1.0
 10
1823.619607869803
 20
1230.296765103713
 30
0.0
 10
1823.620277859853
 20
1228.024947488041
 30
0.0
 10
1823.621671675882
 20
1223.29876414997
 30
0.0
 10
1823.516500746701
 20
1216.241772949935
 30
0.0
 10
1823.362328547842
 20
1208.991844123691
 30
0.0
 10
1823.182826832149
 20
1201.815955517368
 30
0.0
 10
1822.998562029828
 20
1194.45119750358
 30
0.0
 10
1822.840974801962
 20
1187.310179353972
 30
0.0
 10
1822.777236174928
 20
1182.548771856839
 30
0.0
 10
1822.747233949701
 20
1180.307543471909
 30
0.0
  0
SPLINE
  5
197
330
1F
100
AcDbEntity
  8
0
  6
Continuous
 62
     7
370
    40
100
AcDbSpline
210
0.0
220
0.0
230
1.0
 70
     8
 71
     3
 72
     9
 73
     5
 74
     0
 42
0.00000001
 43
0.00000001
 12
1.0
 22
0.0
 32
0.0
 13
1.0
 23
0.0
 33
0.0
 40
0.0
 40
0.0
 40
0.0
 40
0.0
 40
0.2430277457223846
 40
1.0
 40
1.0
 40
1.0
 40
1.0
 10
1822.747226849237
 20
1180.307543655946
 30
0.0
 10
1822.655860318475
 20
1176.257529077657
 30
0.0
 10
1822.279909290784
 20
1159.592705206416
 30
0.0
 10
1822.049064104503
 20
1142.92503239036
 30
0.0
 10
1821.874320703454
 20
1130.308066525229
 30
0.0
  0
SPLINE
  5
198
330
1F
100
AcDbEntity
  8
0
  6
Continuous
 62
     7
370
    40
100
AcDbSpline
210
0.0
220
0.0
230
1.0
 70
     8
 71
     3
 72
    12
 73
     8
 74
     0
 42
0.00000001
 43
0.00000001
 12
1.0
 22
0.0
 32
0.0
 13
1.0
 23
0.0
 33
0.0
 40
0.0
 40
0.0
 40
0.0
 40
0.0
 40
0.1876186936952552
 40
0.4019852923601763
 40
0.6061826128837744
 40
0.8022270275604119
 40
1.0
 40
1.0
 40
1.0
 40
1.0
 10
1821.874403896961
 20
1130.308061449529
 30
0.0
 10
1821.715100710311
 20
1127.773373505801
 30
0.0
 10
1821.373783239233
 20
1122.342639211508
 30
0.0
 10
1820.786540197223
 20
1114.157686856557
 30
0.0
 10
1820.360235301637
 20
1105.849105225852
 30
0.0
 10
1820.1833838427
 20
1097.750894668557
 30
0.0
 10
1820.449544630012
 20
1092.425019092361
 30
0.0
 10
1820.583209145027
 20
1089.750393039762
 30
0.0
  0
SPLINE
  5
199
330
1F
100
AcDbEntity
  8
0
  6
Continuous
 62
     7
370
    40
100
AcDbSpline
210
0.0
220
0.0
230
1.0
 70
     8
 71
     3
 72
    24
 73
    20
 74
     0
 42
0.00000001
 43
0.00000001
 12
1.0
 22
0.0
 32
0.0
 13
1.0
 23
0.0
 33
0.0
 40
0.0
 40
0.0
 40
0.0
 40
0.0
 40
0.0515465301190134
 40
0.1018714901774702
 40
0.1517523141950494
 40
0.201518155947793
 40
0.2511731375322936
 40
0.3339091202349912
 40
0.4166699097492493
 40
0.4993482403163024
 40
0.582114418100353
 40
0.6650522160834241
 40
0.747487986271168
 40
0.7883531110776717
 40
0.8292601640734294
 40
0.8706615531381471
 40
0.9127324635448896
 40
0.9557021048369289
 40
1.0
 40
1.0
 40
1.0
 40
1.0
 10
1814.047237765667
 20
1014.494533098962
 30
0.0
 10
1814.123321783822
 20
1019.021396110132
 30
0.0
 10
1814.273686750975
 20
1027.967842742185
 30
0.0
 10
1814.495721272338
 20
1041.587966398649
 30
0.0
 10
1814.727945241981
 20
1055.234880517042
 30
0.0
 10
1814.957912504938
 20
1068.859642222599
 30
0.0
 10
1815.245529464817
 20
1085.52983028088
 30
0.0
 10
1815.602075244384
 20
1105.249748583983
 30
0.0
 10
1815.986520151058
 20
1127.988019678518
 30
0.0
 10
1816.291032063133
 20
1150.733812148873
 30
0.0
 10
1816.637224785385
 20
1173.493586910514
 30
0.0
 10
1817.253007968504
 20
1196.225638834115
 30
0.0
 10
1817.698574008572
 20
1215.122161260317
 30
0.0
 10
1817.716101598952
 20
1230.172259730974
 30
0.0
 10
1817.495902884122
 20
1241.458515178862
 30
0.0
 10
1817.283537930861
 20
1252.856171443421
 30
0.0
 10
1817.367855558605
 20
1264.44359394439
 30
0.0
 10
1817.919330843368
 20
1276.296382968074
 30
0.0
 10
1819.021516967162
 20
1284.221140136138
 30
0.0
 10
1819.580997930477
 20
1288.243828027691
 30
0.0
  0
SPLINE
  5
19A
330
1F
100
AcDbEntity
  8
0
  6
Continuous
 62
     7
370
    40
100
AcDbSpline
210
0.0
220
0.0
230
1.0
 70
     8
 71
     3
 72
     9
 73
     5
 74
     0
 42
0.00000001
 43
0.00000001
 12
1.0
 22
0.0
 32
0.0
 13
1.0
 23
0.0
 33
0.0
 40
0.0
 40
0.0
 40
0.0
 40
0.0
 40
0.4802767207207284
 40
0.9999999999999999
 40
0.9999999999999999
 40
0.9999999999999999
 40
0.9999999999999999
 10
1820.583209145027
 20
1089.750393039762
 30
0.0
 10
1820.675908375835
 20
1088.268144078778
 30
0.0
 10
1820.86892050157
 20
1085.181904631737
 30
0.0
 10
1820.958574771592
 20
1082.092008642566
 30
0.0
 10
1821.00517018281
 20
1080.486117766443
 30
0.0
  0
LINE
  5
19B
330
1F
100
AcDbEntity
  8
0
  6
Continuous
 62
     7
370
    40
100
AcDbLine
 10
1821.8744291861
 20
1130.3080628691
 30
0.0
 11
1821.2025434802
 21
1089.7395825187
 31
0.0
  0
SPLINE
  5
19C
330
1F
100
AcDbEntity
  8
0
  6
Continuous
 62
     7
370
    40
100
AcDbSpline
210
0.0
220
0.0
230
1.0
 70
     8
 71
     3
 72
     9
 73
     5
 74
     0
 42
0.00000001
 43
0.00000001
 12
1.0
 22
0.0
 32
0.0
 13
1.0
 23
0.0
 33
0.0
 40
0.0
 40
0.0
 40
0.0
 40
0.0
 40
0.499887108855854
 40
0.9999999999999999
 40
0.9999999999999999
 40
0.9999999999999999
 40
0.9999999999999999
 10
1823.61963283449
 20
1230.296765334873
 30
0.0
 10
1823.580189476394
 20
1221.965261116671
 30
0.0
 10
1823.501284944957
 20
1205.298489618458
 30
0.0
 10
1822.998617378882
 20
1188.639112771295
 30
0.0
 10
1822.747226849127
 20
1180.3075436516
 30
0.0
  0
SPLINE
  5
19D
330
1F
100
AcDbEntity
  8
0
  6
Continuous
 62
     7
370
    40
100
AcDbSpline
210
0.0
220
0.0
230
1.0
 70
     8
 71
     3
 72
    17
 73
    13
 74
     0
 42
0.00000001
 43
0.00000001
 12
1.0
 22
0.0
 32
0.0
 13
1.0
 23
0.0
 33
0.0
 40
0.0
 40
0.0
 40
0.0
 40
0.0
 40
0.1063832279488684
 40
0.217075876025685
 40
0.3092440359448801
 40
0.4032532894491525
 40
0.5148594414405249
 40
0.6289948253441826
 40
0.7541959068709607
 40
0.8188548310268735
 40
0.8841874343469946
 40
1.0
 40
1.0
 40
1.0
 40
1.0
 10
1843.953900224407
 20
1322.49419806368
 30
0.0
 10
1843.650184680863
 20
1322.232506873071
 30
0.0
 10
1843.030450546557
 20
1321.698523786218
 30
0.0
 10
1841.33946731972
 20
1319.876807283866
 30
0.0
 10
1839.364439248712
 20
1317.552633664783
 30
0.0
 10
1837.122743544758
 20
1314.687874755083
 30
0.0
 10
1834.569430835821
 20
1311.062630899964
 30
0.0
 10
1831.794368965667
 20
1306.474420847137
 30
0.0
 10
1829.605654438087
 20
1301.96774969998
 30
0.0
 10
1828.077610492107
 20
1297.87683279461
 30
0.0
 10
1826.799129311992
 20
1293.771062309092
 30
0.0
 10
1826.13507355356
 20
1290.601549045867
 30
0.0
 10
1825.710519028829
 20
1288.575166200736
 30
0.0
  0
SPLINE
  5
19E
330
1F
100
AcDbEntity
  8
0
  6
Continuous
 62
     7
370
    40
100
AcDbSpline
210
0.0
220
0.0
230
1.0
 70
     8
 71
     3
 72
    15
 73
    11
 74
     0
 42
0.00000001
 43
0.00000001
 12
1.0
 22
0.0
 32
0.0
 13
1.0
 23
0.0
 33
0.0
 40
0.0
 40
0.0
 40
0.0
 40
0.0
 40
0.0378072055926631
 40
0.1747027532671634
 40
0.3118556427918594
 40
0.4490783159278289
 40
0.586629993508416
 40
0.7242439287955261
 40
0.8620971293479567
 40
1.0
 40
1.0
 40
1.0
 40
1.0
 10
1854.319068422731
 20
1329.744069281993
 30
0.0
 10
1854.331243455628
 20
1329.752114767259
 30
0.0
 10
1854.387502883822
 20
1329.789292030304
 30
0.0
 10
1854.071639448256
 20
1329.580654351742
 30
0.0
 10
1853.361999179558
 20
1329.109889193611
 30
0.0
 10
1852.214545787688
 20
1328.342245472417
 30
0.0
 10
1850.685826473589
 20
1327.306397303569
 30
0.0
 10
1848.77934348863
 20
1325.988028376747
 30
0.0
 10
1846.552270057528
 20
1324.414840581414
 30
0.0
 10
1844.820127502274
 20
1323.134489110478
 30
0.0
 10
1843.953900225011
 20
1322.49419806443
 30
0.0
  0
SPLINE
  5
19F
330
1F
100
AcDbEntity
  8
0
  6
Continuous
 62
     7
370
    40
100
AcDbSpline
210
0.0
220
0.0
230
1.0
 70
     8
 71
     3
 72
    15
 73
    11
 74
     0
 42
0.00000001
 43
0.00000001
 12
1.0
 22
0.0
 32
0.0
 13
1.0
 23
0.0
 33
0.0
 40
0.0
 40
0.0
 40
0.0
 40
0.0
 40
0.1255509501955381
 40
0.2511646995322283
 40
0.3805073725214492
 40
0.5004116339765897
 40
0.6240272877612782
 40
0.7490281250406133
 40
0.8746265921361047
 40
1.0
 40
1.0
 40
1.0
 40
1.0
 10
1814.04742395212
 20
1014.494516043267
 30
0.0
 10
1814.037320818361
 20
1013.239343621359
 30
0.0
 10
1814.017109497371
 20
1010.728370954736
 30
0.0
 10
1814.147227991316
 20
1007.108360365951
 30
0.0
 10
1814.400691092115
 20
1003.731343744624
 30
0.0
 10
1814.778879367344
 20
1000.610207591641
 30
0.0
 10
1815.266829757881
 20
997.7855953824236
 30
0.0
 10
1815.862503847638
 20
995.2339209103877
 30
0.0
 10
1816.539129963978
 20
992.9871420278711
 30
0.0
 10
1817.04055368629
 20
991.8087892572165
 30
0.0
 10
1817.291040721381
 20
991.2201412162888
 30
0.0
  0
LINE
  5
1A0
330
1F
100
AcDbEntity
  8
0
  6
Continuous
 62
     7
370
    40
100
AcDbLine
 10
1817.2910407256
 20
991.2201412097
 30
0.0
 11
1818.2295518202
 21
989.2270356758
 31
0.0
  0
SPLINE
  5
1A1
330
1F
100
AcDbEntity
  8
0
  6
Continuous
 62
     7
370
    40
100
AcDbSpline
210
0.0
220
0.0
230
1.0
 70
     8
 71
     3
 72
    14
 73
    10
 74
     0
 42
0.00000001
 43
0.00000001
 12
1.0
 22
0.0
 32
0.0
 13
1.0
 23
0.0
 33
0.0
 40
0.0
 40
0.0
 40
0.0
 40
0.0
 40
0.1195711052023849
 40
0.2662485838644233
 40
0.4124234176240441
 40
0.5587545155744468
 40
0.705712201552428
 40
0.8509463602921971
 40
1.0
 40
1.0
 40
1.0
 40
1.0
 10
1846.292194012418
 20
1329.876679865097
 30
0.0
 10
1846.283456588009
 20
1329.870768329676
 30
0.0
 10
1846.26400099402
 20
1329.857605133338
 30
0.0
 10
1845.658696061103
 20
1329.442400753216
 30
0.0
 10
1844.629675050287
 20
1328.729619220598
 30
0.0
 10
1843.163024893793
 20
1327.697290098143
 30
0.0
 10
1841.303171720796
 20
1326.355174393472
 30
0.0
 10
1839.09010908767
 20
1324.717467745276
 30
0.0
 10
1837.350990690668
 20
1323.362758281008
 30
0.0
 10
1836.4701457208
 20
1322.676612346787
 30
0.0
  0
SPLINE
  5
1A2
330
1F
100
AcDbEntity
  8
0
  6
Continuous
 62
     7
370
    40
100
AcDbSpline
210
0.0
220
0.0
230
1.0
 70
     8
 71
     3
 72
    28
 73
    24
 74
     0
 42
0.00000001
 43
0.00000001
 12
1.0
 22
0.0
 32
0.0
 13
1.0
 23
0.0
 33
0.0
 40
0.0
 40
0.0
 40
0.0
 40
0.0
 40
0.0410060064796718
 40
0.0829097903287814
 40
0.1257486533417661
 40
0.1656524478222813
 40
0.2072660553916543
 40
0.2506279124532117
 40
0.2856258942785999
 40
0.3215934840854689
 40
0.3571292154837394
 40
0.3924078569185286
 40
0.428520396160666
 40
0.4607750593838463
 40
0.5004446335107874
 40
0.5484751593194108
 40
0.5856503291357124
 40
0.6257214947672293
 40
0.6701313643630945
 40
0.7116932308946696
 40
0.7503862762742279
 40
0.8753613642329108
 40
1.0
 40
1.0
 40
1.0
 40
1.0
 10
1836.470145716529
 20
1322.676612102115
 30
0.0
 10
1836.375279286575
 20
1322.596683857688
 30
0.0
 10
1836.183469439871
 20
1322.435077435709
 30
0.0
 10
1835.764126390216
 20
1322.017039550894
 30
0.0
 10
1835.26148578674
 20
1321.478748808742
 30
0.0
 10
1834.672002813615
 20
1320.814100589363
 30
0.0
 10
1834.006184876584
 20
1320.028894490306
 30
0.0
 10
1833.301232147658
 20
1319.161420650982
 30
0.0
 10
1832.580121701014
 20
1318.24115630265
 30
0.0
 10
1831.873839623247
 20
1317.307955145985
 30
0.0
 10
1831.136886870559
 20
1316.298946841738
 30
0.0
 10
1830.376805517679
 20
1315.218679464969
 30
0.0
 10
1829.624770367029
 20
1314.105642573915
 30
0.0
 10
1828.830773811595
 20
1312.882283228463
 30
0.0
 10
1827.945337477722
 20
1311.451693418179
 30
0.0
 10
1827.027306711851
 20
1309.873842859166
 30
0.0
 10
1826.120962151142
 20
1308.20848673949
 30
0.0
 10
1825.261839779305
 20
1306.520394814922
 30
0.0
 10
1824.406942378376
 20
1304.693436541684
 30
0.0
 10
1823.604101839869
 20
1302.812420722549
 30
0.0
 10
1822.366321261847
 20
1299.609389741415
 30
0.0
 10
1820.856992980562
 20
1294.816956390496
 30
0.0
 10
1820.005949293211
 20
1290.43290121486
 30
0.0
 10
1819.581001006769
 20
1288.243828242176
 30
0.0
  0
LINE
  5
1A3
330
1F
100
AcDbEntity
  8
0
  6
Continuous
 62
     7
370
    40
100
AcDbLine
 10
1820.583209145
 20
1089.7503930398
 30
0.0
 11
1820.7781326955
 21
1089.7469906365
 31
0.0
  0
ARC
  5
1A4
330
1F
100
AcDbEntity
  8
0
  6
Continuous
 62
     7
370
    40
100
AcDbCircle
 10
1833.7183069478
 20
1164.9717691618
 30
0.0
 40
10.00000000000013
100
AcDbArc
 50
14.7570898053
 51
89.0
  0
ARC
  5
1A5
330
1F
100
AcDbEntity
  8
0
  6
Continuous
 62
     7
370
    40
100
AcDbCircle
 10
1069.7769096559
 20
963.7416980896
 30
0.0
 40
800.0000000000014
100
AcDbArc
 50
358.6618680049
 51
14.7570898053
  0
LINE
  5
1A6
330
1F
100
AcDbEntity
  8
0
  6
Continuous
 62
     7
370
    40
100
AcDbLine
 10
1825.4256465671
 20
1175.1180413676
 30
0.0
 11
1821.6988162942
 21
961.6080780333
 31
0.0
  0
LINE
  5
1A7
330
1F
100
AcDbEntity
  8
0
  6
Continuous
 62
     7
370
    40
100
AcDbLine
 10
1833.8928310122
 20
1174.9702461133
 30
0.0
 11
1825.4256465671
 21
1175.1180413676
 31
0.0
  0
LINE
  5
1A8
330
1F
100
AcDbEntity
  8
0
  6
Continuous
 62
     7
370
    40
100
AcDbLine
 10
1818.4896720915
 20
959.2062063949
 30
0.0
 11
1817.7057751331
 21
959.2198893672
 31
0.0
  0
LINE
  5
1A9
330
1F
100
AcDbEntity
  8
0
  6
Continuous
 62
     7
370
    40
100
AcDbLine
 10
1817.7057751331
 20
959.2198893672
 30
0.0
 11
1819.9951181562
 21
1090.3762633201
 31
0.0
  0
LINE
  5
1AA
330
1F
100
AcDbEntity
  8
0
  6
Continuous
 62
     7
370
    40
100
AcDbLine
 10
1820.4702864334
 20
1117.5986356888
 30
0.0
 11
1821.4754949236
 21
1175.186991521
 31
0.0
  0
LINE
  5
1AB
330
1F
100
AcDbEntity
  8
0
  6
Continuous
 62
     7
370
    40
100
AcDbLine
 10
1821.4754949236
 20
1175.186991521
 30
0.0
 11
1825.4256465671
 21
1175.1180413676
 31
0.0
  0
LINE
  5
1AC
330
1F
100
AcDbEntity
  8
0
  6
Continuous
 62
     7
370
    40
100
AcDbLine
 10
1714.2343275349
 20
724.8404512142
 30
0.0
 11
1714.2343275349
 21
924.8404512142
 31
0.0
  0
LINE
  5
1AD
330
1F
100
AcDbEntity
  8
0
  6
Continuous
 62
     7
370
    40
100
AcDbLine
 10
1714.2343275349
 20
924.8404512142
 30
0.0
 11
1720.2343275349
 21
924.8404512142
 31
0.0
  0
LINE
  5
1AE
330
1F
100
AcDbEntity
  8
0
  6
Continuous
 62
     7
370
    40
100
AcDbLine
 10
1720.2343275349
 20
724.8404512142
 30
0.0
 11
1714.2343275349
 21
724.8404512142
 31
0.0
  0
ARC
  5
1AF
330
1F
100
AcDbEntity
  8
0
  6
Continuous
 62
     7
370
    40
100
AcDbCircle
 10
1724.2343275349
 20
1071.2809274046
 30
0.0
 40
146.4404761904762
100
AcDbArc
 50
270.0
 51
310.1261453322
  0
ARC
  5
1B0
330
1F
100
AcDbEntity
  8
0
  6
Continuous
 62
     7
370
    40
100
AcDbCircle
 10
1839.2343275349
 20
934.8404512142
 30
0.0
 40
32.00000000000005
100
AcDbArc
 50
296.3156177595
 51
130.1261453322
  0
ARC
  5
1B1
330
1F
100
AcDbEntity
  8
0
  6
Continuous
 62
     7
370
    40
100
AcDbCircle
 10
1942.083532773
 20
726.8836264118
 30
0.0
 40
200.0
100
AcDbArc
 50
116.3156177595
 51
177.8285636581
  0
ARC
  5
1B2
330
1F
100
AcDbEntity
  8
0
  6
Continuous
 62
     7
370
    40
100
AcDbCircle
 10
1732.2343275349
 20
734.8404512142
 30
0.0
 40
10.00000000000025
100
AcDbArc
 50
270.0
 51
357.8285636581
  0
LINE
  5
1B3
330
1F
100
AcDbEntity
  8
0
  6
Continuous
 62
     7
370
    40
100
AcDbLine
 10
1732.2343275349
 20
724.8404512142
 30
0.0
 11
1720.2343275349
 21
724.8404512142
 31
0.0
  0
LINE
  5
1B4
330
1F
100
AcDbEntity
  8
0
  6
Continuous
 62
     7
370
    40
100
AcDbLine
 10
1720.2343275349
 20
924.8404512142
 30
0.0
 11
1724.2343275349
 21
924.8404512142
 31
0.0
  0
SPLINE
  5
1B5
330
1F
100
AcDbEntity
  8
0
  6
Continuous
 62
     7
370
    40
100
AcDbSpline
210
0.0
220
0.0
230
1.0
 70
     8
 71
     3
 72
    16
 73
    12
 74
     0
 42
0.00000001
 43
0.00000001
 12
1.0
 22
0.0
 32
0.0
 13
1.0
 23
0.0
 33
0.0
 40
0.0
 40
0.0
 40
0.0
 40
0.0
 40
0.1146246338077409
 40
0.2292435935014386
 40
0.3438929211977625
 40
0.4585422302516137
 40
0.5727770095740646
 40
0.687013349284136
 40
0.8014889312557227
 40
0.9159645767115727
 40
1.0
 40
1.0
 40
1.0
 40
1.0
 10
1772.133278401284
 20
1182.59200417611
 30
0.0
 10
1773.057283832957
 20
1182.797139196406
 30
0.0
 10
1774.905248956464
 20
1183.207399082465
 30
0.0
 10
1777.665873890172
 20
1185.398446076126
 30
0.0
 10
1780.294167844565
 20
1188.722330570798
 30
0.0
 10
1782.690185753164
 20
1193.149735740393
 30
0.0
 10
1784.735434807065
 20
1198.561002181003
 30
0.0
 10
1786.352024555076
 20
1204.771253250645
 30
0.0
 10
1787.420646401192
 20
1211.639063840773
 30
0.0
 10
1787.89848241983
 20
1218.296022829472
 30
0.0
 10
1787.80244635084
 20
1222.642611052608
 30
0.0
 10
1787.761791531138
 20
1224.482646389188
 30
0.0
  0
SPLINE
  5
1B6
330
1F
100
AcDbEntity
  8
0
  6
Continuous
 62
     7
370
    40
100
AcDbSpline
210
0.0
220
0.0
230
1.0
 70
    24
 71
     3
 72
    14
 73
    10
 74
     0
 42
0.00000001
 43
0.00000001
 12
1.0
 22
0.0
 32
0.0
 13
1.0
 23
0.0
 33
0.0
 40
0.0
 40
0.0
 40
0.0
 40
0.0
 40
0.1161725616104261
 40
0.2323453382103511
 40
0.3485180418841977
 40
0.511388600780393
 40
0.6742590510139808
 40
0.8371294537738259
 40
1.0
 40
1.0
 40
1.0
 40
1.0
 10
1772.133278401284
 20
1182.59200417611
 30
0.0
 10
1770.314331301722
 20
1182.432866925345
 30
0.0
 10
1766.676433736446
 20
1182.114592129315
 30
0.0
 10
1762.02082231597
 20
1181.707278908241
 30
0.0
 10
1757.421244273176
 20
1181.304867972494
 30
0.0
 10
1753.27868677321
 20
1180.942441153242
 30
0.0
 10
1750.014080333095
 20
1180.656825098859
 30
0.0
 10
1747.965706650603
 20
1180.477615622975
 30
0.0
 10
1747.71181026387
 20
1180.455402567426
 30
0.0
 10
1747.584862014591
 20
1180.44429603476
 30
0.0
  0
SPLINE
  5
1B7
330
1F
100
AcDbEntity
  8
0
  6
Continuous
 62
     7
370
    40
100
AcDbSpline
210
0.0
220
0.0
230
1.0
 70
    24
 71
     3
 72
    15
 73
    11
 74
     0
 42
0.00000001
 43
0.00000001
 12
1.0
 22
0.0
 32
0.0
 13
1.0
 23
0.0
 33
0.0
 40
0.0
 40
0.0
 40
0.0
 40
0.0
 40
0.1284862404806589
 40
0.2569724948745021
 40
0.3854584597114169
 40
0.513944683268223
 40
0.6424308349676573
 40
0.7616205758047431
 40
0.8808104125351546
 40
1.0
 40
1.0
 40
1.0
 40
1.0
 10
1727.10235900206
 20
1334.244384039747
 30
0.0
 10
1727.196159885649
 20
1334.25259055369
 30
0.0
 10
1727.383761662987
 20
1334.269003582464
 30
0.0
 10
1728.897970132907
 20
1334.401479657797
 30
0.0
 10
1731.310967230551
 20
1334.612589548962
 30
0.0
 10
1734.706590886533
 20
1334.90966812446
 30
0.0
 10
1738.940503485187
 20
1335.280087479202
 30
0.0
 10
1743.951146129301
 20
1335.718461907542
 30
0.0
 10
1749.577895813789
 20
1336.210738717433
 30
0.0
 10
1753.991446865659
 20
1336.596874400365
 30
0.0
 10
1756.198220084041
 20
1336.789942039945
 30
0.0
  0
SPLINE
  5
1B8
330
1F
100
AcDbEntity
  8
0
  6
Continuous
 62
     7
370
    40
100
AcDbSpline
210
0.0
220
0.0
230
1.0
 70
     8
 71
     3
 72
    17
 73
    13
 74
     0
 42
0.00000001
 43
0.00000001
 12
1.0
 22
0.0
 32
0.0
 13
1.0
 23
0.0
 33
0.0
 40
0.0
 40
0.0
 40
0.0
 40
0.0
 40
0.1027794022562199
 40
0.2055595514150075
 40
0.3083325478190556
 40
0.4111052263071713
 40
0.5139763925837242
 40
0.6168452788204308
 40
0.7193636539622721
 40
0.821883450105039
 40
0.9109400954483227
 40
1.0
 40
1.0
 40
1.0
 40
1.0
 10
1782.109521907616
 20
1296.809786286099
 30
0.0
 10
1781.723824714919
 20
1299.022853829496
 30
0.0
 10
1780.952427526647
 20
1303.449004998751
 30
0.0
 10
1779.039455623152
 20
1309.900100203353
 30
0.0
 10
1776.647613290542
 20
1315.975036354597
 30
0.0
 10
1773.849018597331
 20
1321.531894186476
 30
0.0
 10
1770.76841407739
 20
1326.397999728918
 30
0.0
 10
1767.539918241586
 20
1330.466842950666
 30
0.0
 10
1764.288120555907
 20
1333.602789798086
 30
0.0
 10
1761.268323468596
 20
1335.647821307799
 30
0.0
 10
1758.535658046374
 20
1336.751229232176
 30
0.0
 10
1756.977375576062
 20
1336.777037613274
 30
0.0
 10
1756.198220084041
 20
1336.789942039945
 30
0.0
  0
SPLINE
  5
1B9
330
1F
100
AcDbEntity
  8
0
  6
Continuous
 62
     7
370
    40
100
AcDbSpline
210
0.0
220
0.0
230
1.0
 70
     8
 71
     3
 72
    11
 73
     7
 74
     0
 42
0.00000001
 43
0.00000001
 12
1.0
 22
0.0
 32
0.0
 13
1.0
 23
0.0
 33
0.0
 40
0.0
 40
0.0
 40
0.0
 40
0.0
 40
0.2492830773380112
 40
0.4992454559620675
 40
0.749617784585592
 40
1.0
 40
1.0
 40
1.0
 40
1.0
 10
1782.109521907616
 20
1296.809786286098
 30
0.0
 10
1782.914687974621
 20
1290.831569464215
 30
0.0
 10
1784.527214201992
 20
1278.85884506209
 30
0.0
 10
1785.893444608831
 20
1260.767890824184
 30
0.0
 10
1786.951104415341
 20
1242.637368997688
 30
0.0
 10
1787.491558935666
 20
1230.53430024549
 30
0.0
 10
1787.761791531138
 20
1224.482646389188
 30
0.0
  0
SPLINE
  5
1BA
330
1F
100
AcDbEntity
  8
0
  6
Continuous
 62
     7
370
    40
100
AcDbSpline
210
0.0
220
0.0
230
1.0
 70
     8
 71
     3
 72
    17
 73
    13
 74
     0
 42
0.00000001
 43
0.00000001
 12
1.0
 22
0.0
 32
0.0
 13
1.0
 23
0.0
 33
0.0
 40
0.0
 40
0.0
 40
0.0
 40
0.0
 40
0.1027882614913142
 40
0.205570770435541
 40
0.3083886670735958
 40
0.4112057739812685
 40
0.5135058861837769
 40
0.6158083809792404
 40
0.7183542571279364
 40
0.8209000491878893
 40
0.9104502022638685
 40
0.9999999999999999
 40
0.9999999999999999
 40
0.9999999999999999
 40
0.9999999999999999
 10
1761.295027004975
 20
1337.957919834225
 30
0.0
 10
1762.193864805866
 20
1337.932701252759
 30
0.0
 10
1763.991490104174
 20
1337.882265501184
 30
0.0
 10
1767.033460413766
 20
1336.461445632487
 30
0.0
 10
1770.225764505668
 20
1334.05536246996
 30
0.0
 10
1773.478069044878
 20
1330.672861465297
 30
0.0
 10
1776.667316102379
 20
1326.397501392098
 30
0.0
 10
1779.67489694337
 20
1321.370140169021
 30
0.0
 10
1782.374697965118
 20
1315.68757156214
 30
0.0
 10
1784.549939525841
 20
1309.780474527611
 30
0.0
 10
1786.198804763543
 20
1303.852770358989
 30
0.0
 10
1786.861898329898
 20
1299.99782200011
 30
0.0
 10
1787.193444455277
 20
1298.070351644838
 30
0.0
  0
SPLINE
  5
1BB
330
1F
100
AcDbEntity
  8
0
  6
Continuous
 62
     7
370
    40
100
AcDbSpline
210
0.0
220
0.0
230
1.0
 70
     8
 71
     3
 72
    11
 73
     7
 74
     0
 42
0.00000001
 43
0.00000001
 12
1.0
 22
0.0
 32
0.0
 13
1.0
 23
0.0
 33
0.0
 40
0.0
 40
0.0
 40
0.0
 40
0.0
 40
0.2504335976914367
 40
0.5010669253798593
 40
0.7505747521947576
 40
1.0
 40
1.0
 40
1.0
 40
1.0
 10
1787.193444689212
 20
1298.070351691787
 30
0.0
 10
1788.022605716537
 20
1291.999641819207
 30
0.0
 10
1789.681589057575
 20
1279.853380459839
 30
0.0
 10
1791.091784957027
 20
1261.541552615528
 30
0.0
 10
1792.1755743974
 20
1243.241003741316
 30
0.0
 10
1792.736125811181
 20
1231.0493314484
 30
0.0
 10
1793.016355129304
 20
1224.95450423107
 30
0.0
  0
SPLINE
  5
1BC
330
1F
100
AcDbEntity
  8
0
  6
Continuous
 62
     7
370
    40
100
AcDbSpline
210
0.0
220
0.0
230
1.0
 70
     8
 71
     3
 72
    14
 73
    10
 74
     0
 42
0.00000001
 43
0.00000001
 12
1.0
 22
0.0
 32
0.0
 13
1.0
 23
0.0
 33
0.0
 40
0.0
 40
0.0
 40
0.0
 40
0.0
 40
0.1149479346789563
 40
0.2298981587949845
 40
0.3448469433859432
 40
0.5086353014837188
 40
0.6724233653318326
 40
0.8362114483685954
 40
1.0
 40
1.0
 40
1.0
 40
1.0
 10
1777.44144450647
 20
1182.952273705288
 30
0.0
 10
1775.690692453652
 20
1182.796654049495
 30
0.0
 10
1772.189153477997
 20
1182.485411638407
 30
0.0
 10
1767.699829987195
 20
1182.086405063615
 30
0.0
 10
1763.226253926965
 20
1181.688772173275
 30
0.0
 10
1759.170540872513
 20
1181.328284412061
 30
0.0
 10
1755.960784173022
 20
1181.042998254774
 30
0.0
 10
1753.946872978374
 20
1180.86398622866
 30
0.0
 10
1753.697228607235
 20
1180.841800671224
 30
0.0
 10
1753.572406243109
 20
1180.830707876638
 30
0.0
  0
SPLINE
  5
1BD
330
1F
100
AcDbEntity
  8
0
  6
Continuous
 62
     7
370
    40
100
AcDbSpline
210
0.0
220
0.0
230
1.0
 70
     8
 71
     3
 72
    16
 73
    12
 74
     0
 42
0.00000001
 43
0.00000001
 12
1.0
 22
0.0
 32
0.0
 13
1.0
 23
0.0
 33
0.0
 40
0.0
 40
0.0
 40
0.0
 40
0.0
 40
0.1144966919242426
 40
0.2289936046711639
 40
0.3434921655910285
 40
0.4579895836758868
 40
0.5724168573208746
 40
0.686842908392429
 40
0.800944949402042
 40
0.9150505045394862
 40
1.0
 40
1.0
 40
1.0
 40
1.0
 10
1793.016355273289
 20
1224.954504244225
 30
0.0
 10
1793.057074608098
 20
1222.443925128763
 30
0.0
 10
1793.138513356251
 20
1217.422762055842
 30
0.0
 10
1792.463538237928
 20
1210.193883095684
 30
0.0
 10
1791.240014629537
 20
1203.466654865631
 30
0.0
 10
1789.507373145888
 20
1197.418400932983
 30
0.0
 10
1787.354637709979
 20
1192.256535007818
 30
0.0
 10
1784.897464841805
 20
1188.088010883672
 30
0.0
 10
1782.238876579482
 20
1185.098177761888
 30
0.0
 10
1779.716582196829
 20
1183.38106996799
 30
0.0
 10
1778.121967850417
 20
1183.080532289454
 30
0.0
 10
1777.44144412708
 20
1182.952273679176
 30
0.0
  0
LINE
  5
1BE
330
1F
100
AcDbEntity
  8
0
  6
Continuous
 62
     7
370
    40
100
AcDbLine
 10
1761.2951311179
 20
1337.9579296597
 30
0.0
 11
1757.0391184358
 21
1337.5630408484
 31
0.0
  0
SPLINE
  5
1BF
330
1F
100
AcDbEntity
  8
0
  6
Continuous
 62
     7
370
    40
100
AcDbSpline
210
0.0
220
0.0
230
1.0
 70
     8
 71
     3
 72
    15
 73
    11
 74
     0
 42
0.00000001
 43
0.00000001
 12
1.0
 22
0.0
 32
0.0
 13
1.0
 23
0.0
 33
0.0
 40
0.0
 40
0.0
 40
0.0
 40
0.0
 40
0.1291870617423755
 40
0.2583754931942358
 40
0.3875613704740418
 40
0.5167506516311129
 40
0.6459394200147682
 40
0.7639584099816407
 40
0.8819799378417839
 40
1.0
 40
1.0
 40
1.0
 40
1.0
 10
1733.002881916718
 20
1335.332423254845
 30
0.0
 10
1733.09508846504
 20
1335.34098146162
 30
0.0
 10
1733.279502539307
 20
1335.358097965908
 30
0.0
 10
1734.767832888862
 20
1335.496238708402
 30
0.0
 10
1737.13961840435
 20
1335.716383432948
 30
0.0
 10
1740.477237604471
 20
1336.026151289833
 30
0.0
 10
1744.618727895519
 20
1336.410513963072
 30
0.0
 10
1749.488685088158
 20
1336.862448055131
 30
0.0
 10
1754.918106995115
 20
1337.366254275948
 30
0.0
 10
1759.169396664383
 20
1337.760698988671
 30
0.0
 10
1761.295028299811
 20
1337.957920120379
 30
0.0
  0
LWPOLYLINE
  5
1C0
330
1F
100
AcDbEntity
  8
0
  6
Continuous
 62
     7
370
    40
100
AcDbPolyline
 90
       11
 70
   128
 43
0.0
 10
1758.9673942677
 20
1264.863413491
 10
1758.6247834787
 20
1267.1854850842
 10
1758.1773242924
 20
1269.436469967
 10
1757.6360346392
 20
1271.5609414209
 10
1757.0142428666
 20
1273.506587908
 10
1756.3272595518
 20
1275.2255011546
 10
1755.5920005039
 20
1276.6753558118
 10
1754.8265702409
 20
1277.8204516461
 10
1754.0498161961
 20
1278.6325925978
 10
1753.2808646321
 20
1279.0917810612
 10
1752.5386496883
 20
1279.1867102925
  0
LINE
  5
1C1
330
1F
100
AcDbEntity
  8
0
  6
Continuous
 62
     7
370
    40
100
AcDbLine
 10
1752.5386496883
 20
1279.1867102925
 30
0.0
 11
1755.2574892196
 21
1279.5205418105
 31
0.0
  0
LWPOLYLINE
  5
1C2
330
1F
100
AcDbEntity
  8
0
  6
Continuous
 62
     7
370
    40
100
AcDbPolyline
 90
       11
 70
   128
 43
0.0
 10
1755.370552144
 20
1279.5344241921
 10
1756.1127670878
 20
1279.4394949608
 10
1756.8817186518
 20
1278.9803064973
 10
1757.6584726966
 20
1278.1681655456
 10
1758.4239029596
 20
1277.0230697113
 10
1759.1591620075
 20
1275.5732150541
 10
1759.8461453223
 20
1273.8543018075
 10
1760.4679370949
 20
1271.9086553204
 10
1761.0092267482
 20
1269.7841838665
 10
1761.4566859344
 20
1267.5331989838
 10
1761.7992967235
 20
1265.2111273905
  0
LINE
  5
1C3
330
1F
100
AcDbEntity
  8
0
  6
Continuous
 62
     7
370
    40
100
AcDbLine
 10
1758.9673942677
 20
1264.863413491
 30
0.0
 11
1762.5016052265
 21
1236.0795750934
 31
0.0
  0
LWPOLYLINE
  5
1C4
330
1F
100
AcDbEntity
  8
0
  6
Continuous
 62
     7
370
    40
100
AcDbPolyline
 90
       11
 70
   128
 43
0.0
 10
1759.7289409492
 20
1220.6264873457
 10
1760.4261434775
 20
1220.8981548193
 10
1761.0611661503
 20
1221.5297296429
 10
1761.6183726018
 20
1222.5056603484
 10
1762.0840425599
 20
1223.8019162828
 10
1762.4467096848
 20
1225.386579323
 10
1762.6974439082
 20
1227.2206298058
 10
1762.8300713214
 20
1229.2589073213
 10
1762.8413261974
 20
1231.4512227126
 10
1762.7309314037
 20
1233.7435938988
 10
1762.5016052265
 20
1236.0795750934
  0
LINE
  5
1C5
330
1F
100
AcDbEntity
  8
0
  6
Continuous
 62
     7
370
    40
100
AcDbLine
 10
1759.7289409492
 20
1220.6264873457
 30
0.0
 11
1755.7169181761
 21
1220.1338728912
 31
0.0
  0
LINE
  5
1C6
330
1F
100
AcDbEntity
  8
0
  6
Continuous
 62
     7
370
    40
100
AcDbLine
 10
1752.5386496883
 20
1279.1867102925
 30
0.0
 11
1748.5266269152
 21
1278.694095838
 31
0.0
  0
LINE
  5
1C7
330
1F
100
AcDbEntity
  8
0
  6
Continuous
 62
     7
370
    40
100
AcDbLine
 10
1761.7992967235
 20
1265.2111273905
 30
0.0
 11
1765.3335076822
 21
1236.4272889929
 31
0.0
  0
LINE
  5
1C8
330
1F
100
AcDbEntity
  8
0
  6
Continuous
 62
     7
370
    40
100
AcDbLine
 10
1762.1261996944
 20
1220.9208337081
 30
0.0
 11
1759.7289409492
 21
1220.6264873457
 31
0.0
  0
LWPOLYLINE
  5
1C9
330
1F
100
AcDbEntity
  8
0
  6
Continuous
 62
     7
370
    40
100
AcDbPolyline
 90
       11
 70
   128
 43
0.0
 10
1765.3335076822
 20
1236.4272889929
 10
1765.5628338594
 20
1234.0913077984
 10
1765.6732286531
 20
1231.7989366122
 10
1765.6619737771
 20
1229.6066212209
 10
1765.5293463639
 20
1227.5683437053
 10
1765.2786121405
 20
1225.7342932225
 10
1764.9159450156
 20
1224.1496301823
 10
1764.4502750575
 20
1222.8533742479
 10
1763.893068606
 20
1221.8774435424
 10
1763.2580459333
 20
1221.2458687188
 10
1762.5608434049
 20
1220.9742012452
  0
LINE
  5
1CA
330
1F
100
AcDbEntity
  8
0
  6
Continuous
 62
     7
370
    40
100
AcDbLine
 10
1755.7169181761
 20
1220.1338728912
 30
0.0
 11
1753.478446129
 21
1219.8590230838
 31
0.0
  0
LINE
  5
1CB
330
1F
100
AcDbEntity
  8
0
  6
Continuous
 62
     7
370
    40
100
AcDbLine
 10
1746.2881548681
 20
1278.4192460306
 30
0.0
 11
1748.5266269152
 21
1278.694095838
 31
0.0
  0
LINE
  5
1CC
330
1F
100
AcDbEntity
  8
0
  6
Continuous
 62
     7
370
    40
100
AcDbLine
 10
1753.478446129
 20
1219.8590230838
 30
0.0
 11
1718.2641429284
 21
1215.5352503278
 31
0.0
  0
LINE
  5
1CD
330
1F
100
AcDbEntity
  8
0
  6
Continuous
 62
     7
370
    40
100
AcDbLine
 10
1746.2881548681
 20
1278.4192460306
 30
0.0
 11
1718.2641429284
 21
1274.9783300298
 31
0.0
  0
LINE
  5
1CE
330
1F
100
AcDbEntity
  8
0
  6
Continuous
 62
     7
370
    40
100
AcDbLine
 10
1714.2343275349
 20
1215.0404512142
 30
0.0
 11
1714.2343275349
 21
1274.4835309162
 31
0.0
  0
LINE
  5
1CF
330
1F
100
AcDbEntity
  8
0
  6
Continuous
 62
     7
370
    40
100
AcDbLine
 10
1718.2641429284
 20
1215.5352503278
 30
0.0
 11
1714.2343275349
 21
1215.0404512142
 31
0.0
  0
LINE
  5
1D0
330
1F
100
AcDbEntity
  8
0
  6
Continuous
 62
     7
370
    40
100
AcDbLine
 10
1714.2343275349
 20
1274.4835309162
 30
0.0
 11
1718.2641429284
 21
1274.9783300298
 31
0.0
  0
LINE
  5
1D1
330
1F
100
AcDbEntity
  8
0
  6
Continuous
 62
     7
370
    40
100
AcDbLine
 10
306.8550639515
 20
426.2355369971
 30
0.0
 11
370.4509359606
 21
426.2355369971
 31
0.0
  0
LINE
  5
1D2
330
1F
100
AcDbEntity
  8
0
  6
Continuous
 62
     7
370
    40
100
AcDbLine
 10
370.4509359606
 20
487.2355369971
 30
0.0
 11
288.4509359606
 21
487.2355369971
 31
0.0
  0
LINE
  5
1D3
330
1F
100
AcDbEntity
  8
0
  6
Continuous
 62
     7
370
    40
100
AcDbLine
 10
665.4509359606
 20
487.2355369971
 30
0.0
 11
583.4509359606
 21
487.2355369971
 31
0.0
  0
LINE
  5
1D4
330
1F
100
AcDbEntity
  8
0
  6
Continuous
 62
     7
370
    40
100
AcDbLine
 10
583.4509359606
 20
426.2355369971
 30
0.0
 11
647.0468079697
 21
426.2355369971
 31
0.0
  0
LINE
  5
1D5
330
1F
100
AcDbEntity
  8
0
  6
Continuous
 62
     7
370
    40
100
AcDbLine
 10
272.9509359606
 20
424.7355369971
 30
0.0
 11
286.9509359606
 21
424.7355369971
 31
0.0
  0
LINE
  5
1D6
330
1F
100
AcDbEntity
  8
0
  6
Continuous
 62
     7
370
    40
100
AcDbLine
 10
286.9509359606
 20
426.7355369971
 30
0.0
 11
288.4509359606
 21
426.7355369971
 31
0.0
  0
LINE
  5
1D7
330
1F
100
AcDbEntity
  8
0
  6
Continuous
 62
     7
370
    40
100
AcDbLine
 10
370.4509359606
 20
426.7355369971
 30
0.0
 11
372.1509359606
 21
426.7355369971
 31
0.0
  0
LINE
  5
1D8
330
1F
100
AcDbEntity
  8
0
  6
Continuous
 62
     7
370
    40
100
AcDbLine
 10
372.1509359606
 20
486.7355369971
 30
0.0
 11
370.4509359606
 21
486.7355369971
 31
0.0
  0
LINE
  5
1D9
330
1F
100
AcDbEntity
  8
0
  6
Continuous
 62
     7
370
    40
100
AcDbLine
 10
288.4509359606
 20
486.7355369971
 30
0.0
 11
286.9509359606
 21
486.7355369971
 31
0.0
  0
LINE
  5
1DA
330
1F
100
AcDbEntity
  8
0
  6
Continuous
 62
     7
370
    40
100
AcDbLine
 10
372.1509359606
 20
444.7355369971
 30
0.0
 11
374.1509359606
 21
444.7355369971
 31
0.0
  0
LINE
  5
1DB
330
1F
100
AcDbEntity
  8
0
  6
Continuous
 62
     7
370
    40
100
AcDbLine
 10
374.1509359606
 20
468.7355369971
 30
0.0
 11
372.1509359606
 21
468.7355369971
 31
0.0
  0
LINE
  5
1DC
330
1F
100
AcDbEntity
  8
0
  6
Continuous
 62
     7
370
    40
100
AcDbLine
 10
666.9509359606
 20
424.7355369971
 30
0.0
 11
680.9509359606
 21
424.7355369971
 31
0.0
  0
LINE
  5
1DD
330
1F
100
AcDbEntity
  8
0
  6
Continuous
 62
     7
370
    40
100
AcDbLine
 10
666.9509359606
 20
486.7355369971
 30
0.0
 11
665.4509359606
 21
486.7355369971
 31
0.0
  0
LINE
  5
1DE
330
1F
100
AcDbEntity
  8
0
  6
Continuous
 62
     7
370
    40
100
AcDbLine
 10
583.4509359606
 20
486.7355369971
 30
0.0
 11
581.7509359606
 21
486.7355369971
 31
0.0
  0
LINE
  5
1DF
330
1F
100
AcDbEntity
  8
0
  6
Continuous
 62
     7
370
    40
100
AcDbLine
 10
581.7509359606
 20
426.7355369971
 30
0.0
 11
583.4509359606
 21
426.7355369971
 31
0.0
  0
LINE
  5
1E0
330
1F
100
AcDbEntity
  8
0
  6
Continuous
 62
     7
370
    40
100
AcDbLine
 10
665.4509359606
 20
426.7355369971
 30
0.0
 11
666.9509359606
 21
426.7355369971
 31
0.0
  0
LINE
  5
1E1
330
1F
100
AcDbEntity
  8
0
  6
Continuous
 62
     7
370
    40
100
AcDbLine
 10
581.7509359606
 20
468.7355369971
 30
0.0
 11
579.7509359606
 21
468.7355369971
 31
0.0
  0
LINE
  5
1E2
330
1F
100
AcDbEntity
  8
0
  6
Continuous
 62
     7
370
    40
100
AcDbLine
 10
579.7509359606
 20
444.7355369971
 30
0.0
 11
581.7509359606
 21
444.7355369971
 31
0.0
  0
SPLINE
  5
1E3
330
1F
100
AcDbEntity
  8
0
  6
Continuous
 62
     7
370
    40
100
AcDbSpline
210
0.0
220
0.0
230
1.0
 70
     8
 71
     3
 72
     9
 73
     5
 74
     0
 42
0.00000001
 43
0.00000001
 12
1.0
 22
0.0
 32
0.0
 13
1.0
 23
0.0
 33
0.0
 40
0.0
 40
0.0
 40
0.0
 40
0.0
 40
0.2455991062635651
 40
1.0
 40
1.0
 40
1.0
 40
1.0
 10
298.8557421388956
 20
513.9132468053876
 30
0.0
 10
299.0968375943104
 20
513.4958364373081
 30
0.0
 10
300.0785001869913
 20
511.7962766366645
 30
0.0
 10
301.0606571532226
 20
510.0966789302482
 30
0.0
 10
301.801597246337
 20
508.8145009015353
 30
0.0
  0
LINE
  5
1E4
330
1F
100
AcDbEntity
  8
0
  6
Continuous
 62
     7
370
    40
100
AcDbLine
 10
652.1005181915
 20
508.8141758562
 30
0.0
 11
655.0458873651
 21
513.9124984023
 31
0.0
  0
SPLINE
  5
1E5
330
1F
100
AcDbEntity
  8
0
  6
Continuous
 62
     7
370
    40
100
AcDbSpline
210
0.0
220
0.0
230
1.0
 70
     8
 71
     3
 72
    39
 73
    35
 74
     0
 42
0.00000001
 43
0.00000001
 12
1.0
 22
0.0
 32
0.0
 13
1.0
 23
0.0
 33
0.0
 40
0.0
 40
0.0
 40
0.0
 40
0.0
 40
0.0115054049898089
 40
0.0228131985496977
 40
0.0339233909639348
 40
0.0448359930768323
 40
0.0555510163340085
 40
0.0660684728274948
 40
0.0763883753451928
 40
0.0865107374251026
 40
0.0964355734149804
 40
0.1061628985380122
 40
0.1156927289652895
 40
0.1250250818959533
 40
0.1886303159399985
 40
0.2495648568934596
 40
0.3759086231700429
 40
0.4987877084082015
 40
0.562053533271568
 40
0.6250773254860287
 40
0.6878720314622402
 40
0.7504507397931514
 40
0.771286463715854
 40
0.7921132789590414
 40
0.8129316776934238
 40
0.8337421526868576
 40
0.8545451972702817
 40
0.8753413053034288
 40
0.8961309711403694
 40
0.916914689594868
 40
0.93769295590558
 40
0.9584662657011039
 40
0.9792351149648881
 40
1.0
 40
1.0
 40
1.0
 40
1.0
 10
320.2879364267583
 20
400.7473970614005
 30
0.0
 10
320.8432539862727
 20
401.006379577778
 30
0.0
 10
321.944351231833
 20
401.5198964485229
 30
0.0
 10
323.5868451632894
 20
402.2734114058306
 30
0.0
 10
325.2042409499852
 20
403.0066315385474
 30
0.0
 10
326.7966830264605
 20
403.7192348474821
 30
0.0
 10
328.3638592990152
 20
404.4117957408362
 30
0.0
 10
329.9055855035489
 20
405.0846479847852
 30
0.0
 10
331.4216525856257
 20
405.7381811786061
 30
0.0
 10
332.9118662738767
 20
406.3727633230462
 30
0.0
 10
334.3760366698244
 20
406.9887609040533
 30
0.0
 10
335.8139804344745
 20
407.5865334489004
 30
0.0
 10
337.2255212532901
 20
408.1664351788705
 30
0.0
 10
341.3050325817509
 20
409.8229603846955
 30
0.0
 10
347.9770658904798
 20
412.4101889526782
 30
0.0
 10
360.6301386076802
 20
416.9270497793645
 30
0.0
 10
376.5429445335429
 20
421.8873295104773
 30
0.0
 10
392.8843798036455
 20
426.0200037902156
 30
0.0
 10
406.0648204683609
 20
428.7860910901565
 30
0.0
 10
416.1362402811315
 20
430.6097788977112
 30
0.0
 10
426.2300763866457
 20
432.1505066772903
 30
0.0
 10
434.102151309363
 20
433.1306680499216
 30
0.0
 10
439.7289044689964
 20
433.7264478413158
 30
0.0
 10
443.105556984645
 20
434.0526612510427
 30
0.0
 10
446.4844909910574
 20
434.3478148363766
 30
0.0
 10
449.8654297810036
 20
434.6119004067056
 30
0.0
 10
453.2480848885033
 20
434.8449119027406
 30
0.0
 10
456.6321711079171
 20
435.0468414267232
 30
0.0
 10
460.0174025025634
 20
435.2177020848498
 30
0.0
 10
463.4034935042637
 20
435.3574406091623
 30
0.0
 10
466.79015864923
 20
435.4662638830856
 30
0.0
 10
470.1771126799187
 20
435.5434206303826
 30
0.0
 10
473.5640705457362
 20
435.5917466531142
 30
0.0
 10
475.8220526607573
 20
435.5977207770366
 30
0.0
 10
476.9509359605909
 20
435.6007075538947
 30
0.0
  0
SPLINE
  5
1E6
330
1F
100
AcDbEntity
  8
0
  6
Continuous
 62
     7
370
    40
100
AcDbSpline
210
0.0
220
0.0
230
1.0
 70
     8
 71
     3
 72
     9
 73
     5
 74
     0
 42
0.00000001
 43
0.00000001
 12
1.0
 22
0.0
 32
0.0
 13
1.0
 23
0.0
 33
0.0
 40
0.0
 40
0.0
 40
0.0
 40
0.0
 40
0.5076899243917642
 40
1.0
 40
1.0
 40
1.0
 40
1.0
 10
318.303928961287
 20
399.8114631322555
 30
0.0
 10
318.640048669612
 20
399.9709330188701
 30
0.0
 10
319.3021057485028
 20
400.285041845839
 30
0.0
 10
319.9627128799354
 20
400.5948670109428
 30
0.0
 10
320.2879364267583
 20
400.7473970614005
 30
0.0
  0
SPLINE
  5
1E7
330
1F
100
AcDbEntity
  8
0
  6
Continuous
 62
     7
370
    40
100
AcDbSpline
210
0.0
220
0.0
230
1.0
 70
     8
 71
     3
 72
     8
 73
     4
 74
     0
 42
0.00000001
 43
0.00000001
 12
1.0
 22
0.0
 32
0.0
 13
1.0
 23
0.0
 33
0.0
 40
0.0
 40
0.0
 40
0.0
 40
0.0
 40
1.0
 40
1.0
 40
1.0
 40
1.0
 10
635.5979419467277
 20
399.8114610009462
 30
0.0
 10
634.9356643962234
 20
400.1262897761961
 30
0.0
 10
634.274186355869
 20
400.438323423798
 30
0.0
 10
633.6139355053268
 20
400.7473970548482
 30
0.0
  0
SPLINE
  5
1E8
330
1F
100
AcDbEntity
  8
0
  6
Continuous
 62
     7
370
    40
100
AcDbSpline
210
0.0
220
0.0
230
1.0
 70
     8
 71
     3
 72
    43
 73
    39
 74
     0
 42
0.00000001
 43
0.00000001
 12
1.0
 22
0.0
 32
0.0
 13
1.0
 23
0.0
 33
0.0
 40
0.0
 40
0.0
 40
0.0
 40
0.0
 40
0.011307290912391
 40
0.0226156989509464
 40
0.0339253042963892
 40
0.0452361871039809
 40
0.0565484275018259
 40
0.0678621055891833
 40
0.0791773014347839
 40
0.0904940950751416
 40
0.101812566512871
 40
0.1131327957150185
 40
0.1244548626113857
 40
0.1357788470928581
 40
0.1471048290097439
 40
0.1584328881701139
 40
0.1697631043381378
 40
0.1810955572324456
 40
0.1924303265244719
 40
0.2037674918368121
 40
0.2151071327415939
 40
0.2264493287588406
 40
0.2377941593548477
 40
0.249141703940559
 40
0.3117000858960894
 40
0.3744744565669383
 40
0.4374778939941779
 40
0.500723334117508
 40
0.623782351081445
 40
0.7503128789134005
 40
0.8112900999675382
 40
0.874942932246172
 40
0.8938093236251194
 40
0.9134661424276945
 40
0.9339135140344182
 40
0.9551515497433182
 40
0.9771803487868584
 40
1.0
 40
1.0
 40
1.0
 40
1.0
 10
476.9509359605909
 20
435.6007075538947
 30
0.0
 10
477.5656552421109
 20
435.5998219273195
 30
0.0
 10
478.795154537558
 20
435.5980505866721
 30
0.0
 10
480.6394399141177
 20
435.5837223128794
 30
0.0
 10
482.4838025005013
 20
435.5608475300576
 30
0.0
 10
484.3281963103288
 20
435.5285862573031
 30
0.0
 10
486.1725753357793
 20
435.4871613492065
 30
0.0
 10
488.0168935482179
 20
435.4365111188765
 30
0.0
 10
489.861104899479
 20
435.3766504269557
 30
0.0
 10
491.7051633229753
 20
435.307573911178
 30
0.0
 10
493.549022734856
 20
435.229281921025
 30
0.0
 10
495.3926370351509
 20
435.1417735673917
 30
0.0
 10
497.2359601089319
 20
435.0450485855166
 30
0.0
 10
499.0789458274251
 20
434.9391068359076
 30
0.0
 10
500.9215480493098
 20
434.8239484382706
 30
0.0
 10
502.7637206213315
 20
434.6995737358776
 30
0.0
 10
504.6054173814754
 20
434.5659833050048
 30
0.0
 10
506.4465921525914
 20
434.4231779536551
 30
0.0
 10
508.2871987716695
 20
434.2711587180268
 30
0.0
 10
510.1271909860296
 20
434.1099268786863
 30
0.0
 10
511.9665228463592
 20
433.9394839001205
 30
0.0
 10
513.8051472448843
 20
433.7598316571222
 30
0.0
 10
515.6430213783469
 20
433.5709715900885
 30
0.0
 10
520.2434531927884
 20
433.0749746061387
 30
0.0
 10
527.6027338434932
 20
432.1600389269131
 30
0.0
 10
537.6936696698446
 20
430.6217469447104
 30
0.0
 10
547.7623089536021
 20
428.8006604997085
 30
0.0
 10
560.9508507760326
 20
426.0357696636561
 30
0.0
 10
577.3113424778198
 20
421.9013181790022
 30
0.0
 10
593.2457582372172
 20
416.9359434510492
 30
0.0
 10
605.9130556804274
 20
412.4146369636723
 30
0.0
 10
613.0648160749191
 20
409.6415744088579
 30
0.0
 10
618.1143914717272
 20
407.5790692511528
 30
0.0
 10
621.0172139130052
 20
406.3650022224415
 30
0.0
 10
624.0243373755059
 20
405.0766879306601
 30
0.0
 10
627.1338683342931
 20
403.7104887295059
 30
0.0
 10
630.345551260641
 20
402.266076652029
 30
0.0
 10
632.5117413050589
 20
401.25953997379
 30
0.0
 10
633.613935494425
 20
400.7473970613996
 30
0.0
  0
SPLINE
  5
1E9
330
1F
100
AcDbEntity
  8
0
  6
Continuous
 62
     7
370
    40
100
AcDbSpline
210
0.0
220
0.0
230
1.0
 70
     8
 71
     3
 72
    22
 73
    18
 74
     0
 42
0.00000001
 43
0.00000001
 12
1.0
 22
0.0
 32
0.0
 13
1.0
 23
0.0
 33
0.0
 40
0.0
 40
0.0
 40
0.0
 40
0.0
 40
0.2500000000000022
 40
0.2500000000000022
 40
0.3750000000000035
 40
0.3750000000000035
 40
0.4375000000000041
 40
0.4375000000000041
 40
0.5000000000000048
 40
0.5000000000000048
 40
0.7500000000000041
 40
0.7500000000000041
 40
0.8125000000000031
 40
0.8125000000000031
 40
0.8750000000000021
 40
0.8750000000000021
 40
1.0
 40
1.0
 40
1.0
 40
1.0
 10
635.5979419964162
 20
399.8114609773256
 30
0.0
 10
637.9189548440861
 20
398.7081143454309
 30
0.0
 10
640.0785778057879
 20
397.3645607437533
 30
0.0
 10
643.0909680502832
 20
395.0047360536515
 30
0.0
 10
644.0569240914482
 20
394.1601948773793
 30
0.0
 10
645.4475604550286
 20
392.8038467069093
 30
0.0
 10
645.8993318333321
 20
392.3386454441389
 30
0.0
 10
646.7734646866644
 20
391.3891791184151
 30
0.0
 10
647.196846758993
 20
390.903927044533
 30
0.0
 10
649.2467633789312
 20
388.4260680696739
 30
0.0
 10
650.6748219447505
 20
386.280475249067
 30
0.0
 10
652.1925822109703
 20
383.3919693554063
 30
0.0
 10
652.4824382589736
 20
382.8039256655128
 30
0.0
 10
653.0294813269005
 20
381.6180834745629
 30
0.0
 10
653.2874162197534
 20
381.0189126132011
 30
0.0
 10
654.0147644422584
 20
379.2027835324242
 30
0.0
 10
654.4378774458468
 20
377.9672701842407
 30
0.0
 10
654.7981564117085
 20
376.7066207812812
 30
0.0
  0
SPLINE
  5
1EA
330
1F
100
AcDbEntity
  8
0
  6
Continuous
 62
     7
370
    40
100
AcDbSpline
210
0.0
220
0.0
230
1.0
 70
     8
 71
     3
 72
    41
 73
    37
 74
     0
 42
0.00000001
 43
0.00000001
 12
1.0
 22
0.0
 32
0.0
 13
1.0
 23
0.0
 33
0.0
 40
0.0
 40
0.0
 40
0.0
 40
0.0
 40
0.0192725357105359
 40
0.0385671433052179
 40
0.0578808108558223
 40
0.0772105136269298
 40
0.0965532170339866
 40
0.1159058796293943
 40
0.135265456109704
 40
0.1546289003369662
 40
0.1739931683672158
 40
0.193355221478991
 40
0.2127120291948517
 40
0.2320605722888263
 40
0.2513978457728419
 40
0.2707208618552303
 40
0.2900266528645353
 40
0.3093122741320394
 40
0.3285748068265274
 40
0.3478113607351072
 40
0.3670190769840223
 40
0.3861951306937743
 40
0.4053367335630241
 40
0.4244411363761351
 40
0.4435056314294837
 40
0.4625275548719855
 40
0.4815042889556849
 40
0.5004332641925481
 40
0.6207036169146345
 40
0.7505596131356804
 40
0.8082574672633065
 40
0.8748702595475617
 40
0.9064096867096082
 40
0.9377841167240037
 40
0.9689839551801378
 40
1.0
 40
1.0
 40
1.0
 40
1.0
 10
633.6139355053268
 20
400.7473970548482
 30
0.0
 10
633.792727258658
 20
400.6626058940425
 30
0.0
 10
634.150515526693
 20
400.4929264652989
 30
0.0
 10
634.6819852319832
 20
400.2263913736888
 30
0.0
 10
635.2097636643886
 20
399.9509759263502
 30
0.0
 10
635.7332263032714
 20
399.6659225255271
 30
0.0
 10
636.2522392634932
 20
399.3715725918368
 30
0.0
 10
636.7665421122429
 20
399.0679840325619
 30
0.0
 10
637.2759139380987
 20
398.7553019606565
 30
0.0
 10
637.7801292727714
 20
398.4336590153666
 30
0.0
 10
638.278970365168
 20
398.1032018278495
 30
0.0
 10
638.7722243287703
 20
397.7640836345976
 30
0.0
 10
639.259684327631
 20
397.4164659421241
 30
0.0
 10
639.7411496617411
 20
397.060517742352
 30
0.0
 10
640.2164261278944
 20
396.6964153622471
 30
0.0
 10
640.6853262860999
 20
396.3243421227265
 30
0.0
 10
641.1476697295723
 20
395.944488029169
 30
0.0
 10
641.6032833309372
 20
395.5570494355586
 30
0.0
 10
642.0520014714803
 20
395.1622286987592
 30
0.0
 10
642.4936662493591
 20
394.7602338220471
 30
0.0
 10
642.9281276726659
 20
394.3512780823849
 30
0.0
 10
643.3552438148761
 20
393.9355796719876
 30
0.0
 10
643.7748810139763
 20
393.5133612456265
 30
0.0
 10
644.1869138113829
 20
393.0848497843176
 30
0.0
 10
644.5912257605196
 20
392.6502752535566
 30
0.0
 10
644.9877069008278
 20
392.2098737245407
 30
0.0
 10
645.3762635355982
 20
391.7638738798371
 30
0.0
 10
646.4362189108598
 20
390.5066734977026
 30
0.0
 10
648.1162831370223
 20
388.2562810829633
 30
0.0
 10
649.7627370926218
 20
385.4852025357156
 30
0.0
 10
650.9403234482155
 20
383.0994441315408
 30
0.0
 10
651.587059000263
 20
381.5997985939405
 30
0.0
 10
652.073835683071
 20
380.3329723107591
 30
0.0
 10
652.4031589369495
 20
379.4033126566406
 30
0.0
 10
652.7085617548917
 20
378.471094965371
 30
0.0
 10
652.8915135509457
 20
377.8451992940413
 30
0.0
 10
652.9827192175294
 20
377.5331759461062
 30
0.0
  0
SPLINE
  5
1EB
330
1F
100
AcDbEntity
  8
0
  6
Continuous
 62
     7
370
    40
100
AcDbSpline
210
0.0
220
0.0
230
1.0
 70
     8
 71
     3
 72
    32
 73
    28
 74
     0
 42
0.00000001
 43
0.00000001
 12
1.0
 22
0.0
 32
0.0
 13
1.0
 23
0.0
 33
0.0
 40
0.0
 40
0.0
 40
0.0
 40
0.0
 40
0.0177585115556133
 40
0.0355798240946642
 40
0.0534622523820619
 40
0.0714040684374184
 40
0.0894035022914254
 40
0.1074587428100001
 40
0.1255679385860348
 40
0.1872779493013792
 40
0.2511854211738013
 40
0.3804843896657949
 40
0.5003481358343622
 40
0.535485759685039
 40
0.5707799324614165
 40
0.606213877213012
 40
0.6417702915234742
 40
0.6774313990699058
 40
0.7131790045554915
 40
0.7489945516496145
 40
0.7848591835269397
 40
0.8207538055595647
 40
0.8566591496847291
 40
0.8925558399458668
 40
0.9284244586873109
 40
0.9642456128732696
 40
1.0
 40
1.0
 40
1.0
 40
1.0
 10
300.9191527036584
 20
377.5331759461054
 30
0.0
 10
300.9707708712014
 20
377.7119928401133
 30
0.0
 10
301.0741897481447
 20
378.0702589940098
 30
0.0
 10
301.2395231221403
 20
378.6056301939437
 30
0.0
 10
301.4127217270586
 20
379.1404895881242
 30
0.0
 10
301.5945372112976
 20
379.6744266410363
 30
0.0
 10
301.7848087189091
 20
380.2072846530085
 30
0.0
 10
301.9836027758037
 20
380.7388445978166
 30
0.0
 10
302.3571758423998
 20
381.6937500254955
 30
0.0
 10
302.9513437896997
 20
383.0775988739916
 30
0.0
 10
304.1295002225136
 20
385.4720619611104
 30
0.0
 10
305.8075016079508
 20
388.2880844263925
 30
0.0
 10
307.5845195816439
 20
390.6643300594964
 30
0.0
 10
308.8708918734757
 20
392.1668361137228
 30
0.0
 10
309.6107013830845
 20
392.9799489195682
 30
0.0
 10
310.3771377841342
 20
393.7724086413547
 30
0.0
 10
311.1694642086494
 20
394.5427736851595
 30
0.0
 10
311.986823123167
 20
395.2896193204612
 30
0.0
 10
312.8282665679733
 20
396.0115839291039
 30
0.0
 10
313.6927516802378
 20
396.7073687440966
 30
0.0
 10
314.5791500661069
 20
397.3757419330243
 30
0.0
 10
315.4862415343909
 20
398.0155698410115
 30
0.0
 10
316.412761232444
 20
398.6257322267599
 30
0.0
 10
317.3572531454509
 20
399.2054711289339
 30
0.0
 10
318.3186484558281
 20
399.7531180095311
 30
0.0
 10
319.2941448754577
 20
400.2708627012701
 30
0.0
 10
319.9568786394251
 20
400.5886510834086
 30
0.0
 10
320.2879364159263
 20
400.7473970548812
 30
0.0
  0
SPLINE
  5
1EC
330
1F
100
AcDbEntity
  8
0
  6
Continuous
 62
     7
370
    40
100
AcDbSpline
210
0.0
220
0.0
230
1.0
 70
     8
 71
     3
 72
    22
 73
    18
 74
     0
 42
0.00000001
 43
0.00000001
 12
1.0
 22
0.0
 32
0.0
 13
1.0
 23
0.0
 33
0.0
 40
0.0
 40
0.0
 40
0.0
 40
0.0
 40
0.2499999999999987
 40
0.2499999999999987
 40
0.3749999999999974
 40
0.3749999999999974
 40
0.4374999999999973
 40
0.4374999999999973
 40
0.4999999999999972
 40
0.4999999999999972
 40
0.7499999999999977
 40
0.7499999999999977
 40
0.8124999999999983
 40
0.8124999999999983
 40
0.874999999999999
 40
0.874999999999999
 40
1.0
 40
1.0
 40
1.0
 40
1.0
 10
299.103715509473
 20
376.7066207812819
 30
0.0
 10
299.8243917874601
 20
379.2283336915156
 30
0.0
 10
300.7887605939216
 20
381.6320668245683
 30
0.0
 10
302.5871840902475
 20
385.0666029792716
 30
0.0
 10
303.2458834446375
 20
386.1826654599259
 30
0.0
 10
304.3263579993373
 20
387.8118382628039
 30
0.0
 10
304.701359212049
 20
388.3462740986785
 30
0.0
 10
305.4732295161168
 20
389.3872244417025
 30
0.0
 10
305.8711211871466
 20
389.89531273323
 30
0.0
 10
307.9197002124155
 20
392.374620843892
 30
0.0
 10
309.7455200243188
 20
394.1645087669514
 30
0.0
 10
312.2734211026197
 20
396.151759769645
 30
0.0
 10
312.7926410754733
 20
396.5373685872091
 30
0.0
 10
313.8474266502757
 20
397.276232575021
 30
0.0
 10
314.3835840260624
 20
397.6300599570852
 30
0.0
 10
316.0183556818699
 20
398.6449889333532
 30
0.0
 10
317.14319327804
 20
399.2596782190297
 30
0.0
 10
318.3039299247448
 20
399.811460977372
 30
0.0
  0
SPLINE
  5
1ED
330
1F
100
AcDbEntity
  8
0
  6
Continuous
 62
     7
370
    40
100
AcDbSpline
210
0.0
220
0.0
230
1.0
 70
     8
 71
     3
 72
    14
 73
    10
 74
     0
 42
0.00000001
 43
0.00000001
 12
1.0
 22
0.0
 32
0.0
 13
1.0
 23
0.0
 33
0.0
 40
0.0
 40
0.0
 40
0.0
 40
0.0
 40
0.1250000000000004
 40
0.1250000000000004
 40
0.2500000000000007
 40
0.2500000000000007
 40
0.5000000000000014
 40
0.5000000000000014
 40
1.0
 40
1.0
 40
1.0
 40
1.0
 10
288.9505798262813
 20
103.2907224412871
 30
0.0
 10
288.9505749315827
 20
105.6975112528994
 30
0.0
 10
288.950676165603
 20
108.1150813461408
 30
0.0
 10
288.9509787515237
 20
112.9640610720565
 30
0.0
 10
288.9513855429032
 20
115.3972942960044
 30
0.0
 10
288.9526742845198
 20
122.6953059010565
 30
0.0
 10
288.9538573436867
 20
127.5592741388806
 30
0.0
 10
288.9564776663205
 20
142.1487533648862
 30
0.0
 10
288.956770292806
 20
151.8718337400489
 30
0.0
 10
288.9509223023647
 20
161.5967363483517
 30
0.0
  0
SPLINE
  5
1EE
330
1F
100
AcDbEntity
  8
0
  6
Continuous
 62
     7
370
    40
100
AcDbSpline
210
0.0
220
0.0
230
1.0
 70
    24
 71
     3
 72
    22
 73
    18
 74
     0
 42
0.00000001
 43
0.00000001
 12
1.0
 22
0.0
 32
0.0
 13
1.0
 23
0.0
 33
0.0
 40
0.0
 40
0.0
 40
0.0
 40
0.0
 40
0.0379574306882791
 40
0.077397370113025
 40
0.1183203953527565
 40
0.1607270229395832
 40
0.2046177170258698
 40
0.2499928962215044
 40
0.3098850783978163
 40
0.3749900638688661
 40
0.499992521601561
 40
0.6249968801034098
 40
0.6874936226202463
 40
0.7499997965301135
 40
0.8409257276912196
 40
0.9242587090615347
 40
1.0
 40
1.0
 40
1.0
 40
1.0
 10
288.9509359605909
 20
161.5967369692283
 30
0.0
 10
288.9509359605909
 20
162.2292009669174
 30
0.0
 10
288.9509359605909
 20
163.5188311980654
 30
0.0
 10
288.9509359605908
 20
165.4905305628453
 30
0.0
 10
288.9509359605908
 20
167.5364634870643
 30
0.0
 10
288.9509359605909
 20
169.656648271703
 30
0.0
 10
288.9509359605908
 20
171.8510800689661
 30
0.0
 10
288.9509359605908
 20
174.3369548340012
 30
0.0
 10
288.9509359605908
 20
177.1763994493912
 30
0.0
 10
288.9509359605909
 20
181.3428986555589
 30
0.0
 10
288.9509359605908
 20
186.5944769291209
 30
0.0
 10
288.9509359605909
 20
191.8025284330793
 30
0.0
 10
288.9509359605908
 20
195.9690623998332
 30
0.0
 10
288.9509359605909
 20
199.5676931864536
 30
0.0
 10
288.9509359605908
 20
203.5136170782074
 30
0.0
 10
288.9509359605908
 20
207.6801606557219
 30
0.0
 10
288.9509359605908
 20
210.3312743170262
 30
0.0
 10
288.9509359605908
 20
211.5935700246691
 30
0.0
  0
LINE
  5
1EF
330
1F
100
AcDbEntity
  8
0
  6
Continuous
 62
     7
370
    40
100
AcDbLine
 10
288.9509359606
 20
211.5935699646
 30
0.0
 11
288.9664125006
 21
216.790750009
 31
0.0
  0
SPLINE
  5
1F0
330
1F
100
AcDbEntity
  8
0
  6
Continuous
 62
     7
370
    40
100
AcDbSpline
210
0.0
220
0.0
230
1.0
 70
    24
 71
     3
 72
    23
 73
    19
 74
     0
 42
0.00000001
 43
0.00000001
 12
1.0
 22
0.0
 32
0.0
 13
1.0
 23
0.0
 33
0.0
 40
0.0
 40
0.0
 40
0.0
 40
0.0
 40
0.0383734927513584
 40
0.0800453041169342
 40
0.1250157525781888
 40
0.1745923034476579
 40
0.2500303973450317
 40
0.3196650121092705
 40
0.375044322635462
 40
0.4405503011080147
 40
0.5000444921191436
 40
0.6314135731894869
 40
0.7500493764620323
 40
0.8022074014682795
 40
0.853270742747
 40
0.9032497831159045
 40
0.9521555959963908
 40
1.0
 40
1.0
 40
1.0
 40
1.0
 10
288.9509359605908
 20
261.6006698685902
 30
0.0
 10
288.9509359605908
 20
262.1196903609327
 30
0.0
 10
288.9509359605908
 20
263.2023427382307
 30
0.0
 10
288.9509359605909
 20
264.892954002644
 30
0.0
 10
288.9509359605908
 20
266.7348756430591
 30
0.0
 10
288.9509359605908
 20
269.0330913873625
 30
0.0
 10
288.9509359605908
 20
271.6646294264331
 30
0.0
 10
288.9509359605908
 20
274.3746893777503
 30
0.0
 10
288.9509359605908
 20
276.9508031158012
 30
0.0
 10
288.9509359605908
 20
279.3903268623401
 30
0.0
 10
288.9509359605908
 20
282.8584044023563
 30
0.0
 10
288.9509359605908
 20
287.0471311937321
 30
0.0
 10
288.9509359605906
 20
291.138029523807
 30
0.0
 10
288.9509359605908
 20
294.1408652703226
 30
0.0
 10
288.9509359605906
 20
296.2136987131356
 30
0.0
 10
288.9509359605908
 20
298.2412827544841
 30
0.0
 10
288.9509359605908
 20
300.2238885812563
 30
0.0
 10
288.9509359605908
 20
301.5291999507256
 30
0.0
 10
288.9509359605908
 20
302.1746956046135
 30
0.0
  0
SPLINE
  5
1F1
330
1F
100
AcDbEntity
  8
0
  6
Continuous
 62
     7
370
    40
100
AcDbSpline
210
0.0
220
0.0
230
1.0
 70
     8
 71
     3
 72
     9
 73
     5
 74
     0
 42
0.00000001
 43
0.00000001
 12
1.0
 22
0.0
 32
0.0
 13
1.0
 23
0.0
 33
0.0
 40
0.0
 40
0.0
 40
0.0
 40
0.0
 40
0.6229222475361128
 40
1.0
 40
1.0
 40
1.0
 40
1.0
 10
296.6073206403831
 20
367.7060647884963
 30
0.0
 10
297.105736270749
 20
369.5805178280515
 30
0.0
 10
297.9058612178629
 20
372.5896462497275
 30
0.0
 10
298.7757135558759
 20
375.57929191138
 30
0.0
 10
299.1037155204693
 20
376.7066207781394
 30
0.0
  0
SPLINE
  5
1F2
330
1F
100
AcDbEntity
  8
0
  6
Continuous
 62
     7
370
    40
100
AcDbSpline
210
0.0
220
0.0
230
1.0
 70
     8
 71
     3
 72
    48
 73
    44
 74
     0
 42
0.00000001
 43
0.00000001
 12
1.0
 22
0.0
 32
0.0
 13
1.0
 23
0.0
 33
0.0
 40
0.0
 40
0.0
 40
0.0
 40
0.0
 40
0.0156250000000002
 40
0.0156250000000002
 40
0.0312500000000005
 40
0.0312500000000005
 40
0.0625000000000009
 40
0.0625000000000009
 40
0.1250000000000018
 40
0.1250000000000018
 40
0.1875000000000027
 40
0.1875000000000027
 40
0.2031250000000031
 40
0.2031250000000031
 40
0.2187500000000036
 40
0.2187500000000036
 40
0.2500000000000037
 40
0.2500000000000037
 40
0.3750000000000031
 40
0.3750000000000031
 40
0.4062500000000029
 40
0.4062500000000029
 40
0.4375000000000027
 40
0.4375000000000027
 40
0.5000000000000024
 40
0.5000000000000024
 40
0.5625000000000021
 40
0.5625000000000021
 40
0.6250000000000018
 40
0.6250000000000018
 40
0.7500000000000012
 40
0.7500000000000012
 40
0.8125000000000007
 40
0.8125000000000007
 40
0.8437500000000006
 40
0.8437500000000006
 40
0.8750000000000004
 40
0.8750000000000004
 40
0.9375000000000003
 40
0.9375000000000003
 40
0.9687500000000002
 40
0.9687500000000002
 40
1.0
 40
1.0
 40
1.0
 40
1.0
 10
289.4919203506907
 20
103.7289831257098
 30
0.0
 10
289.5126235603972
 20
105.2637998654703
 30
0.0
 10
289.5328959216192
 20
106.7946969656748
 30
0.0
 10
289.570963361706
 20
109.8365893312951
 30
0.0
 10
289.5886448261684
 20
111.3448501793352
 30
0.0
 10
289.6365317974903
 20
115.8488807852967
 30
0.0
 10
289.6620845257368
 20
118.8243474432706
 30
0.0
 10
289.7235230864454
 20
127.6770303669574
 30
0.0
 10
289.7442816281107
 20
133.4802074347973
 30
0.0
 10
289.7672717231806
 20
144.9431831646819
 30
0.0
 10
289.7694762438646
 20
150.603439112071
 30
0.0
 10
289.7734969391618
 20
157.6272528538701
 30
0.0
 10
289.7743526895266
 20
159.029413964605
 30
0.0
 10
289.7764846987849
 20
161.8295734233165
 30
0.0
 10
289.7777481824875
 20
163.2282051443057
 30
0.0
 10
289.7823456837461
 20
167.4332512267457
 30
0.0
 10
289.7864313438203
 20
170.244766331714
 30
0.0
 10
289.8132046774146
 20
184.3354942706371
 30
0.0
 10
289.8550176442949
 20
195.7153222170698
 30
0.0
 10
289.9522171903807
 20
209.9742801501635
 30
0.0
 10
289.9741557185839
 20
212.828565004482
 30
0.0
 10
290.0214879673618
 20
218.529809743982
 30
0.0
 10
290.0466088701239
 20
221.3778731751025
 30
0.0
 10
290.1206964809498
 20
229.9163923787112
 30
0.0
 10
290.1683871095457
 20
235.6011820323067
 30
0.0
 10
290.2303106002502
 20
246.9663708831597
 30
0.0
 10
290.2445403070388
 20
252.6467848898158
 30
0.0
 10
290.209516112305
 20
264.0138199192974
 30
0.0
 10
290.1513589559931
 20
269.7013653279603
 30
0.0
 10
290.0017519000917
 20
286.7677486039062
 30
0.0
 10
289.9437025048932
 20
298.1498313681851
 30
0.0
 10
290.588994610306
 20
315.1946016596642
 30
0.0
 10
290.9318587953312
 20
320.8728022437094
 30
0.0
 10
291.6325241408417
 20
329.3896615311491
 30
0.0
 10
291.8969474087594
 20
332.2284069555721
 30
0.0
 10
292.4860462855135
 20
337.9058165740331
 30
0.0
 10
292.8078877371073
 20
340.7428950649204
 30
0.0
 10
293.9219682744279
 20
349.2394944160611
 30
0.0
 10
294.864998437861
 20
354.8879329168162
 30
0.0
 10
296.8679395370658
 20
363.3346577291822
 30
0.0
 10
297.640665971879
 20
366.1562771671589
 30
0.0
 10
299.2604657273192
 20
371.8271122583678
 30
0.0
 10
300.1067827637951
 20
374.6740797811676
 30
0.0
 10
300.9192015073876
 20
377.5331621424098
 30
0.0
  0
SPLINE
  5
1F3
330
1F
100
AcDbEntity
  8
0
  6
Continuous
 62
     7
370
    40
100
AcDbSpline
210
0.0
220
0.0
230
1.0
 70
     8
 71
     3
 72
    51
 73
    47
 74
     0
 42
0.00000001
 43
0.00000001
 12
1.0
 22
0.0
 32
0.0
 13
1.0
 23
0.0
 33
0.0
 40
0.0
 40
0.0
 40
0.0
 40
0.0
 40
0.0312499999999997
 40
0.0468749999999995
 40
0.0468749999999995
 40
0.0624999999999993
 40
0.0624999999999993
 40
0.1249999999999988
 40
0.1249999999999988
 40
0.1562499999999986
 40
0.1562499999999986
 40
0.1874999999999984
 40
0.1874999999999984
 40
0.2187499999999982
 40
0.2187499999999982
 40
0.249999999999998
 40
0.249999999999998
 40
0.3124999999999979
 40
0.3124999999999979
 40
0.3749999999999977
 40
0.3749999999999977
 40
0.4374999999999976
 40
0.4374999999999976
 40
0.4999999999999974
 40
0.4999999999999974
 40
0.5624999999999972
 40
0.5624999999999972
 40
0.5937499999999972
 40
0.5937499999999972
 40
0.6249999999999971
 40
0.6249999999999971
 40
0.7499999999999973
 40
0.7499999999999973
 40
0.7812499999999978
 40
0.7812499999999978
 40
0.8124999999999981
 40
0.8124999999999981
 40
0.8749999999999989
 40
0.8749999999999989
 40
0.9374999999999998
 40
0.9374999999999998
 40
0.9687499999999999
 40
0.9687499999999999
 40
0.9843749999999999
 40
0.9843749999999999
 40
1.0
 40
1.0
 40
1.0
 40
1.0
 10
652.9827002189987
 20
377.5331705458329
 30
0.0
 10
653.7951139172726
 20
374.6740878400261
 30
0.0
 10
655.0645808512741
 20
370.4036373659209
 30
0.0
 10
656.2521234335717
 20
366.1591764789438
 30
0.0
 10
657.0080359730078
 20
363.335170152046
 30
0.0
 10
657.3664804151017
 20
361.9267974239847
 30
0.0
 10
659.0378803164898
 20
354.8874287359991
 30
0.0
 10
659.9799290285208
 20
349.2395025087071
 30
0.0
 10
661.0940083372824
 20
340.7429015334859
 30
0.0
 10
661.4176533388747
 20
337.90624313611
 30
0.0
 10
662.0063873270722
 20
332.2291960693735
 30
0.0
 10
662.2693703867344
 20
329.3896660349145
 30
0.0
 10
662.7364798714456
 20
323.7117591300484
 30
0.0
 10
662.9391663619568
 20
320.872597818225
 30
0.0
 10
663.2813171237358
 20
315.1935218594509
 30
0.0
 10
663.4186604064114
 20
312.3533927736681
 30
0.0
 10
663.7400070649039
 20
303.830365761247
 30
0.0
 10
663.8361307496182
 20
298.1451125652346
 30
0.0
 10
663.8897194328372
 20
286.7688905606056
 30
0.0
 10
663.8502675728944
 20
281.0789513395143
 30
0.0
 10
663.7505279681081
 20
269.7013629109811
 30
0.0
 10
663.6929408515961
 20
264.0138875217678
 30
0.0
 10
663.6568470775368
 20
252.6467251155908
 30
0.0
 10
663.6715728588688
 20
246.9663699288961
 30
0.0
 10
663.7334945573897
 20
235.601180692914
 30
0.0
 10
663.7811847606679
 20
229.9163921122881
 30
0.0
 10
663.8552708483944
 20
221.3778726518926
 30
0.0
 10
663.8803747167482
 20
218.5294110243031
 30
0.0
 10
663.9276903534612
 20
212.8278420693347
 30
0.0
 10
663.9496614368788
 20
209.9742224481002
 30
0.0
 10
664.0468589127499
 20
195.7153001611042
 30
0.0
 10
664.0886711578897
 20
184.3354929043775
 30
0.0
 10
664.1154436133771
 20
170.2447639937098
 30
0.0
 10
664.1195275054823
 20
167.4333332737055
 30
0.0
 10
664.1256601122158
 20
161.8264328042046
 30
0.0
 10
664.1275470100256
 20
159.0293955850631
 30
0.0
 10
664.1324015169631
 20
150.6039817133121
 30
0.0
 10
664.1346166110241
 20
144.9432058727277
 30
0.0
 10
664.1575735504063
 20
133.4801171066746
 30
0.0
 10
664.1783471034659
 20
127.6770583948243
 30
0.0
 10
664.2397926636573
 20
118.8243207188581
 30
0.0
 10
664.2653109714472
 20
115.8487717175843
 30
0.0
 10
664.3132977741819
 20
111.3457047362255
 30
0.0
 10
664.3309083251842
 20
109.8366217614887
 30
0.0
 10
664.3689760708935
 20
106.794710819918
 30
0.0
 10
664.3892492191668
 20
105.2638028284008
 30
0.0
 10
664.409952379268
 20
103.7289836084797
 30
0.0
  0
SPLINE
  5
1F4
330
1F
100
AcDbEntity
  8
0
  6
Continuous
 62
     7
370
    40
100
AcDbSpline
210
0.0
220
0.0
230
1.0
 70
     8
 71
     3
 72
    32
 73
    28
 74
     0
 42
0.00000001
 43
0.00000001
 12
1.0
 22
0.0
 32
0.0
 13
1.0
 23
0.0
 33
0.0
 40
0.0
 40
0.0
 40
0.0
 40
0.0
 40
0.1249999999999986
 40
0.1249999999999986
 40
0.1874999999999979
 40
0.1874999999999979
 40
0.2499999999999972
 40
0.2499999999999972
 40
0.3749999999999986
 40
0.3749999999999986
 40
0.4374999999999984
 40
0.4374999999999984
 40
0.4999999999999983
 40
0.4999999999999983
 40
0.6250000000000001
 40
0.6250000000000001
 40
0.6562500000000001
 40
0.6562500000000001
 40
0.6875000000000001
 40
0.6875000000000001
 40
0.7500000000000001
 40
0.7500000000000001
 40
0.8125000000000001
 40
0.8125000000000001
 40
0.875
 40
0.875
 40
1.0
 40
1.0
 40
1.0
 40
1.0
 10
664.4099523764976
 20
103.7289828805062
 30
0.0
 10
664.4399723692175
 20
101.5032217994347
 30
0.0
 10
664.265622177287
 20
99.32579635194297
 30
0.0
 10
663.7221278347234
 20
96.13110186922759
 30
0.0
 10
663.493638788034
 20
95.07818307109336
 30
0.0
 10
662.9424910546367
 20
92.99693296603031
 30
0.0
 10
662.6182734428912
 20
91.96567424888599
 30
0.0
 10
661.5266832350958
 20
88.97117600784678
 30
0.0
 10
660.6387303736108
 20
87.08768704220147
 30
0.0
 10
659.0728353179101
 20
84.41248438634221
 30
0.0
 10
658.5100986498942
 20
83.54396678100579
 30
0.0
 10
657.3083697291216
 20
81.86406883090326
 30
0.0
 10
656.674650338514
 20
81.05965911376883
 30
0.0
 10
654.6743686989438
 20
78.74642482315494
 30
0.0
 10
653.2098773588922
 20
77.33648923690738
 30
0.0
 10
651.1963768103877
 20
75.73496947975408
 30
0.0
 10
650.7844353150125
 20
75.42279945424956
 30
0.0
 10
649.9411663967635
 20
74.81499023193082
 30
0.0
 10
649.510518121025
 20
74.51992386936335
 30
0.0
 10
648.2012173800812
 20
73.66809342455913
 30
0.0
 10
647.3015005193851
 20
73.14185333246127
 30
0.0
 10
645.4457731215596
 20
72.17246511891338
 30
0.0
 10
644.4897710445965
 20
71.72931172836658
 30
0.0
 10
642.5172621068052
 20
70.9287539924175
 30
0.0
 10
641.4985561309724
 20
70.57067789077342
 30
0.0
 10
638.3564427404428
 20
69.63807853968859
 30
0.0
 10
636.196766776155
 20
69.21752282529535
 30
0.0
 10
633.9667516846205
 20
69.0066868936132
 30
0.0
  0
SPLINE
  5
1F5
330
1F
100
AcDbEntity
  8
0
  6
Continuous
 62
     7
370
    40
100
AcDbSpline
210
0.0
220
0.0
230
1.0
 70
     8
 71
     3
 72
    37
 73
    33
 74
     0
 42
0.00000001
 43
0.00000001
 12
1.0
 22
0.0
 32
0.0
 13
1.0
 23
0.0
 33
0.0
 40
0.0
 40
0.0
 40
0.0
 40
0.0
 40
0.01176572045125
 40
0.0234497012938995
 40
0.0350519866664778
 40
0.0465726216465223
 40
0.058011652276861
 40
0.0693691255928039
 40
0.0806450896502758
 40
0.0918395935549312
 40
0.1029526874922915
 40
0.1139844227589449
 40
0.1249348517948559
 40
0.1882332175681768
 40
0.2498671238683327
 40
0.3128513169830072
 40
0.3749478540094267
 40
0.4375824569354579
 40
0.4999471412316233
 40
0.500000053941489
 40
0.562331281506606
 40
0.6249356696092674
 40
0.6870245508677192
 40
0.7500055529476249
 40
0.8116773254327607
 40
0.8750204723428132
 40
0.895164555191386
 40
0.9155825657678055
 40
0.9362748188840634
 40
0.957241616998427
 40
0.9784832508408329
 40
1.0
 40
1.0
 40
1.0
 40
1.0
 10
633.9667534612944
 20
69.00668681482844
 30
0.0
 10
632.7436859204436
 20
68.89183889255344
 30
0.0
 10
630.306047816253
 20
68.6629409272541
 30
0.0
 10
626.6603775740065
 20
68.33087872772789
 30
0.0
 10
623.0388071047263
 20
68.00841971767977
 30
0.0
 10
619.441227317794
 20
67.69612450465867
 30
0.0
 10
615.8677062979656
 20
67.3936430054127
 30
0.0
 10
612.3182641488016
 20
67.1008678628686
 30
0.0
 10
608.792932769324
 20
66.8176286505424
 30
0.0
 10
605.2917397752469
 20
66.54377293292
 30
0.0
 10
601.8147136836744
 20
66.27914483067332
 30
0.0
 10
598.3618792018112
 20
66.02359052397921
 30
0.0
 10
589.4613737627752
 20
65.3833427600704
 30
0.0
 10
575.2623664221633
 20
64.46157599299194
 30
0.0
 10
555.5912491265514
 20
63.41691576075392
 30
0.0
 10
536.0161160298168
 20
62.60792315536265
 30
0.0
 10
516.3127456471705
 20
62.0265606793273
 30
0.0
 10
496.6583977006038
 20
61.67833180667725
 30
0.0
 10
483.516067725209
 20
61.60074035247053
 30
0.0
 10
470.4060022799575
 20
61.60067480069673
 30
0.0
 10
457.2703619677634
 20
61.67805383506884
 30
0.0
 10
437.6234884728539
 20
62.02577342970382
 30
0.0
 10
417.9243894456934
 20
62.60656134545517
 30
0.0
 10
398.3463724057342
 20
63.41520802797041
 30
0.0
 10
378.6668713858387
 20
64.45990758801686
 30
0.0
 10
363.4985324411873
 20
65.44441568147305
 30
0.0
 10
352.6557995840134
 20
66.23370508978064
 30
0.0
 10
346.2680359359678
 20
66.72323908425457
 30
0.0
 10
339.7989352691082
 20
67.24403489794251
 30
0.0
 10
333.2487894086357
 20
67.79768194792435
 30
0.0
 10
326.6173199452232
 20
68.38277425479666
 30
0.0
 10
322.1720528442685
 20
68.79782578879598
 30
0.0
 10
319.9351184598878
 20
69.00668681482844
 30
0.0
  0
SPLINE
  5
1F6
330
1F
100
AcDbEntity
  8
0
  6
Continuous
 62
     7
370
    40
100
AcDbSpline
210
0.0
220
0.0
230
1.0
 70
     8
 71
     3
 72
    38
 73
    34
 74
     0
 42
0.00000001
 43
0.00000001
 12
1.0
 22
0.0
 32
0.0
 13
1.0
 23
0.0
 33
0.0
 40
0.0
 40
0.0
 40
0.0
 40
0.0
 40
0.0101694865385063
 40
0.0203930076211961
 40
0.03067130443172
 40
0.0410050830867683
 40
0.0513950145191997
 40
0.0618417343760802
 40
0.0723458429366462
 40
0.0829079050528729
 40
0.0935284501154827
 40
0.1042079720485357
 40
0.1149469293358667
 40
0.1257457450828531
 40
0.1862092855358766
 40
0.2505617776894464
 40
0.2810742673161228
 40
0.3130440723614222
 40
0.3757860642980166
 40
0.4380543850286642
 40
0.5002766613319404
 40
0.5629018675838002
 40
0.6255009013857579
 40
0.6910195690838753
 40
0.7501098991106602
 40
0.8130204163703079
 40
0.8751984108080221
 40
0.8959634968676536
 40
0.9167597861016783
 40
0.937574573259513
 40
0.9583949349439704
 40
0.9792077965632384
 40
1.0
 40
1.0
 40
1.0
 40
1.0
 10
319.935118483024
 20
69.0066870595377
 30
0.0
 10
319.7556818681392
 20
69.02446967434493
 30
0.0
 10
319.3958552199585
 20
69.0601293900954
 30
0.0
 10
318.8567913260208
 20
69.12441125130974
 30
0.0
 10
318.3166512533245
 20
69.19687741986057
 30
0.0
 10
317.775757013011
 20
69.27839388640486
 30
0.0
 10
317.2342586961541
 20
69.36884502135764
 30
0.0
 10
316.6923584954223
 20
69.46837467437416
 30
0.0
 10
316.1502500065144
 20
69.57705070072349
 30
0.0
 10
315.6081347236693
 20
69.69495522084479
 30
0.0
 10
315.0662165446895
 20
69.82216036433984
 30
0.0
 10
314.5247064340178
 20
69.95873311434974
 30
0.0
 10
313.9838084052848
 20
70.10473920680458
 30
0.0
 10
312.6168902772147
 20
70.4982879363649
 30
0.0
 10
310.4106709658165
 20
71.26846422953858
 30
0.0
 10
308.0164563262433
 20
72.37346820435143
 30
0.0
 10
306.1548818049851
 20
73.40242394772378
 30
0.0
 10
304.3786722129769
 20
74.49799978903857
 30
0.0
 10
302.2725678735911
 20
76.01736364862631
 30
0.0
 10
299.9600244688012
 20
78.0420500815516
 30
0.0
 10
297.8528453052173
 20
80.26415337379439
 30
0.0
 10
295.95254451839
 20
82.67906377777686
 30
0.0
 10
294.2413613215336
 20
85.31890366212377
 30
0.0
 10
292.7938371473837
 20
88.08424228581875
 30
0.0
 10
291.5840090253112
 20
91.00895627966108
 30
0.0
 10
290.6391061027105
 20
94.01572522338073
 30
0.0
 10
290.1032716636606
 20
96.48338715307344
 30
0.0
 10
289.8273543326513
 20
98.26751471955095
 30
0.0
 10
289.6935488328066
 20
99.34818750274566
 30
0.0
 10
289.5919968762305
 20
100.4364444031118
 30
0.0
 10
289.5239733095478
 20
101.530484124502
 30
0.0
 10
289.4867503405652
 20
102.6282348391566
 30
0.0
 10
289.490196857382
 20
103.3621883281882
 30
0.0
 10
289.4919192601401
 20
103.7289828575684
 30
0.0
  0
SPLINE
  5
1F7
330
1F
100
AcDbEntity
  8
0
  6
Continuous
 62
     7
370
    40
100
AcDbSpline
210
0.0
220
0.0
230
1.0
 70
     8
 71
     3
 72
    23
 73
    19
 74
     0
 42
0.00000001
 43
0.00000001
 12
1.0
 22
0.0
 32
0.0
 13
1.0
 23
0.0
 33
0.0
 40
0.0
 40
0.0
 40
0.0
 40
0.0
 40
0.0381832940426973
 40
0.0798622317453923
 40
0.1250390322763627
 40
0.17141157895292
 40
0.2500770690454229
 40
0.3191544351820111
 40
0.3751067423630809
 40
0.44050690164832
 40
0.5000908884087911
 40
0.6312312867234517
 40
0.7498914553227074
 40
0.8020718938338957
 40
0.8531608716539052
 40
0.903169999045727
 40
0.9521118821101391
 40
1.0
 40
1.0
 40
1.0
 40
1.0
 10
664.9514406424644
 20
261.600666730958
 30
0.0
 10
664.9513591769935
 20
262.1171152974855
 30
0.0
 10
664.9511887879665
 20
263.1972927975846
 30
0.0
 10
664.9509621048339
 20
264.8882211049726
 30
0.0
 10
664.9508647099781
 20
266.6897099922865
 30
0.0
 10
664.9506133279395
 20
268.9910305857582
 30
0.0
 10
664.9510002512158
 20
271.6153582048127
 30
0.0
 10
664.9510006706763
 20
274.3692602087601
 30
0.0
 10
664.9509175967646
 20
276.9441569471607
 30
0.0
 10
664.9509842523854
 20
279.3912123769758
 30
0.0
 10
664.9508716250258
 20
282.8559805607466
 30
0.0
 10
664.9512818883062
 20
287.0431542448243
 30
0.0
 10
664.9508285118101
 20
291.1315898271642
 30
0.0
 10
664.9510534129719
 20
294.1354081573529
 30
0.0
 10
664.9511209765885
 20
296.2093018760444
 30
0.0
 10
664.9510893390558
 20
298.2381302892798
 30
0.0
 10
664.950981496065
 20
300.2222229936805
 30
0.0
 10
664.9509510285601
 20
301.5286103782722
 30
0.0
 10
664.950935960591
 20
302.1746956046134
 30
0.0
  0
SPLINE
  5
1F8
330
1F
100
AcDbEntity
  8
0
  6
Continuous
 62
     7
370
    40
100
AcDbSpline
210
0.0
220
0.0
230
1.0
 70
     8
 71
     3
 72
    16
 73
    12
 74
     0
 42
0.00000001
 43
0.00000001
 12
1.0
 22
0.0
 32
0.0
 13
1.0
 23
0.0
 33
0.0
 40
0.0
 40
0.0
 40
0.0
 40
0.0
 40
0.0457711027238384
 40
0.1527385258923478
 40
0.3666761805719854
 40
0.5247721160199285
 40
0.68291338876987
 40
0.7618677558289064
 40
0.8408938423860806
 40
0.9203151588268881
 40
0.9999999999999999
 40
0.9999999999999999
 40
0.9999999999999999
 40
0.9999999999999999
 10
664.9417462048507
 20
216.7938626302702
 30
0.0
 10
664.9448117192059
 20
215.0604188995552
 30
0.0
 10
664.9550413644587
 20
209.2759036838262
 30
0.0
 10
664.9794180137711
 20
195.3901689601639
 30
0.0
 10
664.9634673479654
 20
177.2490447454243
 30
0.0
 10
664.9462478763661
 20
157.1713489203708
 30
0.0
 10
664.9454728215037
 20
142.2183804326242
 30
0.0
 10
664.9474708760941
 20
130.2454949483323
 30
0.0
 10
664.9494519368557
 20
121.2556769779072
 30
0.0
 10
664.9511674851855
 20
112.2449880818942
 30
0.0
 10
664.9512505059544
 20
106.2755887231747
 30
0.0
 10
664.9512920850915
 20
103.2859455381971
 30
0.0
  0
LINE
  5
1F9
330
1F
100
AcDbEntity
  8
0
  6
Continuous
 62
     7
370
    40
100
AcDbLine
 10
654.7981564007
 20
376.7066207781
 30
0.0
 11
657.3319606105
 21
367.7158792538
 31
0.0
  0
LINE
  5
1FA
330
1F
100
AcDbEntity
  8
0
  6
Continuous
 62
     7
370
    40
100
AcDbLine
 10
664.9509359606
 20
302.1746956046
 30
0.0
 11
664.9366221387
 21
304.0853980614
 31
0.0
  0
SPLINE
  5
1FB
330
1F
100
AcDbEntity
  8
0
  6
Continuous
 62
     7
370
    40
100
AcDbSpline
210
0.0
220
0.0
230
1.0
 70
     8
 71
     3
 72
     8
 73
     4
 74
     0
 42
0.00000001
 43
0.00000001
 12
1.0
 22
0.0
 32
0.0
 13
1.0
 23
0.0
 33
0.0
 40
0.0
 40
0.0
 40
0.0
 40
0.0
 40
1.0
 40
1.0
 40
1.0
 40
1.0
 10
633.9667534381707
 20
69.00668705940326
 30
0.0
 10
634.164800068806
 20
69.025411549791
 30
0.0
 10
634.3492809333192
 20
69.04288898429554
 30
0.0
 10
634.5134401897518
 20
69.0584638344378
 30
0.0
  0
SPLINE
  5
1FC
330
1F
100
AcDbEntity
  8
0
  6
Continuous
 62
     7
370
    40
100
AcDbSpline
210
0.0
220
0.0
230
1.0
 70
     8
 71
     3
 72
    36
 73
    32
 74
     0
 42
0.00000001
 43
0.00000001
 12
1.0
 22
0.0
 32
0.0
 13
1.0
 23
0.0
 33
0.0
 40
0.0
 40
0.0
 40
0.0
 40
0.0
 40
0.125000000000002
 40
0.125000000000002
 40
0.1875000000000045
 40
0.1875000000000045
 40
0.2500000000000069
 40
0.2500000000000069
 40
0.3750000000000092
 40
0.3750000000000092
 40
0.4062500000000094
 40
0.4062500000000094
 40
0.4375000000000097
 40
0.4375000000000097
 40
0.5000000000000103
 40
0.5000000000000103
 40
0.6250000000000115
 40
0.6250000000000115
 40
0.6562500000000117
 40
0.6562500000000117
 40
0.6875000000000119
 40
0.6875000000000119
 40
0.7500000000000105
 40
0.7500000000000105
 40
0.8125000000000093
 40
0.8125000000000093
 40
0.8437500000000081
 40
0.8437500000000081
 40
0.8750000000000068
 40
0.8750000000000068
 40
1.0
 40
1.0
 40
1.0
 40
1.0
 10
664.9514241719128
 20
103.2859436095745
 30
0.0
 10
664.9511192339523
 20
101.0653651893689
 30
0.0
 10
664.7482258568953
 20
98.89939361119134
 30
0.0
 10
664.168408979995
 20
95.7324343990959
 30
0.0
 10
663.9289090717431
 20
94.69052793755712
 30
0.0
 10
663.3589412641949
 20
92.63521690150534
 30
0.0
 10
663.0269730476343
 20
91.61901116460675
 30
0.0
 10
661.9189782176403
 20
88.67497053961851
 30
0.0
 10
661.0273564847696
 20
86.82944630230838
 30
0.0
 10
659.7251398745881
 20
84.6471272142445
 30
0.0
 10
659.4552003388168
 20
84.21696107347772
 30
0.0
 10
658.8959725203906
 20
83.36893627646307
 30
0.0
 10
658.6060523921379
 20
82.9502294775158
 30
0.0
 10
657.7117542272384
 20
81.71943644413118
 30
0.0
 10
657.0836603473299
 20
80.93321357666619
 30
0.0
 10
655.102204239109
 20
78.67066762213823
 30
0.0
 10
653.6528427438998
 20
77.28934479547075
 30
0.0
 10
651.6588724999401
 20
75.71683177930808
 30
0.0
 10
651.2508706170938
 20
75.41012720498175
 30
0.0
 10
650.415490808317
 20
74.81257740112622
 30
0.0
 10
649.9886186624191
 20
74.52217863853124
 30
0.0
 10
648.6903688657327
 20
73.68322401828095
 30
0.0
 10
647.7976133753647
 20
73.16405647419055
 30
0.0
 10
645.9546483935616
 20
72.20622547366894
 30
0.0
 10
645.0044510398718
 20
71.76755422260247
 30
0.0
 10
643.5326379863029
 20
71.17224505231057
 30
0.0
 10
643.0342669223866
 20
70.9842812669531
 30
0.0
 10
642.0212233092943
 20
70.6299905573966
 30
0.0
 10
641.5054193935458
 20
70.46333426978535
 30
0.0
 10
638.8967253871231
 20
69.69035614803443
 30
0.0
 10
636.7420704986794
 20
69.26990882727934
 30
0.0
 10
634.5134397233423
 20
69.05846379018664
 30
0.0
  0
SPLINE
  5
1FD
330
1F
100
AcDbEntity
  8
0
  6
Continuous
 62
     7
370
    40
100
AcDbSpline
210
0.0
220
0.0
230
1.0
 70
     8
 71
     3
 72
     8
 73
     4
 74
     0
 42
0.00000001
 43
0.00000001
 12
1.0
 22
0.0
 32
0.0
 13
1.0
 23
0.0
 33
0.0
 40
0.0
 40
0.0
 40
0.0
 40
0.0
 40
1.0
 40
1.0
 40
1.0
 40
1.0
 10
319.388431731172
 20
69.05846383434864
 30
0.0
 10
319.5525932127622
 20
69.0428887731177
 30
0.0
 10
319.7370750274313
 20
69.02541124993722
 30
0.0
 10
319.935118483024
 20
69.0066870595377
 30
0.0
  0
LINE
  5
1FE
330
1F
100
AcDbEntity
  8
0
  6
Continuous
 62
     7
370
    40
100
AcDbLine
 10
319.3884321977
 20
69.0584637901
 30
0.0
 11
319.0519505368
 21
69.1183981931
 31
0.0
  0
SPLINE
  5
1FF
330
1F
100
AcDbEntity
  8
0
  6
Continuous
 62
     7
370
    40
100
AcDbSpline
210
0.0
220
0.0
230
1.0
 70
     8
 71
     3
 72
    17
 73
    13
 74
     0
 42
0.00000001
 43
0.00000001
 12
1.0
 22
0.0
 32
0.0
 13
1.0
 23
0.0
 33
0.0
 40
0.0
 40
0.0
 40
0.0
 40
0.0
 40
0.0274826161931539
 40
0.1479487129375399
 40
0.2482547284000362
 40
0.3505643941662226
 40
0.4720246513436564
 40
0.5962374553390404
 40
0.7324929868648553
 40
0.8028608780309305
 40
0.8739619298971993
 40
1.0
 40
1.0
 40
1.0
 40
1.0
 10
315.1836547170072
 20
69.8074223730023
 30
0.0
 10
314.7451376650451
 20
69.87942282925441
 30
0.0
 10
312.3844441639976
 20
70.26702693355622
 30
0.0
 10
308.7517355215402
 20
71.75006488944067
 30
0.0
 10
304.3942135142415
 20
74.07209578188998
 30
0.0
 10
300.5010442695805
 20
76.98519580573125
 30
0.0
 10
296.8769497529071
 20
80.65137286955779
 30
0.0
 10
293.602495138723
 20
85.28822777508216
 30
0.0
 10
291.4356006009419
 20
89.83216877760574
 30
0.0
 10
290.1314648141906
 20
93.9491645971375
 30
0.0
 10
289.1974988894673
 20
98.0766142701027
 30
0.0
 10
289.0467967293009
 20
101.2572357801725
 30
0.0
 10
288.9504474646903
 20
103.2907205235991
 30
0.0
  0
ELLIPSE
  5
200
330
1F
100
AcDbEntity
  8
0
  6
Continuous
 62
     7
370
    40
100
AcDbEllipse
 10
285.6000160347
 20
456.7355369971
 30
0.0
 11
0.0
 21
30.49999999999994
 31
0.0
210
0.0
220
0.0
230
1.0
 40
0.1583844403
 41
3.772854548531352
 42
3.806643764086902
  0
LINE
  5
201
330
1F
100
AcDbEntity
  8
0
  6
Continuous
 62
     7
370
    40
100
AcDbLine
 10
288.4509359606
 20
432.1133924926
 30
0.0
 11
288.4509359606
 21
487.2355369971
 31
0.0
  0
LINE
  5
202
330
1F
100
AcDbEntity
  8
0
  6
Continuous
 62
     7
370
    40
100
AcDbLine
 10
370.4509359606
 20
426.2355369971
 30
0.0
 11
370.4509359606
 21
487.2355369971
 31
0.0
  0
LINE
  5
203
330
1F
100
AcDbEntity
  8
0
  6
Continuous
 62
     7
370
    40
100
AcDbLine
 10
289.0766738208
 20
216.7355369971
 30
0.0
 11
289.1655095926
 21
216.7355369971
 31
0.0
  0
LINE
  5
204
330
1F
100
AcDbEntity
  8
0
  6
Continuous
 62
     7
370
    40
100
AcDbLine
 10
289.0766738208
 20
432.7355369971
 30
0.0
 11
289.0766738208
 21
216.7355369971
 31
0.0
  0
LINE
  5
205
330
1F
100
AcDbEntity
  8
0
  6
Continuous
 62
     7
370
    40
100
AcDbLine
 10
306.8550639515
 20
430.8619850765
 30
0.0
 11
306.8550639515
 21
400.3734137666
 31
0.0
  0
ARC
  5
206
330
1F
100
AcDbEntity
  8
0
  6
Continuous
 62
     7
370
    40
100
AcDbCircle
 10
312.8439740947
 20
400.3478289854
 30
0.0
 40
5.988964792393392
100
AcDbArc
 50
179.755232416
 51
249.5387817902
  0
SPLINE
  5
207
330
1F
100
AcDbEntity
  8
0
  6
Continuous
 62
     7
370
    40
100
AcDbSpline
210
0.0
220
0.0
230
1.0
 70
     8
 71
     3
 72
     8
 73
     4
 74
     0
 42
0.00000001
 43
0.00000001
 12
1.0
 22
0.0
 32
0.0
 13
1.0
 23
0.0
 33
0.0
 40
0.0
 40
0.0
 40
0.0
 40
0.0
 40
1.0
 40
1.0
 40
1.0
 40
1.0
 10
293.0516258902113
 20
432.2760152376505
 30
0.0
 10
297.5198191572514
 20
431.7736057240037
 30
0.0
 10
302.129104003261
 20
431.3012614356322
 30
0.0
 10
306.8550639514643
 20
430.8619850765317
 30
0.0
  0
LINE
  5
208
330
1F
100
AcDbEntity
  8
0
  6
Continuous
 62
     7
370
    40
100
AcDbLine
 10
289.0766738208
 20
432.7355369971
 30
0.0
 11
293.0766738208
 21
432.7355369971
 31
0.0
  0
LINE
  5
209
330
1F
100
AcDbEntity
  8
0
  6
Continuous
 62
     7
370
    40
100
AcDbLine
 10
289.0766738208
 20
216.7355369971
 30
0.0
 11
288.4509359606
 21
216.7355369971
 31
0.0
  0
LINE
  5
20A
330
1F
100
AcDbEntity
  8
0
  6
Continuous
 62
     7
370
    40
100
AcDbLine
 10
288.5810535654
 20
432.7355369971
 30
0.0
 11
289.0766738208
 21
432.7355369971
 31
0.0
  0
LINE
  5
20B
330
1F
100
AcDbEntity
  8
0
  6
Continuous
 62
     7
370
    40
100
AcDbLine
 10
288.4509359606
 20
216.7355369971
 30
0.0
 11
288.4509359606
 21
432.1133924926
 31
0.0
  0
LINE
  5
20C
330
1F
100
AcDbEntity
  8
0
  6
Continuous
 62
     7
370
    40
100
AcDbLine
 10
583.4509359606
 20
487.2355369971
 30
0.0
 11
583.4509359606
 21
426.2355369971
 31
0.0
  0
ELLIPSE
  5
20D
330
1F
100
AcDbEntity
  8
0
  6
Continuous
 62
     7
370
    40
100
AcDbEllipse
 10
668.3018558864
 20
456.7355369971
 30
0.0
 11
0.0
 21
30.49999999999994
 31
0.0
210
0.0
220
0.0
230
1.0
 40
0.1583844403
 41
2.476541543092767
 42
2.510330758648309
  0
LINE
  5
20E
330
1F
100
AcDbEntity
  8
0
  6
Continuous
 62
     7
370
    40
100
AcDbLine
 10
665.4509359606
 20
487.2355369971
 30
0.0
 11
665.4509359606
 21
432.1133924926
 31
0.0
  0
LINE
  5
20F
330
1F
100
AcDbEntity
  8
0
  6
Continuous
 62
     7
370
    40
100
AcDbLine
 10
664.7363623286
 20
216.7355369971
 30
0.0
 11
664.8251981004
 21
216.7355369971
 31
0.0
  0
ARC
  5
210
330
1F
100
AcDbEntity
  8
0
  6
Continuous
 62
     7
370
    40
100
AcDbCircle
 10
641.058399108
 20
400.347640478
 30
0.0
 40
5.988464323762711
100
AcDbArc
 50
290.0310894731
 51
0.2465916365
  0
LINE
  5
211
330
1F
100
AcDbEntity
  8
0
  6
Continuous
 62
     7
370
    40
100
AcDbLine
 10
647.0468079697
 20
400.3734137666
 30
0.0
 11
647.0468079697
 21
430.8619850765
 31
0.0
  0
LINE
  5
212
330
1F
100
AcDbEntity
  8
0
  6
Continuous
 62
     7
370
    40
100
AcDbLine
 10
664.8251981004
 20
216.7355369971
 30
0.0
 11
664.8251981004
 21
432.7355369971
 31
0.0
  0
LINE
  5
213
330
1F
100
AcDbEntity
  8
0
  6
Continuous
 62
     7
370
    40
100
AcDbLine
 10
660.8251981004
 20
432.7355369971
 30
0.0
 11
664.8251981004
 21
432.7355369971
 31
0.0
  0
SPLINE
  5
214
330
1F
100
AcDbEntity
  8
0
  6
Continuous
 62
     7
370
    40
100
AcDbSpline
210
0.0
220
0.0
230
1.0
 70
     8
 71
     3
 72
     8
 73
     4
 74
     0
 42
0.00000001
 43
0.00000001
 12
1.0
 22
0.0
 32
0.0
 13
1.0
 23
0.0
 33
0.0
 40
0.0
 40
0.0
 40
0.0
 40
0.0
 40
1.0
 40
1.0
 40
1.0
 40
1.0
 10
647.0468079697174
 20
430.8619850765317
 30
0.0
 10
651.7727679179206
 20
431.3012614356322
 30
0.0
 10
656.3820527639382
 20
431.7736057240037
 30
0.0
 10
660.8502460309707
 20
432.2760152376505
 30
0.0
  0
LINE
  5
215
330
1F
100
AcDbEntity
  8
0
  6
Continuous
 62
     7
370
    40
100
AcDbLine
 10
664.8251981004
 20
216.7355369971
 30
0.0
 11
665.4509359606
 21
216.7355369971
 31
0.0
  0
LINE
  5
216
330
1F
100
AcDbEntity
  8
0
  6
Continuous
 62
     7
370
    40
100
AcDbLine
 10
664.8251981004
 20
432.7355369971
 30
0.0
 11
665.3208183557
 21
432.7355369971
 31
0.0
  0
LINE
  5
217
330
1F
100
AcDbEntity
  8
0
  6
Continuous
 62
     7
370
    40
100
AcDbLine
 10
665.4509359606
 20
432.1133924926
 30
0.0
 11
665.4509359606
 21
216.7355369971
 31
0.0
  0
LINE
  5
218
330
1F
100
AcDbEntity
  8
0
  6
Continuous
 62
     7
370
    40
100
AcDbLine
 10
272.9509359606
 20
477.3586606211
 30
0.0
 11
272.9509359606
 21
424.7355369971
 31
0.0
  0
LINE
  5
219
330
1F
100
AcDbEntity
  8
0
  6
Continuous
 62
     7
370
    40
100
AcDbLine
 10
286.9509359606
 20
477.3586606211
 30
0.0
 11
286.9509359606
 21
424.7355369971
 31
0.0
  0
LINE
  5
21A
330
1F
100
AcDbEntity
  8
0
  6
Continuous
 62
     7
370
    40
100
AcDbLine
 10
372.1509359606
 20
486.7355369971
 30
0.0
 11
372.1509359606
 21
426.7355369971
 31
0.0
  0
LINE
  5
21B
330
1F
100
AcDbEntity
  8
0
  6
Continuous
 62
     7
370
    40
100
AcDbLine
 10
272.9509359606
 20
571.7355369971
 30
0.0
 11
272.9509359606
 21
477.3586606211
 31
0.0
  0
LINE
  5
21C
330
1F
100
AcDbEntity
  8
0
  6
Continuous
 62
     7
370
    40
100
AcDbLine
 10
286.9509359606
 20
571.7355369971
 30
0.0
 11
286.9509359606
 21
477.3586606211
 31
0.0
  0
LINE
  5
21D
330
1F
100
AcDbEntity
  8
0
  6
Continuous
 62
     7
370
    40
100
AcDbLine
 10
374.1509359606
 20
468.7355369971
 30
0.0
 11
374.1509359606
 21
444.7355369971
 31
0.0
  0
LINE
  5
21E
330
1F
100
AcDbEntity
  8
0
  6
Continuous
 62
     7
370
    40
100
AcDbLine
 10
289.9509359606
 20
576.7355369971
 30
0.0
 11
305.9509359606
 21
576.7355369971
 31
0.0
  0
ARC
  5
21F
330
1F
100
AcDbEntity
  8
0
  6
Continuous
 62
     7
370
    40
100
AcDbCircle
 10
289.9509359606
 20
573.7355369971
 30
0.0
 40
3.0
100
AcDbArc
 50
90.0
 51
180.0
  0
LINE
  5
220
330
1F
100
AcDbEntity
  8
0
  6
Continuous
 62
     7
370
    40
100
AcDbLine
 10
305.9509359606
 20
581.7355369971
 30
0.0
 11
278.9509359606
 21
581.7355369971
 31
0.0
  0
ARC
  5
221
330
1F
100
AcDbEntity
  8
0
  6
Continuous
 62
     7
370
    40
100
AcDbCircle
 10
278.9509359606
 20
575.7355369971
 30
0.0
 40
6.000000000000057
100
AcDbArc
 50
90.0
 51
180.0
  0
LINE
  5
222
330
1F
100
AcDbEntity
  8
0
  6
Continuous
 62
     7
370
    40
100
AcDbLine
 10
272.9509359606
 20
575.7355369971
 30
0.0
 11
272.9509359606
 21
571.7355369971
 31
0.0
  0
LINE
  5
223
330
1F
100
AcDbEntity
  8
0
  6
Continuous
 62
     7
370
    40
100
AcDbLine
 10
286.9509359606
 20
573.7355369971
 30
0.0
 11
286.9509359606
 21
571.7355369971
 31
0.0
  0
LINE
  5
224
330
1F
100
AcDbEntity
  8
0
  6
Continuous
 62
     7
370
    40
100
AcDbLine
 10
320.9509359606
 20
576.7355369971
 30
0.0
 11
320.9509359606
 21
581.7355369971
 31
0.0
  0
LINE
  5
225
330
1F
100
AcDbEntity
  8
0
  6
Continuous
 62
     7
370
    40
100
AcDbLine
 10
305.9509359606
 20
576.7355369971
 30
0.0
 11
320.9509359606
 21
576.7355369971
 31
0.0
  0
LINE
  5
226
330
1F
100
AcDbEntity
  8
0
  6
Continuous
 62
     7
370
    40
100
AcDbLine
 10
305.9509359606
 20
581.7355369971
 30
0.0
 11
320.9509359606
 21
581.7355369971
 31
0.0
  0
LINE
  5
227
330
1F
100
AcDbEntity
  8
0
  6
Continuous
 62
     7
370
    40
100
AcDbLine
 10
680.9509359606
 20
477.3586606211
 30
0.0
 11
680.9509359606
 21
424.7355369971
 31
0.0
  0
LINE
  5
228
330
1F
100
AcDbEntity
  8
0
  6
Continuous
 62
     7
370
    40
100
AcDbLine
 10
666.9509359606
 20
477.3586606211
 30
0.0
 11
666.9509359606
 21
424.7355369971
 31
0.0
  0
LINE
  5
229
330
1F
100
AcDbEntity
  8
0
  6
Continuous
 62
     7
370
    40
100
AcDbLine
 10
581.7509359606
 20
486.7355369971
 30
0.0
 11
581.7509359606
 21
426.7355369971
 31
0.0
  0
LINE
  5
22A
330
1F
100
AcDbEntity
  8
0
  6
Continuous
 62
     7
370
    40
100
AcDbLine
 10
680.9509359606
 20
571.7355369971
 30
0.0
 11
680.9509359606
 21
477.3586606211
 31
0.0
  0
LINE
  5
22B
330
1F
100
AcDbEntity
  8
0
  6
Continuous
 62
     7
370
    40
100
AcDbLine
 10
666.9509359606
 20
571.7355369971
 30
0.0
 11
666.9509359606
 21
477.3586606211
 31
0.0
  0
LINE
  5
22C
330
1F
100
AcDbEntity
  8
0
  6
Continuous
 62
     7
370
    40
100
AcDbLine
 10
579.7509359606
 20
468.7355369971
 30
0.0
 11
579.7509359606
 21
444.7355369971
 31
0.0
  0
ARC
  5
22D
330
1F
100
AcDbEntity
  8
0
  6
Continuous
 62
     7
370
    40
100
AcDbCircle
 10
663.9509359606
 20
573.7355369971
 30
0.0
 40
3.000000000000114
100
AcDbArc
 50
0.0
 51
90.0
  0
LINE
  5
22E
330
1F
100
AcDbEntity
  8
0
  6
Continuous
 62
     7
370
    40
100
AcDbLine
 10
663.9509359606
 20
576.7355369971
 30
0.0
 11
647.9509359606
 21
576.7355369971
 31
0.0
  0
LINE
  5
22F
330
1F
100
AcDbEntity
  8
0
  6
Continuous
 62
     7
370
    40
100
AcDbLine
 10
647.9509359606
 20
581.7355369971
 30
0.0
 11
674.9509359606
 21
581.7355369971
 31
0.0
  0
ARC
  5
230
330
1F
100
AcDbEntity
  8
0
  6
Continuous
 62
     7
370
    40
100
AcDbCircle
 10
674.9509359606
 20
575.7355369971
 30
0.0
 40
6.0
100
AcDbArc
 50
0.0
 51
90.0
  0
LINE
  5
231
330
1F
100
AcDbEntity
  8
0
  6
Continuous
 62
     7
370
    40
100
AcDbLine
 10
680.9509359606
 20
575.7355369971
 30
0.0
 11
680.9509359606
 21
571.7355369971
 31
0.0
  0
LINE
  5
232
330
1F
100
AcDbEntity
  8
0
  6
Continuous
 62
     7
370
    40
100
AcDbLine
 10
666.9509359606
 20
573.7355369971
 30
0.0
 11
666.9509359606
 21
571.7355369971
 31
0.0
  0
LINE
  5
233
330
1F
100
AcDbEntity
  8
0
  6
Continuous
 62
     7
370
    40
100
AcDbLine
 10
647.9509359606
 20
576.7355369971
 30
0.0
 11
632.9509359606
 21
576.7355369971
 31
0.0
  0
LINE
  5
234
330
1F
100
AcDbEntity
  8
0
  6
Continuous
 62
     7
370
    40
100
AcDbLine
 10
632.9509359606
 20
576.7355369971
 30
0.0
 11
632.9509359606
 21
581.7355369971
 31
0.0
  0
LINE
  5
235
330
1F
100
AcDbEntity
  8
0
  6
Continuous
 62
     7
370
    40
100
AcDbLine
 10
647.9509359606
 20
581.7355369971
 30
0.0
 11
632.9509359606
 21
581.7355369971
 31
0.0
  0
SPLINE
  5
236
330
1F
100
AcDbEntity
  8
0
  6
Continuous
 62
     7
370
    40
100
AcDbSpline
210
0.0
220
0.0
230
1.0
 70
     8
 71
     3
 72
    17
 73
    13
 74
     0
 42
0.00000001
 43
0.00000001
 12
1.0
 22
0.0
 32
0.0
 13
1.0
 23
0.0
 33
0.0
 40
0.0
 40
0.0
 40
0.0
 40
0.0
 40
0.1027884152166897
 40
0.2055775922145574
 40
0.3083597951117418
 40
0.4111416022510694
 40
0.5140166622155788
 40
0.6168893695552735
 40
0.7193926476484533
 40
0.8218974394346087
 40
0.9109470265300924
 40
1.0
 40
1.0
 40
1.0
 40
1.0
 10
652.0775666536283
 20
508.7758687380549
 30
0.0
 10
652.1896258951941
 20
509.1649809451512
 30
0.0
 10
652.4137452088147
 20
509.9432082431157
 30
0.0
 10
651.5550866634154
 20
511.8646405987025
 30
0.0
 10
649.7985930414529
 20
514.26307992772
 30
0.0
 10
647.118119865067
 20
517.0658678850103
 30
0.0
 10
643.5493770198331
 20
520.1477131927278
 30
0.0
 10
639.2055609906165
 20
523.3739704636373
 30
0.0
 10
634.1686702576986
 20
526.6196570380724
 30
0.0
 10
628.8429405807249
 20
529.6300860917625
 30
0.0
 10
623.4257243173022
 20
532.3510633451439
 30
0.0
 10
619.8514419399281
 20
533.9001677697772
 30
0.0
 10
618.0642667712175
 20
534.6747347091355
 30
0.0
  0
SPLINE
  5
237
330
1F
100
AcDbEntity
  8
0
  6
Continuous
 62
     7
370
    40
100
AcDbSpline
210
0.0
220
0.0
230
1.0
 70
     8
 71
     3
 72
    11
 73
     7
 74
     0
 42
0.00000001
 43
0.00000001
 12
1.0
 22
0.0
 32
0.0
 13
1.0
 23
0.0
 33
0.0
 40
0.0
 40
0.0
 40
0.0
 40
0.0
 40
0.2494254638793235
 40
0.4989333509671712
 40
0.7495660021170535
 40
1.0
 40
1.0
 40
1.0
 40
1.0
 10
645.369594383575
 20
502.9535094027163
 30
0.0
 10
645.9251686398261
 20
503.2337364484145
 30
0.0
 10
647.0365007430978
 20
503.7942831414719
 30
0.0
 10
648.7226774237664
 20
504.8780897697912
 30
0.0
 10
650.4036968542322
 20
506.2881387253121
 30
0.0
 10
651.519757459764
 20
507.9468444565041
 30
0.0
 10
652.0775665254093
 20
508.7758685162286
 30
0.0
  0
SPLINE
  5
238
330
1F
100
AcDbEntity
  8
0
  6
Continuous
 62
     7
370
    40
100
AcDbSpline
210
0.0
220
0.0
230
1.0
 70
     8
 71
     3
 72
    16
 73
    12
 74
     0
 42
0.00000001
 43
0.00000001
 12
1.0
 22
0.0
 32
0.0
 13
1.0
 23
0.0
 33
0.0
 40
0.0
 40
0.0
 40
0.0
 40
0.0
 40
0.1144528146114957
 40
0.2288997840928976
 40
0.3433780281686736
 40
0.4578562541159052
 40
0.5719076729793621
 40
0.6859606972874548
 40
0.8002598914601687
 40
0.9145591612601521
 40
1.0
 40
1.0
 40
1.0
 40
1.0
 10
604.7505258172508
 20
518.5284204049395
 30
0.0
 10
607.101337796499
 20
517.6091669194732
 30
0.0
 10
611.8028416985175
 20
515.7707068950157
 30
0.0
 10
618.5803033293831
 20
513.020900005989
 30
0.0
 10
624.9034491818798
 20
510.4008398282782
 30
0.0
 10
630.6146678830164
 20
508.0107995617633
 30
0.0
 10
635.5402945910868
 20
505.9697004269412
 30
0.0
 10
639.6079245663088
 20
504.3558371254061
 30
0.0
 10
642.668138447923
 20
503.289033210501
 30
0.0
 10
644.5977676989581
 20
502.8095524962588
 30
0.0
 10
645.1383533572623
 20
502.9103794962232
 30
0.0
 10
645.3695943052817
 20
502.9535092587309
 30
0.0
  0
SPLINE
  5
239
330
1F
100
AcDbEntity
  8
0
  6
Continuous
 62
     7
370
    40
100
AcDbSpline
210
0.0
220
0.0
230
1.0
 70
     8
 71
     3
 72
    21
 73
    17
 74
     0
 42
0.00000001
 43
0.00000001
 12
1.0
 22
0.0
 32
0.0
 13
1.0
 23
0.0
 33
0.0
 40
0.0
 40
0.0
 40
0.0
 40
0.0
 40
0.057473967339478
 40
0.1149490793974921
 40
0.1724234716929714
 40
0.2543176507418591
 40
0.336211682665916
 40
0.4181057241842974
 40
0.4999999999999997
 40
0.5818942758157019
 40
0.6637883173340832
 40
0.7456823492581404
 40
0.8275765283070283
 40
0.8850509206025072
 40
0.9425260326605212
 40
1.0
 40
1.0
 40
1.0
 40
1.0
 10
349.1513462517152
 20
518.5284200255493
 30
0.0
 10
353.8438235405557
 20
520.2791864093322
 30
0.0
 10
363.2288715790847
 20
523.7807540472024
 30
0.0
 10
377.5750813600074
 20
528.269862569007
 30
0.0
 10
394.1396716014133
 20
532.7443711961382
 30
0.0
 10
413.0073574145468
 20
536.7951122289213
 30
0.0
 10
434.1899551115359
 20
540.0246167208991
 30
0.0
 10
455.5311009515794
 20
541.9650574473887
 30
0.0
 10
476.9509359605909
 20
542.6136590189441
 30
0.0
 10
498.3707709696023
 20
541.9650574473887
 30
0.0
 10
519.7119168096459
 20
540.0246167208991
 30
0.0
 10
540.8945145066351
 20
536.7951122289213
 30
0.0
 10
559.7622003197686
 20
532.7443711961382
 30
0.0
 10
576.3267905611744
 20
528.2698625690072
 30
0.0
 10
590.6730003420971
 20
523.7807540472025
 30
0.0
 10
600.0580483806262
 20
520.2791864093323
 30
0.0
 10
604.7505256694668
 20
518.5284200255494
 30
0.0
  0
SPLINE
  5
23A
330
1F
100
AcDbEntity
  8
0
  6
Continuous
 62
     7
370
    40
100
AcDbSpline
210
0.0
220
0.0
230
1.0
 70
     8
 71
     3
 72
    16
 73
    12
 74
     0
 42
0.00000001
 43
0.00000001
 12
1.0
 22
0.0
 32
0.0
 13
1.0
 23
0.0
 33
0.0
 40
0.0
 40
0.0
 40
0.0
 40
0.0
 40
0.1144966919242425
 40
0.228993604671164
 40
0.3434921655910287
 40
0.4579895836758875
 40
0.5724168573208746
 40
0.686842908392429
 40
0.8009449494020414
 40
0.9150505045394861
 40
1.0
 40
1.0
 40
1.0
 40
1.0
 10
308.5322776159
 20
502.9535092587309
 30
0.0
 10
308.8702859039777
 20
502.9127899239211
 30
0.0
 10
309.5463031320286
 20
502.8313511757687
 30
0.0
 10
311.9194964572766
 20
503.5063262940915
 30
0.0
 10
315.2630941788469
 20
504.7298499024828
 30
0.0
 10
319.5643786888652
 20
506.4624913861319
 30
0.0
 10
324.7321586834321
 20
508.6152268220404
 30
0.0
 10
330.6063224717276
 20
511.0723996902144
 30
0.0
 10
337.0612408529516
 20
513.7309879525378
 30
0.0
 10
343.3158258079907
 20
516.2532823351902
 30
0.0
 10
347.4058652242427
 20
517.8478966816028
 30
0.0
 10
349.1513461039315
 20
518.5284204049395
 30
0.0
  0
SPLINE
  5
23B
330
1F
100
AcDbEntity
  8
0
  6
Continuous
 62
     7
370
    40
100
AcDbSpline
210
0.0
220
0.0
230
1.0
 70
     8
 71
     3
 72
    11
 73
     7
 74
     0
 42
0.00000001
 43
0.00000001
 12
1.0
 22
0.0
 32
0.0
 13
1.0
 23
0.0
 33
0.0
 40
0.0
 40
0.0
 40
0.0
 40
0.0
 40
0.2504335976914367
 40
0.5010669253798593
 40
0.7505747521947576
 40
1.0
 40
1.0
 40
1.0
 40
1.0
 10
301.824284182866
 20
508.7764198428071
 30
0.0
 10
302.3820957605506
 20
507.9472588154825
 30
0.0
 10
303.4981637911511
 20
506.2882754744444
 30
0.0
 10
305.1791827692229
 20
504.8780795749923
 30
0.0
 10
306.8653665994597
 20
503.7942901346193
 30
0.0
 10
307.9767018710344
 20
503.2337387208389
 30
0.0
 10
308.5322775376071
 20
502.9535094027161
 30
0.0
  0
SPLINE
  5
23C
330
1F
100
AcDbEntity
  8
0
  6
Continuous
 62
     7
370
    40
100
AcDbSpline
210
0.0
220
0.0
230
1.0
 70
     8
 71
     3
 72
    17
 73
    13
 74
     0
 42
0.00000001
 43
0.00000001
 12
1.0
 22
0.0
 32
0.0
 13
1.0
 23
0.0
 33
0.0
 40
0.0
 40
0.0
 40
0.0
 40
0.0
 40
0.1027882614913142
 40
0.205570770435541
 40
0.3083886670735958
 40
0.4112057739812685
 40
0.5135058861837769
 40
0.6158083809792403
 40
0.7183542571279363
 40
0.8209000491878893
 40
0.9104502022638693
 40
1.0
 40
1.0
 40
1.0
 40
1.0
 10
335.837851171692
 20
534.6748375270444
 30
0.0
 10
333.7759374642476
 20
533.7759997261531
 30
0.0
 10
329.6522254444002
 20
531.978374427846
 30
0.0
 10
323.7592252626656
 20
528.9364041182536
 30
0.0
 10
318.3084308847003
 20
525.744100026352
 30
0.0
 10
313.4441366250741
 20
522.4917954871411
 30
0.0
 10
309.3175361116816
 20
519.3025484296409
 30
0.0
 10
305.9891947508428
 20
516.2949675886491
 30
0.0
 10
303.554963417242
 20
513.5951665669013
 30
0.0
 10
302.1095261625364
 20
511.4199250061786
 30
0.0
 10
301.4994965829424
 20
509.771059768477
 30
0.0
 10
301.71602170261
 20
509.1079662021211
 30
0.0
 10
301.8242840476475
 20
508.7764200767422
 30
0.0
  0
SPLINE
  5
23D
330
1F
100
AcDbEntity
  8
0
  6
Continuous
 62
     7
370
    40
100
AcDbSpline
210
0.0
220
0.0
230
1.0
 70
     8
 71
     3
 72
    23
 73
    19
 74
     0
 42
0.00000001
 43
0.00000001
 12
1.0
 22
0.0
 32
0.0
 13
1.0
 23
0.0
 33
0.0
 40
0.0
 40
0.0
 40
0.0
 40
0.0
 40
0.0590102836015405
 40
0.1180213000596772
 40
0.1770310475707669
 40
0.2416253723007538
 40
0.3062199534172133
 40
0.3708128325966057
 40
0.4354069888608494
 40
0.500000460270981
 40
0.564593931681113
 40
0.6291880879453572
 40
0.6937809671247498
 40
0.7583755482412081
 40
0.8229698729711947
 40
0.8819793136339146
 40
0.9409900232421017
 40
1.0
 40
1.0
 40
1.0
 40
1.0
 10
618.0642662189221
 20
534.674733414163
 30
0.0
 10
612.7783418119595
 20
536.8003753157519
 30
0.0
 10
602.2064273514335
 20
541.0516855175604
 30
0.0
 10
585.9900631269693
 20
546.4812054814167
 30
0.0
 10
569.0381192481555
 20
551.3509298564743
 30
0.0
 10
551.3339414142695
 20
555.4934528425861
 30
0.0
 10
532.9107526149128
 20
558.8271729597827
 30
0.0
 10
514.3394679169861
 20
561.2134981632393
 30
0.0
 10
495.6698967677756
 20
562.6475682281404
 30
0.0
 10
476.9509359605912
 20
563.1266889622469
 30
0.0
 10
458.2319751534047
 20
562.6475682281014
 30
0.0
 10
439.5624040042001
 20
561.2134981633952
 30
0.0
 10
420.9911193062511
 20
558.8271729591971
 30
0.0
 10
402.5679305069783
 20
555.4934528447718
 30
0.0
 10
384.8637815385536
 20
551.3509366027887
 30
0.0
 10
367.9118940661993
 20
546.4812307377488
 30
0.0
 10
351.6956123410972
 20
541.0517447135037
 30
0.0
 10
341.1237500476336
 20
536.800463593187
 30
0.0
 10
335.8378517239286
 20
534.6748362322088
 30
0.0
  0
SPLINE
  5
23E
330
1F
100
AcDbEntity
  8
0
  6
Continuous
 62
     7
370
    40
100
AcDbSpline
210
0.0
220
0.0
230
1.0
 70
     8
 71
     3
 72
    17
 73
    13
 74
     0
 42
0.00000001
 43
0.00000001
 12
1.0
 22
0.0
 32
0.0
 13
1.0
 23
0.0
 33
0.0
 40
0.0
 40
0.0
 40
0.0
 40
0.0
 40
0.0979683934485754
 40
0.2012996625929015
 40
0.3046237406285252
 40
0.4079474990435117
 40
0.511370273350747
 40
0.6147907553922781
 40
0.7178588468547132
 40
0.8209283669376585
 40
0.9104625451264914
 40
1.0
 40
1.0
 40
1.0
 40
1.0
 10
298.8802532036757
 20
513.9269252685677
 30
0.0
 10
298.7714510707809
 20
514.2935938393815
 30
0.0
 10
298.5478908809056
 20
515.0470027398447
 30
0.0
 10
299.385324603488
 20
516.9313744779488
 30
0.0
 10
301.1260940044563
 20
519.3219925345849
 30
0.0
 10
303.7933817557063
 20
522.1209153295872
 30
0.0
 10
307.3486526155828
 20
525.2014318507232
 30
0.0
 10
311.6800943053813
 20
528.429951257933
 30
0.0
 10
316.7058802831602
 20
531.6817426412093
 30
0.0
 10
322.0226216413873
 20
534.7015413676054
 30
0.0
 10
327.4325252695336
 20
537.4342064141039
 30
0.0
 10
331.0033175765663
 20
538.9924889321098
 30
0.0
 10
332.7887463995797
 20
539.7716444479787
 30
0.0
  0
SPLINE
  5
23F
330
1F
100
AcDbEntity
  8
0
  6
Continuous
 62
     7
370
    40
100
AcDbSpline
210
0.0
220
0.0
230
1.0
 70
     8
 71
     3
 72
    17
 73
    13
 74
     0
 42
0.00000001
 43
0.00000001
 12
1.0
 22
0.0
 32
0.0
 13
1.0
 23
0.0
 33
0.0
 40
0.0
 40
0.0
 40
0.0
 40
0.0
 40
0.1033330426094364
 40
0.2066605229177259
 40
0.3100220823251361
 40
0.4133829134148431
 40
0.5162468799928065
 40
0.6191131653833615
 40
0.722221746480265
 40
0.8253301713510904
 40
0.9153488285001335
 40
1.0
 40
1.0
 40
1.0
 40
1.0
 10
621.113365948748
 20
539.771543239049
 30
0.0
 10
623.1729569385616
 20
538.8675668382751
 30
0.0
 10
627.2920280527288
 20
537.0596626967575
 30
0.0
 10
633.1756863310346
 20
534.0060321938764
 30
0.0
 10
638.6157634719917
 20
530.8054842863492
 30
0.0
 10
643.4685579716198
 20
527.5482402349593
 30
0.0
 10
647.5832001689757
 20
524.3572348924375
 30
0.0
 10
650.8988854423818
 20
521.3508694355356
 30
0.0
 10
653.3204942353888
 20
518.6546932468827
 30
0.0
 10
654.7508649216855
 20
516.4871143789385
 30
0.0
 10
655.3434210228957
 20
514.8732743243066
 30
0.0
 10
655.1288322395775
 20
514.2340833584236
 30
0.0
 10
655.0248349319767
 20
513.9243088284279
 30
0.0
  0
SPLINE
  5
240
330
1F
100
AcDbEntity
  8
0
  6
Continuous
 62
     7
370
    40
100
AcDbSpline
210
0.0
220
0.0
230
1.0
 70
     8
 71
     3
 72
    23
 73
    19
 74
     0
 42
0.00000001
 43
0.00000001
 12
1.0
 22
0.0
 32
0.0
 13
1.0
 23
0.0
 33
0.0
 40
0.0
 40
0.0
 40
0.0
 40
0.0
 40
0.0595950349466795
 40
0.119190194526943
 40
0.1787853061611735
 40
0.2430283254006767
 40
0.3072713805688341
 40
0.3715143063771598
 40
0.4357573769638218
 40
0.5000004405938976
 40
0.5642435042239735
 40
0.6284865748106355
 40
0.6927295006189608
 40
0.7569725557871178
 40
0.8212155750266206
 40
0.8808103929308911
 40
0.9404052587817822
 40
1.0
 40
1.0
 40
1.0
 40
1.0
 10
621.113365948748
 20
539.7715432390493
 30
0.0
 10
615.6627867970604
 20
541.9783263491998
 30
0.0
 10
604.7616170946619
 20
546.3918971846382
 30
0.0
 10
588.031955793165
 20
552.0187470376904
 30
0.0
 10
570.6330248912517
 20
557.029147562749
 30
0.0
 10
552.5523134675406
 20
561.2641133630883
 30
0.0
 10
533.8275950950407
 20
564.6557711673001
 30
0.0
 10
514.9521817648371
 20
567.083559203126
 30
0.0
 10
495.9766617046828
 20
568.5425696729735
 30
0.0
 10
476.9509359605912
 20
569.0299734496665
 30
0.0
 10
457.9252102164975
 20
568.5425696729359
 30
0.0
 10
438.9496901563497
 20
567.0835592032765
 30
0.0
 10
420.0742768261225
 20
564.6557711667356
 30
0.0
 10
401.3495584537109
 20
561.264113365196
 30
0.0
 10
383.2688752666691
 20
557.0291541689498
 30
0.0
 10
365.8699995299835
 20
552.0187718113563
 30
0.0
 10
349.1404188659127
 20
546.3919553660993
 30
0.0
 10
338.2393000887097
 20
541.9784132156533
 30
0.0
 10
332.7887463995798
 20
539.7716444479787
 30
0.0
  0
ELLIPSE
  5
241
330
1F
100
AcDbEntity
  8
0
  6
Continuous
 62
     7
370
    40
100
AcDbEllipse
 10
550.2301998127
 20
573.7355369971
 30
0.0
 11
6.434893352406336
 21
-4.82998793522404
 31
0.0
210
0.0
220
0.0
230
1.0
 40
0.9910652028
 41
1.167495617174495
 42
2.218991329929754
  0
LINE
  5
242
330
1F
100
AcDbEntity
  8
0
  6
Continuous
 62
     7
370
    40
100
AcDbLine
 10
557.158403043
 20
577.7057216037
 30
0.0
 11
569.0714938583
 21
557.2254463291
 31
0.0
  0
LINE
  5
243
330
1F
100
AcDbEntity
  8
0
  6
Continuous
 62
     7
370
    40
100
AcDbLine
 10
554.5603268316
 20
576.2169023762
 30
0.0
 11
565.0603625125
 21
558.1658672191
 31
0.0
  0
ELLIPSE
  5
244
330
1F
100
AcDbEntity
  8
0
  6
Continuous
 62
     7
370
    40
100
AcDbEllipse
 10
550.2301998127
 20
573.7355369971
 30
0.0
 11
4.021808345253929
 21
-3.018742459515124
 31
0.0
210
0.0
220
0.0
230
1.0
 40
0.9910652028
 41
1.167495617174509
 42
2.218991329929785
  0
LINE
  5
245
330
1F
100
AcDbEntity
  8
0
  6
Continuous
 62
     7
370
    40
100
AcDbLine
 10
403.714868514
 20
578.7355369971
 30
0.0
 11
550.1870034072
 21
578.7355369971
 31
0.0
  0
ELLIPSE
  5
246
330
1F
100
AcDbEntity
  8
0
  6
Continuous
 62
     7
370
    40
100
AcDbEllipse
 10
403.6716721085
 20
573.7355369971
 30
0.0
 11
4.021808345253874
 21
3.018742459515011
 31
0.0
210
0.0
220
0.0
230
1.0
 40
0.9910652028
 41
0.9226013236600151
 42
1.974097036415279
  0
LINE
  5
247
330
1F
100
AcDbEntity
  8
0
  6
Continuous
 62
     7
370
    40
100
AcDbLine
 10
388.8415094087
 20
558.1658672191
 30
0.0
 11
399.3415450895
 21
576.2169023762
 31
0.0
  0
LINE
  5
248
330
1F
100
AcDbEntity
  8
0
  6
Continuous
 62
     7
370
    40
100
AcDbLine
 10
384.8303780629
 20
557.2254463291
 30
0.0
 11
396.7434688782
 21
577.7057216037
 31
0.0
  0
ELLIPSE
  5
249
330
1F
100
AcDbEntity
  8
0
  6
Continuous
 62
     7
370
    40
100
AcDbEllipse
 10
403.6716721085
 20
573.7355369971
 30
0.0
 11
6.434893352406221
 21
4.829987935224041
 31
0.0
210
0.0
220
0.0
230
1.0
 40
0.9910652028
 41
0.9226013236600257
 42
1.974097036415298
  0
LINE
  5
24A
330
1F
100
AcDbEntity
  8
0
  6
Continuous
 62
     7
370
    40
100
AcDbLine
 10
403.7407863573
 20
581.7355369971
 30
0.0
 11
550.1610855639
 21
581.7355369971
 31
0.0
  0
LINE
  5
24B
330
1F
100
AcDbEntity
  8
0
  6
Continuous
 62
     7
370
    40
100
AcDbLine
 10
393.684475252
 20
559.3013140185
 30
0.0
 11
403.5240373476
 21
576.2169023762
 31
0.0
  0
LINE
  5
24C
330
1F
100
AcDbEntity
  8
0
  6
Continuous
 62
     7
370
    40
100
AcDbLine
 10
550.3778345736
 20
576.2169023762
 30
0.0
 11
560.2173966692
 21
559.3013140185
 31
0.0
  0
ELLIPSE
  5
24D
330
1F
100
AcDbEntity
  8
0
  6
Continuous
 62
     7
370
    40
100
AcDbEllipse
 10
407.8541643665
 20
573.7355369971
 30
0.0
 11
4.021808345253874
 21
3.018742459515011
 31
0.0
210
0.0
220
0.0
230
1.0
 40
0.9910652028
 41
0.9226013236600206
 42
1.974097036415275
  0
ELLIPSE
  5
24E
330
1F
100
AcDbEntity
  8
0
  6
Continuous
 62
     7
370
    40
100
AcDbEllipse
 10
546.0477075546
 20
573.7355369971
 30
0.0
 11
4.021808345253817
 21
-3.018742459515124
 31
0.0
210
0.0
220
0.0
230
1.0
 40
0.9910652028
 41
1.167495617174559
 42
2.218991329929815
  0
ENDSEC
  0
SECTION
  2
OBJECTS
  0
DICTIONARY
  5
C
330
0
100
AcDbDictionary
281
     1
  3
ACAD_GROUP
350
D
  3
ACAD_LAYOUT
350
1A
  3
ACAD_MATERIAL
350
3B
  3
ACAD_MLEADERSTYLE
350
250
  3
ACAD_MLINESTYLE
350
17
  3
ACAD_PLOTSETTINGS
350
19
  3
ACAD_PLOTSTYLENAME
350
E
  3
ACAD_TABLESTYLE
350
24F
  3
ACAD_VISUALSTYLE
350
2A
  0
DICTIONARY
  5
D
102
{ACAD_REACTORS
330
C
102
}
330
C
100
AcDbDictionary
281
     1
  0
DICTIONARY
  5
1A
102
{ACAD_REACTORS
330
C
102
}
330
C
100
AcDbDictionary
281
     1
  3
Layout1
350
1E
  3
Layout2
350
26
  3
Model
350
22
  0
DICTIONARY
  5
3B
102
{ACAD_REACTORS
330
C
102
}
330
C
100
AcDbDictionary
281
     1
  3
ByBlock
350
3D
  3
ByLayer
350
3C
  3
Global
350
3E
  0
DICTIONARY
  5
250
102
{ACAD_REACTORS
330
C
102
}
330
C
100
AcDbDictionary
281
     1
  0
DICTIONARY
  5
17
102
{ACAD_REACTORS
330
C
102
}
330
C
100
AcDbDictionary
281
     1
  3
Standard
350
18
  0
DICTIONARY
  5
19
102
{ACAD_REACTORS
330
C
102
}
330
C
100
AcDbDictionary
281
     1
  0
ACDBDICTIONARYWDFLT
  5
E
102
{ACAD_REACTORS
330
C
102
}
330
C
100
AcDbDictionary
281
     1
  3
Normal
350
F
100
AcDbDictionaryWithDefault
340
F
  0
DICTIONARY
  5
24F
102
{ACAD_REACTORS
330
C
102
}
330
C
100
AcDbDictionary
281
     1
  0
DICTIONARY
  5
2A
102
{ACAD_REACTORS
330
C
102
}
330
C
100
AcDbDictionary
281
     1
  3
2dWireframe
350
2F
  3
3D Hidden
350
31
  3
3dWireframe
350
30
  3
Basic
350
32
  3
Brighten
350
36
  3
ColorChange
350
3A
  3
Conceptual
350
34
  3
Dim
350
35
  3
Facepattern
350
39
  3
Flat
350
2B
  3
FlatWithEdges
350
2C
  3
Gouraud
350
2D
  3
GouraudWithEdges
350
2E
  3
Linepattern
350
38
  3
Realistic
350
33
  3
Thicken
350
37
  0
LAYOUT
  5
1E
102
{ACAD_REACTORS
330
1A
102
}
330
1A
100
AcDbPlotSettings
  1

  2
none_device
  4

  6

 40
0.0
 41
0.0
 42
0.0
 43
0.0
 44
0.0
 45
0.0
 46
0.0
 47
0.0
 48
0.0
 49
0.0
140
0.0
141
0.0
142
1.0
143
1.0
 70
   688
 72
     0
 73
     0
 74
     5
  7

 75
    16
 76
     0
 77
     2
 78
   300
147
1.0
148
0.0
149
0.0
100
AcDbLayout
  1
Layout1
 70
     1
 71
     1
 10
0.0
 20
0.0
 11
420.0
 21
297.0
 12
0.0
 22
0.0
 32
0.0
 14
1.0000000000E+20
 24
1.0000000000E+20
 34
1.0000000000E+20
 15
-1.0000000000E+20
 25
-1.0000000000E+20
 35
-1.0000000000E+20
146
0.0
 13
0.0
 23
0.0
 33
0.0
 16
1.0
 26
0.0
 36
0.0
 17
0.0
 27
1.0
 37
0.0
 76
     0
330
1B
  0
LAYOUT
  5
26
102
{ACAD_REACTORS
330
1A
102
}
330
1A
100
AcDbPlotSettings
  1

  2
none_device
  4

  6

 40
0.0
 41
0.0
 42
0.0
 43
0.0
 44
0.0
 45
0.0
 46
0.0
 47
0.0
 48
0.0
 49
0.0
140
0.0
141
0.0
142
1.0
143
1.0
 70
   688
 72
     0
 73
     0
 74
     5
  7

 75
    16
 76
     0
 77
     2
 78
   300
147
1.0
148
0.0
149
0.0
100
AcDbLayout
  1
Layout2
 70
     1
 71
     2
 10
0.0
 20
0.0
 11
0.0
 21
0.0
 12
0.0
 22
0.0
 32
0.0
 14
0.0
 24
0.0
 34
0.0
 15
0.0
 25
0.0
 35
0.0
146
0.0
 13
0.0
 23
0.0
 33
0.0
 16
1.0
 26
0.0
 36
0.0
 17
0.0
 27
1.0
 37
0.0
 76
     0
330
23
  0
LAYOUT
  5
22
102
{ACAD_REACTORS
330
1A
102
}
330
1A
100
AcDbPlotSettings
  1

  2
none_device
  4

  6

 40
0.0
 41
0.0
 42
0.0
 43
0.0
 44
0.0
 45
0.0
 46
0.0
 47
0.0
 48
0.0
 49
0.0
140
0.0
141
0.0
142
1.0
143
1.0
 70
  1712
 72
     0
 73
     0
 74
     0
  7

 75
     0
 76
     0
 77
     2
 78
   300
147
1.0
148
0.0
149
0.0
100
AcDbLayout
  1
Model
 70
     1
 71
     0
 10
0.0
 20
0.0
 11
2100.0
 21
1485.0
 12
0.0
 22
0.0
 32
0.0
 14
0.0
 24
0.0
 34
0.0
 15
2100.0
 25
1485.0
 35
0.0
146
0.0
 13
0.0
 23
0.0
 33
0.0
 16
1.0
 26
0.0
 36
0.0
 17
0.0
 27
1.0
 37
0.0
 76
     0
330
1F
331
29
  0
MATERIAL
  5
3D
102
{ACAD_REACTORS
330
3B
102
}
330
3B
100
AcDbMaterial
  1
ByBlock
 72
     1
 94
      127
  0
MATERIAL
  5
3C
102
{ACAD_REACTORS
330
3B
102
}
330
3B
100
AcDbMaterial
  1
ByLayer
 72
     1
 94
      127
  0
MATERIAL
  5
3E
102
{ACAD_REACTORS
330
3B
102
}
330
3B
100
AcDbMaterial
  1
Global
 72
     1
 94
      127
  0
MLINESTYLE
  5
18
102
{ACAD_REACTORS
330
17
102
}
330
17
100
AcDbMlineStyle
  2
Standard
 70
     0
  3

 62
   256
 51
90.0
 52
90.0
 71
     2
 49
0.5
 62
   256
  6
BYLAYER
 49
-0.5
 62
   256
  6
BYLAYER
  0
ACDBPLACEHOLDER
  5
F
102
{ACAD_REACTORS
330
E
102
}
330
E
  0
VISUALSTYLE
  5
2F
102
{ACAD_REACTORS
330
2A
102
}
330
2A
100
AcDbVisualStyle
  2
2dWireframe
 70
     4
 71
     0
 72
     2
 73
     0
 90
        0
 40
-0.6
 41
-30.0
 62
     5
 63
     7
421
 16777215
 74
     1
 91
        4
 64
     7
 65
   257
 75
     1
175
     1
 42
1.0
 92
        0
 66
   257
 43
1.0
 76
     1
 77
     6
 78
     2
 67
     7
 79
     5
170
     0
171
     0
290
     0
174
     0
 93
        1
 44
0.0
173
     0
291
     0
 45
0.0
  0
VISUALSTYLE
  5
31
102
{ACAD_REACTORS
330
2A
102
}
330
2A
100
AcDbVisualStyle
  2
3D Hidden
 70
     6
 71
     1
 72
     2
 73
     2
 90
        0
 40
-0.6
 41
-30.0
 62
     5
 63
     7
421
 16777215
 74
     2
 91
        2
 64
     7
 65
   257
 75
     2
175
     1
 42
40.0
 92
        0
 66
   257
 43
1.0
 76
     1
 77
     6
 78
     2
 67
     7
 79
     3
170
     0
171
     0
290
     0
174
     0
 93
        1
 44
0.0
173
     0
291
     0
 45
0.0
  0
VISUALSTYLE
  5
30
102
{ACAD_REACTORS
330
2A
102
}
330
2A
100
AcDbVisualStyle
  2
3dWireframe
 70
     5
 71
     0
 72
     2
 73
     0
 90
        0
 40
-0.6
 41
-30.0
 62
     5
 63
     7
421
 16777215
 74
     1
 91
        4
 64
     7
 65
   257
 75
     1
175
     1
 42
1.0
 92
        0
 66
   257
 43
1.0
 76
     1
 77
     6
 78
     2
 67
     7
 79
     5
170
     0
171
     0
290
     0
174
     0
 93
        1
 44
0.0
173
     0
291
     0
 45
0.0
  0
VISUALSTYLE
  5
32
102
{ACAD_REACTORS
330
2A
102
}
330
2A
100
AcDbVisualStyle
  2
Basic
 70
     7
 71
     1
 72
     0
 73
     1
 90
        0
 40
-0.6
 41
-30.0
 62
     5
 63
     7
421
 16777215
 74
     0
 91
        4
 64
     7
 65
   257
 75
     1
175
     1
 42
1.0
 92
        8
 66
     7
 43
1.0
 76
     1
 77
     6
 78
     2
 67
     7
 79
     5
170
     0
171
     0
290
     0
174
     0
 93
        1
 44
0.0
173
     0
291
     1
 45
0.0
  0
VISUALSTYLE
  5
36
102
{ACAD_REACTORS
330
2A
102
}
330
2A
100
AcDbVisualStyle
  2
Brighten
 70
    12
 71
     2
 72
     2
 73
     0
 90
        0
 40
-0.6
 41
-30.0
 62
     5
 63
     7
421
 16777215
 74
     1
 91
        4
 64
     7
 65
   257
 75
     1
175
     1
 42
1.0
 92
        8
 66
     7
 43
1.0
 76
     1
 77
     6
 78
     2
 67
     7
 79
     5
170
     0
171
     0
290
     0
174
     0
 93
        1
 44
50.0
173
     0
291
     1
 45
0.0
  0
VISUALSTYLE
  5
3A
102
{ACAD_REACTORS
330
2A
102
}
330
2A
100
AcDbVisualStyle
  2
ColorChange
 70
    16
 71
     2
 72
     2
 73
     3
 90
        0
 40
-0.6
 41
-30.0
 62
     5
 63
     8
421
  8421504
 74
     1
 91
        4
 64
     7
 65
   257
 75
     1
175
     1
 42
1.0
 92
        8
 66
     8
424
  8421504
 43
1.0
 76
     1
 77
     6
 78
     2
 67
     7
 79
     5
170
     0
171
     0
290
     0
174
     0
 93
        1
 44
0.0
173
     0
291
     1
 45
0.0
  0
VISUALSTYLE
  5
34
102
{ACAD_REACTORS
330
2A
102
}
330
2A
100
AcDbVisualStyle
  2
Conceptual
 70
     9
 71
     3
 72
     2
 73
     0
 90
        0
 40
-0.6
 41
-30.0
 62
     5
 63
     7
421
 16777215
 74
     2
 91
        2
 64
     7
 65
   257
 75
     1
175
     1
 42
40.0
 92
        8
 66
     7
 43
1.0
 76
     1
 77
     6
 78
     2
 67
     7
 79
     3
170
     0
171
     0
290
     0
174
     0
 93
        1
 44
0.0
173
     0
291
     0
 45
0.0
  0
VISUALSTYLE
  5
35
102
{ACAD_REACTORS
330
2A
102
}
330
2A
100
AcDbVisualStyle
  2
Dim
 70
    11
 71
     2
 72
     2
 73
     0
 90
        0
 40
-0.6
 41
-30.0
 62
     5
 63
     7
421
 16777215
 74
     1
 91
        4
 64
     7
 65
   257
 75
     1
175
     1
 42
1.0
 92
        8
 66
     7
 43
1.0
 76
     1
 77
     6
 78
     2
 67
     7
 79
     5
170
     0
171
     0
290
     0
174
     0
 93
        1
 44
-50.0
173
     0
291
     1
 45
0.0
  0
VISUALSTYLE
  5
39
102
{ACAD_REACTORS
330
2A
102
}
330
2A
100
AcDbVisualStyle
  2
Facepattern
 70
    15
 71
     2
 72
     2
 73
     0
 90
        0
 40
-0.6
 41
-30.0
 62
     5
 63
     7
421
 16777215
 74
     1
 91
        4
 64
     7
 65
   257
 75
     1
175
     1
 42
1.0
 92
        8
 66
     7
 43
1.0
 76
     1
 77
     6
 78
     2
 67
     7
 79
     5
170
     0
171
     0
290
     0
174
     0
 93
        1
 44
0.0
173
     0
291
     1
 45
0.0
  0
VISUALSTYLE
  5
2B
102
{ACAD_REACTORS
330
2A
102
}
330
2A
100
AcDbVisualStyle
  2
Flat
 70
     0
 71
     2
 72
     1
 73
     1
 90
        2
 40
-0.6
 41
30.0
 62
     5
 63
     7
421
 16777215
 74
     0
 91
        4
 64
     7
 65
   257
 75
     1
175
     1
 42
1.0
 92
        8
 66
     7
 43
1.0
 76
     1
 77
     6
 78
     2
 67
     7
 79
     5
170
     0
171
     0
290
     0
174
     0
 93
       13
 44
0.0
173
     0
291
     1
 45
0.0
  0
VISUALSTYLE
  5
2C
102
{ACAD_REACTORS
330
2A
102
}
330
2A
100
AcDbVisualStyle
  2
FlatWithEdges
 70
     1
 71
     2
 72
     1
 73
     1
 90
        2
 40
-0.6
 41
30.0
 62
     5
 63
     7
421
 16777215
 74
     1
 91
        4
 64
     7
 65
   257
 75
     1
175
     1
 42
1.0
 92
        0
 66
   257
 43
1.0
 76
     1
 77
     6
 78
     2
 67
     7
 79
     5
170
     0
171
     0
290
     0
174
     0
 93
       13
 44
0.0
173
     0
291
     1
 45
0.0
  0
VISUALSTYLE
  5
2D
102
{ACAD_REACTORS
330
2A
102
}
330
2A
100
AcDbVisualStyle
  2
Gouraud
 70
     2
 71
     2
 72
     2
 73
     1
 90
        2
 40
-0.6
 41
30.0
 62
     5
 63
     7
421
 16777215
 74
     0
 91
        4
 64
     7
 65
   257
 75
     1
175
     1
 42
1.0
 92
        0
 66
     7
 43
1.0
 76
     1
 77
     6
 78
     2
 67
     7
 79
     5
170
     0
171
     0
290
     0
174
     0
 93
       13
 44
0.0
173
     0
291
     1
 45
0.0
  0
VISUALSTYLE
  5
2E
102
{ACAD_REACTORS
330
2A
102
}
330
2A
100
AcDbVisualStyle
  2
GouraudWithEdges
 70
     3
 71
     2
 72
     2
 73
     1
 90
        2
 40
-0.6
 41
30.0
 62
     5
 63
     7
421
 16777215
 74
     1
 91
        4
 64
     7
 65
   257
 75
     1
175
     1
 42
1.0
 92
        0
 66
   257
 43
1.0
 76
     1
 77
     6
 78
     2
 67
     7
 79
     5
170
     0
171
     0
290
     0
174
     0
 93
       13
 44
0.0
173
     0
291
     1
 45
0.0
  0
VISUALSTYLE
  5
38
102
{ACAD_REACTORS
330
2A
102
}
330
2A
100
AcDbVisualStyle
  2
Linepattern
 70
    14
 71
     2
 72
     2
 73
     0
 90
        0
 40
-0.6
 41
-30.0
 62
     5
 63
     7
421
 16777215
 74
     1
 91
        4
 64
     7
 65
   257
 75
     7
175
     7
 42
1.0
 92
        8
 66
     7
 43
1.0
 76
     1
 77
     6
 78
     2
 67
     7
 79
     5
170
     0
171
     0
290
     0
174
     0
 93
        1
 44
0.0
173
     0
291
     1
 45
0.0
  0
VISUALSTYLE
  5
33
102
{ACAD_REACTORS
330
2A
102
}
330
2A
100
AcDbVisualStyle
  2
Realistic
 70
     8
 71
     2
 72
     2
 73
     0
 90
        0
 40
-0.6
 41
-30.0
 62
     5
 63
     7
421
 16777215
 74
     1
 91
        0
 64
     7
 65
   257
 75
     1
175
     1
 42
1.0
 92
        8
 66
     8
424
  7895160
 43
1.0
 76
     1
 77
     6
 78
     2
 67
     7
 79
     5
170
     0
171
     0
290
     0
174
     0
 93
       13
 44
0.0
173
     0
291
     0
 45
0.0
  0
VISUALSTYLE
  5
37
102
{ACAD_REACTORS
330
2A
102
}
330
2A
100
AcDbVisualStyle
  2
Thicken
 70
    13
 71
     2
 72
     2
 73
     0
 90
        0
 40
-0.6
 41
-30.0
 62
     5
 63
     7
421
 16777215
 74
     1
 91
        4
 64
     7
 65
   257
 75
     1
175
     1
 42
1.0
 92
       12
 66
     7
 43
1.0
 76
     1
 77
     6
 78
     2
 67
     7
 79
     5
170
     0
171
     0
290
     0
174
     0
 93
        1
 44
0.0
173
     0
291
     1
 45
0.0
  0
ENDSEC
  0
EOF
