  0
SECTION
  2
HEADER
  9
$ACADVER
  1
AC1009
  9
$INSBASE
 10
0
 20
0
  9
$EXTMIN
 10
-525.1341164064054
 20
-311.1356221969903
  9
$EXTMAX
 10
1036.178034281876
 20
827.179271756512
  9
$LIMMIN
 10
-525.1341164064054
 20
-311.1356221969903
  9
$LIMMAX
 10
1036.178034281876
 20
827.179271756512
  9
$VIEWCTR
 10
10
 20
10
  9
$VIEWSIZE
 40
10
  9
$SNAPMODE
 70
0
  9
$SNAPUNIT
 10
1
 20
1
  9
$SNAPBASE
 10
0
 20
0
  9
$SNAPANG
 50
0
  9
$SNAPSTYLE
 70
0
  9
$SNAPISOPAIR
 70
0
  9
$GRIDMODE
 70
0
  9
$GRIDUNIT
 10
0
 20
0
  9
$ORTHOMODE
 70
0
  9
$REGENMODE
 70
1
  9
$FILLMODE
 70
1
  9
$QTEXTMODE
 70
0
  9
$DRAGMODE
 70
2
  9
$LTSCALE
 40
1
  9
$OSMODE
 70
0
  9
$ATTMODE
 70
1
  9
$TEXTSIZE
 40
3.5
  9
$TRACEWID
 40
0.5
  9
$TEXTSTYLE
  7
STANDARD
  9
$CLAYER
  8
0
  9
$CELTYPE
  6
BYLAYER
  9
$CECOLOR
 62
256
  9
$DIMSCALE
 40
1
  9
$DIMASZ
 40
0.18
  9
$DIMEXO
 40
0.0625
  9
$DIMDLI
 40
0.38
  9
$DIMRND
 40
0
  9
$DIMDLE
 40
0
  9
$DIMEXE
 40
0.18
  9
$DIMTP
 40
0
  9
$DIMTM
 40
0
  9
$DIMTXT
 40
0.18
  9
$DIMCEN
 40
0.09
  9
$DIMTSZ
 40
0
  9
$DIMTOL
 70
0
  9
$DIMLIM
 70
0
  9
$DIMTIH
 70
1
  9
$DIMTOH
 70
1
  9
$DIMSE1
 70
0
  9
$DIMSE2
 70
0
  9
$DIMTAD
 70
0
  9
$DIMZIN
 70
0
  9
$DIMBLK
  1

  9
$DIMASO
 70
1
  9
$DIMSHO
 70
1
  9
$DIMPOST
  1

  9
$DIMAPOST
  1

  9
$DIMALT
 70
0
  9
$DIMALTD
 70
2
  9
$DIMALTF
 40
25.4
  9
$DIMLFAC
 40
1
  9
$DIMTOFL
 70
0
  9
$DIMTVP
 40
0
  9
$DIMTIX
 70
0
  9
$DIMSOXD
 70
0
  9
$DIMSAH
 70
0
  9
$DIMBLK1
  1

  9
$DIMBLK2
  1

  9
$DIMSTYLE
  2
*UNNAMED
  9
$DIMCLRD
 70
0
  9
$DIMCLRE
 70
0
  9
$DIMCLRT
 70
0
  9
$DIMTFAC
 40
1
  9
$DIMGAP
 40
0.09
  9
$LUNITS
 70
2
  9
$LUPREC
 70
4
  9
$AXISMODE
 70
0
  9
$AXISUNIT
 10
0
 20
0
  9
$SKETCHINC
 40
0.1
  9
$FILLETRAD
 40
2
  9
$AUNITS
 70
0
  9
$AUPREC
 70
0
  9
$MENU
  1
ACAD
  9
$ELEVATION
 40
0
  9
$THICKNESS
 40
0
  9
$VIEWDIR
 10
0
 20
0
 30
1
  9
$LIMCHECK
 70
0
  9
$BLIPMODE
 70
1
  9
$CHAMFERA
 40
0
  9
$CHAMFERB
 40
0
  9
$FASTZOOM
 70
1
  9
$SKPOLY
 70
0
  9
$ANGBASE
 50
0
  9
$ANGDIR
 70
0
  9
$PDMODE
 70
0
  9
$PDSIZE
 40
0
  9
$PLINEWID
 40
0
  9
$COORDS
 70
2
  0
ENDSEC
  0
SECTION
  2
TABLES
  0
TABLE
  2
DIMSTYLE
 70
0
  0
ENDTAB
  0
TABLE
  2
LTYPE
 70
9
  0
LTYPE
  2
CONTINUOUS
 70
64
  3
Solid line
 72
65
 73
0
 40
0
  0
LTYPE
  2
BORDER
 70
64
  3
__ __ . __ __ .
 72
65
 73
6
 40
71.90253325538139
 49
20.54358093010897
 49
-10.27179046505448
 49
20.54358093010897
 49
-10.27179046505448
 49
0
 49
-10.27179046505448
  0
LTYPE
  2
CENTER
 70
64
  3
____ _ ____ _
 72
65
 73
4
 40
82.17432372043587
 49
51.35895232527241
 49
-10.27179046505448
 49
10.27179046505448
 49
-10.27179046505448
  0
LTYPE
  2
DASHDOT
 70
64
  3
__ . __ . __ .
 72
65
 73
4
 40
41.08716186021793
 49
20.54358093010897
 49
-10.27179046505448
 49
0
 49
-10.27179046505448
  0
LTYPE
  2
DASHED
 70
64
  3
__ __ __ __ __
 72
65
 73
2
 40
30.81537139516345
 49
20.54358093010897
 49
-10.27179046505448
  0
LTYPE
  2
DIVIDE
 70
64
  3
__ . . __ . . 
 72
65
 73
6
 40
51.35895232527241
 49
20.54358093010897
 49
-10.27179046505448
 49
0
 49
-10.27179046505448
 49
0
 49
-10.27179046505448
  0
LTYPE
  2
DOT
 70
64
  3
..............
 72
65
 73
4
 40
20.54358093010897
 49
0
 49
-10.27179046505448
 49
0
 49
-10.27179046505448
  0
LTYPE
  2
HIDDEN
 70
64
  3
_ _ _ _ _ _ _
 72
65
 73
2
 40
15.40768569758173
 49
10.27179046505448
 49
-5.135895232527242
  0
LTYPE
  2
PHANTOM
 70
64
  3
_____ _ _ _____ _ _ 
 72
65
 73
6
 40
102.7179046505448
 49
51.35895232527241
 49
-10.27179046505448
 49
10.27179046505448
 49
-10.27179046505448
 49
10.27179046505448
 49
-10.27179046505448
  0
ENDTAB
  0
TABLE
  2
LAYER
 70
3
  0
LAYER
  2
0
 70
0
 62
7
  6
CONTINUOUS
  0
LAYER
  2
1
 70
0
 62
7
  6
CONTINUOUS
  0
ENDTAB
  0
TABLE
  2
STYLE
 70
4
  0
STYLE
  2
STANDARD
 70
0
 40
0
 41
1
 50
0
 71
0
 42
3.5
  3
txt
  4

  0
STYLE
  2
SIMPLEX
 70
0
 40
0
 41
1
 50
0
 71
0
 42
3.5
  3
simplex
  4

  0
STYLE
  2
COMPLEX
 70
0
 40
0
 41
1
 50
0
 71
0
 42
3.5
  3
complex
  4

  0
STYLE
  2
ITALIC
 70
0
 40
0
 41
1
 50
0
 71
0
 42
3.5
  3
italic
  4

  0
ENDTAB
  0
TABLE
  2
VIEW
 70
0
  0
ENDTAB
  0
ENDSEC
  0
SECTION
  2
BLOCKS
  0
ENDSEC
  0
SECTION
  2
ENTITIES
  0
LINE
  8
0
 62
7
 10
-36.73211417590642
 20
316.2463372226323
 30
0
 11
-36.73211417590642
 21
349.818474113634
 31
0
  0
LINE
  8
0
 62
7
 10
-19.50912854990543
 20
579.4119848531211
 30
0
 11
-19.50912854990543
 21
241.2463388996321
 31
0
  0
LINE
  8
0
 62
7
 10
-14.50911841790526
 20
241.2463388996321
 30
0
 11
-14.50911841790526
 21
579.4119848531211
 31
0
  0
LINE
  8
1
 62
7
 10
-14.50911841790526
 20
579.4119848531211
 30
0
 11
-35.04506058453967
 21
579.4119848531211
 31
0
  0
LINE
  8
0
 62
7
 10
-47.39115692190512
 20
522.1148221406313
 30
0
 11
-47.39115692190512
 21
566.8513490476328
 31
0
  0
LINE
  8
1
 62
7
 10
-15.14267853863726
 20
718.6151309527779
 30
0
 11
-15.14267853863726
 21
579.3622336007977
 31
0
  0
LINE
  8
1
 62
7
 10
-485.1255633631736
 20
579.3622336007977
 30
0
 11
-485.1255633631736
 21
718.6151309527779
 31
0
  0
LINE
  8
1
 62
7
 10
-465.2231813172712
 20
579.4119848531211
 30
0
 11
-485.7591234839056
 21
579.4119848531211
 31
0
  0
LINE
  8
1
 62
7
 10
-382.3841151544054
 20
-231.4773456552816
 30
0
 11
-500.1341153624056
 21
-231.4773456552816
 31
0
  0
LINE
  8
1
 62
7
 10
-386.1341227544054
 20
-231.4773456552816
 30
0
 11
-386.1341227544054
 21
-211.1387224197398
 31
0
  0
LINE
  8
1
 62
7
 10
-382.3841151544054
 20
-231.4773456552816
 30
0
 11
-382.3841151544054
 21
-211.4799238588989
 31
0
  0
LINE
  8
1
 62
7
 10
-114.1341191474054
 20
-211.1387224197398
 30
0
 11
-114.1341191474054
 21
-231.4773456552816
 31
0
  0
LINE
  8
1
 62
7
 10
-117.8841267474054
 20
-211.4799238588989
 30
0
 11
-117.8841267474054
 21
-231.4773456552816
 31
0
  0
LINE
  8
1
 62
7
 10
-15.11595897115382
 20
-181.0898464493141
 30
0
 11
-16.19982763288613
 21
-166.0568901519259
 31
0
  0
LINE
  8
1
 62
7
 10
-484.0684142689246
 20
-166.0568901519259
 30
0
 11
-485.1522829306569
 21
-181.0898464493141
 31
0
  0
LINE
  8
1
 62
7
 10
222.8278377621028
 20
579.4882247422812
 30
0
 11
213.4038335751546
 21
309.6200539055737
 31
0
  0
LINE
  8
1
 62
7
 10
262.2311305696146
 20
769.6054098155109
 30
0
 11
252.1582116436257
 21
769.8841501129532
 31
0
  0
LINE
  8
1
 62
7
 10
240.3082612340606
 20
578.5310116242511
 30
0
 11
236.2030009637486
 21
724.8358068348638
 31
0
  0
LINE
  8
1
 62
7
 10
214.6316060238895
 20
643.8782412294605
 30
0
 11
205.2871531462251
 21
376.288121834392
 31
0
  0
LINE
  8
1
 62
7
 10
213.6267016180176
 20
377.0560382561151
 30
0
 11
222.3739826650401
 21
627.5453938554957
 31
0
  0
LINE
  8
0
 62
7
 10
222.8278377621028
 20
579.4882247422812
 30
0
 11
237.3990646448293
 21
578.9793862870976
 31
0
  0
LINE
  8
1
 62
7
 10
844.801508373595
 20
305.2408541206317
 30
0
 11
574.7688409319205
 21
305.2408541206317
 31
0
  0
LINE
  8
1
 62
7
 10
1036.178034281876
 20
272.4965588080088
 30
0
 11
1036.105064977418
 21
282.5730694800407
 31
0
  0
LINE
  8
1
 62
7
 10
844.4549363452512
 20
287.7376729942915
 30
0
 11
990.5273351103783
 21
296.9463961689801
 31
0
  0
LINE
  8
1
 62
7
 10
908.8662558399697
 20
315.6792721039931
 30
0
 11
641.1130284132028
 21
315.6792721039931
 31
0
  0
LINE
  8
1
 62
7
 10
642.171523085382
 20
307.3716037564303
 30
0
 11
892.8135630433836
 21
307.3716037564303
 31
0
  0
LINE
  8
0
 62
7
 10
844.801508373595
 20
305.2408541206317
 30
0
 11
844.801508373595
 21
290.6607454296321
 31
0
  0
LINE
  8
0
 62
7
 10
-485.7591234839056
 20
579.4119848531211
 30
0
 11
-485.7591234839056
 21
241.2463388996321
 31
0
  0
LINE
  8
0
 62
7
 10
-480.7591133519054
 20
241.2463388996321
 30
0
 11
-480.7591133519054
 21
579.4119848531211
 31
0
  0
LINE
  8
0
 62
7
 10
-463.5361277259044
 20
349.818474113634
 30
0
 11
-463.5361277259044
 21
316.2463372226323
 31
0
  0
LINE
  8
0
 62
7
 10
-452.8770849799057
 20
566.8513490476328
 30
0
 11
-452.8770849799057
 21
522.1148221406313
 31
0
  0
LINE
  8
0
 62
7
 10
484.938422696892
 20
266.2463383406323
 30
0
 11
476.0515154515946
 21
266.2463383406323
 31
0
  0
LINE
  8
0
 62
7
 10
476.0515154515946
 20
16.24634625663407
 30
0
 11
476.0515154515946
 21
266.2463383406323
 31
0
  0
LINE
  8
0
 62
7
 10
498.5515144825944
 20
16.24634625663407
 30
0
 11
476.0515154515946
 21
16.24634625663407
 31
0
  0
LINE
  8
0
 62
7
 10
511.0515142035942
 20
85.52124860063145
 30
0
 11
511.0515142035942
 21
28.74633433563236
 31
0
  0
LINE
  8
0
 62
7
 10
178.9732729193254
 20
266.2463383406323
 30
0
 11
170.086365674028
 21
266.2463383406323
 31
0
  0
LINE
  8
0
 62
7
 10
192.5863647050278
 20
16.24634625663407
 30
0
 11
170.086365674028
 21
16.24634625663407
 31
0
  0
LINE
  8
0
 62
7
 10
205.0863644260276
 20
85.52124860063145
 30
0
 11
205.0863644260276
 21
28.74633433563236
 31
0
  0
LINE
  8
0
 62
7
 10
170.086365674028
 20
16.24634625663407
 30
0
 11
170.086365674028
 21
266.2463383406323
 31
0
  0
LINE
  8
0
 62
7
 10
-505.1341254964054
 20
16.24634625663396
 30
0
 11
-505.1341254964053
 21
318.746339961632
 31
0
  0
LINE
  8
0
 62
7
 10
-500.1341339904056
 20
16.24634625663396
 30
0
 11
-500.1341339904056
 21
318.746339961632
 31
0
  0
LINE
  8
0
 62
7
 10
-465.7591295204056
 20
48.12134566063116
 30
0
 11
-459.5091354804054
 21
48.12134566063116
 31
0
  0
LINE
  8
0
 62
7
 10
-459.5091354804054
 20
34.37133642263336
 30
0
 11
-465.7591295204056
 21
34.37133642263336
 31
0
  0
LINE
  8
0
 62
7
 10
-459.5091354804054
 20
221.8713392156317
 30
0
 11
-465.7591295204056
 21
221.8713392156317
 31
0
  0
LINE
  8
0
 62
7
 10
-465.7591295204056
 20
235.6213391416316
 30
0
 11
-459.5091354804054
 21
235.6213391416316
 31
0
  0
LINE
  8
0
 62
7
 10
-463.8841350334055
 20
16.24634625663396
 30
0
 11
-505.1341254964054
 21
16.24634625663396
 31
0
  0
LINE
  8
0
 62
7
 10
-445.1341342884052
 20
241.2463388996332
 30
0
 11
-445.1341342884052
 21
34.99634700163199
 31
0
  0
LINE
  8
0
 62
7
 10
-40.75910642140548
 20
48.12134566063116
 30
0
 11
-34.5091123814052
 21
48.12134566063116
 31
0
  0
LINE
  8
0
 62
7
 10
-34.5091123814052
 20
34.37133642263336
 30
0
 11
-40.75910642140548
 21
34.37133642263336
 31
0
  0
LINE
  8
0
 62
7
 10
-34.5091123814052
 20
221.8713392156317
 30
0
 11
-40.75910642140548
 21
221.8713392156317
 31
0
  0
LINE
  8
0
 62
7
 10
-40.75910642140548
 20
235.6213391416316
 30
0
 11
-34.5091123814052
 21
235.6213391416316
 31
0
  0
LINE
  8
0
 62
7
 10
-0.1341079114051809
 20
318.746339961632
 30
0
 11
-0.1341079114051809
 21
16.24634625663396
 31
0
  0
LINE
  8
0
 62
7
 10
4.865883594594607
 20
318.746339961632
 30
0
 11
4.865883594594607
 21
16.24634625663396
 31
0
  0
LINE
  8
0
 62
7
 10
4.865883594594607
 20
16.24634625663396
 30
0
 11
-36.3841068684053
 21
16.24634625663396
 31
0
  0
LINE
  8
0
 62
7
 10
-55.1341076134056
 20
34.99634700163199
 30
0
 11
-55.1341076134056
 21
241.2463388996332
 31
0
  0
LINE
  8
1
 62
7
 10
-505.1341068684055
 20
-233.9773483933317
 30
0
 11
-500.1341153624057
 21
-233.9773483933317
 31
0
  0
LINE
  8
0
 62
7
 10
-500.1341153624057
 20
-233.9773483933317
 30
0
 11
-500.1341153624057
 21
-130.2273476852828
 31
0
  0
LINE
  8
0
 62
7
 10
-505.1341068684055
 20
-233.9773483933317
 30
0
 11
-505.1341068684055
 21
-125.2273468662829
 31
0
  0
LINE
  8
0
 62
7
 10
-500.1341153624057
 20
-130.2273476852828
 30
0
 11
-445.1341156604053
 21
-130.2273476852828
 31
0
  0
LINE
  8
0
 62
7
 10
-445.1341156604053
 20
-125.2273468662829
 30
0
 11
-505.1341068684055
 21
-125.2273468662829
 31
0
  0
LINE
  8
0
 62
7
 10
-445.1341156604053
 20
-125.2273468662829
 30
0
 11
-445.1341156604053
 21
-130.2273476852828
 31
0
  0
LINE
  8
1
 62
7
 10
-0.1341265394052016
 20
-231.4773456552816
 30
0
 11
-117.8841267474054
 21
-231.4773456552816
 31
0
  0
LINE
  8
1
 62
7
 10
-0.1341265394052016
 20
-233.9773483933317
 30
0
 11
4.865864966594586
 21
-233.9773483933317
 31
0
  0
LINE
  8
0
 62
7
 10
4.865864966594586
 20
-125.2273468662829
 30
0
 11
4.865864966594586
 21
-233.9773483933317
 31
0
  0
LINE
  8
0
 62
7
 10
-0.1341265394052016
 20
-130.2273476852828
 30
0
 11
-0.1341265394052016
 21
-233.9773483933317
 31
0
  0
LINE
  8
0
 62
7
 10
-55.13412624140563
 20
-130.2273476852828
 30
0
 11
-0.1341265394052016
 21
-130.2273476852828
 31
0
  0
LINE
  8
0
 62
7
 10
4.865864966594586
 20
-125.2273468662829
 30
0
 11
-55.13412624140563
 21
-125.2273468662829
 31
0
  0
LINE
  8
0
 62
7
 10
-55.13412624140563
 20
-130.2273476852828
 30
0
 11
-55.13412624140563
 21
-125.2273468662829
 31
0
  0
LINE
  8
0
 62
7
 10
-379.8841194014054
 20
293.7463381916321
 30
0
 11
-379.8841194014054
 21
263.7463379306319
 31
0
  0
LINE
  8
0
 62
7
 10
-386.1341227544053
 20
316.2463372236321
 30
0
 11
-386.1341227544053
 21
241.2463388996321
 31
0
  0
LINE
  8
0
 62
7
 10
-382.3841151544054
 20
316.2463372236321
 30
0
 11
-382.3841151544054
 21
241.2463388996321
 31
0
  0
LINE
  8
0
 62
2
 10
-359.8841164064054
 20
278.7463380616321
 30
0
 11
-525.1341164064054
 21
278.7463380616321
 31
0
  0
LINE
  8
0
 62
7
 10
-386.1341227544053
 20
-156.4773473313744
 30
0
 11
-386.1341227544053
 21
-175.7686863073743
 31
0
  0
LINE
  8
0
 62
7
 10
-382.3841151544054
 20
-156.4773473313744
 30
0
 11
-382.3841151544054
 21
-176.2900139093742
 31
0
  0
LINE
  8
0
 62
7
 10
-500.1341153634054
 20
-140.4222052903743
 30
0
 11
-500.1341153634054
 21
-140.4323241093743
 31
0
  0
LINE
  8
1
 62
2
 10
-250.1341209509054
 20
124.5917201039019
 30
0
 11
-250.1341209509054
 21
827.179271756512
 31
0
  0
LINE
  8
1
 62
7
 10
-382.3841151544054
 20
316.2463372236321
 30
0
 11
-480.7591226654054
 21
316.2463372236321
 31
0
  0
LINE
  8
1
 62
7
 10
-485.7591141714054
 20
316.2463372233119
 30
0
 11
-500.1341153634054
 21
316.2463372233119
 31
0
  0
LINE
  8
1
 62
7
 10
-382.3841151544054
 20
241.2463388996321
 30
0
 11
-500.1341153634054
 21
241.2463388996321
 31
0
  0
LINE
  8
1
 62
7
 10
-379.8841194014054
 20
293.7463381916321
 30
0
 11
-382.3841151544054
 21
293.7463381916321
 31
0
  0
LINE
  8
1
 62
7
 10
-379.8841194014054
 20
263.7463379306319
 30
0
 11
-382.3841151544054
 21
263.7463379306319
 31
0
  0
LINE
  8
1
 62
7
 10
-500.1341153634054
 20
318.746339961632
 30
0
 11
-505.1341254964053
 21
318.746339961632
 31
0
  0
LINE
  8
0
 62
7
 10
-120.3841225004054
 20
263.7463379306319
 30
0
 11
-120.3841225004054
 21
293.7463381916321
 31
0
  0
LINE
  8
0
 62
7
 10
-114.1341191474054
 20
241.2463388996321
 30
0
 11
-114.1341191474054
 21
316.2463372236321
 31
0
  0
LINE
  8
0
 62
7
 10
-117.8841267474054
 20
241.2463388996321
 30
0
 11
-117.8841267474054
 21
316.2463372236321
 31
0
  0
LINE
  8
0
 62
2
 10
24.86587450459467
 20
278.7463380616321
 30
0
 11
-140.3841254954054
 21
278.7463380616321
 31
0
  0
LINE
  8
1
 62
7
 10
-19.50911923640535
 20
316.2463372236321
 30
0
 11
-117.8841267474054
 21
316.2463372236321
 31
0
  0
LINE
  8
1
 62
7
 10
-0.1341265384053259
 20
316.2463372233119
 30
0
 11
-14.50912773040545
 21
316.2463372233119
 31
0
  0
LINE
  8
1
 62
7
 10
-0.1341265384053259
 20
241.2463388996321
 30
0
 11
-117.8841267474054
 21
241.2463388996321
 31
0
  0
LINE
  8
1
 62
7
 10
-117.8841267474054
 20
293.7463381916321
 30
0
 11
-120.3841225004054
 21
293.7463381916321
 31
0
  0
LINE
  8
1
 62
7
 10
-117.8841267474054
 20
263.7463379306319
 30
0
 11
-120.3841225004054
 21
263.7463379306319
 31
0
  0
LINE
  8
1
 62
7
 10
4.865883594594607
 20
318.746339961632
 30
0
 11
-0.1341265384053259
 21
318.746339961632
 31
0
  0
LINE
  8
1
 62
2
 10
-250.1341209509054
 20
-87.75022176073429
 30
0
 11
-250.1341209509054
 21
-311.1356221969903
 31
0
  0
LINE
  8
1
 62
7
 10
-500.1341153634054
 20
-156.477347331282
 30
0
 11
-382.3841151544054
 21
-156.477347331282
 31
0
  0
LINE
  8
0
 62
7
 10
-114.1341191474054
 20
-175.7686863073743
 30
0
 11
-114.1341191474054
 21
-156.4773473313744
 31
0
  0
LINE
  8
0
 62
7
 10
-117.8841267474054
 20
-176.2900139093742
 30
0
 11
-117.8841267474054
 21
-156.477347331282
 31
0
  0
LINE
  8
1
 62
7
 10
-117.8841267474054
 20
-156.477347331282
 30
0
 11
-0.1341265384053827
 21
-156.477347331282
 31
0
  0
ARC
  8
1
 62
7
 10
-108.1232041042443
 20
339.1304399299992
 30
0
 40
7.66977982958184
 50
191.8067264920796
 51
291.2700083733749
  0
ARC
  8
1
 62
7
 10
-392.1450377975665
 20
339.1304399299992
 30
0
 40
7.669779829581875
 50
248.7299916266241
 51
348.1932735079203
  0
ARC
  8
1
 62
7
 10
-217.5883026042369
 20
679.2109919412346
 30
0
 40
364.9201007565446
 50
287.9143233087906
 51
297.617719435296
  0
ARC
  8
0
 62
7
 10
-44.10700018190505
 20
349.8887897896314
 30
0
 40
7.375221210192168
 50
359.4537312958075
 51
125.8102396075025
  0
ARC
  8
0
 62
7
 10
-113.1931869809048
 20
364.0557106676336
 30
0
 40
11.18407848227301
 50
128.0246757030032
 51
206.0315588436009
  0
ARC
  8
0
 62
7
 10
-211.5896383619063
 20
315.8584438736327
 30
0
 40
98.38252201295651
 50
12.74397216949898
 51
26.10429862339951
  0
ARC
  8
0
 62
7
 10
-236.6469773419055
 20
521.964983565633
 30
0
 40
189.2558797358441
 50
308.0179955491998
 51
0.04536249489959678
  0
ARC
  8
0
 62
7
 10
-34.89067107890583
 20
566.9123038306318
 30
0
 40
12.50063445523584
 50
90.70765144010115
 51
180.2793830695964
  0
ARC
  8
1
 62
7
 10
-57.0704928558614
 20
719.2115935690274
 30
0
 40
41.93205672361194
 50
359.1849685946416
 51
84.26556433667251
  0
ARC
  8
1
 62
7
 10
-250.3139410775887
 20
-1395.490469657151
 30
0
 40
2165.410737596598
 50
84.76376116255622
 51
95.22170193656331
  0
ARC
  8
1
 62
7
 10
-443.1977490459494
 20
719.2115935690274
 30
0
 40
41.93205672361204
 50
95.73443566332749
 51
180.8150314053584
  0
ARC
  8
1
 62
7
 10
-250.1145224797926
 20
757.9874249743828
 30
0
 40
455.3764719389789
 50
242.3125393793201
 51
297.6836441415267
  0
ARC
  8
1
 62
7
 10
-282.6799392975739
 20
679.2109919412346
 30
0
 40
364.9201007565445
 50
242.382280564704
 51
252.0856766912094
  0
ARC
  8
1
 62
7
 10
-21.64579976593916
 20
-168.7128884702872
 30
0
 40
6.059120360343423
 50
25.99847213825603
 51
79.09284376629704
  0
ARC
  8
1
 62
7
 10
-31.52161758498107
 20
-211.8980642620649
 30
0
 40
50.35597039844215
 50
77.35627714622289
 51
102.5187723547637
  0
ARC
  8
1
 62
7
 10
-47.07893355166351
 20
-151.6700265721648
 30
0
 40
38.52434649164682
 50
302.6000570079898
 51
324.7133217592591
  0
ARC
  8
1
 62
7
 10
-55.52357826957336
 20
-155.0813425138475
 30
0
 40
48.05432315959916
 50
298.2091978250057
 51
327.2325016313101
  0
ARC
  8
1
 62
7
 10
-61.16545886211935
 20
-135.5841764308289
 30
0
 40
59.75110455733473
 50
277.0186352237323
 51
305.6706248508634
  0
ARC
  8
1
 62
7
 10
-60.00655499507712
 20
-149.9420265098846
 30
0
 40
54.72344589793421
 50
277.165084144362
 51
299.8021169738836
  0
ARC
  8
1
 62
7
 10
-248.4704897399208
 20
761.7147488177336
 30
0
 40
947.1352590958254
 50
275.221889250401
 51
282.5642103749111
  0
ARC
  8
1
 62
7
 10
-478.6224421358717
 20
-168.7128884702872
 30
0
 40
6.059120360343322
 50
100.9071562337014
 51
154.0015278617433
  0
ARC
  8
1
 62
7
 10
-250.1341209509054
 20
1262.804511499677
 30
0
 40
1480.204262021759
 50
262.3536566402857
 51
277.6463433597143
  0
ARC
  8
1
 62
7
 10
-250.1341209509054
 20
1328.345982680031
 30
0
 40
1535.826217927626
 50
262.6578503022391
 51
277.3421496977609
  0
ARC
  8
1
 62
7
 10
-453.1893083501472
 20
-151.6700265721648
 30
0
 40
38.52434649164689
 50
215.2866782407409
 51
237.3999429920102
  0
ARC
  8
1
 62
7
 10
-439.1027830396914
 20
-135.5841764308289
 30
0
 40
59.75110455733463
 50
234.3293751491367
 51
262.9813647762678
  0
ARC
  8
1
 62
7
 10
-440.2616869067336
 20
-149.9420265098846
 30
0
 40
54.72344589793421
 50
240.1978830261165
 51
262.834915855638
  0
ARC
  8
1
 62
7
 10
-444.7446636322374
 20
-155.0813425138475
 30
0
 40
48.05432315959914
 50
212.76749836869
 51
241.7908021749944
  0
ARC
  8
1
 62
7
 10
-468.7466243168297
 20
-211.8980642620649
 30
0
 40
50.35597039844211
 50
77.48122764523627
 51
102.6437228537771
  0
ARC
  8
1
 62
7
 10
-251.7977521618899
 20
761.7147488177336
 30
0
 40
947.1352590958254
 50
257.4357896250889
 51
264.778110749599
  0
ARC
  8
1
 62
7
 10
-250.1113486766539
 20
1544.864071440546
 30
0
 40
1728.589414542355
 50
262.5968283487641
 51
277.4000331319581
  0
ARC
  8
1
 62
7
 10
294.3141308333264
 20
721.0020989739606
 30
0
 40
58.23745127219846
 50
123.4287649362588
 51
176.2255519481222
  0
ARC
  8
1
 62
7
 10
865.4947113707216
 20
659.2210822656792
 30
0
 40
651.0439191581348
 50
176.1771219432171
 51
181.3503872815776
  0
ARC
  8
1
 62
7
 10
310.6945615479862
 20
699.2424494015821
 30
0
 40
94.85557428183211
 50
151.2695856333829
 51
177.954774484443
  0
ARC
  8
1
 62
7
 10
279.5256265383207
 20
718.3132711887063
 30
0
 40
58.38262542090507
 50
117.953808190399
 51
152.9779070122412
  0
ARC
  8
1
 62
7
 10
292.7069820046246
 20
710.8520625732194
 30
0
 40
66.2288547393708
 50
117.4806592517142
 51
154.3609086124597
  0
ARC
  8
1
 62
7
 10
354.645315060475
 20
687.3089476035566
 30
0
 40
132.3731962011747
 50
156.7750140441434
 51
180.6806524064157
  0
ARC
  8
1
 62
7
 10
-892.9755250941123
 20
654.8675939851851
 30
0
 40
1115.684107208896
 50
358.5967324816201
 51
1.585467026659152
  0
ARC
  8
1
 62
7
 10
308.3197488606879
 20
372.4238779357655
 30
0
 40
94.80627671908657
 50
177.1994581446838
 51
190.1968209803485
  0
ARC
  8
1
 62
7
 10
281.2888175235091
 20
373.3618319329947
 30
0
 40
75.89536147313825
 50
194.3479258735459
 51
208.1630211888767
  0
ARC
  8
1
 62
7
 10
302.6418287341369
 20
376.310434873995
 30
0
 40
97.35467814491135
 50
180.0131318086908
 51
193.1625660610521
  0
ARC
  8
0
 62
7
 10
236.9628213319496
 20
566.4870076446202
 30
0
 40
12.50000000000124
 50
13.7570898053025
 51
88.00000000000038
  0
ARC
  8
0
 62
7
 10
-722.2084215494435
 20
331.6534988971537
 30
0
 40
999.999999999999
 50
357.6618680049347
 51
13.75708980529997
  0
ARC
  8
1
 62
7
 10
988.7240118259826
 20
238.7368715547587
 30
0
 40
58.23745127219851
 50
35.42876493625884
 51
88.22555194812222
  0
ARC
  8
1
 62
7
 10
946.9145452308101
 20
-334.2518875946436
 30
0
 40
651.0439191581348
 50
88.17712194321712
 51
93.35038728157755
  0
ARC
  8
1
 62
7
 10
967.5492864319094
 20
221.6070185374071
 30
0
 40
94.85557428183184
 50
63.26958563338308
 51
89.95477448444306
  0
ARC
  8
1
 62
7
 10
985.5207106450869
 20
253.4225283560949
 30
0
 40
58.38262542090475
 50
29.95380819039921
 51
64.97790701224146
  0
ARC
  8
1
 62
7
 10
978.5240698679243
 20
239.9888101899199
 30
0
 40
66.22885473937068
 50
29.48065925171422
 51
66.36090861245982
  0
ARC
  8
1
 62
7
 10
957.1569133780283
 20
177.2665654297991
 30
0
 40
132.3731962011746
 50
68.77501404414339
 51
92.68065240641576
  0
ARC
  8
1
 62
7
 10
881.1939827587984
 20
1422.995201764522
 30
0
 40
1115.684107208896
 50
270.5967324816201
 51
273.5854670266592
  0
ARC
  8
1
 62
7
 10
640.846924241938
 20
212.5745808957942
 30
0
 40
94.80627671908658
 50
89.19945814468377
 51
102.1968209803485
  0
ARC
  8
1
 62
7
 10
640.8409409638674
 20
239.6217798423872
 30
0
 40
75.89536147313815
 50
106.347925873546
 51
120.1630211888768
  0
ARC
  8
1
 62
7
 10
644.5329570399583
 20
218.3846810678662
 30
0
 40
97.3546781449114
 50
92.0131318086908
 51
105.1625660610521
  0
ARC
  8
0
 62
7
 10
832.3015150785946
 20
290.6607452676329
 30
0
 40
12.50000000000123
 50
285.7570898053027
 51
0
  0
ARC
  8
0
 62
7
 10
564.1364669315949
 20
1241.052115679633
 30
0
 40
1000.000000000001
 50
270.0679427787999
 51
285.7570898053
  0
ARC
  8
0
 62
7
 10
-456.1612417199058
 20
349.8887897896314
 30
0
 40
7.375221210193304
 50
54.18976039249719
 51
180.5462687041925
  0
ARC
  8
0
 62
7
 10
-263.6212645599053
 20
521.964983565633
 30
0
 40
189.2558797358415
 50
179.9546375051004
 51
231.9820044508002
  0
ARC
  8
0
 62
7
 10
-387.075054920906
 20
364.0557106676336
 30
0
 40
11.18407848227154
 50
333.9684411563987
 51
51.97532429699694
  0
ARC
  8
0
 62
7
 10
-288.6786035399045
 20
315.8584438736327
 30
0
 40
98.38252201295721
 50
153.8957013766005
 51
167.256027830501
  0
ARC
  8
0
 62
7
 10
-465.377570822905
 20
566.9123038306318
 30
0
 40
12.50063445523593
 50
359.7206169304036
 51
89.29234855989907
  0
ARC
  8
0
 62
7
 10
498.5515150785945
 20
28.74633806163206
 30
0
 40
12.5
 50
270
 51
0
  0
ARC
  8
0
 62
7
 10
761.0515150785946
 20
85.52124264163308
 30
0
 40
249.9999999999996
 50
138.2183693274001
 51
180
  0
ARC
  8
0
 62
7
 10
544.8015150785946
 20
278.7463380616321
 30
0
 40
39.99999999999893
 50
318.2183693274007
 51
138.2183693273992
  0
ARC
  8
0
 62
7
 10
761.0515150785946
 20
85.52124264163308
 30
0
 40
329.9999999999992
 50
138.2183693274001
 51
146.7939343363919
  0
ARC
  8
0
 62
7
 10
455.0863653010279
 20
85.52124264163308
 30
0
 40
329.9999999999992
 50
138.2183693274001
 51
146.7939343363919
  0
ARC
  8
0
 62
7
 10
238.8363653010279
 20
278.7463380616321
 30
0
 40
39.99999999999888
 50
318.2183693274006
 51
138.2183693273993
  0
ARC
  8
0
 62
7
 10
192.5863653010279
 20
28.74633806163206
 30
0
 40
12.5
 50
270
 51
0
  0
ARC
  8
0
 62
7
 10
455.0863653010279
 20
85.52124264163308
 30
0
 40
249.9999999999996
 50
138.2183693274001
 51
180
  0
ARC
  8
0
 62
7
 10
-459.5091302654055
 20
41.24633806163195
 30
0
 40
6.875
 50
270
 51
90
  0
ARC
  8
0
 62
7
 10
-465.7591302654055
 20
41.24633806163195
 30
0
 40
6.875
 50
90
 51
270
  0
ARC
  8
0
 62
7
 10
-465.7591302654055
 20
228.7463380616321
 30
0
 40
6.875
 50
90
 51
270
  0
ARC
  8
0
 62
7
 10
-459.5091302654055
 20
228.7463380616321
 30
0
 40
6.875
 50
270
 51
90
  0
ARC
  8
0
 62
7
 10
-463.8841302654055
 20
34.99633806163195
 30
0
 40
18.75
 50
270
 51
0
  0
ARC
  8
0
 62
7
 10
-40.75911163640535
 20
41.24633806163195
 30
0
 40
6.875
 50
90
 51
270
  0
ARC
  8
0
 62
7
 10
-34.50911163640535
 20
41.24633806163195
 30
0
 40
6.875
 50
270
 51
90
  0
ARC
  8
0
 62
7
 10
-34.50911163640535
 20
228.7463380616321
 30
0
 40
6.875
 50
270
 51
90
  0
ARC
  8
0
 62
7
 10
-40.75911163640535
 20
228.7463380616321
 30
0
 40
6.875
 50
90
 51
270
  0
ARC
  8
0
 62
7
 10
-36.38411163640535
 20
34.99633806163195
 30
0
 40
18.75
 50
180
 51
270
  0
CIRCLE
  8
0
 62
7
 10
544.8015150785946
 20
278.7463380616321
 30
0
 40
10
  0
CIRCLE
  8
0
 62
7
 10
238.8363653010279
 20
278.7463380616321
 30
0
 40
10
  0
ENDSEC
  0
EOF
