  0
SECTION
  2
HEADER
  9
$ACADVER
  1
AC1024
  9
$ACADMAINTVER
 70
     6
  9
$DWGCODEPAGE
  3
ANSI_1252
  9
$INSBASE
 10
0.0
 20
0.0
 30
0.0
  9
$EXTMIN
 10
0.0
 20
0.0
 30
0.0
  9
$EXTMAX
 10
2100.0
 20
1485.0
 30
0.0
  9
$LIMMIN
 10
0.0
 20
0.0
  9
$LIMMAX
 10
2100.0
 20
1485.0
  9
$ORTHOMODE
 70
     0
  9
$REGENMODE
 70
     1
  9
$FILLMODE
 70
     1
  9
$QTEXTMODE
 70
     0
  9
$MIRRTEXT
 70
     1
  9
$LTSCALE
 40
5.0
  9
$ATTMODE
 70
     1
  9
$TEXTSIZE
 40
17.5
  9
$TRACEWID
 40
1.0
  9
$TEXTSTYLE
  7
Standard
  9
$CLAYER
  8
0
  9
$CELTYPE
  6
ByLayer
  9
$CECOLOR
 62
   256
  9
$CELTSCALE
 40
1.0
  9
$DISPSILH
 70
     0
  9
$DIMSCALE
 40
1.0
  9
$DIMASZ
 40
20.0
  9
$DIMEXO
 40
0.0
  9
$DIMDLI
 40
3.75
  9
$DIMRND
 40
0.0
  9
$DIMDLE
 40
0.0
  9
$DIMEXE
 40
10.0
  9
$DIMTP
 40
0.0
  9
$DIMTM
 40
0.0
  9
$DIMTXT
 40
17.5
  9
$DIMCEN
 40
2.5
  9
$DIMTSZ
 40
0.0
  9
$DIMTOL
 70
     0
  9
$DIMLIM
 70
     0
  9
$DIMTIH
 70
     1
  9
$DIMTOH
 70
     1
  9
$DIMSE1
 70
     0
  9
$DIMSE2
 70
     0
  9
$DIMTAD
 70
     1
  9
$DIMZIN
 70
     0
  9
$DIMBLK
  1

  9
$DIMASO
 70
     1
  9
$DIMSHO
 70
     1
  9
$DIMPOST
  1

  9
$DIMAPOST
  1

  9
$DIMALT
 70
     0
  9
$DIMALTD
 70
     3
  9
$DIMALTF
 40
0.0393700787
  9
$DIMLFAC
 40
1.0
  9
$DIMTOFL
 70
     1
  9
$DIMTVP
 40
0.0
  9
$DIMTIX
 70
     0
  9
$DIMSOXD
 70
     0
  9
$DIMSAH
 70
     0
  9
$DIMBLK1
  1

  9
$DIMBLK2
  1

  9
$DIMSTYLE
  2
ISO-25
  9
$DIMCLRD
 70
     0
  9
$DIMCLRE
 70
     0
  9
$DIMCLRT
 70
     0
  9
$DIMTFAC
 40
1.0
  9
$DIMGAP
 40
7.62
  9
$DIMJUST
 70
     0
  9
$DIMSD1
 70
     0
  9
$DIMSD2
 70
     0
  9
$DIMTOLJ
 70
     0
  9
$DIMTZIN
 70
     0
  9
$DIMALTZ
 70
     0
  9
$DIMALTTZ
 70
     0
  9
$DIMUPT
 70
     0
  9
$DIMDEC
 70
     2
  9
$DIMTDEC
 70
     2
  9
$DIMALTU
 70
     2
  9
$DIMALTTD
 70
     3
  9
$DIMTXSTY
  7
Standard
  9
$DIMAUNIT
 70
     0
  9
$DIMADEC
 70
     2
  9
$DIMALTRND
 40
0.0
  9
$DIMAZIN
 70
     0
  9
$DIMDSEP
 70
    44
  9
$DIMATFIT
 70
     3
  9
$DIMFRAC
 70
     0
  9
$DIMLDRBLK
  1

  9
$DIMLUNIT
 70
     2
  9
$DIMLWD
 70
    -2
  9
$DIMLWE
 70
    -2
  9
$DIMTMOVE
 70
     0
  9
$DIMFXL
 40
1.0
  9
$DIMFXLON
 70
     0
  9
$DIMJOGANG
 40
0.7853981634
  9
$DIMTFILL
 70
     0
  9
$DIMTFILLCLR
 70
     0
  9
$DIMARCSYM
 70
     0
  9
$DIMLTYPE
  6

  9
$DIMLTEX1
  6

  9
$DIMLTEX2
  6

  9
$DIMTXTDIRECTION
 70
     0
  9
$LUNITS
 70
     2
  9
$LUPREC
 70
     2
  9
$SKETCHINC
 40
1.0
  9
$FILLETRAD
 40
10.0
  9
$AUNITS
 70
     0
  9
$AUPREC
 70
     2
  9
$MENU
  1
.
  9
$ELEVATION
 40
0.0
  9
$PELEVATION
 40
0.0
  9
$THICKNESS
 40
0.0
  9
$LIMCHECK
 70
     0
  9
$CHAMFERA
 40
10.0
  9
$CHAMFERB
 40
10.0
  9
$CHAMFERC
 40
20.0
  9
$CHAMFERD
 40
0.0
  9
$SKPOLY
 70
     0
  9
$TDCREATE
 40
2459683.531840683
  9
$TDUCREATE
 40
2459683.448507349
  9
$TDUPDATE
 40
2459683.531841227
  9
$TDUUPDATE
 40
2459683.448507893
  9
$TDINDWG
 40
0.0000000116
  9
$TDUSRTIMER
 40
0.0000000116
  9
$USRTIMER
 70
     1
  9
$ANGBASE
 50
0.0
  9
$ANGDIR
 70
     0
  9
$PDMODE
 70
     0
  9
$PDSIZE
 40
-1.0
  9
$PLINEWID
 40
0.0
  9
$SPLFRAME
 70
     0
  9
$SPLINETYPE
 70
     6
  9
$SPLINESEGS
 70
     8
  9
$HANDSEED
  5
168
  9
$SURFTAB1
 70
     6
  9
$SURFTAB2
 70
     6
  9
$SURFTYPE
 70
     6
  9
$SURFU
 70
     6
  9
$SURFV
 70
     6
  9
$UCSBASE
  2

  9
$UCSNAME
  2

  9
$UCSORG
 10
0.0
 20
0.0
 30
0.0
  9
$UCSXDIR
 10
1.0
 20
0.0
 30
0.0
  9
$UCSYDIR
 10
0.0
 20
1.0
 30
0.0
  9
$UCSORTHOREF
  2

  9
$UCSORTHOVIEW
 70
     0
  9
$UCSORGTOP
 10
0.0
 20
0.0
 30
0.0
  9
$UCSORGBOTTOM
 10
0.0
 20
0.0
 30
0.0
  9
$UCSORGLEFT
 10
0.0
 20
0.0
 30
0.0
  9
$UCSORGRIGHT
 10
0.0
 20
0.0
 30
0.0
  9
$UCSORGFRONT
 10
0.0
 20
0.0
 30
0.0
  9
$UCSORGBACK
 10
0.0
 20
0.0
 30
0.0
  9
$PUCSBASE
  2

  9
$PUCSNAME
  2

  9
$PUCSORG
 10
0.0
 20
0.0
 30
0.0
  9
$PUCSXDIR
 10
1.0
 20
0.0
 30
0.0
  9
$PUCSYDIR
 10
0.0
 20
1.0
 30
0.0
  9
$PUCSORTHOREF
  2

  9
$PUCSORTHOVIEW
 70
     0
  9
$PUCSORGTOP
 10
0.0
 20
0.0
 30
0.0
  9
$PUCSORGBOTTOM
 10
0.0
 20
0.0
 30
0.0
  9
$PUCSORGLEFT
 10
0.0
 20
0.0
 30
0.0
  9
$PUCSORGRIGHT
 10
0.0
 20
0.0
 30
0.0
  9
$PUCSORGFRONT
 10
0.0
 20
0.0
 30
0.0
  9
$PUCSORGBACK
 10
0.0
 20
0.0
 30
0.0
  9
$USERI1
 70
     0
  9
$USERI2
 70
     0
  9
$USERI3
 70
     0
  9
$USERI4
 70
     0
  9
$USERI5
 70
     0
  9
$USERR1
 40
0.0
  9
$USERR2
 40
0.0
  9
$USERR3
 40
0.0
  9
$USERR4
 40
0.0
  9
$USERR5
 40
0.0
  9
$WORLDVIEW
 70
     1
  9
$SHADEDGE
 70
     3
  9
$SHADEDIF
 70
    70
  9
$TILEMODE
 70
     1
  9
$MAXACTVP
 70
    64
  9
$PINSBASE
 10
0.0
 20
0.0
 30
0.0
  9
$PLIMCHECK
 70
     0
  9
$PEXTMIN
 10
1.0000000000E+20
 20
1.0000000000E+20
 30
1.0000000000E+20
  9
$PEXTMAX
 10
-1.0000000000E+20
 20
-1.0000000000E+20
 30
-1.0000000000E+20
  9
$PLIMMIN
 10
0.0
 20
0.0
  9
$PLIMMAX
 10
420.0
 20
297.0
  9
$UNITMODE
 70
     0
  9
$VISRETAIN
 70
     1
  9
$PLINEGEN
 70
     0
  9
$PSLTSCALE
 70
     1
  9
$TREEDEPTH
 70
  3020
  9
$CMLSTYLE
  2
Standard
  9
$CMLJUST
 70
     0
  9
$CMLSCALE
 40
20.0
  9
$PROXYGRAPHICS
 70
     1
  9
$MEASUREMENT
 70
     1
  9
$CELWEIGHT
370
    -1
  9
$ENDCAPS
280
     0
  9
$JOINSTYLE
280
     0
  9
$LWDISPLAY
290
     1
  9
$INSUNITS
 70
     4
  9
$HYPERLINKBASE
  1

  9
$STYLESHEET
  1

  9
$XEDIT
290
     1
  9
$CEPSNTYPE
380
     0
  9
$PSTYLEMODE
290
     1
  9
$FINGERPRINTGUID
  2
{90C9B779-634C-4B4D-9CFF-EBF9832CD4F0}
  9
$VERSIONGUID
  2
{FAEB1C32-E019-11D5-929B-00C0DF256EC4}
  9
$EXTNAMES
290
     1
  9
$PSVPSCALE
 40
0.0
  9
$OLESTARTUP
290
     0
  9
$SORTENTS
280
   127
  9
$INDEXCTL
280
     0
  9
$HIDETEXT
280
     1
  9
$XCLIPFRAME
280
     2
  9
$HALOGAP
280
     0
  9
$OBSCOLOR
 70
   257
  9
$OBSLTYPE
280
     0
  9
$INTERSECTIONDISPLAY
280
     0
  9
$INTERSECTIONCOLOR
 70
   257
  9
$DIMASSOC
280
     2
  9
$PROJECTNAME
  1

  9
$CAMERADISPLAY
290
     0
  9
$LENSLENGTH
 40
50.0
  9
$CAMERAHEIGHT
 40
0.0
  9
$STEPSPERSEC
 40
2.0
  9
$STEPSIZE
 40
6.0
  9
$3DDWFPREC
 40
2.0
  9
$PSOLWIDTH
 40
5.0
  9
$PSOLHEIGHT
 40
80.0
  9
$LOFTANG1
 40
1.5707963268
  9
$LOFTANG2
 40
1.5707963268
  9
$LOFTMAG1
 40
0.0
  9
$LOFTMAG2
 40
0.0
  9
$LOFTPARAM
 70
     7
  9
$LOFTNORMALS
280
     1
  9
$LATITUDE
 40
37.795
  9
$LONGITUDE
 40
-122.394
  9
$NORTHDIRECTION
 40
0.0
  9
$TIMEZONE
 70
 -8000
  9
$LIGHTGLYPHDISPLAY
280
     1
  9
$TILEMODELIGHTSYNCH
280
     1
  9
$SOLIDHIST
280
     1
  9
$SHOWHIST
280
     1
  9
$DWFFRAME
280
     2
  9
$DGNFRAME
280
     2
  9
$REALWORLDSCALE
290
     1
  9
$INTERFERECOLOR
 62
   256
  9
$CSHADOW
280
     0
  9
$SHADOWPLANELOCATION
 40
0.0
  0
ENDSEC
  0
SECTION
  2
CLASSES
  0
CLASS
  1
ACDBDICTIONARYWDFLT
  2
AcDbDictionaryWithDefault
  3
ObjectDBX Classes
 90
        0
 91
        4
280
     0
281
     0
  0
CLASS
  1
VISUALSTYLE
  2
AcDbVisualStyle
  3
ObjectDBX Classes
 90
     4095
 91
        4
280
     0
281
     0
  0
CLASS
  1
MATERIAL
  2
AcDbMaterial
  3
ObjectDBX Classes
 90
     1153
 91
        4
280
     0
281
     0
  0
ENDSEC
  0
SECTION
  2
TABLES
  0
TABLE
  2
VPORT
  5
8
330
0
100
AcDbSymbolTable
 70
     1
  0
VPORT
  5
29
330
8
100
AcDbSymbolTableRecord
100
AcDbViewportTableRecord
  2
*Active
 70
     0
 10
0.0
 20
0.0
 11
1.0
 21
1.0
 12
1050.0
 22
742.5
 13
0.0
 23
0.0
 14
10.0
 24
10.0
 15
10.0
 25
10.0
 16
0.0
 26
0.0
 36
1.0
 17
0.0
 27
0.0
 37
0.0
 40
1485.0
 41
1.4141414141
 42
50.0
 43
0.0
 44
0.0
 50
0.0
 51
0.0
 71
     0
 72
  2000
 73
     1
 74
     3
 75
     0
 76
     0
 77
     0
 78
     0
281
     0
 65
     1
110
0.0
120
0.0
130
0.0
111
1.0
121
0.0
131
0.0
112
0.0
122
1.0
132
0.0
 79
     0
146
0.0
 60
     3
 61
     5
292
     1
282
     1
141
0.0
142
0.0
 63
   250
  0
ENDTAB
  0
TABLE
  2
LTYPE
  5
5
330
0
100
AcDbSymbolTable
 70
     6
  0
LTYPE
  5
14
330
5
100
AcDbSymbolTableRecord
100
AcDbLinetypeTableRecord
  2
ByBlock
 70
     0
  3

 72
    65
 73
     0
 40
0.0
  0
LTYPE
  5
15
330
5
100
AcDbSymbolTableRecord
100
AcDbLinetypeTableRecord
  2
ByLayer
 70
     0
  3

 72
    65
 73
     0
 40
0.0
  0
LTYPE
  5
16
330
5
100
AcDbSymbolTableRecord
100
AcDbLinetypeTableRecord
  2
Continuous
 70
     0
  3
Solid line
 72
    65
 73
     0
 40
0.0
  0
LTYPE
  5
3F
330
5
100
AcDbSymbolTableRecord
100
AcDbLinetypeTableRecord
  2
HIDDEN
 70
     0
  3
Hidden __ __ __ __ __ __ __ __ __ __ __ __ __ __
 72
    65
 73
     2
 40
1.905
 49
1.27
 74
     0
 49
-0.635
 74
     0
  0
LTYPE
  5
40
330
5
100
AcDbSymbolTableRecord
100
AcDbLinetypeTableRecord
  2
PHANTOM
 70
     0
  3
Phantom ______  __  __  ______  __  __  ______
 72
    65
 73
     6
 40
12.7
 49
6.35
 74
     0
 49
-1.27
 74
     0
 49
1.27
 74
     0
 49
-1.27
 74
     0
 49
1.27
 74
     0
 49
-1.27
 74
     0
  0
LTYPE
  5
41
330
5
100
AcDbSymbolTableRecord
100
AcDbLinetypeTableRecord
  2
CENTER
 70
     0
  3
Center ____ _ ____ _ ____ _ ____ _ ____ _ ____
 72
    65
 73
     4
 40
10.16
 49
6.35
 74
     0
 49
-1.27
 74
     0
 49
1.27
 74
     0
 49
-1.27
 74
     0
  0
LTYPE
  5
42
330
5
100
AcDbSymbolTableRecord
100
AcDbLinetypeTableRecord
  2
CENTERX2
 70
     0
  3
Center (2x) ________  __  ________  __  _____
 72
    65
 73
     4
 40
20.32
 49
12.7
 74
     0
 49
-2.54
 74
     0
 49
2.54
 74
     0
 49
-2.54
 74
     0
  0
LTYPE
  5
43
330
5
100
AcDbSymbolTableRecord
100
AcDbLinetypeTableRecord
  2
DOT2
 70
     0
  3
Dot (.5x) ........................................
 72
    65
 73
     2
 40
0.635
 49
0.0
 74
     0
 49
-0.635
 74
     0
  0
ENDTAB
  0
TABLE
  2
LAYER
  5
2
330
0
100
AcDbSymbolTable
 70
     2
  0
LAYER
  5
10
330
2
100
AcDbSymbolTableRecord
100
AcDbLayerTableRecord
  2
0
 70
     0
 62
     7
  6
Continuous
370
    -3
390
F
347
3E
  0
LAYER
  5
44
330
2
100
AcDbSymbolTableRecord
100
AcDbLayerTableRecord
  2
FORMAT
 70
     0
 62
     7
  6
Continuous
370
    -3
390
F
347
3E
  0
ENDTAB
  0
TABLE
  2
STYLE
  5
3
330
0
100
AcDbSymbolTable
 70
     1
  0
STYLE
  5
11
330
3
100
AcDbSymbolTableRecord
100
AcDbTextStyleTableRecord
  2
Standard
 70
     0
 40
0.0
 41
1.0
 50
0.0
 71
     0
 42
17.5
  3
txt
  4

  0
ENDTAB
  0
TABLE
  2
VIEW
  5
6
330
0
100
AcDbSymbolTable
 70
     0
  0
ENDTAB
  0
TABLE
  2
UCS
  5
7
330
0
100
AcDbSymbolTable
 70
     0
  0
ENDTAB
  0
TABLE
  2
APPID
  5
9
330
0
100
AcDbSymbolTable
 70
     1
  0
APPID
  5
12
330
9
100
AcDbSymbolTableRecord
100
AcDbRegAppTableRecord
  2
ACAD
 70
     0
  0
ENDTAB
  0
TABLE
  2
DIMSTYLE
  5
A
330
0
100
AcDbSymbolTable
 70
     1
100
AcDbDimStyleTable
  0
DIMSTYLE
105
27
330
A
100
AcDbSymbolTableRecord
100
AcDbDimStyleTableRecord
  2
ISO-25
 70
     0
 41
2.5
 42
0.625
 43
3.75
 44
1.25
 73
     0
 74
     0
 77
     1
 78
     8
140
2.5
141
2.5
143
0.0393700787
147
0.625
171
     3
172
     1
178
     0
271
     2
272
     2
274
     3
278
    44
283
     0
284
     8
340
11
  0
ENDTAB
  0
TABLE
  2
BLOCK_RECORD
  5
1
330
0
100
AcDbSymbolTable
 70
     1
  0
BLOCK_RECORD
  5
1F
330
1
100
AcDbSymbolTableRecord
100
AcDbBlockTableRecord
  2
*Model_Space
340
22
 70
     0
280
     1
281
     0
  0
BLOCK_RECORD
  5
1B
330
1
100
AcDbSymbolTableRecord
100
AcDbBlockTableRecord
  2
*Paper_Space
340
1E
 70
     0
280
     1
281
     0
  0
BLOCK_RECORD
  5
23
330
1
100
AcDbSymbolTableRecord
100
AcDbBlockTableRecord
  2
*Paper_Space0
340
26
 70
     0
280
     1
281
     0
  0
ENDTAB
  0
ENDSEC
  0
SECTION
  2
BLOCKS
  0
BLOCK
  5
20
330
1F
100
AcDbEntity
  8
0
100
AcDbBlockBegin
  2
*Model_Space
 70
     0
 10
0.0
 20
0.0
 30
0.0
  3
*Model_Space
  1

  0
ENDBLK
  5
21
330
1F
100
AcDbEntity
  8
0
100
AcDbBlockEnd
  0
BLOCK
  5
1C
330
1B
100
AcDbEntity
 67
     1
  8
0
100
AcDbBlockBegin
  2
*Paper_Space
 70
     0
 10
0.0
 20
0.0
 30
0.0
  3
*Paper_Space
  1

  0
ENDBLK
  5
1D
330
1B
100
AcDbEntity
 67
     1
  8
0
100
AcDbBlockEnd
  0
BLOCK
  5
24
330
23
100
AcDbEntity
  8
0
100
AcDbBlockBegin
  2
*Paper_Space0
 70
     0
 10
0.0
 20
0.0
 30
0.0
  3
*Paper_Space0
  1

  0
ENDBLK
  5
25
330
23
100
AcDbEntity
  8
0
100
AcDbBlockEnd
  0
ENDSEC
  0
SECTION
  2
ENTITIES
  0
LINE
  5
45
330
1F
100
AcDbEntity
  8
0
  6
Continuous
 62
     7
370
    40
100
AcDbLine
 10
225.0827224421
 20
989.471926749
 30
0.0
 11
211.0827238726
 21
989.471926749
 31
0.0
  0
LINE
  5
46
330
1F
100
AcDbEntity
  8
0
  6
Continuous
 62
     7
370
    40
100
AcDbLine
 10
225.0827224421
 20
927.4719258996
 30
0.0
 11
310.2827192711
 21
927.4719258996
 31
0.0
  0
LINE
  5
47
330
1F
100
AcDbEntity
  8
0
  6
Continuous
 62
     7
370
    40
100
AcDbLine
 10
310.2827192711
 20
987.4719245585
 30
0.0
 11
231.582713263
 21
987.4719245585
 31
0.0
  0
LINE
  5
48
330
1F
100
AcDbEntity
  8
0
  6
Continuous
 62
     7
370
    40
100
AcDbLine
 10
226.5827180313
 20
987.4719245585
 30
0.0
 11
225.0827224421
 21
987.4719245585
 31
0.0
  0
LINE
  5
49
330
1F
100
AcDbEntity
  8
0
  6
Continuous
 62
     7
370
    40
100
AcDbLine
 10
310.2827192711
 20
945.4719251247
 30
0.0
 11
312.2827233242
 21
945.4719251247
 31
0.0
  0
LINE
  5
4A
330
1F
100
AcDbEntity
  8
0
  6
Continuous
 62
     7
370
    40
100
AcDbLine
 10
312.2827233242
 20
969.4719253333
 30
0.0
 11
310.2827192711
 21
969.4719253333
 31
0.0
  0
LINE
  5
4B
330
1F
100
AcDbEntity
  8
0
  6
Continuous
 62
     7
370
    40
100
AcDbLine
 10
619.0827162432
 20
989.471926749
 30
0.0
 11
605.0827176737
 21
989.471926749
 31
0.0
  0
LINE
  5
4C
330
1F
100
AcDbEntity
  8
0
  6
Continuous
 62
     7
370
    40
100
AcDbLine
 10
605.0827176737
 20
987.4719245585
 30
0.0
 11
603.5827220844
 21
987.4719245585
 31
0.0
  0
LINE
  5
4D
330
1F
100
AcDbEntity
  8
0
  6
Continuous
 62
     7
370
    40
100
AcDbLine
 10
598.5827268528
 20
987.4719245585
 30
0.0
 11
519.8827208447
 21
987.4719245585
 31
0.0
  0
LINE
  5
4E
330
1F
100
AcDbEntity
  8
0
  6
Continuous
 62
     7
370
    40
100
AcDbLine
 10
519.8827208447
 20
927.4719258996
 30
0.0
 11
605.0827176737
 21
927.4719258996
 31
0.0
  0
LINE
  5
4F
330
1F
100
AcDbEntity
  8
0
  6
Continuous
 62
     7
370
    40
100
AcDbLine
 10
519.8827208447
 20
969.4719253333
 30
0.0
 11
517.8827167915
 21
969.4719253333
 31
0.0
  0
LINE
  5
50
330
1F
100
AcDbEntity
  8
0
  6
Continuous
 62
     7
370
    40
100
AcDbLine
 10
517.8827167915
 20
945.4719251247
 30
0.0
 11
519.8827208447
 21
945.4719251247
 31
0.0
  0
SPLINE
  5
51
330
1F
100
AcDbEntity
  8
0
  6
Continuous
 62
     7
370
    40
100
AcDbSpline
210
0.0
220
0.0
230
1.0
 70
     8
 71
     3
 72
    33
 73
    29
 74
     0
 42
0.00000001
 43
0.00000001
 12
1.0
 22
0.0
 32
0.0
 13
1.0
 23
0.0
 33
0.0
 40
0.0
 40
0.0
 40
0.0
 40
0.0
 40
0.0050854884584962
 40
0.0452589710617504
 40
0.0854583835248678
 40
0.1256945798246434
 40
0.1659588822207712
 40
0.2057720252180022
 40
0.2455804971585105
 40
0.2854987833437073
 40
0.3255076755730322
 40
0.365580573205427
 40
0.405680698455625
 40
0.4457696074894021
 40
0.4858151467256817
 40
0.5258665276569099
 40
0.5654222799954968
 40
0.605144268431044
 40
0.645198758413989
 40
0.6854904753162995
 40
0.7259136922597658
 40
0.7663328112416712
 40
0.8066221783919645
 40
0.8466806038742232
 40
0.886245533228955
 40
0.9259044407934951
 40
0.9659380721908849
 40
1.0
 40
1.0
 40
1.0
 40
1.0
 10
293.7163980173228
 20
1357.456374377219
 30
0.0
 10
293.5051712250784
 20
1357.461376698673
 30
0.0
 10
291.6253307032335
 20
1357.505895514075
 30
0.0
 10
288.0770701930964
 20
1357.288884218245
 30
0.0
 10
283.0953527651518
 20
1356.783708528801
 30
0.0
 10
278.1550324325934
 20
1355.932189835747
 30
0.0
 10
273.2950962376914
 20
1354.781458994813
 30
0.0
 10
268.5366489157738
 20
1353.325994277441
 30
0.0
 10
263.8934739055251
 20
1351.579181074533
 30
0.0
 10
259.3621979159457
 20
1349.539939339388
 30
0.0
 10
254.9583436254848
 20
1347.213970575411
 30
0.0
 10
250.7026678158016
 20
1344.610572221541
 30
0.0
 10
246.6160177086972
 20
1341.740933631337
 30
0.0
 10
242.7186014904697
 20
1338.617968475677
 30
0.0
 10
239.0267709134878
 20
1335.25423624576
 30
0.0
 10
235.5708078273583
 20
1331.675249475382
 30
0.0
 10
232.3588469428568
 20
1327.889998815398
 30
0.0
 10
229.3872050984957
 20
1323.909679725401
 30
0.0
 10
226.6492054506207
 20
1319.724821913643
 30
0.0
 10
224.1586536481532
 20
1315.350844182033
 30
0.0
 10
221.9347719205499
 20
1310.814925339325
 30
0.0
 10
219.9949482800993
 20
1306.147193553499
 30
0.0
 10
218.3532943149001
 20
1301.379401458218
 30
0.0
 10
217.0234336021282
 20
1296.549793486755
 30
0.0
 10
216.0041357641834
 20
1291.669668865979
 30
0.0
 10
215.2936024669341
 20
1286.735970887036
 30
0.0
 10
214.8765122622544
 20
1281.99588684264
 30
0.0
 10
214.8478897835063
 20
1278.898606980568
 30
0.0
 10
214.8347319530604
 20
1277.474779099433
 30
0.0
  0
SPLINE
  5
52
330
1F
100
AcDbEntity
  8
0
  6
Continuous
 62
     7
370
    40
100
AcDbSpline
210
0.0
220
0.0
230
1.0
 70
     8
 71
     3
 72
    33
 73
    29
 74
     0
 42
0.00000001
 43
0.00000001
 12
1.0
 22
0.0
 32
0.0
 13
1.0
 23
0.0
 33
0.0
 40
0.0
 40
0.0
 40
0.0
 40
0.0
 40
0.0086460798434974
 40
0.0489122619181808
 40
0.0892234170741875
 40
0.1295828020209207
 40
0.169973067319707
 40
0.2099650128294047
 40
0.2499647712869996
 40
0.2900744684016804
 40
0.3302718959882585
 40
0.3705283625644136
 40
0.4108002304352841
 40
0.4510505678685311
 40
0.491244757683314
 40
0.5314409390239283
 40
0.5710833165345164
 40
0.6108797710788352
 40
0.6509957375730516
 40
0.691337591852722
 40
0.7318010178499901
 40
0.7722489338874131
 40
0.8125594059579588
 40
0.8526319958542526
 40
0.8921938375265224
 40
0.931859982201091
 40
0.9719190551817681
 40
1.0
 40
1.0
 40
1.0
 40
1.0
 10
615.3326155113338
 20
1277.471709460227
 30
0.0
 10
615.3407018728763
 20
1277.832149158422
 30
0.0
 10
615.3864477184958
 20
1279.871214404512
 30
0.0
 10
615.163684375127
 20
1283.590696482881
 30
0.0
 10
614.6495089573926
 20
1288.606924004358
 30
0.0
 10
613.7981471136827
 20
1293.584474834153
 30
0.0
 10
612.6501331353551
 20
1298.485202057788
 30
0.0
 10
611.2014434028023
 20
1303.288020707823
 30
0.0
 10
609.4640574681041
 20
1307.978643214566
 30
0.0
 10
607.4373250615727
 20
1312.557953892416
 30
0.0
 10
605.1269883003519
 20
1317.009476301895
 30
0.0
 10
602.5422425123502
 20
1321.31163975398
 30
0.0
 10
599.6941768731604
 20
1325.442989690333
 30
0.0
 10
596.595630348243
 20
1329.38273495318
 30
0.0
 10
593.2586864814656
 20
1333.11444420634
 30
0.0
 10
589.7096118271506
 20
1336.605860019871
 30
0.0
 10
585.9574087745282
 20
1339.848686074201
 30
0.0
 10
582.0137872731883
 20
1342.846574656872
 30
0.0
 10
577.8678361948479
 20
1345.607276316839
 30
0.0
 10
573.5346770818528
 20
1348.116772667741
 30
0.0
 10
569.0410455466657
 20
1350.355539017891
 30
0.0
 10
564.416575006802
 20
1352.306091653903
 30
0.0
 10
559.6924962515204
 20
1353.954143752777
 30
0.0
 10
554.9067161395409
 20
1355.285692517615
 30
0.0
 10
550.0702155268277
 20
1356.303072089421
 30
0.0
 10
545.1789040859794
 20
1357.005096355961
 30
0.0
 10
540.7258533557534
 20
1357.39942158821
 30
0.0
 10
537.90148961187
 20
1357.421265517413
 30
0.0
 10
536.7375509308931
 20
1357.430267542808
 30
0.0
  0
SPLINE
  5
53
330
1F
100
AcDbEntity
  8
0
  6
Continuous
 62
     7
370
    40
100
AcDbSpline
210
0.0
220
0.0
230
1.0
 70
     8
 71
     3
 72
    23
 73
    19
 74
     0
 42
0.00000001
 43
0.00000001
 12
1.0
 22
0.0
 32
0.0
 13
1.0
 23
0.0
 33
0.0
 40
0.0
 40
0.0
 40
0.0
 40
0.0
 40
0.0269671837212709
 40
0.0963479925228539
 40
0.1657064485343206
 40
0.2342768283842726
 40
0.3027656625703983
 40
0.3718463761623895
 40
0.4413623468461503
 40
0.5111380678134467
 40
0.5809568265120499
 40
0.6505886608897482
 40
0.719854649583953
 40
0.7884102291791544
 40
0.8565795409039423
 40
0.9256218598273426
 40
0.9949230898268514
 40
1.0
 40
1.0
 40
1.0
 40
1.0
 10
231.5800757574198
 20
1038.179140001743
 30
0.0
 10
231.968524504071
 20
1037.659470221727
 30
0.0
 10
233.3563689792186
 20
1035.802800997502
 30
0.0
 10
235.999743009812
 20
1032.815936707815
 30
0.0
 10
239.4790797541011
 20
1029.24958793467
 30
0.0
 10
243.1791095896751
 20
1025.944936724261
 30
0.0
 10
247.0686349868563
 20
1022.881976930814
 30
0.0
 10
251.1602477041762
 20
1020.057151645539
 30
0.0
 10
255.445290704089
 20
1017.477920582049
 30
0.0
 10
259.8984675051416
 20
1015.164349498554
 30
0.0
 10
264.4906487903262
 20
1013.134430969847
 30
0.0
 10
269.190998467257
 20
1011.403904120625
 30
0.0
 10
273.9641031622334
 20
1009.984630706986
 30
0.0
 10
278.7859279391656
 20
1008.887670055844
 30
0.0
 10
283.6630031141239
 20
1008.08771131818
 30
0.0
 10
288.5993229413219
 20
1007.626682193474
 30
0.0
 10
292.0442424141462
 20
1007.434238551838
 30
0.0
 10
293.8304148265083
 20
1007.486061420942
 30
0.0
 10
293.9523355530856
 20
1007.489598751275
 30
0.0
  0
SPLINE
  5
54
330
1F
100
AcDbEntity
  8
0
  6
Continuous
 62
     7
370
    40
100
AcDbSpline
210
0.0
220
0.0
230
1.0
 70
     8
 71
     3
 72
    23
 73
    19
 74
     0
 42
0.00000001
 43
0.00000001
 12
1.0
 22
0.0
 32
0.0
 13
1.0
 23
0.0
 33
0.0
 40
0.0
 40
0.0
 40
0.0
 40
0.0
 40
0.0088393357756496
 40
0.0785357043358331
 40
0.1482770712385803
 40
0.218082251661737
 40
0.2879362197437368
 40
0.357007457683893
 40
0.4260704868530386
 40
0.4953242051460309
 40
0.5647349110591258
 40
0.6342568585639886
 40
0.703825845077278
 40
0.7733754904092984
 40
0.8428500321540044
 40
0.912334644296574
 40
0.9809591677192189
 40
1.0
 40
1.0
 40
1.0
 40
1.0
 10
536.447850005543
 20
1007.487493962257
 30
0.0
 10
536.6594741699673
 20
1007.482480567095
 30
0.0
 10
538.5397119196555
 20
1007.437937568597
 30
0.0
 10
542.0883706594534
 20
1007.654943677594
 30
0.0
 10
547.0700870451692
 20
1008.160141787874
 30
0.0
 10
552.0104087432126
 20
1009.011657042541
 30
0.0
 10
556.8703438211555
 20
1010.162402185539
 30
0.0
 10
561.6287853757791
 20
1011.617877645886
 30
0.0
 10
566.2719763835264
 20
1013.364653318646
 30
0.0
 10
570.8032274300533
 20
1015.403935364121
 30
0.0
 10
575.2071228675959
 20
1017.729850520947
 30
0.0
 10
579.4627021647342
 20
1020.333334087873
 30
0.0
 10
583.5496553497007
 20
1023.20272655559
 30
0.0
 10
587.445992165103
 20
1026.326526319388
 30
0.0
 10
591.1418373366078
 20
1029.68717397684
 30
0.0
 10
594.5828557162623
 20
1033.277681038322
 30
0.0
 10
597.0629314507762
 20
1036.118769818903
 30
0.0
 10
598.3108464345075
 20
1037.810767901748
 30
0.0
 10
598.5818923877833
 20
1038.178268283813
 30
0.0
  0
SPLINE
  5
55
330
1F
100
AcDbEntity
  8
0
  6
Continuous
 62
     7
370
    40
100
AcDbSpline
210
0.0
220
0.0
230
1.0
 70
     8
 71
     3
 72
    17
 73
    13
 74
     0
 42
0.00000001
 43
0.00000001
 12
1.0
 22
0.0
 32
0.0
 13
1.0
 23
0.0
 33
0.0
 40
0.0
 40
0.0
 40
0.0
 40
0.0
 40
0.0672493848763093
 40
0.1815390675642219
 40
0.2959762347894887
 40
0.4101618768342515
 40
0.5237966407627244
 40
0.63640179796148
 40
0.7481403920361416
 40
0.8612780312309525
 40
0.9747985128255781
 40
1.0
 40
1.0
 40
1.0
 40
1.0
 10
603.5298974680064
 20
1045.412849098651
 30
0.0
 10
604.0476930251504
 20
1046.256277057475
 30
0.0
 10
605.4454771506961
 20
1048.533102718918
 30
0.0
 10
607.4248317837184
 20
1052.421953997177
 30
0.0
 10
609.4820883798235
 20
1057.038317790716
 30
0.0
 10
611.2338525793486
 20
1061.774098359979
 30
0.0
 10
612.6832178537989
 20
1066.585053443381
 30
0.0
 10
613.8142043259178
 20
1071.445688886572
 30
0.0
 10
614.6490424380045
 20
1076.361221814414
 30
0.0
 10
615.1565636621051
 20
1081.332852295268
 30
0.0
 10
615.3780045021208
 20
1085.051568654055
 30
0.0
 10
615.3321913594535
 20
1087.099867564473
 30
0.0
 10
615.323868529713
 20
1087.471980065314
 30
0.0
  0
SPLINE
  5
56
330
1F
100
AcDbEntity
  8
0
  6
Continuous
 62
     7
370
    40
100
AcDbSpline
210
0.0
220
0.0
230
1.0
 70
     8
 71
     3
 72
    17
 73
    13
 74
     0
 42
0.00000001
 43
0.00000001
 12
1.0
 22
0.0
 32
0.0
 13
1.0
 23
0.0
 33
0.0
 40
0.0
 40
0.0
 40
0.0
 40
0.0
 40
0.0244563543654168
 40
0.1381227761820811
 40
0.2519168230628938
 40
0.3658471814760345
 40
0.4798640531300291
 40
0.5927570005245438
 40
0.7056718422074459
 40
0.8188971818173356
 40
0.9323700213298595
 40
1.0
 40
1.0
 40
1.0
 40
1.0
 10
214.8328544067499
 20
1087.474319547622
 30
0.0
 10
214.824751982494
 20
1087.113149674155
 30
0.0
 10
214.7789917144133
 20
1085.073361370011
 30
0.0
 10
215.0017424581195
 20
1081.353156354806
 30
0.0
 10
215.5159267365044
 20
1076.336920884568
 30
0.0
 10
216.3673257158754
 20
1071.359396348537
 30
0.0
 10
217.5151695534448
 20
1066.458557150599
 30
0.0
 10
218.9645181559044
 20
1061.656151455839
 30
0.0
 10
220.6994270230705
 20
1056.963988550729
 30
0.0
 10
222.7354486889612
 20
1052.390430004111
 30
0.0
 10
224.703367569348
 20
1048.522059839506
 30
0.0
 10
226.0991104811798
 20
1046.25094130758
 30
0.0
 10
226.620328562176
 20
1045.402828067748
 30
0.0
  0
SPLINE
  5
57
330
1F
100
AcDbEntity
  8
0
  6
Continuous
 62
     7
370
    40
100
AcDbSpline
210
0.0
220
0.0
230
1.0
 70
     8
 71
     3
 72
    28
 73
    24
 74
     0
 42
0.00000001
 43
0.00000001
 12
1.0
 22
0.0
 32
0.0
 13
1.0
 23
0.0
 33
0.0
 40
0.0
 40
0.0
 40
0.0
 40
0.0
 40
0.0464942689073938
 40
0.094859628401828
 40
0.1430383924462567
 40
0.1908250665276242
 40
0.238619689728633
 40
0.2870133713087422
 40
0.3357524234554056
 40
0.3845632385396422
 40
0.4330826832137771
 40
0.4810403077696698
 40
0.5285370923716802
 40
0.5761074891438219
 40
0.6242223004346135
 40
0.6725082912787189
 40
0.7208794972640277
 40
0.769230176761356
 40
0.8174797886805966
 40
0.8655989800844587
 40
0.9134197551359468
 40
0.9612709293637881
 40
1.0
 40
1.0
 40
1.0
 40
1.0
 10
536.2452463673709
 20
1332.458782404868
 30
0.0
 10
537.5700225217282
 20
1332.433210031724
 30
0.0
 10
540.2728884161946
 20
1332.381036164476
 30
0.0
 10
544.3207328938851
 20
1331.909383710437
 30
0.0
 10
548.3554795158292
 20
1331.14860989049
 30
0.0
 10
552.2979232095786
 20
1330.071203297867
 30
0.0
 10
556.1508254938395
 20
1328.692415616613
 30
0.0
 10
559.913229671117
 20
1327.014931392181
 30
0.0
 10
563.564890437908
 20
1325.04430453665
 30
0.0
 10
567.0620919752672
 20
1322.800450270068
 30
0.0
 10
570.3631535951444
 20
1320.308582715825
 30
0.0
 10
573.437929717541
 20
1317.592786158966
 30
0.0
 10
576.2746921673255
 20
1314.659384809733
 30
0.0
 10
578.8895123430401
 20
1311.512192103394
 30
0.0
 10
581.2774014683235
 20
1308.153602618261
 30
0.0
 10
583.4222175536071
 20
1304.599994444243
 30
0.0
 10
585.3014594263711
 20
1300.883945369058
 30
0.0
 10
586.9001762579725
 20
1297.032979821182
 30
0.0
 10
588.2060562426116
 20
1293.074786362617
 30
0.0
 10
589.2112117515817
 20
1289.039709714237
 30
0.0
 10
589.9053568331504
 20
1284.949115849884
 30
0.0
 10
590.3036744212153
 20
1281.085747480602
 30
0.0
 10
590.32549926816
 20
1278.586015249925
 30
0.0
 10
590.3352619575618
 20
1277.467835158317
 30
0.0
  0
SPLINE
  5
58
330
1F
100
AcDbEntity
  8
0
  6
Continuous
 62
     7
370
    40
100
AcDbSpline
210
0.0
220
0.0
230
1.0
 70
     8
 71
     3
 72
    28
 73
    24
 74
     0
 42
0.00000001
 43
0.00000001
 12
1.0
 22
0.0
 32
0.0
 13
1.0
 23
0.0
 33
0.0
 40
0.0
 40
0.0
 40
0.0
 40
0.0
 40
0.046494217824751
 40
0.0948595241807997
 40
0.1430382352918529
 40
0.190824856870629
 40
0.2386193990548285
 40
0.287013096398982
 40
0.3357520145545415
 40
0.3845629133206299
 40
0.433082253579944
 40
0.4810397692266086
 40
0.528536623780432
 40
0.5761069028162534
 40
0.6242215917578524
 40
0.6725074564335966
 40
0.7208787619474807
 40
0.7692292300661719
 40
0.8174788704480639
 40
0.8655980089840023
 40
0.9134187314954326
 40
0.9612697675212887
 40
1.0
 40
1.0
 40
1.0
 40
1.0
 10
293.9201937483905
 20
1032.485063582866
 30
0.0
 10
292.5954175850997
 20
1032.510635933117
 30
0.0
 10
289.8925516724072
 20
1032.562809753657
 30
0.0
 10
285.8447073354507
 20
1033.034462568355
 30
0.0
 10
281.8099601778731
 20
1033.795235015633
 30
0.0
 10
277.8675192494898
 20
1034.872646478094
 30
0.0
 10
274.0146084316929
 20
1036.251415433703
 30
0.0
 10
270.2522196537357
 20
1037.928931321239
 30
0.0
 10
266.6005377307843
 20
1039.899525247296
 30
0.0
 10
263.1033575718834
 20
1042.143416038155
 30
0.0
 10
259.8022863725323
 20
1044.63526933884
 30
0.0
 10
256.7275030734499
 20
1047.351059769507
 30
0.0
 10
253.8907554602063
 20
1050.284475923417
 30
0.0
 10
251.275926530484
 20
1053.431659971263
 30
0.0
 10
248.888039943087
 20
1056.790244010327
 30
0.0
 10
246.7432156972532
 20
1060.343847706371
 30
0.0
 10
244.863988987188
 20
1064.059902213844
 30
0.0
 10
243.2652580827447
 20
1067.910863692378
 30
0.0
 10
241.9593860268209
 20
1071.869057979097
 30
0.0
 10
240.9542279044973
 20
1075.904136101956
 30
0.0
 10
240.2600839605302
 20
1079.994727758994
 30
0.0
 10
239.8617620229001
 20
1083.858128144412
 30
0.0
 10
239.8399398354026
 20
1086.357892777027
 30
0.0
 10
239.8301781581995
 20
1087.476107686965
 30
0.0
  0
SPLINE
  5
59
330
1F
100
AcDbEntity
  8
0
  6
Continuous
 62
     7
370
    40
100
AcDbSpline
210
0.0
220
0.0
230
1.0
 70
     8
 71
     3
 72
    28
 73
    24
 74
     0
 42
0.00000001
 43
0.00000001
 12
1.0
 22
0.0
 32
0.0
 13
1.0
 23
0.0
 33
0.0
 40
0.0
 40
0.0
 40
0.0
 40
0.0
 40
0.0452860142800075
 40
0.0933218559057228
 40
0.1412193372071991
 40
0.1888168053179045
 40
0.2362615941075944
 40
0.2843495540980069
 40
0.332835685716993
 40
0.3814489487748117
 40
0.4298445390008414
 40
0.4777301882887101
 40
0.525102352483856
 40
0.5726056452277709
 40
0.6206939308499924
 40
0.6690055181062737
 40
0.7174535316142658
 40
0.7659436066509687
 40
0.8143764046424203
 40
0.8627095392415268
 40
0.9108218362260564
 40
0.9589605740730568
 40
1.0
 40
1.0
 40
1.0
 40
1.0
 10
239.8231895135997
 20
1277.46625563523
 30
0.0
 10
239.8452987686071
 20
1278.774188313356
 30
0.0
 10
239.8908597821518
 20
1281.469473090852
 30
0.0
 10
240.3408038309644
 20
1285.526508430708
 30
0.0
 10
241.0749150136704
 20
1289.604140163596
 30
0.0
 10
242.1168584914001
 20
1293.59355361563
 30
0.0
 10
243.4533806165386
 20
1297.493921958884
 30
0.0
 10
245.0802741331438
 20
1301.304136493157
 30
0.0
 10
246.9948444384074
 20
1305.008998862325
 30
0.0
 10
249.1786989890928
 20
1308.564422452242
 30
0.0
 10
251.6077384379174
 20
1311.927417461541
 30
0.0
 10
254.2568725546032
 20
1315.064696250035
 30
0.0
 10
257.1200689693654
 20
1317.962686105272
 30
0.0
 10
260.1958789358828
 20
1320.635772500196
 30
0.0
 10
263.4837099040278
 20
1323.081418419592
 30
0.0
 10
266.9683763800385
 20
1325.282270643612
 30
0.0
 10
270.6191583336847
 20
1327.215079097158
 30
0.0
 10
274.4096373003209
 20
1328.863626676644
 30
0.0
 10
278.3128919683155
 20
1330.214405117854
 30
0.0
 10
282.3000450538204
 20
1331.258291144109
 30
0.0
 10
286.3505849173972
 20
1331.984190782592
 30
0.0
 10
290.2410299983753
 20
1332.409956686509
 30
0.0
 10
292.7834087099947
 20
1332.440394230381
 30
0.0
 10
293.9534009861109
 20
1332.454401463478
 30
0.0
  0
SPLINE
  5
5A
330
1F
100
AcDbEntity
  8
0
  6
Continuous
 62
     7
370
    40
100
AcDbSpline
210
0.0
220
0.0
230
1.0
 70
     8
 71
     3
 72
    28
 73
    24
 74
     0
 42
0.00000001
 43
0.00000001
 12
1.0
 22
0.0
 32
0.0
 13
1.0
 23
0.0
 33
0.0
 40
0.0
 40
0.0
 40
0.0
 40
0.0
 40
0.0452848127133897
 40
0.0933207478291182
 40
0.1412180679966344
 40
0.1888156270849455
 40
0.2362605859982049
 40
0.2843483964766489
 40
0.3328346121072275
 40
0.3814479559721943
 40
0.4298433470289582
 40
0.4777290692459805
 40
0.5251012413132002
 40
0.5726046532716796
 40
0.6206929468849766
 40
0.6690044969425094
 40
0.7174525185013547
 40
0.7659426353437407
 40
0.8143753860309663
 40
0.862708571496795
 40
0.9108208613896177
 40
0.9589596072360774
 40
1.0
 40
1.0
 40
1.0
 40
1.0
 10
590.3422357010005
 20
1087.477493494956
 30
0.0
 10
590.320131451724
 20
1086.169595624188
 30
0.0
 10
590.2745800858448
 20
1083.474343064423
 30
0.0
 10
589.8246374214712
 20
1079.417344669896
 30
0.0
 10
589.0905227628141
 20
1075.339713757397
 30
0.0
 10
588.0485796384414
 20
1071.350298245198
 30
0.0
 10
586.7120663235877
 20
1067.449923694163
 30
0.0
 10
585.0851603025043
 20
1063.63971206765
 30
0.0
 10
583.1705951162179
 20
1059.934847993202
 30
0.0
 10
580.986750536143
 20
1056.379418916737
 30
0.0
 10
578.5576913656272
 20
1053.016441760362
 30
0.0
 10
575.908571842588
 20
1049.879155774475
 30
0.0
 10
573.0453657171904
 20
1046.981168672541
 30
0.0
 10
569.9695662134656
 20
1044.308065086611
 30
0.0
 10
566.6817315892615
 20
1041.862420076874
 30
0.0
 10
563.1970620249563
 20
1039.661575369857
 30
0.0
 10
559.5462796781715
 20
1037.728770048829
 30
0.0
 10
555.7558080825598
 20
1036.080204143942
 30
0.0
 10
551.8525421905016
 20
1034.729458768586
 30
0.0
 10
547.8653989126569
 20
1033.68553873565
 30
0.0
 10
543.8148538547281
 20
1032.959658832396
 30
0.0
 10
539.9243830349169
 20
1032.533887875566
 30
0.0
 10
537.381976861257
 20
1032.503446326735
 30
0.0
 10
536.2119571732638
 20
1032.489437073677
 30
0.0
  0
LINE
  5
5B
330
1F
100
AcDbEntity
  8
0
  6
Continuous
 62
     7
370
    40
100
AcDbLine
 10
214.8083121943
 20
1277.4719180765
 30
0.0
 11
214.8083121943
 21
1087.4719204607
 31
0.0
  0
LINE
  5
5C
330
1F
100
AcDbEntity
  8
0
  6
Continuous
 62
     7
370
    40
100
AcDbLine
 10
615.3571279215
 20
1087.4719204607
 30
0.0
 11
615.3571279215
 21
1277.4719180765
 31
0.0
  0
LINE
  5
5D
330
1F
100
AcDbEntity
  8
0
  6
Continuous
 62
     7
370
    40
100
AcDbLine
 10
239.8083181547
 20
1087.4719204607
 30
0.0
 11
239.8083181547
 21
1277.4719180765
 31
0.0
  0
LINE
  5
5E
330
1F
100
AcDbEntity
  8
0
  6
Continuous
 62
     7
370
    40
100
AcDbLine
 10
590.357121961
 20
1277.4719180765
 30
0.0
 11
590.357121961
 21
1087.4719204607
 31
0.0
  0
LINE
  5
5F
330
1F
100
AcDbEntity
  8
0
  6
Continuous
 62
     7
370
    40
100
AcDbLine
 10
225.0827224421
 20
989.471926749
 30
0.0
 11
225.0827224421
 21
936.1505354049
 31
0.0
  0
LINE
  5
60
330
1F
100
AcDbEntity
  8
0
  6
Continuous
 62
     7
370
    40
100
AcDbLine
 10
211.0827238726
 20
989.471926749
 30
0.0
 11
211.0827238726
 21
936.1505354049
 31
0.0
  0
LINE
  5
61
330
1F
100
AcDbEntity
  8
0
  6
Continuous
 62
     7
370
    40
100
AcDbLine
 10
310.2827192711
 20
987.4719245585
 30
0.0
 11
310.2827192711
 21
927.4719258996
 31
0.0
  0
LINE
  5
62
330
1F
100
AcDbEntity
  8
0
  6
Continuous
 62
     7
370
    40
100
AcDbLine
 10
225.0827224421
 20
877.4719270172
 30
0.0
 11
216.0827191042
 21
877.4719270172
 31
0.0
  0
LINE
  5
63
330
1F
100
AcDbEntity
  8
0
  6
Continuous
 62
     7
370
    40
100
AcDbLine
 10
216.0827191042
 20
877.4719270172
 30
0.0
 11
216.0827191042
 21
802.8918536606
 31
0.0
  0
LINE
  5
64
330
1F
100
AcDbEntity
  8
0
  6
Continuous
 62
     7
370
    40
100
AcDbLine
 10
211.0827238726
 20
936.1505354049
 30
0.0
 11
211.0827238726
 21
802.8918536606
 31
0.0
  0
LINE
  5
65
330
1F
100
AcDbEntity
  8
0
  6
Continuous
 62
     7
370
    40
100
AcDbLine
 10
225.0827224421
 20
936.1505354049
 30
0.0
 11
225.0827224421
 21
877.4719270172
 31
0.0
  0
LINE
  5
66
330
1F
100
AcDbEntity
  8
0
  6
Continuous
 62
     7
370
    40
100
AcDbLine
 10
312.2827233242
 20
969.4719253333
 30
0.0
 11
312.2827233242
 21
945.4719251247
 31
0.0
  0
LINE
  5
67
330
1F
100
AcDbEntity
  8
0
  6
Continuous
 62
     7
370
    40
100
AcDbLine
 10
216.0827191042
 20
802.8918536606
 30
0.0
 11
216.0827191042
 21
757.4719222488
 31
0.0
  0
LINE
  5
68
330
1F
100
AcDbEntity
  8
0
  6
Continuous
 62
     7
370
    40
100
AcDbLine
 10
211.0827238726
 20
802.8918536606
 30
0.0
 11
211.0827238726
 21
757.4719222488
 31
0.0
  0
LINE
  5
69
330
1F
100
AcDbEntity
  8
0
  6
Continuous
 62
     7
370
    40
100
AcDbLine
 10
216.0827191042
 20
747.4719317856
 30
0.0
 11
211.0827238726
 21
747.4719317856
 31
0.0
  0
LINE
  5
6A
330
1F
100
AcDbEntity
  8
0
  6
Continuous
 62
     7
370
    40
100
AcDbLine
 10
216.0827191042
 20
757.4719222488
 30
0.0
 11
216.0827191042
 21
747.4719317856
 31
0.0
  0
LINE
  5
6B
330
1F
100
AcDbEntity
  8
0
  6
Continuous
 62
     7
370
    40
100
AcDbLine
 10
211.0827238726
 20
757.4719222488
 30
0.0
 11
211.0827238726
 21
747.4719317856
 31
0.0
  0
LWPOLYLINE
  5
6C
330
1F
100
AcDbEntity
  8
0
  6
Continuous
 62
     7
370
    40
100
AcDbPolyline
 90
        9
 70
   128
 43
0.0
 10
225.0827224421
 20
877.4719270172
 10
225.1403601336
 20
877.4142818751
 10
225.3110827374
 20
877.2435667219
 10
225.5883039402
 20
876.9663306179
 10
225.9613992142
 20
876.5932427945
 10
226.4160038399
 20
876.1386381688
 10
226.9346685576
 20
875.6199734511
 10
227.4974556135
 20
875.0571938457
 10
228.0827136206
 20
874.4719283881
  0
LWPOLYLINE
  5
6D
330
1F
100
AcDbEntity
  8
0
  6
Continuous
 62
     7
370
    40
100
AcDbPolyline
 90
        9
 70
   128
 43
0.0
 10
216.0827191042
 20
877.4719270172
 10
216.1403567957
 20
877.4142818751
 10
216.3110793995
 20
877.2435667219
 10
216.5883155035
 20
876.9663306179
 10
216.9613958763
 20
876.5932427945
 10
217.4160154032
 20
876.1386381688
 10
217.9346652197
 20
875.6199734511
 10
218.4974522757
 20
875.0571938457
 10
219.0827251839
 20
874.4719283881
  0
LINE
  5
6E
330
1F
100
AcDbEntity
  8
0
  6
Continuous
 62
     7
370
    40
100
AcDbLine
 10
219.0827251839
 20
747.4719317856
 30
0.0
 11
216.0827191042
 21
747.4719317856
 31
0.0
  0
LINE
  5
6F
330
1F
100
AcDbEntity
  8
0
  6
Continuous
 62
     7
370
    40
100
AcDbLine
 10
259.0827168392
 20
927.4719258996
 30
0.0
 11
259.0827168392
 21
762.4719323816
 31
0.0
  0
ARC
  5
70
330
1F
100
AcDbEntity
  8
0
  6
Continuous
 62
     7
370
    40
100
AcDbCircle
 10
244.0827200579
 20
762.471925229
 30
0.0
 40
15.00000000000006
100
AcDbArc
 50
270.0
 51
0.0
  0
CIRCLE
  5
71
330
1F
100
AcDbEntity
  8
0
  6
Continuous
 62
     7
370
    40
100
AcDbCircle
 10
245.0827200579
 20
767.471925229
 30
0.0
 40
5.5
  0
CIRCLE
  5
72
330
1F
100
AcDbEntity
  8
0
  6
Continuous
 62
     7
370
    40
100
AcDbCircle
 10
245.0827200579
 20
917.471925229
 30
0.0
 40
5.5
  0
LINE
  5
73
330
1F
100
AcDbEntity
  8
0
  6
Continuous
 62
     7
370
    40
100
AcDbLine
 10
244.0827162432
 20
747.4719317856
 30
0.0
 11
219.0827251839
 21
747.4719317856
 31
0.0
  0
LINE
  5
74
330
1F
100
AcDbEntity
  8
0
  6
Continuous
 62
     7
370
    40
100
AcDbLine
 10
619.0827162432
 20
989.471926749
 30
0.0
 11
619.0827162432
 21
936.1505354049
 31
0.0
  0
LINE
  5
75
330
1F
100
AcDbEntity
  8
0
  6
Continuous
 62
     7
370
    40
100
AcDbLine
 10
605.0827176737
 20
989.471926749
 30
0.0
 11
605.0827176737
 21
936.1505354049
 31
0.0
  0
LINE
  5
76
330
1F
100
AcDbEntity
  8
0
  6
Continuous
 62
     7
370
    40
100
AcDbLine
 10
519.8827208447
 20
987.4719245585
 30
0.0
 11
519.8827208447
 21
927.4719258996
 31
0.0
  0
LINE
  5
77
330
1F
100
AcDbEntity
  8
0
  6
Continuous
 62
     7
370
    40
100
AcDbLine
 10
614.0827210116
 20
877.4719270172
 30
0.0
 11
614.0827210116
 21
802.8918536606
 31
0.0
  0
LINE
  5
78
330
1F
100
AcDbEntity
  8
0
  6
Continuous
 62
     7
370
    40
100
AcDbLine
 10
605.0827176737
 20
877.4719270172
 30
0.0
 11
614.0827210116
 21
877.4719270172
 31
0.0
  0
LINE
  5
79
330
1F
100
AcDbEntity
  8
0
  6
Continuous
 62
     7
370
    40
100
AcDbLine
 10
619.0827162432
 20
936.1505354049
 30
0.0
 11
619.0827162432
 21
802.8918536606
 31
0.0
  0
LINE
  5
7A
330
1F
100
AcDbEntity
  8
0
  6
Continuous
 62
     7
370
    40
100
AcDbLine
 10
605.0827176737
 20
936.1505354049
 30
0.0
 11
605.0827176737
 21
877.4719270172
 31
0.0
  0
LINE
  5
7B
330
1F
100
AcDbEntity
  8
0
  6
Continuous
 62
     7
370
    40
100
AcDbLine
 10
517.8827167915
 20
969.4719253333
 30
0.0
 11
517.8827167915
 21
945.4719251247
 31
0.0
  0
LINE
  5
7C
330
1F
100
AcDbEntity
  8
0
  6
Continuous
 62
     7
370
    40
100
AcDbLine
 10
614.0827210116
 20
802.8918536606
 30
0.0
 11
614.0827210116
 21
757.4719222488
 31
0.0
  0
LINE
  5
7D
330
1F
100
AcDbEntity
  8
0
  6
Continuous
 62
     7
370
    40
100
AcDbLine
 10
619.0827162432
 20
802.8918536606
 30
0.0
 11
619.0827162432
 21
757.4719222488
 31
0.0
  0
LINE
  5
7E
330
1F
100
AcDbEntity
  8
0
  6
Continuous
 62
     7
370
    40
100
AcDbLine
 10
614.0827210116
 20
747.4719317856
 30
0.0
 11
619.0827162432
 21
747.4719317856
 31
0.0
  0
LINE
  5
7F
330
1F
100
AcDbEntity
  8
0
  6
Continuous
 62
     7
370
    40
100
AcDbLine
 10
614.0827210116
 20
757.4719222488
 30
0.0
 11
614.0827210116
 21
747.4719317856
 31
0.0
  0
LINE
  5
80
330
1F
100
AcDbEntity
  8
0
  6
Continuous
 62
     7
370
    40
100
AcDbLine
 10
619.0827162432
 20
757.4719222488
 30
0.0
 11
619.0827162432
 21
747.4719317856
 31
0.0
  0
LWPOLYLINE
  5
81
330
1F
100
AcDbEntity
  8
0
  6
Continuous
 62
     7
370
    40
100
AcDbPolyline
 90
        9
 70
   128
 43
0.0
 10
605.0827176737
 20
877.4719270172
 10
605.0250799822
 20
877.4142818751
 10
604.8543573784
 20
877.2435667219
 10
604.5771361755
 20
876.9663306179
 10
604.2040409016
 20
876.5932427945
 10
603.7494362759
 20
876.1386381688
 10
603.2307715582
 20
875.6199734511
 10
602.6679845022
 20
875.0571938457
 10
602.0827264952
 20
874.4719283881
  0
LWPOLYLINE
  5
82
330
1F
100
AcDbEntity
  8
0
  6
Continuous
 62
     7
370
    40
100
AcDbPolyline
 90
        9
 70
   128
 43
0.0
 10
614.0827210116
 20
877.4719270172
 10
614.0250833201
 20
877.4142818751
 10
613.8543607163
 20
877.2435667219
 10
613.5771246122
 20
876.9663306179
 10
613.2040442394
 20
876.5932427945
 10
612.7494247126
 20
876.1386381688
 10
612.2307748961
 20
875.6199734511
 10
611.6679878401
 20
875.0571938457
 10
611.0827149319
 20
874.4719283881
  0
LINE
  5
83
330
1F
100
AcDbEntity
  8
0
  6
Continuous
 62
     7
370
    40
100
AcDbLine
 10
611.0827149319
 20
747.4719317856
 30
0.0
 11
614.0827210116
 21
747.4719317856
 31
0.0
  0
ARC
  5
84
330
1F
100
AcDbEntity
  8
0
  6
Continuous
 62
     7
370
    40
100
AcDbCircle
 10
586.0827200579
 20
762.471925229
 30
0.0
 40
15.0
100
AcDbArc
 50
180.0
 51
270.0
  0
CIRCLE
  5
85
330
1F
100
AcDbEntity
  8
0
  6
Continuous
 62
     7
370
    40
100
AcDbCircle
 10
585.0827200579
 20
767.471925229
 30
0.0
 40
5.5
  0
LINE
  5
86
330
1F
100
AcDbEntity
  8
0
  6
Continuous
 62
     7
370
    40
100
AcDbLine
 10
571.0827232765
 20
927.4719258996
 30
0.0
 11
571.0827232765
 21
762.4719323816
 31
0.0
  0
CIRCLE
  5
87
330
1F
100
AcDbEntity
  8
0
  6
Continuous
 62
     7
370
    40
100
AcDbCircle
 10
585.0827200579
 20
917.471925229
 30
0.0
 40
5.5
  0
LINE
  5
88
330
1F
100
AcDbEntity
  8
0
  6
Continuous
 62
     7
370
    40
100
AcDbLine
 10
586.0827238726
 20
747.4719317856
 30
0.0
 11
611.0827149319
 21
747.4719317856
 31
0.0
  0
LINE
  5
89
330
1F
100
AcDbEntity
  8
0
  6
Continuous
 62
     7
370
    40
100
AcDbLine
 10
231.582713263
 20
1137.4719323816
 30
0.0
 11
226.5827180313
 21
1137.4719323816
 31
0.0
  0
LINE
  5
8A
330
1F
100
AcDbEntity
  8
0
  6
Continuous
 62
     7
370
    40
100
AcDbLine
 10
231.582713263
 20
958.4478956989
 30
0.0
 11
226.5827180313
 21
958.4478956989
 31
0.0
  0
LINE
  5
8B
330
1F
100
AcDbEntity
  8
0
  6
Continuous
 62
     7
370
    40
100
AcDbLine
 10
226.5827180313
 20
1137.4719323816
 30
0.0
 11
226.5827180313
 21
958.4478956989
 31
0.0
  0
LINE
  5
8C
330
1F
100
AcDbEntity
  8
0
  6
Continuous
 62
     7
370
    40
100
AcDbLine
 10
231.582713263
 20
1137.4719323816
 30
0.0
 11
231.582713263
 21
958.4478956989
 31
0.0
  0
LINE
  5
8D
330
1F
100
AcDbEntity
  8
0
  6
Continuous
 62
     7
370
    40
100
AcDbLine
 10
598.5827268528
 20
958.4478956989
 30
0.0
 11
603.5827220844
 21
958.4478956989
 31
0.0
  0
LINE
  5
8E
330
1F
100
AcDbEntity
  8
0
  6
Continuous
 62
     7
370
    40
100
AcDbLine
 10
598.5827268528
 20
1137.4719323816
 30
0.0
 11
603.5827220844
 21
1137.4719323816
 31
0.0
  0
LINE
  5
8F
330
1F
100
AcDbEntity
  8
0
  6
Continuous
 62
     7
370
    40
100
AcDbLine
 10
598.5827268528
 20
1137.4719323816
 30
0.0
 11
598.5827268528
 21
958.4478956989
 31
0.0
  0
LINE
  5
90
330
1F
100
AcDbEntity
  8
0
  6
Continuous
 62
     7
370
    40
100
AcDbLine
 10
603.5827220844
 20
1137.4719323816
 30
0.0
 11
603.5827220844
 21
958.4478956989
 31
0.0
  0
LINE
  5
91
330
1F
100
AcDbEntity
  8
0
  6
Continuous
 62
     7
370
    40
100
AcDbLine
 10
536.2132014202
 20
1357.4719311895
 30
0.0
 11
293.9522386955
 21
1357.4719311895
 31
0.0
  0
LINE
  5
92
330
1F
100
AcDbEntity
  8
0
  6
Continuous
 62
     7
370
    40
100
AcDbLine
 10
293.9522386955
 20
1332.471925229
 30
0.0
 11
536.2132014202
 21
1332.471925229
 31
0.0
  0
LINE
  5
93
330
1F
100
AcDbEntity
  8
0
  6
Continuous
 62
     7
370
    40
100
AcDbLine
 10
293.9522386955
 20
1007.4719259741
 30
0.0
 11
536.2132014202
 21
1007.4719259741
 31
0.0
  0
LINE
  5
94
330
1F
100
AcDbEntity
  8
0
  6
Continuous
 62
     7
370
    40
100
AcDbLine
 10
536.2132014202
 20
1032.4719282093
 30
0.0
 11
293.9522386955
 21
1032.4719282093
 31
0.0
  0
LINE
  5
95
330
1F
100
AcDbEntity
  8
0
  6
Continuous
 62
     7
370
    40
100
AcDbLine
 10
536.7364631461
 20
1357.4493410291
 30
0.0
 11
536.2132014202
 21
1357.4719311895
 31
0.0
  0
LINE
  5
96
330
1F
100
AcDbEntity
  8
0
  6
CENTERX2
 62
     7
370
     0
100
AcDbLine
 10
415.0827200579
 20
1367.6398226336
 30
0.0
 11
415.0827200579
 21
752.471925229
 31
0.0
  0
LINE
  5
97
330
1F
100
AcDbEntity
  8
0
  6
CENTERX2
 62
     7
370
     0
100
AcDbLine
 10
320.2827200579
 20
957.471925229
 30
0.0
 11
215.0827200579
 21
957.471925229
 31
0.0
  0
LINE
  5
98
330
1F
100
AcDbEntity
  8
0
  6
CENTERX2
 62
     7
370
     0
100
AcDbLine
 10
507.8827200579
 20
957.471925229
 30
0.0
 11
519.8827200579
 21
957.471925229
 31
0.0
  0
LINE
  5
99
330
1F
100
AcDbEntity
  8
0
  6
CENTERX2
 62
     7
370
     0
100
AcDbLine
 10
519.8827200579
 20
957.471925229
 30
0.0
 11
605.0827200579
 21
957.471925229
 31
0.0
  0
LINE
  5
9A
330
1F
100
AcDbEntity
  8
0
  6
CENTERX2
 62
     7
370
     0
100
AcDbLine
 10
605.0827200579
 20
957.471925229
 30
0.0
 11
629.0827200579
 21
957.471925229
 31
0.0
  0
SPLINE
  5
9B
330
1F
100
AcDbEntity
  8
0
  6
Continuous
 62
     7
370
    40
100
AcDbSpline
210
0.0
220
0.0
230
1.0
 70
     8
 71
     3
 72
    36
 73
    32
 74
     0
 42
0.00000001
 43
0.00000001
 12
1.0
 22
0.0
 32
0.0
 13
1.0
 23
0.0
 33
0.0
 40
0.0
 40
0.0
 40
0.0
 40
0.0
 40
0.0130697645171895
 40
0.0335623930943601
 40
0.0536962246392935
 40
0.0737001822139114
 40
0.09384226824068
 40
0.1144840318012319
 40
0.1361560196719495
 40
0.1596474662120265
 40
0.1861495109987711
 40
0.2176380195819053
 40
0.2563139311158364
 40
0.3063967263358466
 40
0.3523586397916293
 40
0.3957096534905624
 40
0.4413521341718492
 40
0.4852754005220694
 40
0.5280889762151052
 40
0.5702125366833916
 40
0.6108674057947123
 40
0.6526145922873204
 40
0.6943227248930895
 40
0.735934076880647
 40
0.7773627815756735
 40
0.8185131234583078
 40
0.8592929824257625
 40
0.8995923003108163
 40
0.940266019883914
 40
0.9811769750610329
 40
0.9999999999999999
 40
0.9999999999999999
 40
0.9999999999999999
 40
0.9999999999999999
 10
959.2441812998351
 20
1357.437300890891
 30
0.0
 10
958.814823719263
 20
1357.439733631536
 30
0.0
 10
957.7122584910793
 20
1357.44598076764
 30
0.0
 10
955.9924837809672
 20
1357.119266160834
 30
0.0
 10
954.1607191361395
 20
1356.540721396162
 30
0.0
 10
952.4990298343798
 20
1355.746339697825
 30
0.0
 10
951.0159540590976
 20
1354.798075560749
 30
0.0
 10
949.705331521628
 20
1353.729515823749
 30
0.0
 10
948.5447673156143
 20
1352.562204279204
 30
0.0
 10
947.4980494394448
 20
1351.287882267174
 30
0.0
 10
946.5180050721732
 20
1349.861001778367
 30
0.0
 10
945.5434599681765
 20
1348.164983839616
 30
0.0
 10
944.5255740025074
 20
1346.036476059373
 30
0.0
 10
943.5351001677323
 20
1343.524810343198
 30
0.0
 10
942.6024550040822
 20
1340.70497308593
 30
0.0
 10
941.7555648794478
 20
1337.739273314622
 30
0.0
 10
940.9655600454313
 20
1334.570853082823
 30
0.0
 10
940.2192935778571
 20
1331.160611736531
 30
0.0
 10
939.531559264792
 20
1327.606829290806
 30
0.0
 10
938.9007148058208
 20
1323.913214593351
 30
0.0
 10
938.3196621207468
 20
1320.05705712378
 30
0.0
 10
937.7852061612873
 20
1316.032836159883
 30
0.0
 10
937.2953715140807
 20
1311.810684062784
 30
0.0
 10
936.8584302466845
 20
1307.449677185254
 30
0.0
 10
936.4783188459294
 20
1302.976919492997
 30
0.0
 10
936.1587619238529
 20
1298.42188594026
 30
0.0
 10
935.9035738922621
 20
1293.815805761349
 30
0.0
 10
935.7130490907853
 20
1289.156172812244
 30
0.0
 10
935.5902168088605
 20
1284.442020616718
 30
0.0
 10
935.5311188533144
 20
1280.533765179669
 30
0.0
 10
935.5372090494053
 20
1278.205498534499
 30
0.0
 10
935.5391281566318
 20
1277.471828669517
 30
0.0
  0
SPLINE
  5
9C
330
1F
100
AcDbEntity
  8
0
  6
Continuous
 62
     7
370
    40
100
AcDbSpline
210
0.0
220
0.0
230
1.0
 70
     8
 71
     3
 72
    16
 73
    12
 74
     0
 42
0.00000001
 43
0.00000001
 12
1.0
 22
0.0
 32
0.0
 13
1.0
 23
0.0
 33
0.0
 40
0.0
 40
0.0
 40
0.0
 40
0.0
 40
0.0762209159526593
 40
0.2058969466636255
 40
0.3358226786136719
 40
0.4660250636789612
 40
0.5952119000525138
 40
0.7238976992499727
 40
0.8531311762139746
 40
0.9829065938461282
 40
1.0
 40
1.0
 40
1.0
 40
1.0
 10
935.5372990390952
 20
1087.471786350219
 30
0.0
 10
935.5362661515572
 20
1086.532736752937
 30
0.0
 10
935.533475993663
 20
1083.996064995199
 30
0.0
 10
935.6019841988136
 20
1079.867501081408
 30
0.0
 10
935.7362465699541
 20
1075.108602620945
 30
0.0
 10
935.9387956170253
 20
1070.40914020879
 30
0.0
 10
936.2041681205633
 20
1065.800515223136
 30
0.0
 10
936.5277861474983
 20
1061.293255760585
 30
0.0
 10
936.9135541390991
 20
1056.907046175617
 30
0.0
 10
937.2136003481289
 20
1053.836113058795
 30
0.0
 10
937.3985284833578
 20
1052.280064421508
 30
0.0
 10
937.4200514427121
 20
1052.098962873428
 30
0.0
  0
LINE
  5
9D
330
1F
100
AcDbEntity
  8
0
  6
Continuous
 62
     7
370
    40
100
AcDbLine
 10
935.5261790476
 20
1277.4719180765
 30
0.0
 11
935.5261790476
 21
1087.4719204607
 31
0.0
  0
SPLINE
  5
9E
330
1F
100
AcDbEntity
  8
0
  6
Continuous
 62
     7
370
    40
100
AcDbSpline
210
0.0
220
0.0
230
1.0
 70
     8
 71
     3
 72
    29
 73
    25
 74
     0
 42
0.00000001
 43
0.00000001
 12
1.0
 22
0.0
 32
0.0
 13
1.0
 23
0.0
 33
0.0
 40
0.0
 40
0.0
 40
0.0
 40
0.0
 40
0.0384424919371364
 40
0.0907406903965075
 40
0.1429114291555313
 40
0.1948709631909299
 40
0.2464036013586308
 40
0.2982392234483504
 40
0.3505526705242299
 40
0.4031008225042497
 40
0.4555597426193077
 40
0.5075920787349932
 40
0.5588969159215987
 40
0.6091998822924805
 40
0.6591433667397565
 40
0.7091650153263379
 40
0.7585830620783142
 40
0.8070438466504679
 40
0.8541009211373859
 40
0.8944075878418737
 40
0.9320059935028439
 40
0.9665850725868056
 40
0.998082051909699
 40
1.0
 40
1.0
 40
1.0
 40
1.0
 10
960.5369576162394
 20
1277.471500843971
 30
0.0
 10
960.5375152624555
 20
1278.563603328613
 30
0.0
 10
960.5388315455604
 20
1281.141431363337
 30
0.0
 10
960.6119033684267
 20
1285.187860492412
 30
0.0
 10
960.7447866624539
 20
1289.578523733229
 30
0.0
 10
960.9394029886582
 20
1293.886433264959
 30
0.0
 10
961.1916819286253
 20
1298.100220514996
 30
0.0
 10
961.4983140852838
 20
1302.219915137703
 30
0.0
 10
961.8569873873863
 20
1306.242359907346
 30
0.0
 10
962.2632890767974
 20
1310.136066624033
 30
0.0
 10
962.7106517327377
 20
1313.857999634801
 30
0.0
 10
963.1912190204495
 20
1317.36578496369
 30
0.0
 10
963.6961821814742
 20
1320.6225306936
 30
0.0
 10
964.2190093949232
 20
1323.608015209321
 30
0.0
 10
964.7561338472515
 20
1326.341276150855
 30
0.0
 10
965.2989159060196
 20
1328.808145702317
 30
0.0
 10
965.8366968489693
 20
1330.985247222328
 30
0.0
 10
966.3523026652722
 20
1332.838227238464
 30
0.0
 10
966.8112031503806
 20
1334.291997311209
 30
0.0
 10
967.1915695286809
 20
1335.356824900088
 30
0.0
 10
967.4865935076555
 20
1336.078936467319
 30
0.0
 10
967.6650995178759
 20
1336.470218514893
 30
0.0
 10
967.7589235165207
 20
1336.632352124328
 30
0.0
 10
967.7331215516817
 20
1336.591096617906
 30
0.0
 10
967.7316405719813
 20
1336.588728636711
 30
0.0
  0
LINE
  5
9F
330
1F
100
AcDbEntity
  8
0
  6
Continuous
 62
     7
370
    40
100
AcDbLine
 10
960.5261794201
 20
1137.4719323816
 30
0.0
 11
960.5261794201
 21
1277.4719180765
 31
0.0
  0
LINE
  5
A0
330
1F
100
AcDbEntity
  8
0
  6
Continuous
 62
     7
370
    40
100
AcDbLine
 10
962.1799945741
 20
1137.4719323816
 30
0.0
 11
962.1799945741
 21
1309.2423560323
 31
0.0
  0
ARC
  5
A1
330
1F
100
AcDbEntity
  8
0
  6
Continuous
 62
     7
370
    40
100
AcDbCircle
 10
967.1799943994
 20
1344.971925229
 30
0.0
 40
12.5
100
AcDbArc
 50
0.0
 51
90.0
  0
ARC
  5
A2
330
1F
100
AcDbEntity
  8
0
  6
Continuous
 62
     7
370
    40
100
AcDbCircle
 10
967.1799943994
 20
1344.971925229
 30
0.0
 40
12.5
100
AcDbArc
 50
270.0
 51
0.0
  0
LINE
  5
A3
330
1F
100
AcDbEntity
  8
0
  6
Continuous
 62
     7
370
    40
100
AcDbLine
 10
912.4200510702
 20
747.4719317856
 30
0.0
 11
912.4200510702
 21
947.4719254526
 31
0.0
  0
LINE
  5
A4
330
1F
100
AcDbEntity
  8
0
  6
Continuous
 62
     7
370
    40
100
AcDbLine
 10
912.4200510702
 20
947.4719254526
 30
0.0
 11
918.4200520537
 21
947.4719254526
 31
0.0
  0
LINE
  5
A5
330
1F
100
AcDbEntity
  8
0
  6
Continuous
 62
     7
370
    40
100
AcDbLine
 10
918.4200520537
 20
747.4719317856
 30
0.0
 11
912.4200510702
 21
747.4719317856
 31
0.0
  0
ARC
  5
A6
330
1F
100
AcDbEntity
  8
0
  6
Continuous
 62
     7
370
    40
100
AcDbCircle
 10
1140.4200507722
 20
802.8918488932
 30
0.0
 40
264.0000000000001
100
AcDbArc
 50
138.2183693274
 51
146.7939343943
  0
ARC
  5
A7
330
1F
100
AcDbEntity
  8
0
  6
Continuous
 62
     7
370
    40
100
AcDbCircle
 10
967.4200507722
 20
957.471925229
 30
0.0
 40
32.00000000000009
100
AcDbArc
 50
318.2183693274
 51
138.2183693274
  0
ARC
  5
A8
330
1F
100
AcDbEntity
  8
0
  6
Continuous
 62
     7
370
    40
100
AcDbCircle
 10
1140.4200507722
 20
802.8918488932
 30
0.0
 40
199.9999999999999
100
AcDbArc
 50
138.2183693274
 51
180.0
  0
LINE
  5
A9
330
1F
100
AcDbEntity
  8
0
  6
Continuous
 62
     7
370
    40
100
AcDbLine
 10
940.4200500718
 20
802.8918536606
 30
0.0
 11
940.4200500718
 21
757.4719222488
 31
0.0
  0
ARC
  5
AA
330
1F
100
AcDbEntity
  8
0
  6
Continuous
 62
     7
370
    40
100
AcDbCircle
 10
930.4200507722
 20
757.471925229
 30
0.0
 40
10.0
100
AcDbArc
 50
270.0
 51
0.0
  0
LINE
  5
AB
330
1F
100
AcDbEntity
  8
0
  6
Continuous
 62
     7
370
    40
100
AcDbLine
 10
930.4200502953
 20
747.4719317856
 30
0.0
 11
918.4200520537
 21
747.4719317856
 31
0.0
  0
LINE
  5
AC
330
1F
100
AcDbEntity
  8
0
  6
Continuous
 62
     7
370
    40
100
AcDbLine
 10
918.4200520537
 20
947.4719254526
 30
0.0
 11
919.529577615
 21
947.4719254526
 31
0.0
  0
SPLINE
  5
AD
330
1F
100
AcDbEntity
  8
0
  6
Continuous
 62
     7
370
    40
100
AcDbSpline
210
0.0
220
0.0
230
1.0
 70
     8
 71
     3
 72
    14
 73
    10
 74
     0
 42
0.00000001
 43
0.00000001
 12
1.0
 22
0.0
 32
0.0
 13
1.0
 23
0.0
 33
0.0
 40
0.0
 40
0.0
 40
0.0
 40
0.0
 40
0.0946685193223398
 40
0.1896235137461315
 40
0.318977202157318
 40
0.4486369412383587
 40
0.6865824287205892
 40
0.9251810236342699
 40
1.0
 40
1.0
 40
1.0
 40
1.0
 10
947.6765113792117
 20
1045.790742546527
 30
0.0
 10
947.0869482778058
 20
1046.047566983536
 30
0.0
 10
945.9060380062194
 20
1046.561993030442
 30
0.0
 10
944.196432160619
 20
1047.910511368327
 30
0.0
 10
942.5760769584679
 20
1049.687049700523
 30
0.0
 10
940.7223529725771
 20
1052.506035944213
 30
0.0
 10
939.0303131128594
 20
1056.266524992479
 30
0.0
 10
937.9832043639573
 20
1059.856692410389
 30
0.0
 10
937.5285794145389
 20
1061.928357200299
 30
0.0
 10
937.4200514427121
 20
1062.422904581039
 30
0.0
  0
SPLINE
  5
AE
330
1F
100
AcDbEntity
  8
0
  6
Continuous
 62
     7
370
    40
100
AcDbSpline
210
0.0
220
0.0
230
1.0
 70
     8
 71
     3
 72
    15
 73
    11
 74
     0
 42
0.00000001
 43
0.00000001
 12
1.0
 22
0.0
 32
0.0
 13
1.0
 23
0.0
 33
0.0
 40
0.0
 40
0.0
 40
0.0
 40
0.0
 40
0.2754388863113117
 40
0.4258650619481168
 40
0.5757816606058745
 40
0.6788301399834069
 40
0.7825327727634602
 40
0.85563353794144
 40
0.9291673052742916
 40
1.0
 40
1.0
 40
1.0
 40
1.0
 10
960.6376275329585
 20
1071.940432697742
 30
0.0
 10
960.6055176978412
 20
1068.858180439958
 30
0.0
 10
960.5558716325941
 20
1064.092609513212
 30
0.0
 10
959.7696729442528
 20
1057.692880376547
 30
0.0
 10
958.6230866678591
 20
1053.304479655066
 30
0.0
 10
956.9148477291437
 20
1049.680986650035
 30
0.0
 10
954.9070437968235
 20
1047.204441709368
 30
0.0
 10
952.4962953237439
 20
1045.708586568234
 30
0.0
 10
950.0324943497407
 20
1045.19016112326
 30
0.0
 10
948.4519819945439
 20
1045.593061471713
 30
0.0
 10
947.6765113792117
 20
1045.790742546527
 30
0.0
  0
SPLINE
  5
AF
330
1F
100
AcDbEntity
  8
0
  6
Continuous
 62
     7
370
    40
100
AcDbSpline
210
0.0
220
0.0
230
1.0
 70
     8
 71
     3
 72
     9
 73
     5
 74
     0
 42
0.00000001
 43
0.00000001
 12
1.0
 22
0.0
 32
0.0
 13
1.0
 23
0.0
 33
0.0
 40
0.0
 40
0.0
 40
0.0
 40
0.0
 40
0.4024006988212516
 40
0.9999999999999999
 40
0.9999999999999999
 40
0.9999999999999999
 40
0.9999999999999999
 10
960.5051021932359
 20
1087.47192046067
 30
0.0
 10
960.5167446293395
 20
1085.388576487497
 30
0.0
 10
960.545677074382
 20
1080.211289322551
 30
0.0
 10
960.6032324692227
 20
1075.034236091051
 30
0.0
 10
960.6376275329585
 20
1071.940432697742
 30
0.0
  0
LINE
  5
B0
330
1F
100
AcDbEntity
  8
0
  6
Continuous
 62
     7
370
    40
100
AcDbLine
 10
960.5051021932
 20
1137.4719323816
 30
0.0
 11
960.5051021932
 21
1087.4719204607
 31
0.0
  0
ARC
  5
B1
330
1F
100
AcDbEntity
  8
0
  6
Continuous
 62
     7
370
    40
100
AcDbCircle
 10
397.7217614369
 20
938.9284862697
 30
0.0
 40
600.0000000000001
100
AcDbArc
 50
2.9553008528
 51
19.3237589242
  0
LINE
  5
B2
330
1F
100
AcDbEntity
  8
0
  6
Continuous
 62
     7
370
    40
100
AcDbLine
 10
937.4200514427
 20
971.6727718936
 30
0.0
 11
937.4200514427
 21
1062.422904581
 31
0.0
  0
LINE
  5
B3
330
1F
100
AcDbEntity
  8
0
  6
Continuous
 62
     7
370
    40
100
AcDbLine
 10
960.5051021932
 20
1137.4719323816
 30
0.0
 11
963.9200506641
 21
1137.4719323816
 31
0.0
  0
LINE
  5
B4
330
1F
100
AcDbEntity
  8
0
  6
Continuous
 62
     7
370
    40
100
AcDbLine
 10
967.1799944041
 20
1357.4719311895
 30
0.0
 11
959.2577609143
 21
1357.4719311895
 31
0.0
  0
LINE
  5
B5
330
1F
100
AcDbEntity
  8
0
  6
Continuous
 62
     7
370
    40
100
AcDbLine
 10
966.4147508007
 20
1332.471925229
 30
0.0
 11
967.1799944041
 21
1332.471925229
 31
0.0
  0
LINE
  5
B6
330
1F
100
AcDbEntity
  8
0
  6
Continuous
 62
     7
370
    40
100
AcDbLine
 10
959.2577609143
 20
1357.4719311895
 30
0.0
 11
959.0265014118
 21
1357.46975562
 31
0.0
  0
SPLINE
  5
B7
330
1F
100
AcDbEntity
  8
0
  6
Continuous
 62
     7
370
    40
100
AcDbSpline
210
0.0
220
0.0
230
1.0
 70
     8
 71
     3
 72
    36
 73
    32
 74
     0
 42
0.00000001
 43
0.00000001
 12
1.0
 22
0.0
 32
0.0
 13
1.0
 23
0.0
 33
0.0
 40
0.0
 40
0.0
 40
0.0
 40
0.0
 40
0.0130697645171895
 40
0.0335623930943601
 40
0.0536962246392935
 40
0.0737001822139114
 40
0.09384226824068
 40
0.1144840318012319
 40
0.1361560196719495
 40
0.1596474662120265
 40
0.1861495109987711
 40
0.2176380195819053
 40
0.2563139311158364
 40
0.3063967263358466
 40
0.3523586397916293
 40
0.3957096534905624
 40
0.4413521341718492
 40
0.4852754005220694
 40
0.5280889762151052
 40
0.5702125366833916
 40
0.6108674057947123
 40
0.6526145922873204
 40
0.6943227248930895
 40
0.735934076880647
 40
0.7773627815756735
 40
0.8185131234583078
 40
0.8592929824257625
 40
0.8995923003108163
 40
0.940266019883914
 40
0.9811769750610329
 40
0.9999999999999999
 40
0.9999999999999999
 40
0.9999999999999999
 40
0.9999999999999999
 10
1659.19902592631
 20
965.6477947013664
 30
0.0
 10
1659.201458666954
 20
966.0771522819385
 30
0.0
 10
1659.207705803059
 20
967.1797175101223
 30
0.0
 10
1658.880991196253
 20
968.8994922202343
 30
0.0
 10
1658.30244643158
 20
970.7312568650618
 30
0.0
 10
1657.508064733244
 20
972.3929461668217
 30
0.0
 10
1656.559800596168
 20
973.8760219421039
 30
0.0
 10
1655.491240859168
 20
975.1866444795736
 30
0.0
 10
1654.323929314623
 20
976.3472086855872
 30
0.0
 10
1653.049607302592
 20
977.3939265617566
 30
0.0
 10
1651.622726813786
 20
978.3739709290284
 30
0.0
 10
1649.926708875034
 20
979.3485160330249
 30
0.0
 10
1647.798201094792
 20
980.3664019986941
 30
0.0
 10
1645.286535378617
 20
981.3568758334693
 30
0.0
 10
1642.466698121349
 20
982.2895209971191
 30
0.0
 10
1639.500998350041
 20
983.1364111217538
 30
0.0
 10
1636.332578118242
 20
983.92641595577
 30
0.0
 10
1632.922336771949
 20
984.6726824233442
 30
0.0
 10
1629.368554326225
 20
985.3604167364095
 30
0.0
 10
1625.67493962877
 20
985.9912611953805
 30
0.0
 10
1621.818782159199
 20
986.5723138804547
 30
0.0
 10
1617.794561195302
 20
987.106769839914
 30
0.0
 10
1613.572409098202
 20
987.5966044871207
 30
0.0
 10
1609.211402220673
 20
988.0335457545169
 30
0.0
 10
1604.738644528415
 20
988.4136571552721
 30
0.0
 10
1600.183610975679
 20
988.7332140773484
 30
0.0
 10
1595.577530796767
 20
988.9884021089393
 30
0.0
 10
1590.917897847663
 20
989.1789269104162
 30
0.0
 10
1586.203745652137
 20
989.3017591923409
 30
0.0
 10
1582.295490215088
 20
989.3608571478869
 30
0.0
 10
1579.967223569918
 20
989.354766951796
 30
0.0
 10
1579.233553704936
 20
989.3528478445695
 30
0.0
  0
SPLINE
  5
B8
330
1F
100
AcDbEntity
  8
0
  6
Continuous
 62
     7
370
    40
100
AcDbSpline
210
0.0
220
0.0
230
1.0
 70
     8
 71
     3
 72
    16
 73
    12
 74
     0
 42
0.00000001
 43
0.00000001
 12
1.0
 22
0.0
 32
0.0
 13
1.0
 23
0.0
 33
0.0
 40
0.0
 40
0.0
 40
0.0
 40
0.0
 40
0.0761595278818097
 40
0.2057311179512372
 40
0.3355522081512016
 40
0.4655686764476187
 40
0.5944727419027721
 40
0.7234834435947916
 40
0.8525634160654842
 40
0.9823575015001302
 40
1.0
 40
1.0
 40
1.0
 40
1.0
 10
1389.233511385638
 20
989.3546769621062
 30
0.0
 10
1388.29446118763
 20
989.3557103276889
 30
0.0
 10
1385.757787807139
 20
989.358501776934
 30
0.0
 10
1381.629242695719
 20
989.2899786092701
 30
0.0
 10
1376.871256710701
 20
989.1558061233773
 30
0.0
 10
1372.175205189297
 20
988.9531835054821
 30
0.0
 10
1367.563437982804
 20
988.6892197504072
 30
0.0
 10
1363.052173132707
 20
988.3668692827165
 30
0.0
 10
1358.660016721558
 20
987.9810180683768
 30
0.0
 10
1355.582112004668
 20
987.6804004351127
 30
0.0
 10
1354.019215585102
 20
987.4942050030274
 30
0.0
 10
1353.832196888644
 20
987.4719245584893
 30
0.0
  0
LINE
  5
B9
330
1F
100
AcDbEntity
  8
0
  6
Continuous
 62
     7
370
    40
100
AcDbLine
 10
1579.2336431119
 20
989.3657969536
 30
0.0
 11
1389.2336454961
 21
989.3657969536
 31
0.0
  0
SPLINE
  5
BA
330
1F
100
AcDbEntity
  8
0
  6
Continuous
 62
     7
370
    40
100
AcDbSpline
210
0.0
220
0.0
230
1.0
 70
     8
 71
     3
 72
    29
 73
    25
 74
     0
 42
0.00000001
 43
0.00000001
 12
1.0
 22
0.0
 32
0.0
 13
1.0
 23
0.0
 33
0.0
 40
0.0
 40
0.0
 40
0.0
 40
0.0
 40
0.0384424919371364
 40
0.0907406903965075
 40
0.1429114291555313
 40
0.1948709631909299
 40
0.2464036013586308
 40
0.2982392234483504
 40
0.3505526705242299
 40
0.4031008225042497
 40
0.4555597426193077
 40
0.5075920787349932
 40
0.5588969159215987
 40
0.6091998822924805
 40
0.6591433667397565
 40
0.7091650153263379
 40
0.7585830620783142
 40
0.8070438466504679
 40
0.8541009211373859
 40
0.8944075878418737
 40
0.9320059935028439
 40
0.9665850725868056
 40
0.998082051909699
 40
1.0
 40
1.0
 40
1.0
 40
1.0
 10
1579.233225879389
 20
964.3550183849619
 30
0.0
 10
1580.325328364032
 20
964.354460738746
 30
0.0
 10
1582.903156398756
 20
964.3531444556411
 30
0.0
 10
1586.949585527831
 20
964.2800726327747
 30
0.0
 10
1591.340248768648
 20
964.1471893387477
 30
0.0
 10
1595.648158300378
 20
963.9525730125431
 30
0.0
 10
1599.861945550414
 20
963.7002940725761
 30
0.0
 10
1603.981640173122
 20
963.3936619159176
 30
0.0
 10
1608.004084942765
 20
963.0349886138151
 30
0.0
 10
1611.897791659452
 20
962.6286869244041
 30
0.0
 10
1615.61972467022
 20
962.1813242684636
 30
0.0
 10
1619.127509999109
 20
961.700756980752
 30
0.0
 10
1622.384255729019
 20
961.1957938197273
 30
0.0
 10
1625.36974024474
 20
960.6729666062782
 30
0.0
 10
1628.103001186274
 20
960.1358421539501
 30
0.0
 10
1630.569870737736
 20
959.5930600951817
 30
0.0
 10
1632.746972257747
 20
959.0552791522322
 30
0.0
 10
1634.599952273883
 20
958.5396733359293
 30
0.0
 10
1636.053722346628
 20
958.0807728508208
 30
0.0
 10
1637.118549935507
 20
957.7004064725204
 30
0.0
 10
1637.840661502738
 20
957.405382493546
 30
0.0
 10
1638.231943550312
 20
957.2268764833256
 30
0.0
 10
1638.394077159747
 20
957.1330524846807
 30
0.0
 10
1638.352821653325
 20
957.1588544495198
 30
0.0
 10
1638.350453672129
 20
957.1603354292201
 30
0.0
  0
LINE
  5
BB
330
1F
100
AcDbEntity
  8
0
  6
Continuous
 62
     7
370
    40
100
AcDbLine
 10
1439.233657417
 20
964.3657965811
 30
0.0
 11
1579.2336431119
 21
964.3657965811
 31
0.0
  0
LINE
  5
BC
330
1F
100
AcDbEntity
  8
0
  6
Continuous
 62
     7
370
    40
100
AcDbLine
 10
1439.233657417
 20
962.7119814271
 30
0.0
 11
1611.0040810678
 21
962.7119814271
 31
0.0
  0
ARC
  5
BD
330
1F
100
AcDbEntity
  8
0
  6
Continuous
 62
     7
370
    40
100
AcDbCircle
 10
1646.7336502645
 20
957.7119816018
 30
0.0
 40
12.5
100
AcDbArc
 50
180.0
 51
270.0
  0
ARC
  5
BE
330
1F
100
AcDbEntity
  8
0
  6
Continuous
 62
     7
370
    40
100
AcDbCircle
 10
1646.7336502645
 20
957.7119816018
 30
0.0
 40
12.50000000000023
100
AcDbArc
 50
270.0
 51
0.0
  0
LINE
  5
BF
330
1F
100
AcDbEntity
  8
0
  6
Continuous
 62
     7
370
    40
100
AcDbLine
 10
1204.2336505625
 20
747.4719317856
 30
0.0
 11
1204.2336505625
 21
947.4719254526
 31
0.0
  0
LINE
  5
C0
330
1F
100
AcDbEntity
  8
0
  6
Continuous
 62
     7
370
    40
100
AcDbLine
 10
1204.2336505625
 20
947.4719254526
 30
0.0
 11
1210.233651546
 21
947.4719254526
 31
0.0
  0
LINE
  5
C1
330
1F
100
AcDbEntity
  8
0
  6
Continuous
 62
     7
370
    40
100
AcDbLine
 10
1210.233651546
 20
747.4719317856
 30
0.0
 11
1204.2336505625
 21
747.4719317856
 31
0.0
  0
ARC
  5
C2
330
1F
100
AcDbEntity
  8
0
  6
Continuous
 62
     7
370
    40
100
AcDbCircle
 10
1432.2336502645
 20
802.8918488932
 30
0.0
 40
264.0000000000001
100
AcDbArc
 50
138.2183693274
 51
146.7939343943
  0
ARC
  5
C3
330
1F
100
AcDbEntity
  8
0
  6
Continuous
 62
     7
370
    40
100
AcDbCircle
 10
1259.2336502645
 20
957.471925229
 30
0.0
 40
32.00000000000009
100
AcDbArc
 50
318.2183693274
 51
138.2183693274
  0
ARC
  5
C4
330
1F
100
AcDbEntity
  8
0
  6
Continuous
 62
     7
370
    40
100
AcDbCircle
 10
1432.2336502645
 20
802.8918488932
 30
0.0
 40
200.0
100
AcDbArc
 50
138.2183693274
 51
180.0
  0
LINE
  5
C5
330
1F
100
AcDbEntity
  8
0
  6
Continuous
 62
     7
370
    40
100
AcDbLine
 10
1232.2336495641
 20
802.8918536606
 30
0.0
 11
1232.2336495641
 21
757.4719222488
 31
0.0
  0
ARC
  5
C6
330
1F
100
AcDbEntity
  8
0
  6
Continuous
 62
     7
370
    40
100
AcDbCircle
 10
1222.2336502645
 20
757.471925229
 30
0.0
 40
10.0
100
AcDbArc
 50
270.0
 51
0.0
  0
LINE
  5
C7
330
1F
100
AcDbEntity
  8
0
  6
Continuous
 62
     7
370
    40
100
AcDbLine
 10
1222.2336497876
 20
747.4719317856
 30
0.0
 11
1210.233651546
 21
747.4719317856
 31
0.0
  0
LINE
  5
C8
330
1F
100
AcDbEntity
  8
0
  6
Continuous
 62
     7
370
    40
100
AcDbLine
 10
1210.233651546
 20
947.4719254526
 30
0.0
 11
1211.3431771073
 21
947.4719254526
 31
0.0
  0
SPLINE
  5
C9
330
1F
100
AcDbEntity
  8
0
  6
Continuous
 62
     7
370
    40
100
AcDbSpline
210
0.0
220
0.0
230
1.0
 70
     8
 71
     3
 72
    14
 73
    10
 74
     0
 42
0.00000001
 43
0.00000001
 12
1.0
 22
0.0
 32
0.0
 13
1.0
 23
0.0
 33
0.0
 40
0.0
 40
0.0
 40
0.0
 40
0.0
 40
0.0946685193223398
 40
0.1896235137461315
 40
0.318977202157318
 40
0.4486369412383587
 40
0.6865824287205892
 40
0.9251810236342699
 40
1.0
 40
1.0
 40
1.0
 40
1.0
 10
1347.552467581946
 20
977.2154646219897
 30
0.0
 10
1347.809292018955
 20
977.8050277233955
 30
0.0
 10
1348.323718065861
 20
978.985937994982
 30
0.0
 10
1349.672236403746
 20
980.6955438405823
 30
0.0
 10
1351.448774735941
 20
982.3158990427336
 30
0.0
 10
1354.267760979632
 20
984.1696230286244
 30
0.0
 10
1358.028250027897
 20
985.8616628883419
 30
0.0
 10
1361.618417445808
 20
986.9087716372442
 30
0.0
 10
1363.690082235718
 20
987.3633965866625
 30
0.0
 10
1364.184629616458
 20
987.4719245584893
 30
0.0
  0
SPLINE
  5
CA
330
1F
100
AcDbEntity
  8
0
  6
Continuous
 62
     7
370
    40
100
AcDbSpline
210
0.0
220
0.0
230
1.0
 70
     8
 71
     3
 72
    15
 73
    11
 74
     0
 42
0.00000001
 43
0.00000001
 12
1.0
 22
0.0
 32
0.0
 13
1.0
 23
0.0
 33
0.0
 40
0.0
 40
0.0
 40
0.0
 40
0.0
 40
0.2754388863113117
 40
0.4258650619481168
 40
0.5757816606058745
 40
0.6788301399834069
 40
0.7825327727634602
 40
0.85563353794144
 40
0.9291673052742916
 40
1.0
 40
1.0
 40
1.0
 40
1.0
 10
1373.702157733161
 20
964.2543484682428
 30
0.0
 10
1370.619905475377
 20
964.2864583033603
 30
0.0
 10
1365.854334548631
 20
964.3361043686073
 30
0.0
 10
1359.454605411966
 20
965.1223030569487
 30
0.0
 10
1355.066204690484
 20
966.2688893333424
 30
0.0
 10
1351.442711685454
 20
967.9771282720576
 30
0.0
 10
1348.966166744786
 20
969.984932204378
 30
0.0
 10
1347.470311603652
 20
972.3956806774577
 30
0.0
 10
1346.951886158678
 20
974.8594816514607
 30
0.0
 10
1347.354786507132
 20
976.4399940066576
 30
0.0
 10
1347.552467581946
 20
977.2154646219897
 30
0.0
  0
SPLINE
  5
CB
330
1F
100
AcDbEntity
  8
0
  6
Continuous
 62
     7
370
    40
100
AcDbSpline
210
0.0
220
0.0
230
1.0
 70
     8
 71
     3
 72
     9
 73
     5
 74
     0
 42
0.00000001
 43
0.00000001
 12
1.0
 22
0.0
 32
0.0
 13
1.0
 23
0.0
 33
0.0
 40
0.0
 40
0.0
 40
0.0
 40
0.0
 40
0.4024006988212516
 40
0.9999999999999999
 40
0.9999999999999999
 40
0.9999999999999999
 40
0.9999999999999999
 10
1389.233645496088
 20
964.3868738079655
 30
0.0
 10
1387.150301522916
 20
964.3752313718618
 30
0.0
 10
1381.973014357969
 20
964.3462989268195
 30
0.0
 10
1376.79596112647
 20
964.2887435319788
 30
0.0
 10
1373.702157733161
 20
964.2543484682428
 30
0.0
  0
LINE
  5
CC
330
1F
100
AcDbEntity
  8
0
  6
Continuous
 62
     7
370
    40
100
AcDbLine
 10
1439.233657417
 20
964.386873808
 30
0.0
 11
1389.2336454961
 21
964.386873808
 31
0.0
  0
ARC
  5
CD
330
1F
100
AcDbEntity
  8
0
  6
Continuous
 62
     7
370
    40
100
AcDbCircle
 10
1240.6902113052
 20
1527.1702145643
 30
0.0
 40
600.0
100
AcDbArc
 50
273.4103526971
 51
289.3237589242
  0
LINE
  5
CE
330
1F
100
AcDbEntity
  8
0
  6
Continuous
 62
     7
370
    40
100
AcDbLine
 10
1270.3691790599
 20
987.4719245585
 30
0.0
 11
1364.1846296165
 21
987.4719245585
 31
0.0
  0
LINE
  5
CF
330
1F
100
AcDbEntity
  8
0
  6
Continuous
 62
     7
370
    40
100
AcDbLine
 10
1439.233657417
 20
964.386873808
 30
0.0
 11
1439.233657417
 21
960.9719253371
 31
0.0
  0
LINE
  5
D0
330
1F
100
AcDbEntity
  8
0
  6
Continuous
 62
     7
370
    40
100
AcDbLine
 10
1634.2336502645
 20
958.4794916904
 30
0.0
 11
1634.2336502645
 21
957.7119815971
 31
0.0
  0
LINE
  5
D1
330
1F
100
AcDbEntity
  8
0
  6
Continuous
 62
     7
370
    40
100
AcDbLine
 10
1659.2336562249
 20
957.7119815971
 30
0.0
 11
1659.2336562249
 21
965.6342150869
 31
0.0
  0
LINE
  5
D2
330
1F
100
AcDbEntity
  8
0
  6
Continuous
 62
     7
370
    40
100
AcDbLine
 10
1659.2336562249
 20
965.6342150869
 30
0.0
 11
1659.2323151204
 21
965.8154336961
 31
0.0
  0
LINE
  5
D3
330
1F
100
AcDbEntity
  8
0
  6
Continuous
 62
     7
370
    40
100
AcDbLine
 10
211.0827238726
 20
607.9321457193
 30
0.0
 11
225.0827224421
 21
607.9321457193
 31
0.0
  0
LINE
  5
D4
330
1F
100
AcDbEntity
  8
0
  6
Continuous
 62
     7
370
    40
100
AcDbLine
 10
225.0827224421
 20
609.9321479098
 30
0.0
 11
310.2827192711
 21
609.9321479098
 31
0.0
  0
LINE
  5
D5
330
1F
100
AcDbEntity
  8
0
  6
Continuous
 62
     7
370
    40
100
AcDbLine
 10
310.2827192711
 20
669.9321465687
 30
0.0
 11
237.9604251551
 21
669.9321465687
 31
0.0
  0
LINE
  5
D6
330
1F
100
AcDbEntity
  8
0
  6
Continuous
 62
     7
370
    40
100
AcDbLine
 10
310.2827192711
 20
627.932147135
 30
0.0
 11
312.2827233242
 21
627.932147135
 31
0.0
  0
LINE
  5
D7
330
1F
100
AcDbEntity
  8
0
  6
Continuous
 62
     7
370
    40
100
AcDbLine
 10
605.0827176737
 20
607.9321457193
 30
0.0
 11
619.0827162432
 21
607.9321457193
 31
0.0
  0
LINE
  5
D8
330
1F
100
AcDbEntity
  8
0
  6
Continuous
 62
     7
370
    40
100
AcDbLine
 10
592.2014684843
 20
669.9321465687
 30
0.0
 11
519.8827208447
 21
669.9321465687
 31
0.0
  0
LINE
  5
D9
330
1F
100
AcDbEntity
  8
0
  6
Continuous
 62
     7
370
    40
100
AcDbLine
 10
519.8827208447
 20
609.9321479098
 30
0.0
 11
605.0827176737
 21
609.9321479098
 31
0.0
  0
LINE
  5
DA
330
1F
100
AcDbEntity
  8
0
  6
Continuous
 62
     7
370
    40
100
AcDbLine
 10
517.8827167915
 20
627.932147135
 30
0.0
 11
519.8827208447
 21
627.932147135
 31
0.0
  0
SPLINE
  5
DB
330
1F
100
AcDbEntity
  8
0
  6
Continuous
 62
     7
370
    40
100
AcDbSpline
210
0.0
220
0.0
230
1.0
 70
     8
 71
     3
 72
     9
 73
     5
 74
     0
 42
0.00000001
 43
0.00000001
 12
1.0
 22
0.0
 32
0.0
 13
1.0
 23
0.0
 33
0.0
 40
0.0
 40
0.0
 40
0.0
 40
0.0
 40
0.3149886277452131
 40
0.9999999999999999
 40
0.9999999999999999
 40
0.9999999999999999
 40
0.9999999999999999
 10
229.5124055313227
 20
671.6264179096781
 30
0.0
 10
229.5046981899519
 20
671.6278299929711
 30
0.0
 10
229.4802295561918
 20
671.6323129589215
 30
0.0
 10
229.4345385103966
 20
671.6399813890976
 30
0.0
 10
229.4032396244166
 20
671.6452343509758
 30
0.0
  0
LINE
  5
DC
330
1F
100
AcDbEntity
  8
0
  6
Continuous
 62
     7
370
    40
100
AcDbLine
 10
211.0827238726
 20
663.7942167119
 30
0.0
 11
211.0827238726
 21
607.9321457193
 31
0.0
  0
LINE
  5
DD
330
1F
100
AcDbEntity
  8
0
  6
Continuous
 62
     7
370
    40
100
AcDbLine
 10
225.0827224421
 20
647.0309803383
 30
0.0
 11
225.0827224421
 21
607.9321457193
 31
0.0
  0
LINE
  5
DE
330
1F
100
AcDbEntity
  8
0
  6
Continuous
 62
     7
370
    40
100
AcDbLine
 10
310.2827192711
 20
669.9321465687
 30
0.0
 11
310.2827192711
 21
658.6771616833
 31
0.0
  0
LINE
  5
DF
330
1F
100
AcDbEntity
  8
0
  6
Continuous
 62
     7
370
    40
100
AcDbLine
 10
310.2827192711
 20
633.5168723137
 30
0.0
 11
310.2827192711
 21
609.9321479098
 31
0.0
  0
LINE
  5
E0
330
1F
100
AcDbEntity
  8
0
  6
Continuous
 62
     7
370
    40
100
AcDbLine
 10
225.2179206776
 20
687.8226203964
 30
0.0
 11
211.0827238726
 21
687.8226203964
 31
0.0
  0
SPLINE
  5
E1
330
1F
100
AcDbEntity
  8
0
  6
Continuous
 62
     7
370
    40
100
AcDbSpline
210
0.0
220
0.0
230
1.0
 70
     8
 71
     3
 72
     8
 73
     4
 74
     0
 42
0.00000001
 43
0.00000001
 12
1.0
 22
0.0
 32
0.0
 13
1.0
 23
0.0
 33
0.0
 40
0.0
 40
0.0
 40
0.0
 40
0.0
 40
1.0
 40
1.0
 40
1.0
 40
1.0
 10
225.0827200578807
 20
686.9321472392642
 30
0.0
 10
225.0827200578807
 20
687.2324339128369
 30
0.0
 10
225.1267460128601
 20
687.5292869991041
 30
0.0
 10
225.2179240854733
 20
687.8226212908113
 30
0.0
  0
LINE
  5
E2
330
1F
100
AcDbEntity
  8
0
  6
Continuous
 62
     7
370
    40
100
AcDbLine
 10
211.0827238726
 20
687.8226203964
 30
0.0
 11
211.0827238726
 21
663.7942167119
 31
0.0
  0
LINE
  5
E3
330
1F
100
AcDbEntity
  8
0
  6
Continuous
 62
     7
370
    40
100
AcDbLine
 10
225.0827224421
 20
686.9321456299
 30
0.0
 11
225.0827224421
 21
671.6262912498
 31
0.0
  0
LINE
  5
E4
330
1F
100
AcDbEntity
  8
0
  6
Continuous
 62
     7
370
    40
100
AcDbLine
 10
312.2827233242
 20
633.2952585192
 30
0.0
 11
312.2827233242
 21
627.932147135
 31
0.0
  0
LINE
  5
E5
330
1F
100
AcDbEntity
  8
0
  6
Continuous
 62
     7
370
    40
100
AcDbLine
 10
228.0827136206
 20
689.9321479843
 30
0.0
 11
244.0827162432
 21
689.9321479843
 31
0.0
  0
ARC
  5
E6
330
1F
100
AcDbEntity
  8
0
  6
Continuous
 62
     7
370
    40
100
AcDbCircle
 10
217.0827200579
 20
688.9321472393
 30
0.0
 40
6.0
100
AcDbArc
 50
90.0
 51
180.0
  0
LINE
  5
E7
330
1F
100
AcDbEntity
  8
0
  6
Continuous
 62
     7
370
    40
100
AcDbLine
 10
244.0827162432
 20
694.9321469412
 30
0.0
 11
217.0827211308
 21
694.9321469412
 31
0.0
  0
ARC
  5
E8
330
1F
100
AcDbEntity
  8
0
  6
Continuous
 62
     7
370
    40
100
AcDbCircle
 10
228.0827200579
 20
686.9321472393
 30
0.0
 40
3.000000000000036
100
AcDbArc
 50
90.0
 51
162.7330142914
  0
LINE
  5
E9
330
1F
100
AcDbEntity
  8
0
  6
Continuous
 62
     7
370
    40
100
AcDbLine
 10
211.0827238726
 20
688.9321459578
 30
0.0
 11
211.0827238726
 21
687.8226203964
 31
0.0
  0
LINE
  5
EA
330
1F
100
AcDbEntity
  8
0
  6
Continuous
 62
     7
370
    40
100
AcDbLine
 10
259.0827168392
 20
689.9321479843
 30
0.0
 11
259.0827168392
 21
694.9321469412
 31
0.0
  0
LINE
  5
EB
330
1F
100
AcDbEntity
  8
0
  6
Continuous
 62
     7
370
    40
100
AcDbLine
 10
244.0827162432
 20
689.9321479843
 30
0.0
 11
259.0827168392
 21
689.9321479843
 31
0.0
  0
LINE
  5
EC
330
1F
100
AcDbEntity
  8
0
  6
Continuous
 62
     7
370
    40
100
AcDbLine
 10
244.0827162432
 20
694.9321469412
 30
0.0
 11
259.0827168392
 21
694.9321469412
 31
0.0
  0
LINE
  5
ED
330
1F
100
AcDbEntity
  8
0
  6
Continuous
 62
     7
370
    40
100
AcDbLine
 10
619.0827162432
 20
663.7942167119
 30
0.0
 11
619.0827162432
 21
607.9321457193
 31
0.0
  0
LINE
  5
EE
330
1F
100
AcDbEntity
  8
0
  6
Continuous
 62
     7
370
    40
100
AcDbLine
 10
605.0827176737
 20
647.0309849949
 30
0.0
 11
605.0827176737
 21
607.9321457193
 31
0.0
  0
LINE
  5
EF
330
1F
100
AcDbEntity
  8
0
  6
Continuous
 62
     7
370
    40
100
AcDbLine
 10
519.8827208447
 20
669.9321465687
 30
0.0
 11
519.8827208447
 21
658.6771616833
 31
0.0
  0
LINE
  5
F0
330
1F
100
AcDbEntity
  8
0
  6
Continuous
 62
     7
370
    40
100
AcDbLine
 10
519.8827208447
 20
633.5168723137
 30
0.0
 11
519.8827208447
 21
609.9321479098
 31
0.0
  0
SPLINE
  5
F1
330
1F
100
AcDbEntity
  8
0
  6
Continuous
 62
     7
370
    40
100
AcDbSpline
210
0.0
220
0.0
230
1.0
 70
     8
 71
     3
 72
     8
 73
     4
 74
     0
 42
0.00000001
 43
0.00000001
 12
1.0
 22
0.0
 32
0.0
 13
1.0
 23
0.0
 33
0.0
 40
0.0
 40
0.0
 40
0.0
 40
0.0
 40
1.0
 40
1.0
 40
1.0
 40
1.0
 10
605.0827200578807
 20
686.9321472392642
 30
0.0
 10
605.0827200578807
 20
687.2324339128369
 30
0.0
 10
605.0386941029012
 20
687.5292869991041
 30
0.0
 10
604.9475160302879
 20
687.8226212908113
 30
0.0
  0
LINE
  5
F2
330
1F
100
AcDbEntity
  8
0
  6
Continuous
 62
     7
370
    40
100
AcDbLine
 10
604.9475194382
 20
687.8226203964
 30
0.0
 11
619.0827162432
 21
687.8226203964
 31
0.0
  0
LINE
  5
F3
330
1F
100
AcDbEntity
  8
0
  6
Continuous
 62
     7
370
    40
100
AcDbLine
 10
619.0827162432
 20
687.8226203964
 30
0.0
 11
619.0827162432
 21
663.7942167119
 31
0.0
  0
LINE
  5
F4
330
1F
100
AcDbEntity
  8
0
  6
Continuous
 62
     7
370
    40
100
AcDbLine
 10
605.0827176737
 20
686.9321456299
 30
0.0
 11
605.0827176737
 21
671.6262912498
 31
0.0
  0
LINE
  5
F5
330
1F
100
AcDbEntity
  8
0
  6
Continuous
 62
     7
370
    40
100
AcDbLine
 10
517.8827167915
 20
633.2952585192
 30
0.0
 11
517.8827167915
 21
627.932147135
 31
0.0
  0
ARC
  5
F6
330
1F
100
AcDbEntity
  8
0
  6
Continuous
 62
     7
370
    40
100
AcDbCircle
 10
613.0827200579
 20
688.9321472393
 30
0.0
 40
6.000000000000114
100
AcDbArc
 50
0.0
 51
90.0
  0
LINE
  5
F7
330
1F
100
AcDbEntity
  8
0
  6
Continuous
 62
     7
370
    40
100
AcDbLine
 10
602.0827264952
 20
689.9321479843
 30
0.0
 11
586.0827238726
 21
689.9321479843
 31
0.0
  0
LINE
  5
F8
330
1F
100
AcDbEntity
  8
0
  6
Continuous
 62
     7
370
    40
100
AcDbLine
 10
586.0827238726
 20
694.9321469412
 30
0.0
 11
613.082718985
 21
694.9321469412
 31
0.0
  0
ARC
  5
F9
330
1F
100
AcDbEntity
  8
0
  6
Continuous
 62
     7
370
    40
100
AcDbCircle
 10
602.0827200579
 20
686.9321472393
 30
0.0
 40
3.0
100
AcDbArc
 50
17.2669857086
 51
90.0
  0
LINE
  5
FA
330
1F
100
AcDbEntity
  8
0
  6
Continuous
 62
     7
370
    40
100
AcDbLine
 10
619.0827162432
 20
688.9321459578
 30
0.0
 11
619.0827162432
 21
687.8226203964
 31
0.0
  0
LINE
  5
FB
330
1F
100
AcDbEntity
  8
0
  6
Continuous
 62
     7
370
    40
100
AcDbLine
 10
586.0827238726
 20
689.9321479843
 30
0.0
 11
571.0827232765
 21
689.9321479843
 31
0.0
  0
LINE
  5
FC
330
1F
100
AcDbEntity
  8
0
  6
Continuous
 62
     7
370
    40
100
AcDbLine
 10
571.0827232765
 20
689.9321479843
 30
0.0
 11
571.0827232765
 21
694.9321469412
 31
0.0
  0
LINE
  5
FD
330
1F
100
AcDbEntity
  8
0
  6
Continuous
 62
     7
370
    40
100
AcDbLine
 10
586.0827238726
 20
694.9321469412
 30
0.0
 11
571.0827232765
 21
694.9321469412
 31
0.0
  0
SPLINE
  5
FE
330
1F
100
AcDbEntity
  8
0
  6
Continuous
 62
     7
370
    40
100
AcDbSpline
210
0.0
220
0.0
230
1.0
 70
     8
 71
     3
 72
    25
 73
    21
 74
     0
 42
0.00000001
 43
0.00000001
 12
1.0
 22
0.0
 32
0.0
 13
1.0
 23
0.0
 33
0.0
 40
0.0
 40
0.0
 40
0.0
 40
0.0
 40
0.0534834521229775
 40
0.1069666419951071
 40
0.1619601234776004
 40
0.216953191341165
 40
0.2702883839141946
 40
0.3236231469608328
 40
0.3784898806716743
 40
0.4333564762733079
 40
0.4863394537135209
 40
0.5393222709943547
 40
0.5938466288965009
 40
0.6483702938947762
 40
0.7011327015180033
 40
0.7538948086253179
 40
0.8082151912932019
 40
0.8625353218562334
 40
0.9326876333009912
 40
0.9999999999999999
 40
0.9999999999999999
 40
0.9999999999999999
 40
0.9999999999999999
 10
537.8412948416827
 20
635.7009192117714
 30
0.0
 10
539.7221167981214
 20
635.9513739907183
 30
0.0
 10
543.4837514885731
 20
636.4522823205318
 30
0.0
 10
549.135722965217
 20
637.2487431580137
 30
0.0
 10
554.7579986065371
 20
638.0735895360025
 30
0.0
 10
560.2522267796794
 20
638.9139041580715
 30
0.0
 10
565.5308070186024
 20
639.7526800574585
 30
0.0
 10
570.6140736273705
 20
640.5890254450525
 30
0.0
 10
575.5119433024213
 20
641.422222881426
 30
0.0
 10
580.1296590368243
 20
642.2322310294305
 30
0.0
 10
584.3958969704486
 20
643.0018270609322
 30
0.0
 10
588.3346388140483
 20
643.7300921815262
 30
0.0
 10
591.9532941268933
 20
644.4145837311661
 30
0.0
 10
595.1812972169835
 20
645.0376924202722
 30
0.0
 10
597.9710991473875
 20
645.5856018639009
 30
0.0
 10
600.3448645170859
 20
646.0586885256189
 30
0.0
 10
602.301298185715
 20
646.4533254728129
 30
0.0
 10
603.9445838972018
 20
646.7881105298136
 30
0.0
 10
605.121515862631
 20
647.0299220480888
 30
0.0
 10
605.2808365077351
 20
647.0628055308908
 30
0.0
 10
605.358851091778
 20
647.0789075949455
 30
0.0
  0
ARC
  5
FF
330
1F
100
AcDbEntity
  8
0
  6
Continuous
 62
     7
370
    40
100
AcDbCircle
 10
602.8571259301
 20
659.3260187381
 30
0.0
 40
12.50000000000003
100
AcDbArc
 50
281.6485537532
 51
12.4186815058
  0
SPLINE
  5
100
330
1F
100
AcDbEntity
  8
0
  6
Continuous
 62
     7
370
    40
100
AcDbSpline
210
0.0
220
0.0
230
1.0
 70
     8
 71
     3
 72
    21
 73
    17
 74
     0
 42
0.00000001
 43
0.00000001
 12
1.0
 22
0.0
 32
0.0
 13
1.0
 23
0.0
 33
0.0
 40
0.0
 40
0.0
 40
0.0
 40
0.0
 40
0.0676226446545574
 40
0.1391824891871799
 40
0.2111821432799477
 40
0.2834049959942464
 40
0.3554013451162757
 40
0.4271194507151541
 40
0.4990629613082002
 40
0.5707759359122928
 40
0.6423417501490373
 40
0.7141381102564147
 40
0.7857000405952697
 40
0.8570557133287515
 40
0.9286442329392138
 40
1.0
 40
1.0
 40
1.0
 40
1.0
 10
600.3110082315561
 20
671.5639820442759
 30
0.0
 10
600.2353505017091
 20
671.5483183720091
 30
0.0
 10
600.0796300145829
 20
671.5160790399476
 30
0.0
 10
598.8433010027693
 20
671.2623127097112
 30
0.0
 10
596.8358587805824
 20
670.8532441912387
 30
0.0
 10
594.0325036590942
 20
670.2904538780354
 30
0.0
 10
590.4963770658215
 20
669.5937998978155
 30
0.0
 10
586.2389950349493
 20
668.773916785278
 30
0.0
 10
581.3388650743955
 20
667.8562481474215
 30
0.0
 10
575.8483968236226
 20
666.8602727108383
 30
0.0
 10
569.815235258859
 20
665.8069554230683
 30
0.0
 10
563.3343788424139
 20
664.721174958893
 30
0.0
 10
556.4853360100512
 20
663.6241089505642
 30
0.0
 10
549.3451268571313
 20
662.5409133285847
 30
0.0
 10
542.0183382093136
 20
661.483231863491
 30
0.0
 10
537.0601553408356
 20
660.8193545492896
 30
0.0
 10
534.5851005481837
 20
660.4879563794696
 30
0.0
  0
ARC
  5
101
330
1F
100
AcDbEntity
  8
0
  6
Continuous
 62
     7
370
    40
100
AcDbCircle
 10
602.8571259301
 20
659.3260187381
 30
0.0
 40
12.49999999999995
100
AcDbArc
 50
12.4186815058
 51
101.6485537532
  0
ARC
  5
102
330
1F
100
AcDbEntity
  8
0
  6
Continuous
 62
     7
370
    40
100
AcDbCircle
 10
227.3083141856
 20
659.3260187381
 30
0.0
 40
12.50000000000002
100
AcDbArc
 50
80.3380848808
 51
167.5813184942
  0
SPLINE
  5
103
330
1F
100
AcDbEntity
  8
0
  6
Continuous
 62
     7
370
    40
100
AcDbSpline
210
0.0
220
0.0
230
1.0
 70
     8
 71
     3
 72
    21
 73
    17
 74
     0
 42
0.00000001
 43
0.00000001
 12
1.0
 22
0.0
 32
0.0
 13
1.0
 23
0.0
 33
0.0
 40
0.0
 40
0.0
 40
0.0
 40
0.0
 40
0.0708854499380138
 40
0.1417707398324435
 40
0.2130905707152796
 40
0.2846429598794806
 40
0.3559653641906452
 40
0.4276232726883792
 40
0.4995131437678532
 40
0.5711756791123871
 40
0.6431663936116626
 40
0.7153858206852737
 40
0.7873805940037611
 40
0.8595689952113742
 40
0.93198260448862
 40
1.0
 40
1.0
 40
1.0
 40
1.0
 10
295.5803395675776
 20
660.4879563794696
 30
0.0
 10
293.1221841827211
 20
660.8168741702708
 30
0.0
 10
288.2058789629763
 20
661.47470900925
 30
0.0
 10
280.9187598143884
 20
662.5251462952895
 30
0.0
 10
273.8071278308626
 20
663.6055545446188
 30
0.0
 10
266.9670547334388
 20
664.6989895070902
 30
0.0
 10
260.4841749326591
 20
665.7831605141093
 30
0.0
 10
254.4589254937399
 20
666.8356059833258
 30
0.0
 10
248.9507323160919
 20
667.8333895416874
 30
0.0
 10
244.0244742777558
 20
668.755164543956
 30
0.0
 10
239.7642968054894
 20
669.5750724557821
 30
0.0
 10
236.2010398798587
 20
670.2769136698598
 30
0.0
 10
233.3706347642242
 20
670.8454304122944
 30
0.0
 10
231.3570017350198
 20
671.2545860352529
 30
0.0
 10
230.0948066266307
 20
671.513961280328
 30
0.0
 10
229.9340414967144
 20
671.5474091336359
 30
0.0
 10
229.8561753200648
 20
671.5636095152461
 30
0.0
  0
SPLINE
  5
104
330
1F
100
AcDbEntity
  8
0
  6
Continuous
 62
     7
370
    40
100
AcDbSpline
210
0.0
220
0.0
230
1.0
 70
     8
 71
     3
 72
    25
 73
    21
 74
     0
 42
0.00000001
 43
0.00000001
 12
1.0
 22
0.0
 32
0.0
 13
1.0
 23
0.0
 33
0.0
 40
0.0
 40
0.0
 40
0.0
 40
0.0
 40
0.0486639436430688
 40
0.1014000939341929
 40
0.1557084946581269
 40
0.2100171212591566
 40
0.2629060659148548
 40
0.3157949509290351
 40
0.3702456516178058
 40
0.4246967127553161
 40
0.4778059174976811
 40
0.530915549027521
 40
0.5855678529210062
 40
0.6402206463727359
 40
0.6935105670169012
 40
0.7468009541121137
 40
0.8016099673901876
 40
0.8564193718100482
 40
0.9277742753834956
 40
1.0
 40
1.0
 40
1.0
 40
1.0
 10
224.8023570942042
 20
647.0797727936172
 30
0.0
 10
224.8448409071365
 20
647.0709946016059
 30
0.0
 10
224.9333635853151
 20
647.0527036570611
 30
0.0
 10
225.6455001427106
 20
646.9062380268215
 30
0.0
 10
226.8175912976285
 20
646.666234568368
 30
0.0
 10
228.470185865979
 20
646.3306642755115
 30
0.0
 10
230.555830074987
 20
645.9114616027548
 30
0.0
 10
233.0692909816484
 20
645.4128167566287
 30
0.0
 10
236.0288038374652
 20
644.8347128142898
 30
0.0
 10
239.3939793131071
 20
644.1894464818716
 30
0.0
 10
243.1039361436537
 20
643.4928610244525
 30
0.0
 10
247.1570185705509
 20
642.7492067446162
 30
0.0
 10
251.5702402841219
 20
641.9604294349142
 30
0.0
 10
256.2787077156038
 20
641.1428292712878
 30
0.0
 10
261.2012053518581
 20
640.314618548779
 30
0.0
 10
266.3427066949474
 20
639.4777606694906
 30
0.0
 10
271.7184447834882
 20
638.6340470384774
 30
0.0
 10
277.85427651849
 20
637.7087850113558
 30
0.0
 10
284.7364227832345
 20
636.7159100063378
 30
0.0
 10
289.7846984600098
 20
636.0406147057331
 30
0.0
 10
292.3241452740786
 20
635.7009192117714
 30
0.0
  0
ARC
  5
105
330
1F
100
AcDbEntity
  8
0
  6
Continuous
 62
     7
370
    40
100
AcDbCircle
 10
227.3083141856
 20
659.3260187381
 30
0.0
 40
12.50000000000018
100
AcDbArc
 50
167.5813184942
 51
258.3514462468
  0
ARC
  5
106
330
1F
100
AcDbEntity
  8
0
  6
Continuous
 62
     7
370
    40
100
AcDbCircle
 10
415.0827200579
 20
1570.172203612
 30
0.0
 40
942.5000000000002
100
AcDbArc
 50
262.5160864747
 51
277.4839135253
  0
ARC
  5
107
330
1F
100
AcDbEntity
  8
0
  6
Continuous
 62
     7
370
    40
100
AcDbCircle
 10
415.0827200579
 20
1570.172203612
 30
0.0
 40
917.5000000000003
100
AcDbArc
 50
262.5160864747
 51
277.4839135253
  0
LINE
  5
108
330
1F
100
AcDbEntity
  8
0
  6
Continuous
 62
     7
370
    40
100
AcDbLine
 10
598.5827268528
 20
643.4321473473
 30
0.0
 11
603.5827220844
 21
643.4321473473
 31
0.0
  0
LINE
  5
109
330
1F
100
AcDbEntity
  8
0
  6
Continuous
 62
     7
370
    40
100
AcDbLine
 10
603.5827220844
 20
646.8470958182
 30
0.0
 11
603.5827220844
 21
643.4321473473
 31
0.0
  0
LINE
  5
10A
330
1F
100
AcDbEntity
  8
0
  6
Continuous
 62
     7
370
    40
100
AcDbLine
 10
598.5827268528
 20
645.7086647981
 30
0.0
 11
598.5827268528
 21
643.4321473473
 31
0.0
  0
LINE
  5
10B
330
1F
100
AcDbEntity
  8
0
  6
Continuous
 62
     7
370
    40
100
AcDbLine
 10
231.582713263
 20
643.4321473473
 30
0.0
 11
226.5827180313
 21
643.4321473473
 31
0.0
  0
LINE
  5
10C
330
1F
100
AcDbEntity
  8
0
  6
Continuous
 62
     7
370
    40
100
AcDbLine
 10
226.5827180313
 20
646.8470958182
 30
0.0
 11
226.5827180313
 21
643.4321473473
 31
0.0
  0
LINE
  5
10D
330
1F
100
AcDbEntity
  8
0
  6
Continuous
 62
     7
370
    40
100
AcDbLine
 10
231.582713263
 20
645.7088482687
 30
0.0
 11
231.582713263
 21
643.4321473473
 31
0.0
  0
LINE
  5
10E
330
1F
100
AcDbEntity
  8
0
  6
Continuous
 62
     7
370
    40
100
AcDbLine
 10
598.5827268528
 20
609.9480269597
 30
0.0
 11
603.5827220844
 21
609.9480269597
 31
0.0
  0
LINE
  5
10F
330
1F
100
AcDbEntity
  8
0
  6
Continuous
 62
     7
370
    40
100
AcDbLine
 10
603.5827220844
 20
643.4321473473
 30
0.0
 11
603.5827220844
 21
609.9480269597
 31
0.0
  0
LINE
  5
110
330
1F
100
AcDbEntity
  8
0
  6
Continuous
 62
     7
370
    40
100
AcDbLine
 10
598.5827268528
 20
643.4321473473
 30
0.0
 11
598.5827268528
 21
609.9480269597
 31
0.0
  0
LINE
  5
111
330
1F
100
AcDbEntity
  8
0
  6
Continuous
 62
     7
370
    40
100
AcDbLine
 10
231.582713263
 20
609.9480269597
 30
0.0
 11
226.5827180313
 21
609.9480269597
 31
0.0
  0
LINE
  5
112
330
1F
100
AcDbEntity
  8
0
  6
Continuous
 62
     7
370
    40
100
AcDbLine
 10
226.5827180313
 20
643.4321473473
 30
0.0
 11
226.5827180313
 21
609.9480269597
 31
0.0
  0
LINE
  5
113
330
1F
100
AcDbEntity
  8
0
  6
Continuous
 62
     7
370
    40
100
AcDbLine
 10
231.582713263
 20
643.4321473473
 30
0.0
 11
231.582713263
 21
609.9480269597
 31
0.0
  0
LINE
  5
114
330
1F
100
AcDbEntity
  8
0
  6
CENTERX2
 62
     7
370
     0
100
AcDbLine
 10
507.8827200579
 20
639.9321472393
 30
0.0
 11
519.8827200579
 21
639.9321472393
 31
0.0
  0
LINE
  5
115
330
1F
100
AcDbEntity
  8
0
  6
CENTERX2
 62
     7
370
     0
100
AcDbLine
 10
519.8827200579
 20
639.9321472393
 30
0.0
 11
605.0827200579
 21
639.9321472393
 31
0.0
  0
LINE
  5
116
330
1F
100
AcDbEntity
  8
0
  6
CENTERX2
 62
     7
370
     0
100
AcDbLine
 10
320.2827200579
 20
639.9321472393
 30
0.0
 11
215.0827200579
 21
639.9321472393
 31
0.0
  0
LINE
  5
117
330
1F
100
AcDbEntity
  8
0
  6
Continuous
 62
     7
370
    40
100
AcDbLine
 10
211.0827200579
 20
422.0793865031
 30
0.0
 11
225.0827200579
 21
422.0793865031
 31
0.0
  0
LINE
  5
118
330
1F
100
AcDbEntity
  8
0
  6
Continuous
 62
     7
370
    40
100
AcDbLine
 10
225.0827200579
 20
424.0793865031
 30
0.0
 11
226.5827200579
 21
424.0793865031
 31
0.0
  0
LINE
  5
119
330
1F
100
AcDbEntity
  8
0
  6
Continuous
 62
     7
370
    40
100
AcDbLine
 10
231.5827200579
 20
424.0793865031
 30
0.0
 11
310.2827200579
 21
424.0793865031
 31
0.0
  0
LINE
  5
11A
330
1F
100
AcDbEntity
  8
0
  6
Continuous
 62
     7
370
    40
100
AcDbLine
 10
310.2827200579
 20
484.0793865031
 30
0.0
 11
225.0827200579
 21
484.0793865031
 31
0.0
  0
LINE
  5
11B
330
1F
100
AcDbEntity
  8
0
  6
Continuous
 62
     7
370
    40
100
AcDbLine
 10
310.2827200579
 20
442.0793865031
 30
0.0
 11
312.2827200579
 21
442.0793865031
 31
0.0
  0
LINE
  5
11C
330
1F
100
AcDbEntity
  8
0
  6
Continuous
 62
     7
370
    40
100
AcDbLine
 10
312.2827200579
 20
466.0793865031
 30
0.0
 11
310.2827200579
 21
466.0793865031
 31
0.0
  0
LINE
  5
11D
330
1F
100
AcDbEntity
  8
0
  6
Continuous
 62
     7
370
    40
100
AcDbLine
 10
605.0827200579
 20
422.0793865031
 30
0.0
 11
619.0827200579
 21
422.0793865031
 31
0.0
  0
LINE
  5
11E
330
1F
100
AcDbEntity
  8
0
  6
Continuous
 62
     7
370
    40
100
AcDbLine
 10
605.0827200579
 20
484.0793865031
 30
0.0
 11
519.8827200579
 21
484.0793865031
 31
0.0
  0
LINE
  5
11F
330
1F
100
AcDbEntity
  8
0
  6
Continuous
 62
     7
370
    40
100
AcDbLine
 10
519.8827200579
 20
424.0793865031
 30
0.0
 11
598.5827200579
 21
424.0793865031
 31
0.0
  0
LINE
  5
120
330
1F
100
AcDbEntity
  8
0
  6
Continuous
 62
     7
370
    40
100
AcDbLine
 10
603.5827200579
 20
424.0793865031
 30
0.0
 11
605.0827200579
 21
424.0793865031
 31
0.0
  0
LINE
  5
121
330
1F
100
AcDbEntity
  8
0
  6
Continuous
 62
     7
370
    40
100
AcDbLine
 10
519.8827200579
 20
466.0793865031
 30
0.0
 11
517.8827200579
 21
466.0793865031
 31
0.0
  0
LINE
  5
122
330
1F
100
AcDbEntity
  8
0
  6
Continuous
 62
     7
370
    40
100
AcDbLine
 10
517.8827200579
 20
442.0793865031
 30
0.0
 11
519.8827200579
 21
442.0793865031
 31
0.0
  0
SPLINE
  5
123
330
1F
100
AcDbEntity
  8
0
  6
Continuous
 62
     7
370
    40
100
AcDbSpline
210
0.0
220
0.0
230
1.0
 70
     8
 71
     3
 72
    28
 73
    24
 74
     0
 42
0.00000001
 43
0.00000001
 12
1.0
 22
0.0
 32
0.0
 13
1.0
 23
0.0
 33
0.0
 40
0.0
 40
0.0
 40
0.0
 40
0.0
 40
0.009282847396853
 40
0.0598992591558899
 40
0.1108784008668234
 40
0.162095700785392
 40
0.2134107399028396
 40
0.264637306108853
 40
0.315640385087411
 40
0.366282034490391
 40
0.4162793117116077
 40
0.4668827856834964
 40
0.5176815007796924
 40
0.5686405586795583
 40
0.6197180923349248
 40
0.6708697368408575
 40
0.7220391912470504
 40
0.7731882865990253
 40
0.8242694869636575
 40
0.8749625438236283
 40
0.9258152172617561
 40
0.9767046106909454
 40
1.0
 40
1.0
 40
1.0
 40
1.0
 10
562.4545207581945
 20
58.60078146267441
 30
0.0
 10
562.7424586703609
 20
58.69526498688042
 30
0.0
 10
564.6004303555897
 20
59.30493709075419
 30
0.0
 10
567.9381034536141
 20
60.71922306610307
 30
0.0
 10
572.4462270451935
 20
62.85472317323882
 30
0.0
 10
576.8218489900444
 20
65.3057637148758
 30
0.0
 10
581.045628919718
 20
68.02450635529124
 30
0.0
 10
585.0843573070309
 20
71.00315438921
 30
0.0
 10
588.910894121258
 20
74.21887271481526
 30
0.0
 10
592.4952450727449
 20
77.64852456562409
 30
0.0
 10
595.8466809269706
 20
81.29114458966177
 30
0.0
 10
598.9698847007896
 20
85.14170377287252
 30
0.0
 10
601.8661542541952
 20
89.20822260993063
 30
0.0
 10
604.5130573576556
 20
93.46334866213245
 30
0.0
 10
606.8966675195114
 20
97.88816902937904
 30
0.0
 10
609.0042449672529
 20
102.4620253230669
 30
0.0
 10
610.8244430362527
 20
107.1633527646956
 30
0.0
 10
612.3484093363465
 20
111.9694720666075
 30
0.0
 10
613.5639997087872
 20
116.8486725742653
 30
0.0
 10
614.4786364423262
 20
121.7859883453942
 30
0.0
 10
615.0698568243338
 20
126.7650920595477
 30
0.0
 10
615.3556057911294
 20
130.872874561628
 30
0.0
 10
615.3287682319417
 20
133.3131067997807
 30
0.0
 10
615.3203407436307
 20
134.0793847060307
 30
0.0
  0
SPLINE
  5
124
330
1F
100
AcDbEntity
  8
0
  6
Continuous
 62
     7
370
    40
100
AcDbSpline
210
0.0
220
0.0
230
1.0
 70
     8
 71
     3
 72
    33
 73
    29
 74
     0
 42
0.00000001
 43
0.00000001
 12
1.0
 22
0.0
 32
0.0
 13
1.0
 23
0.0
 33
0.0
 40
0.0
 40
0.0
 40
0.0
 40
0.0
 40
0.0218819369718259
 40
0.0620281110152272
 40
0.1022926059998819
 40
0.1425410266013877
 40
0.1828105166887245
 40
0.2224593471582646
 40
0.2624517433352911
 40
0.30273231424082
 40
0.3432020277993218
 40
0.3837486368795238
 40
0.4242234501860978
 40
0.4645174581858289
 40
0.504522021741414
 40
0.5439932170998428
 40
0.5840386959228221
 40
0.6242414051440064
 40
0.6644810919166735
 40
0.7044907533787069
 40
0.7444469347116108
 40
0.7845056393284788
 40
0.8245528137912072
 40
0.864738413058664
 40
0.9050623813123364
 40
0.9451006973973543
 40
0.9851714638607811
 40
1.0
 40
1.0
 40
1.0
 40
1.0
 10
214.8477469308711
 20
134.079036270631
 30
0.0
 10
214.841806051599
 20
133.1662161026646
 30
0.0
 10
214.8249656082922
 20
130.5786704576674
 30
0.0
 10
215.1383119054037
 20
126.3187633672348
 30
0.0
 10
215.7598731750614
 20
121.3243169412233
 30
0.0
 10
216.7041085161059
 20
116.3747293656528
 30
0.0
 10
217.9488483917971
 20
111.5212319197081
 30
0.0
 10
219.4927553729258
 20
106.7682153513068
 30
0.0
 10
221.3246257316083
 20
102.1211440337692
 30
0.0
 10
223.4519980627397
 20
97.56721256040309
 30
0.0
 10
225.8654889283069
 20
93.13553992354333
 30
0.0
 10
228.5516563287242
 20
88.85783432523866
 30
0.0
 10
231.4939260296738
 20
84.76490300892654
 30
0.0
 10
234.6723603926024
 20
80.88542863136206
 30
0.0
 10
238.0631369789053
 20
77.25040383268038
 30
0.0
 10
241.6686087787003
 20
73.84801877063009
 30
0.0
 10
245.4838597235308
 20
70.67324469636816
 30
0.0
 10
249.5158031112588
 20
67.72759617913322
 30
0.0
 10
253.723772092194
 20
65.04450765874199
 30
0.0
 10
258.0841110394267
 20
62.64043623975112
 30
0.0
 10
262.5793414333751
 20
60.51763706844654
 30
0.0
 10
267.2022982645103
 20
58.68505564008114
 30
0.0
 10
271.9421317449013
 20
57.14792387849492
 30
0.0
 10
276.7807070806179
 20
55.91208793359205
 30
0.0
 10
281.6886386400391
 20
54.97743890334396
 30
0.0
 10
286.6425765057207
 20
54.37621268544045
 30
0.0
 10
290.5715819389387
 20
54.08817150718455
 30
0.0
 10
292.8478447540066
 20
54.10948520206092
 30
0.0
 10
293.4626730635737
 20
54.11524212208995
 30
0.0
  0
SPLINE
  5
125
330
1F
100
AcDbEntity
  8
0
  6
Continuous
 62
     7
370
    40
100
AcDbSpline
210
0.0
220
0.0
230
1.0
 70
     8
 71
     3
 72
    17
 73
    13
 74
     0
 42
0.00000001
 43
0.00000001
 12
1.0
 22
0.0
 32
0.0
 13
1.0
 23
0.0
 33
0.0
 40
0.0
 40
0.0
 40
0.0
 40
0.0
 40
0.0575451623255077
 40
0.1713620241930501
 40
0.2851365459304782
 40
0.3987756315972278
 40
0.5124896474581226
 40
0.6245354899307399
 40
0.7374532074745673
 40
0.8511940375897155
 40
0.9654789333659329
 40
1.0
 40
1.0
 40
1.0
 40
1.0
 10
615.311812189852
 20
324.079385373225
 30
0.0
 10
615.3193213927215
 20
324.9293219941999
 30
0.0
 10
615.3416828241917
 20
327.4603229319017
 30
0.0
 10
615.0415332817153
 20
331.6655495760597
 30
0.0
 10
614.4317928068789
 20
336.6682670547088
 30
0.0
 10
613.4975588968935
 20
341.6199065707085
 30
0.0
 10
612.2635234284496
 20
346.476516092967
 30
0.0
 10
610.7282986005125
 20
351.2323671411746
 30
0.0
 10
608.9099396266523
 20
355.886001515192
 30
0.0
 10
606.7769706323486
 20
360.4337876852926
 30
0.0
 10
604.9784075559877
 20
363.8619539007325
 30
0.0
 10
603.806091866474
 20
365.7110055740091
 30
0.0
 10
603.5341297261245
 20
366.1399617461215
 30
0.0
  0
SPLINE
  5
126
330
1F
100
AcDbEntity
  8
0
  6
Continuous
 62
     7
370
    40
100
AcDbSpline
210
0.0
220
0.0
230
1.0
 70
     8
 71
     3
 72
    17
 73
    13
 74
     0
 42
0.00000001
 43
0.00000001
 12
1.0
 22
0.0
 32
0.0
 13
1.0
 23
0.0
 33
0.0
 40
0.0
 40
0.0
 40
0.0
 40
0.0
 40
0.0172072403857527
 40
0.1309112743893242
 40
0.2447997347189971
 40
0.3587520678650649
 40
0.4726738500818901
 40
0.5864976583901353
 40
0.6994917970840236
 40
0.812684822356065
 40
0.9259961199548333
 40
1.0
 40
1.0
 40
1.0
 40
1.0
 10
226.6050684908622
 20
366.1573792600055
 30
0.0
 10
226.4679531335836
 20
365.944565704651
 30
0.0
 10
225.4247907346592
 20
364.3254976196927
 30
0.0
 10
223.728946452877
 20
361.1377951486966
 30
0.0
 10
221.5466904383632
 20
356.6041429576761
 30
0.0
 10
219.6748430239608
 20
351.9226224197341
 30
0.0
 10
218.0907998591694
 20
347.1357095262857
 30
0.0
 10
216.8149733420361
 20
342.269313080053
 30
0.0
 10
215.8417944921982
 20
337.3420086946771
 30
0.0
 10
215.1865477726395
 20
332.3702712866735
 30
0.0
 10
214.838032104141
 20
327.9409346440112
 30
0.0
 10
214.8406992734444
 20
325.1738163127175
 30
0.0
 10
214.8417530101445
 20
324.0805920709046
 30
0.0
  0
SPLINE
  5
127
330
1F
100
AcDbEntity
  8
0
  6
Continuous
 62
     7
370
    40
100
AcDbSpline
210
0.0
220
0.0
230
1.0
 70
     8
 71
     3
 72
    23
 73
    19
 74
     0
 42
0.00000001
 43
0.00000001
 12
1.0
 22
0.0
 32
0.0
 13
1.0
 23
0.0
 33
0.0
 40
0.0
 40
0.0
 40
0.0
 40
0.0
 40
0.0172763638717633
 40
0.0877808296680987
 40
0.1582154836343653
 40
0.2285270290855023
 40
0.298849320085841
 40
0.3681136226246132
 40
0.4378753101963461
 40
0.5081560966959625
 40
0.5787856554198888
 40
0.6495761351858034
 40
0.7202691005419314
 40
0.790673673383986
 40
0.8606218897130776
 40
0.9295249005195008
 40
0.9992665761241422
 40
1.0
 40
1.0
 40
1.0
 40
1.0
 10
292.9821608846248
 20
404.0375352320258
 30
0.0
 10
292.5727224720559
 20
404.0414612007523
 30
0.0
 10
290.4923747889401
 20
404.0614089625977
 30
0.0
 10
286.7491293017821
 20
403.7845488282705
 30
0.0
 10
281.7806469551821
 20
403.1947324567047
 30
0.0
 10
276.8668019895547
 20
402.2669229339518
 30
0.0
 10
272.0503497250621
 20
401.0373887376322
 30
0.0
 10
267.3367586053833
 20
399.5035590775653
 30
0.0
 10
262.7300024845981
 20
397.6783456053215
 30
0.0
 10
258.2172595436844
 20
395.5546322794484
 30
0.0
 10
253.8243322603586
 20
393.1408951351746
 30
0.0
 10
249.582468513389
 20
390.4503879088417
 30
0.0
 10
245.521109711397
 20
387.5003413435308
 30
0.0
 10
241.6710709354642
 20
384.3083366990882
 30
0.0
 10
238.0547061502737
 20
380.90889519377
 30
0.0
 10
234.7025716127521
 20
377.273125095901
 30
0.0
 10
232.5409974044338
 20
374.7633972029819
 30
0.0
 10
231.5613475572815
 20
373.4075276674452
 30
0.0
 10
231.5511524870627
 20
373.3934173348988
 30
0.0
  0
SPLINE
  5
128
330
1F
100
AcDbEntity
  8
0
  6
Continuous
 62
     7
370
    40
100
AcDbSpline
210
0.0
220
0.0
230
1.0
 70
     8
 71
     3
 72
    22
 73
    18
 74
     0
 42
0.00000001
 43
0.00000001
 12
1.0
 22
0.0
 32
0.0
 13
1.0
 23
0.0
 33
0.0
 40
0.0
 40
0.0
 40
0.0
 40
0.0
 40
0.0613289442489593
 40
0.131136426635499
 40
0.1999242568657343
 40
0.2692785172315985
 40
0.339033652388067
 40
0.4089935612863895
 40
0.479103700573063
 40
0.5493052078024494
 40
0.6195223123976117
 40
0.6897058678735808
 40
0.7598182439925759
 40
0.8293494199904196
 40
0.8991218657473142
 40
0.9689507293858886
 40
1.0
 40
1.0
 40
1.0
 40
1.0
 10
598.5921231939627
 20
373.3813135477525
 30
0.0
 10
597.6890954929846
 20
374.5298410916501
 30
0.0
 10
595.7581992855037
 20
376.9856765840692
 30
0.0
 10
592.5199025264102
 20
380.4786276096925
 30
0.0
 10
588.950832532963
 20
383.9063577403189
 30
0.0
 10
585.1711624707448
 20
387.0967506530122
 30
0.0
 10
581.1788593109582
 20
390.0596343642509
 30
0.0
 10
576.9935331096142
 20
392.77352136229
 30
0.0
 10
572.6369909437636
 20
395.2224311540058
 30
0.0
 10
568.1292049576949
 20
397.393107349496
 30
0.0
 10
563.491235645342
 20
399.2738701812499
 30
0.0
 10
558.744669400741
 20
400.8556388754546
 30
0.0
 10
553.9215423537988
 20
402.1255636606415
 30
0.0
 10
549.0362970867019
 20
403.0902698230183
 30
0.0
 10
544.1051980638815
 20
403.7279097109108
 30
0.0
 10
540.0552577281591
 20
404.0490110626668
 30
0.0
 10
537.6552857731162
 20
404.0419132844472
 30
0.0
 10
536.9165986507737
 20
404.0397286600157
 30
0.0
  0
LINE
  5
129
330
1F
100
AcDbEntity
  8
0
  6
Continuous
 62
     7
370
    40
100
AcDbLine
 10
214.8083141856
 20
324.0793865031
 30
0.0
 11
214.8083141856
 21
134.0793865031
 31
0.0
  0
LINE
  5
12A
330
1F
100
AcDbEntity
  8
0
  6
Continuous
 62
     7
370
    40
100
AcDbLine
 10
615.3571259301
 20
134.0793865031
 30
0.0
 11
615.3571259301
 21
324.0793865031
 31
0.0
  0
LINE
  5
12B
330
1F
100
AcDbEntity
  8
0
  6
Continuous
 62
     7
370
    40
100
AcDbLine
 10
211.0827200579
 20
477.9414554686
 30
0.0
 11
211.0827200579
 21
422.0793865031
 31
0.0
  0
LINE
  5
12C
330
1F
100
AcDbEntity
  8
0
  6
Continuous
 62
     7
370
    40
100
AcDbLine
 10
225.0827200579
 20
477.9414554686
 30
0.0
 11
225.0827200579
 21
422.0793865031
 31
0.0
  0
LINE
  5
12D
330
1F
100
AcDbEntity
  8
0
  6
Continuous
 62
     7
370
    40
100
AcDbLine
 10
310.2827200579
 20
484.0793865031
 30
0.0
 11
310.2827200579
 21
424.0793865031
 31
0.0
  0
LINE
  5
12E
330
1F
100
AcDbEntity
  8
0
  6
Continuous
 62
     7
370
    40
100
AcDbLine
 10
225.2179240855
 20
501.9698605546
 30
0.0
 11
211.0827200579
 21
501.9698605546
 31
0.0
  0
SPLINE
  5
12F
330
1F
100
AcDbEntity
  8
0
  6
Continuous
 62
     7
370
    40
100
AcDbSpline
210
0.0
220
0.0
230
1.0
 70
     8
 71
     3
 72
     8
 73
     4
 74
     0
 42
0.00000001
 43
0.00000001
 12
1.0
 22
0.0
 32
0.0
 13
1.0
 23
0.0
 33
0.0
 40
0.0
 40
0.0
 40
0.0
 40
0.0
 40
1.0
 40
1.0
 40
1.0
 40
1.0
 10
225.0827200578807
 20
501.0793865030678
 30
0.0
 10
225.0827200578807
 20
501.3796731766407
 30
0.0
 10
225.1267460128601
 20
501.6765262629078
 30
0.0
 10
225.2179240854733
 20
501.969860554615
 30
0.0
  0
LINE
  5
130
330
1F
100
AcDbEntity
  8
0
  6
Continuous
 62
     7
370
    40
100
AcDbLine
 10
211.0827200579
 20
501.9698605546
 30
0.0
 11
211.0827200579
 21
477.9414554686
 31
0.0
  0
LINE
  5
131
330
1F
100
AcDbEntity
  8
0
  6
Continuous
 62
     7
370
    40
100
AcDbLine
 10
225.0827200579
 20
501.0793865031
 30
0.0
 11
225.0827200579
 21
477.9414554686
 31
0.0
  0
LINE
  5
132
330
1F
100
AcDbEntity
  8
0
  6
Continuous
 62
     7
370
    40
100
AcDbLine
 10
312.2827200579
 20
466.0793865031
 30
0.0
 11
312.2827200579
 21
442.0793865031
 31
0.0
  0
LINE
  5
133
330
1F
100
AcDbEntity
  8
0
  6
Continuous
 62
     7
370
    40
100
AcDbLine
 10
228.0827200579
 20
504.0793865031
 30
0.0
 11
244.0827200579
 21
504.0793865031
 31
0.0
  0
ARC
  5
134
330
1F
100
AcDbEntity
  8
0
  6
Continuous
 62
     7
370
    40
100
AcDbCircle
 10
217.0827200579
 20
503.0793865031
 30
0.0
 40
6.0
100
AcDbArc
 50
90.0
 51
180.0
  0
LINE
  5
135
330
1F
100
AcDbEntity
  8
0
  6
Continuous
 62
     7
370
    40
100
AcDbLine
 10
244.0827200579
 20
509.0793865031
 30
0.0
 11
217.0827200579
 21
509.0793865031
 31
0.0
  0
ARC
  5
136
330
1F
100
AcDbEntity
  8
0
  6
Continuous
 62
     7
370
    40
100
AcDbCircle
 10
228.0827200579
 20
501.0793865031
 30
0.0
 40
3.000000000000057
100
AcDbArc
 50
90.0
 51
162.7330142914
  0
LINE
  5
137
330
1F
100
AcDbEntity
  8
0
  6
Continuous
 62
     7
370
    40
100
AcDbLine
 10
211.0827200579
 20
503.0793865031
 30
0.0
 11
211.0827200579
 21
501.9698605546
 31
0.0
  0
LINE
  5
138
330
1F
100
AcDbEntity
  8
0
  6
Continuous
 62
     7
370
    40
100
AcDbLine
 10
259.0827200579
 20
504.0793865031
 30
0.0
 11
259.0827200579
 21
509.0793865031
 31
0.0
  0
LINE
  5
139
330
1F
100
AcDbEntity
  8
0
  6
Continuous
 62
     7
370
    40
100
AcDbLine
 10
244.0827200579
 20
504.0793865031
 30
0.0
 11
259.0827200579
 21
504.0793865031
 31
0.0
  0
LINE
  5
13A
330
1F
100
AcDbEntity
  8
0
  6
Continuous
 62
     7
370
    40
100
AcDbLine
 10
244.0827200579
 20
509.0793865031
 30
0.0
 11
259.0827200579
 21
509.0793865031
 31
0.0
  0
LINE
  5
13B
330
1F
100
AcDbEntity
  8
0
  6
Continuous
 62
     7
370
    40
100
AcDbLine
 10
619.0827200579
 20
477.9414554686
 30
0.0
 11
619.0827200579
 21
422.0793865031
 31
0.0
  0
LINE
  5
13C
330
1F
100
AcDbEntity
  8
0
  6
Continuous
 62
     7
370
    40
100
AcDbLine
 10
605.0827200579
 20
477.9414554686
 30
0.0
 11
605.0827200579
 21
422.0793865031
 31
0.0
  0
LINE
  5
13D
330
1F
100
AcDbEntity
  8
0
  6
Continuous
 62
     7
370
    40
100
AcDbLine
 10
519.8827200579
 20
484.0793865031
 30
0.0
 11
519.8827200579
 21
424.0793865031
 31
0.0
  0
SPLINE
  5
13E
330
1F
100
AcDbEntity
  8
0
  6
Continuous
 62
     7
370
    40
100
AcDbSpline
210
0.0
220
0.0
230
1.0
 70
     8
 71
     3
 72
     8
 73
     4
 74
     0
 42
0.00000001
 43
0.00000001
 12
1.0
 22
0.0
 32
0.0
 13
1.0
 23
0.0
 33
0.0
 40
0.0
 40
0.0
 40
0.0
 40
0.0
 40
1.0
 40
1.0
 40
1.0
 40
1.0
 10
605.0827200578807
 20
501.0793865030678
 30
0.0
 10
605.0827200578807
 20
501.3796731766407
 30
0.0
 10
605.0386941029012
 20
501.6765262629078
 30
0.0
 10
604.9475160302879
 20
501.969860554615
 30
0.0
  0
LINE
  5
13F
330
1F
100
AcDbEntity
  8
0
  6
Continuous
 62
     7
370
    40
100
AcDbLine
 10
604.9475160303
 20
501.9698605546
 30
0.0
 11
619.0827200579
 21
501.9698605546
 31
0.0
  0
LINE
  5
140
330
1F
100
AcDbEntity
  8
0
  6
Continuous
 62
     7
370
    40
100
AcDbLine
 10
619.0827200579
 20
501.9698605546
 30
0.0
 11
619.0827200579
 21
477.9414554686
 31
0.0
  0
LINE
  5
141
330
1F
100
AcDbEntity
  8
0
  6
Continuous
 62
     7
370
    40
100
AcDbLine
 10
605.0827200579
 20
501.0793865031
 30
0.0
 11
605.0827200579
 21
477.9414554686
 31
0.0
  0
LINE
  5
142
330
1F
100
AcDbEntity
  8
0
  6
Continuous
 62
     7
370
    40
100
AcDbLine
 10
517.8827200579
 20
466.0793865031
 30
0.0
 11
517.8827200579
 21
442.0793865031
 31
0.0
  0
ARC
  5
143
330
1F
100
AcDbEntity
  8
0
  6
Continuous
 62
     7
370
    40
100
AcDbCircle
 10
613.0827200579
 20
503.0793865031
 30
0.0
 40
6.000000000000114
100
AcDbArc
 50
0.0
 51
90.0
  0
LINE
  5
144
330
1F
100
AcDbEntity
  8
0
  6
Continuous
 62
     7
370
    40
100
AcDbLine
 10
602.0827200579
 20
504.0793865031
 30
0.0
 11
586.0827200579
 21
504.0793865031
 31
0.0
  0
LINE
  5
145
330
1F
100
AcDbEntity
  8
0
  6
Continuous
 62
     7
370
    40
100
AcDbLine
 10
586.0827200579
 20
509.0793865031
 30
0.0
 11
613.0827200579
 21
509.0793865031
 31
0.0
  0
ARC
  5
146
330
1F
100
AcDbEntity
  8
0
  6
Continuous
 62
     7
370
    40
100
AcDbCircle
 10
602.0827200579
 20
501.0793865031
 30
0.0
 40
3.000000000000057
100
AcDbArc
 50
17.2669857086
 51
90.0
  0
LINE
  5
147
330
1F
100
AcDbEntity
  8
0
  6
Continuous
 62
     7
370
    40
100
AcDbLine
 10
619.0827200579
 20
503.0793865031
 30
0.0
 11
619.0827200579
 21
501.9698605546
 31
0.0
  0
LINE
  5
148
330
1F
100
AcDbEntity
  8
0
  6
Continuous
 62
     7
370
    40
100
AcDbLine
 10
586.0827200579
 20
504.0793865031
 30
0.0
 11
571.0827200579
 21
504.0793865031
 31
0.0
  0
LINE
  5
149
330
1F
100
AcDbEntity
  8
0
  6
Continuous
 62
     7
370
    40
100
AcDbLine
 10
571.0827200579
 20
504.0793865031
 30
0.0
 11
571.0827200579
 21
509.0793865031
 31
0.0
  0
LINE
  5
14A
330
1F
100
AcDbEntity
  8
0
  6
Continuous
 62
     7
370
    40
100
AcDbLine
 10
586.0827200579
 20
509.0793865031
 30
0.0
 11
571.0827200579
 21
509.0793865031
 31
0.0
  0
SPLINE
  5
14B
330
1F
100
AcDbEntity
  8
0
  6
Continuous
 62
     7
370
    40
100
AcDbSpline
210
0.0
220
0.0
230
1.0
 70
     8
 71
     3
 72
    11
 73
     7
 74
     0
 42
0.00000001
 43
0.00000001
 12
1.0
 22
0.0
 32
0.0
 13
1.0
 23
0.0
 33
0.0
 40
0.0
 40
0.0
 40
0.0
 40
0.0
 40
0.2468530018172897
 40
0.4952604512240188
 40
0.7472128571645313
 40
1.0
 40
1.0
 40
1.0
 40
1.0
 10
231.5827200578807
 20
356.40034716946
 30
0.0
 10
231.1009275472435
 20
355.8538810049369
 30
0.0
 10
230.1343086507427
 20
354.7575075469358
 30
0.0
 10
228.8489088825826
 20
352.9638175667083
 30
0.0
 10
227.6505156077047
 20
351.0918594775803
 30
0.0
 10
226.9390441176947
 20
349.7836136523177
 30
0.0
 10
226.5827200578806
 20
349.12840895299
 30
0.0
  0
LINE
  5
14C
330
1F
100
AcDbEntity
  8
0
  6
Continuous
 62
     7
370
    40
100
AcDbLine
 10
293.2844386849
 20
404.050576126
 30
0.0
 11
293.9522408659
 21
404.0793865031
 31
0.0
  0
SPLINE
  5
14D
330
1F
100
AcDbEntity
  8
0
  6
Continuous
 62
     7
370
    40
100
AcDbSpline
210
0.0
220
0.0
230
1.0
 70
     8
 71
     3
 72
    21
 73
    17
 74
     0
 42
0.00000001
 43
0.00000001
 12
1.0
 22
0.0
 32
0.0
 13
1.0
 23
0.0
 33
0.0
 40
0.0
 40
0.0
 40
0.0
 40
0.0
 40
0.0707950977508822
 40
0.1418156331025202
 40
0.2126096916286944
 40
0.283402192121839
 40
0.3544209308176604
 40
0.4252154918036919
 40
0.4960731506060828
 40
0.5671545258806711
 40
0.6380155043520582
 40
0.7094654112083817
 40
0.781140221235834
 40
0.8525925786707224
 40
0.9262961663056986
 40
1.0
 40
1.0
 40
1.0
 40
1.0
 10
294.9942234825912
 20
381.9747001469175
 30
0.0
 10
292.8749681538006
 20
381.9037425561201
 30
0.0
 10
288.629709008656
 20
381.7616014194869
 30
0.0
 10
282.3531796860813
 20
380.6425490285422
 30
0.0
 10
276.2381164612369
 20
378.8805398989177
 30
0.0
 10
270.3715028547331
 20
376.405564730791
 30
0.0
 10
264.8175970982795
 20
373.2926967454703
 30
0.0
 10
259.6402011120836
 20
369.574306649661
 30
0.0
 10
254.9192174425645
 20
365.2790276670441
 30
0.0
 10
250.695672196737
 20
360.48162230267
 30
0.0
 10
247.0078327732934
 20
355.2271325403195
 30
0.0
 10
243.9264484426541
 20
349.5643593546727
 30
0.0
 10
241.4670024981637
 20
343.5754474941451
 30
0.0
 10
239.6653618723077
 20
337.2818223492769
 30
0.0
 10
238.5184481844576
 20
330.7571258501777
 30
0.0
 10
238.3726774071567
 20
326.3053020958341
 30
0.0
 10
238.2997918968427
 20
324.0793865030666
 30
0.0
  0
LINE
  5
14E
330
1F
100
AcDbEntity
  8
0
  6
Continuous
 62
     7
370
    40
100
AcDbLine
 10
536.9195782858
 20
54.1099168735
 30
0.0
 11
536.2131992499
 21
54.0793865031
 31
0.0
  0
SPLINE
  5
14F
330
1F
100
AcDbEntity
  8
0
  6
Continuous
 62
     7
370
    40
100
AcDbSpline
210
0.0
220
0.0
230
1.0
 70
     8
 71
     3
 72
    21
 73
    17
 74
     0
 42
0.00000001
 43
0.00000001
 12
1.0
 22
0.0
 32
0.0
 13
1.0
 23
0.0
 33
0.0
 40
0.0
 40
0.0
 40
0.0
 40
0.0
 40
0.0707950977508822
 40
0.1418156331025199
 40
0.2126096916286937
 40
0.2834021921218374
 40
0.3544209308176586
 40
0.4252154918036899
 40
0.4960731506060817
 40
0.5671545258806706
 40
0.638015504352059
 40
0.7094654112083822
 40
0.7811402212358354
 40
0.8525925786707237
 40
0.9262961663056993
 40
1.0
 40
1.0
 40
1.0
 40
1.0
 10
535.1712166331702
 20
76.18407285921558
 30
0.0
 10
537.2904719619607
 20
76.25503045001292
 30
0.0
 10
541.5357311071053
 20
76.39717158664627
 30
0.0
 10
547.8122604296799
 20
77.5162239775909
 30
0.0
 10
553.9273236545243
 20
79.27823310721519
 30
0.0
 10
559.7939372610281
 20
81.75320827534215
 30
0.0
 10
565.3478430174818
 20
84.86607626066261
 30
0.0
 10
570.5252390036775
 20
88.58446635647208
 30
0.0
 10
575.2462226731968
 20
92.87974533908866
 30
0.0
 10
579.4697679190242
 20
97.67715070346308
 30
0.0
 10
583.1576073424679
 20
102.9316404658136
 30
0.0
 10
586.2389916731072
 20
108.5944136514604
 30
0.0
 10
588.6984376175977
 20
114.5833255119881
 30
0.0
 10
590.5000782434537
 20
120.8769506568563
 30
0.0
 10
591.6469919313038
 20
127.4016471559555
 30
0.0
 10
591.7927627086046
 20
131.8534709102991
 30
0.0
 10
591.8656482189187
 20
134.0793865030664
 30
0.0
  0
LINE
  5
150
330
1F
100
AcDbEntity
  8
0
  6
Continuous
 62
     7
370
    40
100
AcDbLine
 10
536.2131992499
 20
404.0793865031
 30
0.0
 11
536.7198166094
 21
404.0508232832
 31
0.0
  0
SPLINE
  5
151
330
1F
100
AcDbEntity
  8
0
  6
Continuous
 62
     7
370
    40
100
AcDbSpline
210
0.0
220
0.0
230
1.0
 70
     8
 71
     3
 72
    11
 73
     7
 74
     0
 42
0.00000001
 43
0.00000001
 12
1.0
 22
0.0
 32
0.0
 13
1.0
 23
0.0
 33
0.0
 40
0.0
 40
0.0
 40
0.0
 40
0.0
 40
0.2468530018172713
 40
0.495260451223995
 40
0.7472128571645328
 40
1.0
 40
1.0
 40
1.0
 40
1.0
 10
598.5827200578807
 20
356.4003471694584
 30
0.0
 10
599.0645125685179
 20
355.8538810049354
 30
0.0
 10
600.0311314650186
 20
354.7575075469346
 30
0.0
 10
601.316531233179
 20
352.9638175667075
 30
0.0
 10
602.5149245080567
 20
351.0918594775794
 30
0.0
 10
603.2263959980666
 20
349.7836136523169
 30
0.0
 10
603.5827200578807
 20
349.1284089529894
 30
0.0
  0
SPLINE
  5
152
330
1F
100
AcDbEntity
  8
0
  6
Continuous
 62
     7
370
    40
100
AcDbSpline
210
0.0
220
0.0
230
1.0
 70
     8
 71
     3
 72
    21
 73
    17
 74
     0
 42
0.00000001
 43
0.00000001
 12
1.0
 22
0.0
 32
0.0
 13
1.0
 23
0.0
 33
0.0
 40
0.0
 40
0.0
 40
0.0
 40
0.0
 40
0.0724136462871534
 40
0.1450579311869368
 40
0.2174704075406006
 40
0.2898993965744051
 40
0.3625611148096327
 40
0.4349869789696634
 40
0.5069320986736991
 40
0.5791095925482238
 40
0.6510513472237021
 40
0.7223093140680996
 40
0.7937971929631424
 40
0.8650540863867786
 40
0.9325268505535921
 40
0.9999999999999999
 40
0.9999999999999999
 40
0.9999999999999999
 40
0.9999999999999999
 10
591.8656482189184
 20
324.0793865030665
 30
0.0
 10
591.7942892902938
 20
326.2663205098672
 30
0.0
 10
591.6513441537243
 20
330.6471539429869
 30
0.0
 10
590.525536353153
 20
337.1315527069905
 30
0.0
 10
588.752300676152
 20
343.4547089475521
 30
0.0
 10
586.2601020143139
 20
349.5269043679581
 30
0.0
 10
583.1205928608841
 20
355.2783397099084
 30
0.0
 10
579.3729780751227
 20
360.625566948443
 30
0.0
 10
575.0476103085974
 20
365.4843284106318
 30
0.0
 10
570.2220462105656
 20
369.8113999405077
 30
0.0
 10
564.9602342132556
 20
373.5515009102232
 30
0.0
 10
559.3186112075986
 20
376.6363726102043
 30
0.0
 10
553.3867666879189
 20
379.0612522189273
 30
0.0
 10
547.3265212073053
 20
380.7559589850484
 30
0.0
 10
541.2304532604894
 20
381.7843564682295
 30
0.0
 10
537.1909660199451
 20
381.9112521332564
 30
0.0
 10
535.17121663317
 20
381.9747001469175
 30
0.0
  0
SPLINE
  5
153
330
1F
100
AcDbEntity
  8
0
  6
Continuous
 62
     7
370
    40
100
AcDbSpline
210
0.0
220
0.0
230
1.0
 70
     8
 71
     3
 72
    21
 73
    17
 74
     0
 42
0.00000001
 43
0.00000001
 12
1.0
 22
0.0
 32
0.0
 13
1.0
 23
0.0
 33
0.0
 40
0.0
 40
0.0
 40
0.0
 40
0.0
 40
0.072413646287153
 40
0.145057931186937
 40
0.2174704075406006
 40
0.2898993965744049
 40
0.3625611148096321
 40
0.4349869789696626
 40
0.5069320986736985
 40
0.5791095925482228
 40
0.651051347223702
 40
0.7223093140680994
 40
0.7937971929631416
 40
0.8650540863867772
 40
0.9325268505535914
 40
1.0
 40
1.0
 40
1.0
 40
1.0
 10
238.2997918968429
 20
134.0793865030666
 30
0.0
 10
238.3711508254676
 20
131.8924524962659
 30
0.0
 10
238.5140959620371
 20
127.5116190631461
 30
0.0
 10
239.6399037626082
 20
121.0272202991426
 30
0.0
 10
241.4131394396093
 20
114.7040640585809
 30
0.0
 10
243.9053381014474
 20
108.6318686381749
 30
0.0
 10
247.0448472548772
 20
102.8804332962247
 30
0.0
 10
250.7924620406386
 20
97.53320605769007
 30
0.0
 10
255.1178298071638
 20
92.6744445955012
 30
0.0
 10
259.9433939051957
 20
88.34737306562562
 30
0.0
 10
265.2052059025057
 20
84.60727209590992
 30
0.0
 10
270.8468289081626
 20
81.52240039592868
 30
0.0
 10
276.7786734278424
 20
79.09752078720592
 30
0.0
 10
282.8389189084559
 20
77.40281402108474
 30
0.0
 10
288.9349868552717
 20
76.37441653790357
 30
0.0
 10
292.9744740958162
 20
76.24752087287682
 30
0.0
 10
294.9942234825913
 20
76.18407285921565
 30
0.0
  0
LINE
  5
154
330
1F
100
AcDbEntity
  8
0
  6
Continuous
 62
     7
370
    40
100
AcDbLine
 10
293.9522408659
 20
54.0793865031
 30
0.0
 11
293.4641229589
 21
54.1066929777
 31
0.0
  0
LINE
  5
155
330
1F
100
AcDbEntity
  8
0
  6
Continuous
 62
     7
370
    40
100
AcDbLine
 10
591.8656482189
 20
134.0793865031
 30
0.0
 11
591.8656482189
 21
324.0793865031
 31
0.0
  0
LINE
  5
156
330
1F
100
AcDbEntity
  8
0
  6
Continuous
 62
     7
370
    40
100
AcDbLine
 10
238.2997918968
 20
324.0793865031
 30
0.0
 11
238.2997918968
 21
134.0793865031
 31
0.0
  0
LINE
  5
157
330
1F
100
AcDbEntity
  8
0
  6
Continuous
 62
     7
370
    40
100
AcDbLine
 10
231.5827200579
 20
454.0793865031
 30
0.0
 11
226.5827200579
 21
454.0793865031
 31
0.0
  0
LINE
  5
158
330
1F
100
AcDbEntity
  8
0
  6
Continuous
 62
     7
370
    40
100
AcDbLine
 10
231.5827200579
 20
454.0793865031
 30
0.0
 11
231.5827200579
 21
356.4003471695
 31
0.0
  0
LINE
  5
159
330
1F
100
AcDbEntity
  8
0
  6
Continuous
 62
     7
370
    40
100
AcDbLine
 10
226.5827200579
 20
454.0793865031
 30
0.0
 11
226.5827200579
 21
349.128408953
 31
0.0
  0
LINE
  5
15A
330
1F
100
AcDbEntity
  8
0
  6
Continuous
 62
     7
370
    40
100
AcDbLine
 10
598.5827200579
 20
454.0793865031
 30
0.0
 11
603.5827200579
 21
454.0793865031
 31
0.0
  0
LINE
  5
15B
330
1F
100
AcDbEntity
  8
0
  6
Continuous
 62
     7
370
    40
100
AcDbLine
 10
598.5827200579
 20
454.0793865031
 30
0.0
 11
598.5827200579
 21
356.4003471695
 31
0.0
  0
LINE
  5
15C
330
1F
100
AcDbEntity
  8
0
  6
Continuous
 62
     7
370
    40
100
AcDbLine
 10
603.5827200579
 20
454.0793865031
 30
0.0
 11
603.5827200579
 21
349.128408953
 31
0.0
  0
LINE
  5
15D
330
1F
100
AcDbEntity
  8
0
  6
Continuous
 62
     7
370
    40
100
AcDbLine
 10
294.9942234826
 20
76.1840728592
 30
0.0
 11
535.1712166332
 21
76.1840728592
 31
0.0
  0
LINE
  5
15E
330
1F
100
AcDbEntity
  8
0
  6
Continuous
 62
     7
370
    40
100
AcDbLine
 10
535.1712166332
 20
381.9747001469
 30
0.0
 11
294.9942234826
 21
381.9747001469
 31
0.0
  0
LINE
  5
15F
330
1F
100
AcDbEntity
  8
0
  6
Continuous
 62
     7
370
    40
100
AcDbLine
 10
293.9522408659
 20
404.0793865031
 30
0.0
 11
536.2131992499
 21
404.0793865031
 31
0.0
  0
LINE
  5
160
330
1F
100
AcDbEntity
  8
0
  6
Continuous
 62
     7
370
    40
100
AcDbLine
 10
536.2131992499
 20
54.0793865031
 30
0.0
 11
293.9522408659
 21
54.0793865031
 31
0.0
  0
LINE
  5
161
330
1F
100
AcDbEntity
  8
0
  6
CENTERX2
 62
     7
370
     0
100
AcDbLine
 10
415.0827200579
 20
494.0793865031
 30
0.0
 11
415.0827200579
 21
34.5682339051
 31
0.0
  0
LINE
  5
162
330
1F
100
AcDbEntity
  8
0
  6
CENTERX2
 62
     7
370
     0
100
AcDbLine
 10
320.2827200579
 20
454.0793865031
 30
0.0
 11
215.0827200579
 21
454.0793865031
 31
0.0
  0
LINE
  5
163
330
1F
100
AcDbEntity
  8
0
  6
CENTERX2
 62
     7
370
     0
100
AcDbLine
 10
507.8827200579
 20
454.0793865031
 30
0.0
 11
519.8827200579
 21
454.0793865031
 31
0.0
  0
LINE
  5
164
330
1F
100
AcDbEntity
  8
0
  6
CENTERX2
 62
     7
370
     0
100
AcDbLine
 10
519.8827200579
 20
454.0793865031
 30
0.0
 11
605.0827200579
 21
454.0793865031
 31
0.0
  0
LINE
  5
165
330
1F
100
AcDbEntity
  8
0
  6
CENTERX2
 62
     7
370
     0
100
AcDbLine
 10
605.0827200579
 20
454.0793865031
 30
0.0
 11
629.0827200579
 21
454.0793865031
 31
0.0
  0
ENDSEC
  0
SECTION
  2
OBJECTS
  0
DICTIONARY
  5
C
330
0
100
AcDbDictionary
281
     1
  3
ACAD_GROUP
350
D
  3
ACAD_LAYOUT
350
1A
  3
ACAD_MATERIAL
350
3B
  3
ACAD_MLEADERSTYLE
350
167
  3
ACAD_MLINESTYLE
350
17
  3
ACAD_PLOTSETTINGS
350
19
  3
ACAD_PLOTSTYLENAME
350
E
  3
ACAD_TABLESTYLE
350
166
  3
ACAD_VISUALSTYLE
350
2A
  0
DICTIONARY
  5
D
102
{ACAD_REACTORS
330
C
102
}
330
C
100
AcDbDictionary
281
     1
  0
DICTIONARY
  5
1A
102
{ACAD_REACTORS
330
C
102
}
330
C
100
AcDbDictionary
281
     1
  3
Layout1
350
1E
  3
Layout2
350
26
  3
Model
350
22
  0
DICTIONARY
  5
3B
102
{ACAD_REACTORS
330
C
102
}
330
C
100
AcDbDictionary
281
     1
  3
ByBlock
350
3D
  3
ByLayer
350
3C
  3
Global
350
3E
  0
DICTIONARY
  5
167
102
{ACAD_REACTORS
330
C
102
}
330
C
100
AcDbDictionary
281
     1
  0
DICTIONARY
  5
17
102
{ACAD_REACTORS
330
C
102
}
330
C
100
AcDbDictionary
281
     1
  3
Standard
350
18
  0
DICTIONARY
  5
19
102
{ACAD_REACTORS
330
C
102
}
330
C
100
AcDbDictionary
281
     1
  0
ACDBDICTIONARYWDFLT
  5
E
102
{ACAD_REACTORS
330
C
102
}
330
C
100
AcDbDictionary
281
     1
  3
Normal
350
F
100
AcDbDictionaryWithDefault
340
F
  0
DICTIONARY
  5
166
102
{ACAD_REACTORS
330
C
102
}
330
C
100
AcDbDictionary
281
     1
  0
DICTIONARY
  5
2A
102
{ACAD_REACTORS
330
C
102
}
330
C
100
AcDbDictionary
281
     1
  3
2dWireframe
350
2F
  3
3D Hidden
350
31
  3
3dWireframe
350
30
  3
Basic
350
32
  3
Brighten
350
36
  3
ColorChange
350
3A
  3
Conceptual
350
34
  3
Dim
350
35
  3
Facepattern
350
39
  3
Flat
350
2B
  3
FlatWithEdges
350
2C
  3
Gouraud
350
2D
  3
GouraudWithEdges
350
2E
  3
Linepattern
350
38
  3
Realistic
350
33
  3
Thicken
350
37
  0
LAYOUT
  5
1E
102
{ACAD_REACTORS
330
1A
102
}
330
1A
100
AcDbPlotSettings
  1

  2
none_device
  4

  6

 40
0.0
 41
0.0
 42
0.0
 43
0.0
 44
0.0
 45
0.0
 46
0.0
 47
0.0
 48
0.0
 49
0.0
140
0.0
141
0.0
142
1.0
143
1.0
 70
   688
 72
     0
 73
     0
 74
     5
  7

 75
    16
 76
     0
 77
     2
 78
   300
147
1.0
148
0.0
149
0.0
100
AcDbLayout
  1
Layout1
 70
     1
 71
     1
 10
0.0
 20
0.0
 11
420.0
 21
297.0
 12
0.0
 22
0.0
 32
0.0
 14
1.0000000000E+20
 24
1.0000000000E+20
 34
1.0000000000E+20
 15
-1.0000000000E+20
 25
-1.0000000000E+20
 35
-1.0000000000E+20
146
0.0
 13
0.0
 23
0.0
 33
0.0
 16
1.0
 26
0.0
 36
0.0
 17
0.0
 27
1.0
 37
0.0
 76
     0
330
1B
  0
LAYOUT
  5
26
102
{ACAD_REACTORS
330
1A
102
}
330
1A
100
AcDbPlotSettings
  1

  2
none_device
  4

  6

 40
0.0
 41
0.0
 42
0.0
 43
0.0
 44
0.0
 45
0.0
 46
0.0
 47
0.0
 48
0.0
 49
0.0
140
0.0
141
0.0
142
1.0
143
1.0
 70
   688
 72
     0
 73
     0
 74
     5
  7

 75
    16
 76
     0
 77
     2
 78
   300
147
1.0
148
0.0
149
0.0
100
AcDbLayout
  1
Layout2
 70
     1
 71
     2
 10
0.0
 20
0.0
 11
0.0
 21
0.0
 12
0.0
 22
0.0
 32
0.0
 14
0.0
 24
0.0
 34
0.0
 15
0.0
 25
0.0
 35
0.0
146
0.0
 13
0.0
 23
0.0
 33
0.0
 16
1.0
 26
0.0
 36
0.0
 17
0.0
 27
1.0
 37
0.0
 76
     0
330
23
  0
LAYOUT
  5
22
102
{ACAD_REACTORS
330
1A
102
}
330
1A
100
AcDbPlotSettings
  1

  2
none_device
  4

  6

 40
0.0
 41
0.0
 42
0.0
 43
0.0
 44
0.0
 45
0.0
 46
0.0
 47
0.0
 48
0.0
 49
0.0
140
0.0
141
0.0
142
1.0
143
1.0
 70
  1712
 72
     0
 73
     0
 74
     0
  7

 75
     0
 76
     0
 77
     2
 78
   300
147
1.0
148
0.0
149
0.0
100
AcDbLayout
  1
Model
 70
     1
 71
     0
 10
0.0
 20
0.0
 11
2100.0
 21
1485.0
 12
0.0
 22
0.0
 32
0.0
 14
0.0
 24
0.0
 34
0.0
 15
2100.0
 25
1485.0
 35
0.0
146
0.0
 13
0.0
 23
0.0
 33
0.0
 16
1.0
 26
0.0
 36
0.0
 17
0.0
 27
1.0
 37
0.0
 76
     0
330
1F
331
29
  0
MATERIAL
  5
3D
102
{ACAD_REACTORS
330
3B
102
}
330
3B
100
AcDbMaterial
  1
ByBlock
 72
     1
 94
      127
  0
MATERIAL
  5
3C
102
{ACAD_REACTORS
330
3B
102
}
330
3B
100
AcDbMaterial
  1
ByLayer
 72
     1
 94
      127
  0
MATERIAL
  5
3E
102
{ACAD_REACTORS
330
3B
102
}
330
3B
100
AcDbMaterial
  1
Global
 72
     1
 94
      127
  0
MLINESTYLE
  5
18
102
{ACAD_REACTORS
330
17
102
}
330
17
100
AcDbMlineStyle
  2
Standard
 70
     0
  3

 62
   256
 51
90.0
 52
90.0
 71
     2
 49
0.5
 62
   256
  6
BYLAYER
 49
-0.5
 62
   256
  6
BYLAYER
  0
ACDBPLACEHOLDER
  5
F
102
{ACAD_REACTORS
330
E
102
}
330
E
  0
VISUALSTYLE
  5
2F
102
{ACAD_REACTORS
330
2A
102
}
330
2A
100
AcDbVisualStyle
  2
2dWireframe
 70
     4
177
     2
291
     0
 71
     0
176
     1
 72
     2
176
     1
 73
     0
176
     1
 90
        0
176
     1
 40
-0.6
176
     1
 41
-30.0
176
     1
 62
     5
 63
     7
421
 16777215
176
     1
 74
     1
176
     1
 91
        4
176
     1
 64
     7
176
     1
 65
   257
176
     1
 75
     1
176
     1
175
     1
176
     1
 42
1.0
176
     1
 92
        0
176
     1
 66
   257
176
     1
 43
1.0
176
     1
 76
     1
176
     1
 77
     6
176
     1
 78
     2
176
     1
 67
     7
176
     1
 79
     5
176
     1
170
     0
176
     1
171
     0
176
     1
290
     0
176
     1
 93
        1
176
     1
 44
0.0
176
     1
173
     0
176
     1
  0
VISUALSTYLE
  5
31
102
{ACAD_REACTORS
330
2A
102
}
330
2A
100
AcDbVisualStyle
  2
3D Hidden
 70
     6
177
     2
291
     0
 71
     1
176
     1
 72
     2
176
     1
 73
     2
176
     1
 90
        0
176
     1
 40
-0.6
176
     1
 41
-30.0
176
     1
 62
     5
 63
     7
421
 16777215
176
     1
 74
     2
176
     1
 91
        2
176
     1
 64
     7
176
     1
 65
   257
176
     1
 75
     2
176
     1
175
     1
176
     1
 42
40.0
176
     1
 92
        0
176
     1
 66
   257
176
     1
 43
1.0
176
     1
 76
     1
176
     1
 77
     6
176
     1
 78
     2
176
     1
 67
     7
176
     1
 79
     3
176
     1
170
     0
176
     1
171
     0
176
     1
290
     0
176
     1
 93
        1
176
     1
 44
0.0
176
     1
173
     0
176
     1
  0
VISUALSTYLE
  5
30
102
{ACAD_REACTORS
330
2A
102
}
330
2A
100
AcDbVisualStyle
  2
3dWireframe
 70
     5
177
     2
291
     0
 71
     0
176
     1
 72
     2
176
     1
 73
     0
176
     1
 90
        0
176
     1
 40
-0.6
176
     1
 41
-30.0
176
     1
 62
     5
 63
     7
421
 16777215
176
     1
 74
     1
176
     1
 91
        4
176
     1
 64
     7
176
     1
 65
   257
176
     1
 75
     1
176
     1
175
     1
176
     1
 42
1.0
176
     1
 92
        0
176
     1
 66
   257
176
     1
 43
1.0
176
     1
 76
     1
176
     1
 77
     6
176
     1
 78
     2
176
     1
 67
     7
176
     1
 79
     5
176
     1
170
     0
176
     1
171
     0
176
     1
290
     0
176
     1
 93
        1
176
     1
 44
0.0
176
     1
173
     0
176
     1
  0
VISUALSTYLE
  5
32
102
{ACAD_REACTORS
330
2A
102
}
330
2A
100
AcDbVisualStyle
  2
Basic
 70
     7
177
     2
291
     1
 71
     1
176
     1
 72
     0
176
     1
 73
     1
176
     1
 90
        0
176
     1
 40
-0.6
176
     1
 41
-30.0
176
     1
 62
     5
 63
     7
421
 16777215
176
     1
 74
     0
176
     1
 91
        4
176
     1
 64
     7
176
     1
 65
   257
176
     1
 75
     1
176
     1
175
     1
176
     1
 42
1.0
176
     1
 92
        8
176
     1
 66
     7
176
     1
 43
1.0
176
     1
 76
     1
176
     1
 77
     6
176
     1
 78
     2
176
     1
 67
     7
176
     1
 79
     5
176
     1
170
     0
176
     1
171
     0
176
     1
290
     0
176
     1
 93
        1
176
     1
 44
0.0
176
     1
173
     0
176
     1
  0
VISUALSTYLE
  5
36
102
{ACAD_REACTORS
330
2A
102
}
330
2A
100
AcDbVisualStyle
  2
Brighten
 70
    12
177
     2
291
     1
 71
     2
176
     1
 72
     2
176
     1
 73
     0
176
     1
 90
        0
176
     1
 40
-0.6
176
     1
 41
-30.0
176
     1
 62
     5
 63
     7
421
 16777215
176
     1
 74
     1
176
     1
 91
        4
176
     1
 64
     7
176
     1
 65
   257
176
     1
 75
     1
176
     1
175
     1
176
     1
 42
1.0
176
     1
 92
        8
176
     1
 66
     7
176
     1
 43
1.0
176
     1
 76
     1
176
     1
 77
     6
176
     1
 78
     2
176
     1
 67
     7
176
     1
 79
     5
176
     1
170
     0
176
     1
171
     0
176
     1
290
     0
176
     1
 93
        1
176
     1
 44
50.0
176
     1
173
     0
176
     1
  0
VISUALSTYLE
  5
3A
102
{ACAD_REACTORS
330
2A
102
}
330
2A
100
AcDbVisualStyle
  2
ColorChange
 70
    16
177
     2
291
     1
 71
     2
176
     1
 72
     2
176
     1
 73
     3
176
     1
 90
        0
176
     1
 40
-0.6
176
     1
 41
-30.0
176
     1
 62
     5
 63
     8
421
  8421504
176
     1
 74
     1
176
     1
 91
        4
176
     1
 64
     7
176
     1
 65
   257
176
     1
 75
     1
176
     1
175
     1
176
     1
 42
1.0
176
     1
 92
        8
176
     1
 66
     8
424
  8421504
176
     1
 43
1.0
176
     1
 76
     1
176
     1
 77
     6
176
     1
 78
     2
176
     1
 67
     7
176
     1
 79
     5
176
     1
170
     0
176
     1
171
     0
176
     1
290
     0
176
     1
 93
        1
176
     1
 44
0.0
176
     1
173
     0
176
     1
  0
VISUALSTYLE
  5
34
102
{ACAD_REACTORS
330
2A
102
}
330
2A
100
AcDbVisualStyle
  2
Conceptual
 70
     9
177
     2
291
     0
 71
     3
176
     1
 72
     2
176
     1
 73
     0
176
     1
 90
        0
176
     1
 40
-0.6
176
     1
 41
-30.0
176
     1
 62
     5
 63
     7
421
 16777215
176
     1
 74
     2
176
     1
 91
        2
176
     1
 64
     7
176
     1
 65
   257
176
     1
 75
     1
176
     1
175
     1
176
     1
 42
40.0
176
     1
 92
        8
176
     1
 66
     7
176
     1
 43
1.0
176
     1
 76
     1
176
     1
 77
     6
176
     1
 78
     2
176
     1
 67
     7
176
     1
 79
     3
176
     1
170
     0
176
     1
171
     0
176
     1
290
     0
176
     1
 93
        1
176
     1
 44
0.0
176
     1
173
     0
176
     1
  0
VISUALSTYLE
  5
35
102
{ACAD_REACTORS
330
2A
102
}
330
2A
100
AcDbVisualStyle
  2
Dim
 70
    11
177
     2
291
     1
 71
     2
176
     1
 72
     2
176
     1
 73
     0
176
     1
 90
        0
176
     1
 40
-0.6
176
     1
 41
-30.0
176
     1
 62
     5
 63
     7
421
 16777215
176
     1
 74
     1
176
     1
 91
        4
176
     1
 64
     7
176
     1
 65
   257
176
     1
 75
     1
176
     1
175
     1
176
     1
 42
1.0
176
     1
 92
        8
176
     1
 66
     7
176
     1
 43
1.0
176
     1
 76
     1
176
     1
 77
     6
176
     1
 78
     2
176
     1
 67
     7
176
     1
 79
     5
176
     1
170
     0
176
     1
171
     0
176
     1
290
     0
176
     1
 93
        1
176
     1
 44
-50.0
176
     1
173
     0
176
     1
  0
VISUALSTYLE
  5
39
102
{ACAD_REACTORS
330
2A
102
}
330
2A
100
AcDbVisualStyle
  2
Facepattern
 70
    15
177
     2
291
     1
 71
     2
176
     1
 72
     2
176
     1
 73
     0
176
     1
 90
        0
176
     1
 40
-0.6
176
     1
 41
-30.0
176
     1
 62
     5
 63
     7
421
 16777215
176
     1
 74
     1
176
     1
 91
        4
176
     1
 64
     7
176
     1
 65
   257
176
     1
 75
     1
176
     1
175
     1
176
     1
 42
1.0
176
     1
 92
        8
176
     1
 66
     7
176
     1
 43
1.0
176
     1
 76
     1
176
     1
 77
     6
176
     1
 78
     2
176
     1
 67
     7
176
     1
 79
     5
176
     1
170
     0
176
     1
171
     0
176
     1
290
     0
176
     1
 93
        1
176
     1
 44
0.0
176
     1
173
     0
176
     1
  0
VISUALSTYLE
  5
2B
102
{ACAD_REACTORS
330
2A
102
}
330
2A
100
AcDbVisualStyle
  2
Flat
 70
     0
177
     2
291
     1
 71
     2
176
     1
 72
     1
176
     1
 73
     1
176
     1
 90
        2
176
     1
 40
-0.6
176
     1
 41
30.0
176
     1
 62
     5
 63
     7
421
 16777215
176
     1
 74
     0
176
     1
 91
        4
176
     1
 64
     7
176
     1
 65
   257
176
     1
 75
     1
176
     1
175
     1
176
     1
 42
1.0
176
     1
 92
        8
176
     1
 66
     7
176
     1
 43
1.0
176
     1
 76
     1
176
     1
 77
     6
176
     1
 78
     2
176
     1
 67
     7
176
     1
 79
     5
176
     1
170
     0
176
     1
171
     0
176
     1
290
     0
176
     1
 93
       13
176
     1
 44
0.0
176
     1
173
     0
176
     1
  0
VISUALSTYLE
  5
2C
102
{ACAD_REACTORS
330
2A
102
}
330
2A
100
AcDbVisualStyle
  2
FlatWithEdges
 70
     1
177
     2
291
     1
 71
     2
176
     1
 72
     1
176
     1
 73
     1
176
     1
 90
        2
176
     1
 40
-0.6
176
     1
 41
30.0
176
     1
 62
     5
 63
     7
421
 16777215
176
     1
 74
     1
176
     1
 91
        4
176
     1
 64
     7
176
     1
 65
   257
176
     1
 75
     1
176
     1
175
     1
176
     1
 42
1.0
176
     1
 92
        0
176
     1
 66
   257
176
     1
 43
1.0
176
     1
 76
     1
176
     1
 77
     6
176
     1
 78
     2
176
     1
 67
     7
176
     1
 79
     5
176
     1
170
     0
176
     1
171
     0
176
     1
290
     0
176
     1
 93
       13
176
     1
 44
0.0
176
     1
173
     0
176
     1
  0
VISUALSTYLE
  5
2D
102
{ACAD_REACTORS
330
2A
102
}
330
2A
100
AcDbVisualStyle
  2
Gouraud
 70
     2
177
     2
291
     1
 71
     2
176
     1
 72
     2
176
     1
 73
     1
176
     1
 90
        2
176
     1
 40
-0.6
176
     1
 41
30.0
176
     1
 62
     5
 63
     7
421
 16777215
176
     1
 74
     0
176
     1
 91
        4
176
     1
 64
     7
176
     1
 65
   257
176
     1
 75
     1
176
     1
175
     1
176
     1
 42
1.0
176
     1
 92
        0
176
     1
 66
     7
176
     1
 43
1.0
176
     1
 76
     1
176
     1
 77
     6
176
     1
 78
     2
176
     1
 67
     7
176
     1
 79
     5
176
     1
170
     0
176
     1
171
     0
176
     1
290
     0
176
     1
 93
       13
176
     1
 44
0.0
176
     1
173
     0
176
     1
  0
VISUALSTYLE
  5
2E
102
{ACAD_REACTORS
330
2A
102
}
330
2A
100
AcDbVisualStyle
  2
GouraudWithEdges
 70
     3
177
     2
291
     1
 71
     2
176
     1
 72
     2
176
     1
 73
     1
176
     1
 90
        2
176
     1
 40
-0.6
176
     1
 41
30.0
176
     1
 62
     5
 63
     7
421
 16777215
176
     1
 74
     1
176
     1
 91
        4
176
     1
 64
     7
176
     1
 65
   257
176
     1
 75
     1
176
     1
175
     1
176
     1
 42
1.0
176
     1
 92
        0
176
     1
 66
   257
176
     1
 43
1.0
176
     1
 76
     1
176
     1
 77
     6
176
     1
 78
     2
176
     1
 67
     7
176
     1
 79
     5
176
     1
170
     0
176
     1
171
     0
176
     1
290
     0
176
     1
 93
       13
176
     1
 44
0.0
176
     1
173
     0
176
     1
  0
VISUALSTYLE
  5
38
102
{ACAD_REACTORS
330
2A
102
}
330
2A
100
AcDbVisualStyle
  2
Linepattern
 70
    14
177
     2
291
     1
 71
     2
176
     1
 72
     2
176
     1
 73
     0
176
     1
 90
        0
176
     1
 40
-0.6
176
     1
 41
-30.0
176
     1
 62
     5
 63
     7
421
 16777215
176
     1
 74
     1
176
     1
 91
        4
176
     1
 64
     7
176
     1
 65
   257
176
     1
 75
     7
176
     1
175
     7
176
     1
 42
1.0
176
     1
 92
        8
176
     1
 66
     7
176
     1
 43
1.0
176
     1
 76
     1
176
     1
 77
     6
176
     1
 78
     2
176
     1
 67
     7
176
     1
 79
     5
176
     1
170
     0
176
     1
171
     0
176
     1
290
     0
176
     1
 93
        1
176
     1
 44
0.0
176
     1
173
     0
176
     1
  0
VISUALSTYLE
  5
33
102
{ACAD_REACTORS
330
2A
102
}
330
2A
100
AcDbVisualStyle
  2
Realistic
 70
     8
177
     2
291
     0
 71
     2
176
     1
 72
     2
176
     1
 73
     0
176
     1
 90
        0
176
     1
 40
-0.6
176
     1
 41
-30.0
176
     1
 62
     5
 63
     7
421
 16777215
176
     1
 74
     1
176
     1
 91
        0
176
     1
 64
     7
176
     1
 65
   257
176
     1
 75
     1
176
     1
175
     1
176
     1
 42
1.0
176
     1
 92
        8
176
     1
 66
     8
424
  7895160
176
     1
 43
1.0
176
     1
 76
     1
176
     1
 77
     6
176
     1
 78
     2
176
     1
 67
     7
176
     1
 79
     5
176
     1
170
     0
176
     1
171
     0
176
     1
290
     0
176
     1
 93
       13
176
     1
 44
0.0
176
     1
173
     0
176
     1
  0
VISUALSTYLE
  5
37
102
{ACAD_REACTORS
330
2A
102
}
330
2A
100
AcDbVisualStyle
  2
Thicken
 70
    13
177
     2
291
     1
 71
     2
176
     1
 72
     2
176
     1
 73
     0
176
     1
 90
        0
176
     1
 40
-0.6
176
     1
 41
-30.0
176
     1
 62
     5
 63
     7
421
 16777215
176
     1
 74
     1
176
     1
 91
        4
176
     1
 64
     7
176
     1
 65
   257
176
     1
 75
     1
176
     1
175
     1
176
     1
 42
1.0
176
     1
 92
       12
176
     1
 66
     7
176
     1
 43
1.0
176
     1
 76
     1
176
     1
 77
     6
176
     1
 78
     2
176
     1
 67
     7
176
     1
 79
     5
176
     1
170
     0
176
     1
171
     0
176
     1
290
     0
176
     1
 93
        1
176
     1
 44
0.0
176
     1
173
     0
176
     1
  0
ENDSEC
  0
EOF
