  0
SECTION
  2
HEADER
  9
$ACADVER
  1
AC1014
  9
$ACADMAINTVER
 70
     9
  9
$DWGCODEPAGE
  3
ANSI_1252
  9
$INSBASE
 10
0.0
 20
0.0
 30
0.0
  9
$EXTMIN
 10
0.0
 20
0.0
 30
0.0
  9
$EXTMAX
 10
420.0
 20
297.0
 30
0.0
  9
$LIMMIN
 10
0.0
 20
0.0
  9
$LIMMAX
 10
420.0
 20
297.0
  9
$ORTHOMODE
 70
     0
  9
$REGENMODE
 70
     1
  9
$FILLMODE
 70
     1
  9
$QTEXTMODE
 70
     0
  9
$MIRRTEXT
 70
     1
  9
$DRAGMODE
 70
     2
  9
$LTSCALE
 40
1.0
  9
$OSMODE
 70
    37
  9
$ATTMODE
 70
     1
  9
$TEXTSIZE
 40
3.5
  9
$TRACEWID
 40
1.0
  9
$TEXTSTYLE
  7
STANDARD
  9
$CLAYER
  8
0
  9
$CELTYPE
  6
BYLAYER
  9
$CECOLOR
 62
   256
  9
$CELTSCALE
 40
1.0
  9
$DELOBJ
 70
     1
  9
$DISPSILH
 70
     0
  9
$DIMSCALE
 40
1.0
  9
$DIMASZ
 40
4.0
  9
$DIMEXO
 40
0.0
  9
$DIMDLI
 40
3.75
  9
$DIMRND
 40
0.0
  9
$DIMDLE
 40
0.0
  9
$DIMEXE
 40
2.0
  9
$DIMTP
 40
0.0
  9
$DIMTM
 40
0.0
  9
$DIMTXT
 40
3.5
  9
$DIMCEN
 40
2.5
  9
$DIMTSZ
 40
0.0
  9
$DIMTOL
 70
     0
  9
$DIMLIM
 70
     0
  9
$DIMTIH
 70
     1
  9
$DIMTOH
 70
     1
  9
$DIMSE1
 70
     0
  9
$DIMSE2
 70
     0
  9
$DIMTAD
 70
     1
  9
$DIMZIN
 70
     0
  9
$DIMBLK
  1

  9
$DIMASO
 70
     1
  9
$DIMSHO
 70
     1
  9
$DIMPOST
  1

  9
$DIMAPOST
  1

  9
$DIMALT
 70
     0
  9
$DIMALTD
 70
     3
  9
$DIMALTF
 40
0.0393700787
  9
$DIMLFAC
 40
1.0
  9
$DIMTOFL
 70
     1
  9
$DIMTVP
 40
0.0
  9
$DIMTIX
 70
     0
  9
$DIMSOXD
 70
     0
  9
$DIMSAH
 70
     0
  9
$DIMBLK1
  1

  9
$DIMBLK2
  1

  9
$DIMSTYLE
  2
ISO-25
  9
$DIMCLRD
 70
     0
  9
$DIMCLRE
 70
     0
  9
$DIMCLRT
 70
     0
  9
$DIMTFAC
 40
1.0
  9
$DIMGAP
 40
1.524
  9
$DIMJUST
 70
     0
  9
$DIMSD1
 70
     0
  9
$DIMSD2
 70
     0
  9
$DIMTOLJ
 70
     0
  9
$DIMTZIN
 70
     0
  9
$DIMALTZ
 70
     0
  9
$DIMALTTZ
 70
     0
  9
$DIMFIT
 70
     3
  9
$DIMUPT
 70
     0
  9
$DIMUNIT
 70
     2
  9
$DIMDEC
 70
     2
  9
$DIMTDEC
 70
     2
  9
$DIMALTU
 70
     2
  9
$DIMALTTD
 70
     3
  9
$DIMTXSTY
  7
STANDARD
  9
$DIMAUNIT
 70
     0
  9
$LUNITS
 70
     2
  9
$LUPREC
 70
     2
  9
$SKETCHINC
 40
1.0
  9
$FILLETRAD
 40
10.0
  9
$AUNITS
 70
     0
  9
$AUPREC
 70
     2
  9
$MENU
  1
.
  9
$ELEVATION
 40
0.0
  9
$PELEVATION
 40
0.0
  9
$THICKNESS
 40
0.0
  9
$LIMCHECK
 70
     0
  9
$CHAMFERA
 40
10.0
  9
$CHAMFERB
 40
10.0
  9
$CHAMFERC
 40
20.0
  9
$CHAMFERD
 40
0.0
  9
$SKPOLY
 70
     0
  9
$TDCREATE
 40
2456420.516936875
  9
$TDUPDATE
 40
2456420.516937234
  9
$TDINDWG
 40
0.0000000116
  9
$TDUSRTIMER
 40
0.0000000116
  9
$USRTIMER
 70
     1
  9
$ANGBASE
 50
0.0
  9
$ANGDIR
 70
     0
  9
$PDMODE
 70
     0
  9
$PDSIZE
 40
-1.0
  9
$PLINEWID
 40
0.0
  9
$COORDS
 70
     1
  9
$SPLFRAME
 70
     0
  9
$SPLINETYPE
 70
     6
  9
$SPLINESEGS
 70
     8
  9
$ATTDIA
 70
     0
  9
$ATTREQ
 70
     1
  9
$HANDLING
 70
     1
  9
$HANDSEED
  5
141
  9
$SURFTAB1
 70
     6
  9
$SURFTAB2
 70
     6
  9
$SURFTYPE
 70
     6
  9
$SURFU
 70
     6
  9
$SURFV
 70
     6
  9
$UCSNAME
  2

  9
$UCSORG
 10
0.0
 20
0.0
 30
0.0
  9
$UCSXDIR
 10
1.0
 20
0.0
 30
0.0
  9
$UCSYDIR
 10
0.0
 20
1.0
 30
0.0
  9
$PUCSNAME
  2

  9
$PUCSORG
 10
0.0
 20
0.0
 30
0.0
  9
$PUCSXDIR
 10
1.0
 20
0.0
 30
0.0
  9
$PUCSYDIR
 10
0.0
 20
1.0
 30
0.0
  9
$USERI1
 70
     0
  9
$USERI2
 70
     0
  9
$USERI3
 70
     0
  9
$USERI4
 70
     0
  9
$USERI5
 70
     0
  9
$USERR1
 40
0.0
  9
$USERR2
 40
0.0
  9
$USERR3
 40
0.0
  9
$USERR4
 40
0.0
  9
$USERR5
 40
0.0
  9
$WORLDVIEW
 70
     1
  9
$SHADEDGE
 70
     3
  9
$SHADEDIF
 70
    70
  9
$TILEMODE
 70
     1
  9
$MAXACTVP
 70
    64
  9
$PINSBASE
 10
0.0
 20
0.0
 30
0.0
  9
$PLIMCHECK
 70
     0
  9
$PEXTMIN
 10
1.0000000000E+20
 20
1.0000000000E+20
 30
1.0000000000E+20
  9
$PEXTMAX
 10
-1.0000000000E+20
 20
-1.0000000000E+20
 30
-1.0000000000E+20
  9
$PLIMMIN
 10
0.0
 20
0.0
  9
$PLIMMAX
 10
420.0
 20
297.0
  9
$UNITMODE
 70
     0
  9
$VISRETAIN
 70
     1
  9
$PLINEGEN
 70
     0
  9
$PSLTSCALE
 70
     1
  9
$TREEDEPTH
 70
  3020
  9
$PICKSTYLE
 70
     1
  9
$CMLSTYLE
  2
STANDARD
  9
$CMLJUST
 70
     0
  9
$CMLSCALE
 40
20.0
  9
$PROXYGRAPHICS
 70
     1
  9
$MEASUREMENT
 70
     1
  0
ENDSEC
  0
SECTION
  2
CLASSES
  0
CLASS
  1
ACDBDICTIONARYWDFLT
  2
AcDbDictionaryWithDefault
  3
ObjectDBX Classes
 90
        0
280
     0
281
     0
  0
CLASS
  1
VISUALSTYLE
  2
AcDbVisualStyle
  3
ObjectDBX Classes
 90
     4095
280
     0
281
     0
  0
CLASS
  1
MATERIAL
  2
AcDbMaterial
  3
ObjectDBX Classes
 90
     1153
280
     0
281
     0
  0
CLASS
  1
XRECORD
  2
AcDbXrecord
  3
AutoCAD 2000
 90
        0
280
     0
281
     0
  0
CLASS
  1
LWPOLYLINE
  2
AcDbPolyline
  3
AutoCAD 2000
 90
        0
280
     0
281
     1
  0
CLASS
  1
HATCH
  2
AcDbHatch
  3
AutoCAD 2000
 90
        0
280
     0
281
     1
  0
ENDSEC
  0
SECTION
  2
TABLES
  0
TABLE
  2
VPORT
  5
8
330
0
100
AcDbSymbolTable
 70
     1
  0
VPORT
  5
29
330
8
100
AcDbSymbolTableRecord
100
AcDbViewportTableRecord
  2
*ACTIVE
 70
     0
 10
0.0
 20
0.0
 11
1.0
 21
1.0
 12
210.0
 22
148.5
 13
0.0
 23
0.0
 14
10.0
 24
10.0
 15
10.0
 25
10.0
 16
0.0
 26
0.0
 36
1.0
 17
0.0
 27
0.0
 37
0.0
 40
297.0
 41
1.4141414141
 42
50.0
 43
0.0
 44
0.0
 50
0.0
 51
0.0
 71
     0
 72
  2000
 73
     1
 74
     3
 75
     0
 76
     0
 77
     0
 78
     0
  0
ENDTAB
  0
TABLE
  2
LTYPE
  5
5
330
0
100
AcDbSymbolTable
 70
     6
  0
LTYPE
  5
14
330
5
100
AcDbSymbolTableRecord
100
AcDbLinetypeTableRecord
  2
BYBLOCK
 70
     0
  3

 72
    65
 73
     0
 40
0.0
  0
LTYPE
  5
15
330
5
100
AcDbSymbolTableRecord
100
AcDbLinetypeTableRecord
  2
BYLAYER
 70
     0
  3

 72
    65
 73
     0
 40
0.0
  0
LTYPE
  5
16
330
5
100
AcDbSymbolTableRecord
100
AcDbLinetypeTableRecord
  2
CONTINUOUS
 70
     0
  3
Solid line
 72
    65
 73
     0
 40
0.0
  0
LTYPE
  5
3F
330
5
100
AcDbSymbolTableRecord
100
AcDbLinetypeTableRecord
  2
HIDDEN
 70
     0
  3
Hidden __ __ __ __ __ __ __ __ __ __ __ __ __ __
 72
    65
 73
     2
 40
1.905
 49
1.27
 74
     0
 49
-0.635
 74
     0
  0
LTYPE
  5
40
330
5
100
AcDbSymbolTableRecord
100
AcDbLinetypeTableRecord
  2
PHANTOM
 70
     0
  3
Phantom ______  __  __  ______  __  __  ______
 72
    65
 73
     6
 40
12.7
 49
6.35
 74
     0
 49
-1.27
 74
     0
 49
1.27
 74
     0
 49
-1.27
 74
     0
 49
1.27
 74
     0
 49
-1.27
 74
     0
  0
LTYPE
  5
41
330
5
100
AcDbSymbolTableRecord
100
AcDbLinetypeTableRecord
  2
CENTER
 70
     0
  3
Center ____ _ ____ _ ____ _ ____ _ ____ _ ____
 72
    65
 73
     4
 40
10.16
 49
6.35
 74
     0
 49
-1.27
 74
     0
 49
1.27
 74
     0
 49
-1.27
 74
     0
  0
LTYPE
  5
42
330
5
100
AcDbSymbolTableRecord
100
AcDbLinetypeTableRecord
  2
CENTERX2
 70
     0
  3
Center (2x) ________  __  ________  __  _____
 72
    65
 73
     4
 40
20.32
 49
12.7
 74
     0
 49
-2.54
 74
     0
 49
2.54
 74
     0
 49
-2.54
 74
     0
  0
LTYPE
  5
43
330
5
100
AcDbSymbolTableRecord
100
AcDbLinetypeTableRecord
  2
DOT2
 70
     0
  3
Dot (.5x) ........................................
 72
    65
 73
     2
 40
0.635
 49
0.0
 74
     0
 49
-0.635
 74
     0
  0
ENDTAB
  0
TABLE
  2
LAYER
  5
2
330
0
100
AcDbSymbolTable
 70
     2
  0
LAYER
  5
10
330
2
100
AcDbSymbolTableRecord
100
AcDbLayerTableRecord
  2
0
 70
     0
 62
     7
  6
CONTINUOUS
  0
LAYER
  5
44
330
2
100
AcDbSymbolTableRecord
100
AcDbLayerTableRecord
  2
FORMAT
 70
     0
 62
     7
  6
CONTINUOUS
  0
ENDTAB
  0
TABLE
  2
STYLE
  5
3
330
0
100
AcDbSymbolTable
 70
     1
  0
STYLE
  5
11
330
3
100
AcDbSymbolTableRecord
100
AcDbTextStyleTableRecord
  2
STANDARD
 70
     0
 40
0.0
 41
1.0
 50
0.0
 71
     0
 42
3.5
  3
txt
  4

  0
ENDTAB
  0
TABLE
  2
VIEW
  5
6
330
0
100
AcDbSymbolTable
 70
     0
  0
ENDTAB
  0
TABLE
  2
UCS
  5
7
330
0
100
AcDbSymbolTable
 70
     0
  0
ENDTAB
  0
TABLE
  2
APPID
  5
9
330
0
100
AcDbSymbolTable
 70
     1
  0
APPID
  5
12
330
9
100
AcDbSymbolTableRecord
100
AcDbRegAppTableRecord
  2
ACAD
 70
     0
  0
ENDTAB
  0
TABLE
  2
DIMSTYLE
  5
A
330
0
100
AcDbSymbolTable
 70
     1
  0
DIMSTYLE
105
27
330
A
100
AcDbSymbolTableRecord
100
AcDbDimStyleTableRecord
  2
ISO-25
 70
     0
  3

  4

  5

  6

  7

 40
1.0
 41
2.5
 42
0.625
 43
3.75
 44
1.25
 45
0.0
 46
0.0
 47
0.0
 48
0.0
140
2.5
141
2.5
142
0.0
143
0.0393700787
144
1.0
145
0.0
146
1.0
147
0.625
 71
     0
 72
     0
 73
     0
 74
     0
 75
     0
 76
     0
 77
     1
 78
     8
170
     0
171
     3
172
     1
173
     0
174
     0
175
     0
176
     0
177
     0
178
     0
270
     2
271
     2
272
     2
273
     2
274
     3
340
11
275
     0
280
     0
281
     0
282
     0
283
     0
284
     8
285
     0
286
     0
287
     3
288
     0
  0
ENDTAB
  0
TABLE
  2
BLOCK_RECORD
  5
1
330
0
100
AcDbSymbolTable
 70
     1
  0
BLOCK_RECORD
  5
1F
330
1
100
AcDbSymbolTableRecord
100
AcDbBlockTableRecord
  2
*MODEL_SPACE
  0
BLOCK_RECORD
  5
1B
330
1
100
AcDbSymbolTableRecord
100
AcDbBlockTableRecord
  2
*PAPER_SPACE
  0
BLOCK_RECORD
  5
23
330
1
100
AcDbSymbolTableRecord
100
AcDbBlockTableRecord
  2
*PAPER_SPACE0
  0
ENDTAB
  0
ENDSEC
  0
SECTION
  2
BLOCKS
  0
BLOCK
  5
20
330
1F
100
AcDbEntity
  8
0
100
AcDbBlockBegin
  2
*MODEL_SPACE
 70
     0
 10
0.0
 20
0.0
 30
0.0
  3
*MODEL_SPACE
  1

  0
ENDBLK
  5
21
330
1F
100
AcDbEntity
  8
0
100
AcDbBlockEnd
  0
BLOCK
  5
1C
330
1B
100
AcDbEntity
 67
     1
  8
0
100
AcDbBlockBegin
  2
*PAPER_SPACE
 70
     0
 10
0.0
 20
0.0
 30
0.0
  3
*PAPER_SPACE
  1

  0
ENDBLK
  5
1D
330
1B
100
AcDbEntity
 67
     1
  8
0
100
AcDbBlockEnd
  0
BLOCK
  5
24
330
23
100
AcDbEntity
  8
0
100
AcDbBlockBegin
  2
*PAPER_SPACE0
 70
     0
 10
0.0
 20
0.0
 30
0.0
  3
*PAPER_SPACE0
  1

  0
ENDBLK
  5
25
330
23
100
AcDbEntity
  8
0
100
AcDbBlockEnd
  0
ENDSEC
  0
SECTION
  2
ENTITIES
  0
LINE
  5
45
330
1F
100
AcDbEntity
  8
0
  6
CONTINUOUS
 62
     7
100
AcDbLine
 10
-435.5921565591
 20
473.071004569
 30
0.0
 11
-452.5921565591
 21
473.071004569
 31
0.0
  0
LINE
  5
46
330
1F
100
AcDbEntity
  8
0
  6
CONTINUOUS
 62
     7
100
AcDbLine
 10
-435.5921565591
 20
411.071004569
 30
0.0
 11
-348.5921565591
 21
411.071004569
 31
0.0
  0
LINE
  5
47
330
1F
100
AcDbEntity
  8
0
  6
CONTINUOUS
 62
     7
100
AcDbLine
 10
-348.5921565591
 20
471.071004569
 30
0.0
 11
-429.0921565591
 21
471.071004569
 31
0.0
  0
LINE
  5
48
330
1F
100
AcDbEntity
  8
0
  6
CONTINUOUS
 62
     7
100
AcDbLine
 10
-434.0921565591
 20
471.071004569
 30
0.0
 11
-435.5921565591
 21
471.071004569
 31
0.0
  0
LINE
  5
49
330
1F
100
AcDbEntity
  8
0
  6
CONTINUOUS
 62
     7
100
AcDbLine
 10
-38.5921565591
 20
473.071004569
 30
0.0
 11
-55.5921565591
 21
473.071004569
 31
0.0
  0
LINE
  5
4A
330
1F
100
AcDbEntity
  8
0
  6
CONTINUOUS
 62
     7
100
AcDbLine
 10
-55.5921565591
 20
471.071004569
 30
0.0
 11
-57.0921565591
 21
471.071004569
 31
0.0
  0
LINE
  5
4B
330
1F
100
AcDbEntity
  8
0
  6
CONTINUOUS
 62
     7
100
AcDbLine
 10
-62.0921565591
 20
471.071004569
 30
0.0
 11
-142.5921565591
 21
471.071004569
 31
0.0
  0
LINE
  5
4C
330
1F
100
AcDbEntity
  8
0
  6
CONTINUOUS
 62
     7
100
AcDbLine
 10
-142.5921565591
 20
411.071004569
 30
0.0
 11
-55.5921565591
 21
411.071004569
 31
0.0
  0
SPLINE
  5
4D
330
1F
100
AcDbEntity
  8
0
  6
CONTINUOUS
 62
     7
100
AcDbSpline
210
0.0
220
0.0
230
1.0
 70
     8
 71
     3
 72
    23
 73
    19
 74
     0
 42
0.00000001
 43
0.00000001
 12
1.0
 22
0.0
 32
0.0
 13
1.0
 23
0.0
 33
0.0
 40
0.0
 40
0.0
 40
0.0
 40
0.0
 40
0.0356562371046558
 40
0.1034067808160129
 40
0.1711575089404011
 40
0.238907771540444
 40
0.306657657989898
 40
0.3744072562263416
 40
0.442156653062298
 40
0.509905934509893
 40
0.57765518609932
 40
0.6454044748110032
 40
0.713153876024284
 40
0.7809034755372122
 40
0.8486533598203042
 40
0.9164036163375615
 40
0.9805894137540555
 40
1.0
 40
1.0
 40
1.0
 40
1.0
 10
-371.8559865182054
 20
813.4705390242045
 30
0.0
 10
-368.8719172807318
 20
813.4357202375453
 30
0.0
 10
-360.2178074072323
 20
813.3347421497626
 30
0.0
 10
-345.8626640310491
 20
813.1884947271554
 30
0.0
 10
-328.7840594741356
 20
813.0408503836895
 30
0.0
 10
-311.6767177027395
 20
812.9210345362563
 30
0.0
 10
-294.5472443994691
 20
812.8286179925515
 30
0.0
 10
-277.4012145358417
 20
812.7637572252555
 30
0.0
 10
-260.2444704579352
 20
812.7264400053575
 30
0.0
 10
-243.0827884650341
 20
812.7166878348951
 30
0.0
 10
-225.9219660469712
 20
812.7345010513287
 30
0.0
 10
-208.7677996560398
 20
812.7798759238534
 30
0.0
 10
-191.6260720766344
 20
812.852791099268
 30
0.0
 10
-174.5026073180436
 20
812.9532447213721
 30
0.0
 10
-157.4030451381666
 20
813.0811195995824
 30
0.0
 10
-140.6330663024905
 20
813.2339569698156
 30
0.0
 10
-127.9474498993327
 20
813.3689893842786
 30
0.0
 10
-120.9525102480682
 20
813.4514030565532
 30
0.0
 10
-119.3283265999536
 20
813.4705390242045
 30
0.0
  0
SPLINE
  5
4E
330
1F
100
AcDbEntity
  8
0
  6
CONTINUOUS
 62
     7
100
AcDbSpline
210
0.0
220
0.0
230
1.0
 70
     8
 71
     3
 72
    24
 73
    20
 74
     0
 42
0.00000001
 43
0.00000001
 12
1.0
 22
0.0
 32
0.0
 13
1.0
 23
0.0
 33
0.0
 40
0.0
 40
0.0
 40
0.0
 40
0.0
 40
0.0477007622051843
 40
0.1076425785817683
 40
0.1675144651064416
 40
0.2275366095367477
 40
0.287572597214084
 40
0.3471284024211379
 40
0.4063512327667391
 40
0.4661342320451164
 40
0.5263363717487746
 40
0.5868006538260766
 40
0.6473374262029766
 40
0.7077330230816952
 40
0.7678263765877457
 40
0.8272646333898314
 40
0.8866667710396634
 40
0.9468538965766425
 40
1.0
 40
1.0
 40
1.0
 40
1.0
 10
-406.6717357692816
 20
831.9511526338588
 30
0.0
 10
-407.7937932196637
 20
831.3524920276561
 30
0.0
 10
-410.325852492773
 20
830.001541469051
 30
0.0
 10
-414.0764570374534
 20
827.5726983557875
 30
0.0
 10
-417.9414448856306
 20
824.7382570446782
 30
0.0
 10
-421.6089310134051
 20
821.6462265864398
 30
0.0
 10
-425.0611938557133
 20
818.3265999062489
 30
0.0
 10
-428.2683470345102
 20
814.7954709902154
 30
0.0
 10
-431.2333983033204
 20
811.0656451866478
 30
0.0
 10
-433.961976915123
 20
807.1352623835847
 30
0.0
 10
-436.4498581751194
 20
803.0057500723171
 30
0.0
 10
-438.6770838291225
 20
798.7029203260897
 30
0.0
 10
-440.6251524315173
 20
794.2562284354145
 30
0.0
 10
-442.2785290870997
 20
789.697159097406
 30
0.0
 10
-443.6231823895426
 20
785.0630649749141
 30
0.0
 10
-444.656096133645
 20
780.371650921172
 30
0.0
 10
-445.3808731339302
 20
775.6172977853504
 30
0.0
 10
-445.8152663373563
 20
770.9906069411431
 30
0.0
 10
-445.8517397345423
 20
767.9410064857168
 30
0.0
 10
-445.8688434468148
 20
766.5109370992642
 30
0.0
  0
SPLINE
  5
4F
330
1F
100
AcDbEntity
  8
0
  6
CONTINUOUS
 62
     7
100
AcDbSpline
210
0.0
220
0.0
230
1.0
 70
     8
 71
     3
 72
    25
 73
    21
 74
     0
 42
0.00000001
 43
0.00000001
 12
1.0
 22
0.0
 32
0.0
 13
1.0
 23
0.0
 33
0.0
 40
0.0
 40
0.0
 40
0.0
 40
0.0
 40
0.024177067332998
 40
0.0848158830068751
 40
0.1455139258643506
 40
0.2062767841777955
 40
0.2666727307323205
 40
0.3271052203575839
 40
0.387297316196198
 40
0.4475319747016791
 40
0.5081642089077474
 40
0.5685648375677439
 40
0.6288683012917369
 40
0.6892965586569244
 40
0.749748265648744
 40
0.809726211679668
 40
0.8692893201227266
 40
0.929404132495995
 40
0.9899313095988553
 40
1.0
 40
1.0
 40
1.0
 40
1.0
 10
-45.3342805486254
 20
766.5065569167111
 30
0.0
 10
-45.32495939296027
 20
767.1532705824397
 30
0.0
 10
-45.29225972606127
 20
769.4220151682039
 30
0.0
 10
-45.56315690430227
 20
773.3064276337358
 30
0.0
 10
-46.14112505254167
 20
778.1356127571132
 30
0.0
 10
-47.04770868898361
 20
782.905201030989
 30
0.0
 10
-48.25010819208065
 20
787.5953682364827
 30
0.0
 10
-49.74830648392631
 20
792.1793767683062
 30
0.0
 10
-51.53935596406251
 20
796.6473686498899
 30
0.0
 10
-53.61856697819626
 20
800.9893963665978
 30
0.0
 10
-55.97516480066309
 20
805.1890588960522
 30
0.0
 10
-58.60230428791577
 20
809.2228136798327
 30
0.0
 10
-61.48196141502288
 20
813.0694984214821
 30
0.0
 10
-64.60686452593723
 20
816.7181366329278
 30
0.0
 10
-67.95768316145131
 20
820.1468159989373
 30
0.0
 10
-71.5157495534564
 20
823.3237287540942
 30
0.0
 10
-75.26391776882896
 20
826.2598976512179
 30
0.0
 10
-79.22017146192212
 20
828.9287668458862
 30
0.0
 10
-82.17461819482152
 20
830.7442881375403
 30
0.0
 10
-83.84730224798031
 20
831.581493781945
 30
0.0
 10
-84.08586774006433
 20
831.7008997009264
 30
0.0
  0
SPLINE
  5
50
330
1F
100
AcDbEntity
  8
0
  6
CONTINUOUS
 62
     7
100
AcDbSpline
210
0.0
220
0.0
230
1.0
 70
     8
 71
     3
 72
    13
 73
     9
 74
     0
 42
0.00000001
 43
0.00000001
 12
1.0
 22
0.0
 32
0.0
 13
1.0
 23
0.0
 33
0.0
 40
0.0
 40
0.0
 40
0.0
 40
0.0
 40
0.0848035969433861
 40
0.2964185900224008
 40
0.5095501938718513
 40
0.7214235045380122
 40
0.9326509995379069
 40
1.0
 40
1.0
 40
1.0
 40
1.0
 10
-389.5560741138501
 20
810.2270959730273
 30
0.0
 10
-389.0858880955782
 20
810.421363830136
 30
0.0
 10
-387.4424215256705
 20
811.1003987575014
 30
0.0
 10
-384.4928614789143
 20
811.9569783851632
 30
0.0
 10
-380.747155293766
 20
812.8019169672913
 30
0.0
 10
-376.9308286225312
 20
813.2974841989684
 30
0.0
 10
-373.9604835233707
 20
813.5096524313732
 30
0.0
 10
-372.2675290205169
 20
813.4507714985007
 30
0.0
 10
-371.8582382316226
 20
813.4365363708431
 30
0.0
  0
SPLINE
  5
51
330
1F
100
AcDbEntity
  8
0
  6
CONTINUOUS
 62
     7
100
AcDbSpline
210
0.0
220
0.0
230
1.0
 70
     8
 71
     3
 72
    13
 73
     9
 74
     0
 42
0.00000001
 43
0.00000001
 12
1.0
 22
0.0
 32
0.0
 13
1.0
 23
0.0
 33
0.0
 40
0.0
 40
0.0
 40
0.0
 40
0.0
 40
0.0231728203697604
 40
0.2342892618465832
 40
0.4456888329946544
 40
0.6554301198536948
 40
0.8636001347736408
 40
1.0
 40
1.0
 40
1.0
 40
1.0
 10
-119.3236670564589
 20
813.4545941437625
 30
0.0
 10
-119.1827809628312
 20
813.4611627472993
 30
0.0
 10
-117.7583493073926
 20
813.5275747441735
 30
0.0
 10
-115.0531530565545
 20
813.3595653975842
 30
0.0
 10
-111.2481098819559
 20
812.9375666997931
 30
0.0
 10
-107.5256035541358
 20
812.1721129839736
 30
0.0
 10
-104.3070602234049
 20
811.2716118159161
 30
0.0
 10
-102.3832171421756
 20
810.5079594119146
 30
0.0
 10
-101.6216533720489
 20
810.2056634452986
 30
0.0
  0
SPLINE
  5
52
330
1F
100
AcDbEntity
  8
0
  6
CONTINUOUS
 62
     7
100
AcDbSpline
210
0.0
220
0.0
230
1.0
 70
     8
 71
     3
 72
    23
 73
    19
 74
     0
 42
0.00000001
 43
0.00000001
 12
1.0
 22
0.0
 32
0.0
 13
1.0
 23
0.0
 33
0.0
 40
0.0
 40
0.0
 40
0.0
 40
0.0
 40
0.0356557419386557
 40
0.1034033643400582
 40
0.1711521139096402
 40
0.2389013599559775
 40
0.306651012397388
 40
0.3744009827298777
 40
0.4421511836792762
 40
0.5099015288756057
 40
0.5776519325341939
 40
0.6454022907352616
 40
0.7131525077773967
 40
0.7809024975783214
 40
0.8486521732809079
 40
0.9164014469311674
 40
0.9805846552537542
 40
1.0
 40
1.0
 40
1.0
 40
1.0
 10
-119.6491683723829
 20
840.3686255836062
 30
0.0
 10
-122.6255252401827
 20
840.3338967848098
 30
0.0
 10
-131.2571031256359
 20
840.2331816001079
 30
0.0
 10
-145.5750525669893
 20
840.0873126411149
 30
0.0
 10
-162.6096093514827
 20
839.9400478051338
 30
0.0
 10
-179.6732011041146
 20
839.8205365318668
 30
0.0
 10
-196.7591779227728
 20
839.7283525450067
 30
0.0
 10
-213.8619065508519
 20
839.6636533850167
 30
0.0
 10
-230.9754860791747
 20
839.6264279345489
 30
0.0
 10
-248.0940821180219
 20
839.6166983157729
 30
0.0
 10
-265.2118392155556
 20
839.6344651442854
 30
0.0
 10
-282.3229030209268
 20
839.6797245822879
 30
0.0
 10
-299.421432828034
 20
839.7524548180014
 30
0.0
 10
-316.5015464017824
 20
839.8526530912835
 30
0.0
 10
-333.5575459669059
 20
839.9802011903181
 30
0.0
 10
-350.2843999735733
 20
840.1326444452794
 30
0.0
 10
-362.9376075406149
 20
840.2673305764367
 30
0.0
 10
-369.914740583354
 20
840.3495342034431
 30
0.0
 10
-371.5351447457761
 20
840.3686255836062
 30
0.0
  0
SPLINE
  5
53
330
1F
100
AcDbEntity
  8
0
  6
CONTINUOUS
 62
     7
100
AcDbSpline
210
0.0
220
0.0
230
1.0
 70
     8
 71
     3
 72
     9
 73
     5
 74
     0
 42
0.00000001
 43
0.00000001
 12
1.0
 22
0.0
 32
0.0
 13
1.0
 23
0.0
 33
0.0
 40
0.0
 40
0.0
 40
0.0
 40
0.0
 40
0.589536332091194
 40
0.9999999999999999
 40
0.9999999999999999
 40
0.9999999999999999
 40
0.9999999999999999
 10
-99.38232463940457
 20
837.762900457246
 30
0.0
 10
-100.0274604143684
 20
837.9558496447477
 30
0.0
 10
-101.1217708747185
 20
838.2831393756744
 30
0.0
 10
-102.2442063207236
 20
838.5004466608436
 30
0.0
 10
-102.7049252908817
 20
838.5896434061776
 30
0.0
  0
SPLINE
  5
54
330
1F
100
AcDbEntity
  8
0
  6
CONTINUOUS
 62
     7
100
AcDbSpline
210
0.0
220
0.0
230
1.0
 70
     8
 71
     3
 72
    11
 73
     7
 74
     0
 42
0.00000001
 43
0.00000001
 12
1.0
 22
0.0
 32
0.0
 13
1.0
 23
0.0
 33
0.0
 40
0.0
 40
0.0
 40
0.0
 40
0.0
 40
0.142761468124574
 40
0.4405039718281564
 40
0.7423747084734282
 40
1.0
 40
1.0
 40
1.0
 40
1.0
 10
-103.756597507912
 20
838.8080988776039
 30
0.0
 10
-104.4995847949404
 20
838.9696537389528
 30
0.0
 10
-106.7921421302872
 20
839.4681464977286
 30
0.0
 10
-110.7213967047344
 20
839.9743382722087
 30
0.0
 10
-115.2811082371307
 20
840.3569646534269
 30
0.0
 10
-118.2700733866763
 20
840.3507606691085
 30
0.0
 10
-119.6463709459825
 20
840.3479039852568
 30
0.0
  0
SPLINE
  5
55
330
1F
100
AcDbEntity
  8
0
  6
CONTINUOUS
 62
     7
100
AcDbSpline
210
0.0
220
0.0
230
1.0
 70
     8
 71
     3
 72
    12
 73
     8
 74
     0
 42
0.00000001
 43
0.00000001
 12
1.0
 22
0.0
 32
0.0
 13
1.0
 23
0.0
 33
0.0
 40
0.0
 40
0.0
 40
0.0
 40
0.0
 40
0.0857692668581887
 40
0.3176184220413754
 40
0.5496202068112076
 40
0.7818379770750383
 40
1.0
 40
1.0
 40
1.0
 40
1.0
 10
-371.5339485413523
 20
840.334301321939
 30
0.0
 10
-372.1319484229504
 20
840.3509817514591
 30
0.0
 10
-374.3464453602757
 20
840.4127522655051
 30
0.0
 10
-378.1748743501147
 20
840.1950063978853
 30
0.0
 10
-382.9924259648652
 20
839.6745693182006
 30
0.0
 10
-387.6742003873827
 20
838.8632831956304
 30
0.0
 10
-390.7035185519201
 20
838.0764310587798
 30
0.0
 10
-392.1709071622741
 20
837.6952832885771
 30
0.0
  0
SPLINE
  5
56
330
1F
100
AcDbEntity
  8
0
  6
CONTINUOUS
 62
     7
100
AcDbSpline
210
0.0
220
0.0
230
1.0
 70
     8
 71
     3
 72
    23
 73
    19
 74
     0
 42
0.00000001
 43
0.00000001
 12
1.0
 22
0.0
 32
0.0
 13
1.0
 23
0.0
 33
0.0
 40
0.0
 40
0.0
 40
0.0
 40
0.0
 40
0.0230413655270727
 40
0.0914679576602883
 40
0.1593219946336386
 40
0.227945375263028
 40
0.296848004876562
 40
0.3650319449144627
 40
0.4334409773022264
 40
0.5021977576272816
 40
0.570866422784355
 40
0.6391664587225016
 40
0.7073115571607879
 40
0.7756297738919932
 40
0.8443253946741553
 40
0.9125453704973551
 40
0.9806136879358466
 40
1.0
 40
1.0
 40
1.0
 40
1.0
 10
-101.480988451473
 20
810.1655595611354
 30
0.0
 10
-101.0799079647731
 20
810.0175028640235
 30
0.0
 10
-99.48772746085602
 20
809.4297580236903
 30
0.0
 10
-96.84100536400803
 20
808.1161912844842
 30
0.0
 10
-93.56164338069931
 20
806.219688592446
 30
0.0
 10
-90.45156359748441
 20
804.0366965982975
 30
0.0
 10
-87.52291165180543
 20
801.6093255049178
 30
0.0
 10
-84.81137004842371
 20
798.9462189189898
 30
0.0
 10
-82.32814494008434
 20
796.0648303897943
 30
0.0
 10
-80.07995303703625
 20
792.9771117278126
 30
0.0
 10
-78.09112375405499
 20
789.709645550919
 30
0.0
 10
-76.37484641805159
 20
786.2914804736735
 30
0.0
 10
-74.94051302354052
 20
782.7421666227689
 30
0.0
 10
-73.7980685383525
 20
779.0683472695579
 30
0.0
 10
-72.94302823252511
 20
775.3021815383992
 30
0.0
 10
-72.41608263627083
 20
771.4730176171396
 30
0.0
 10
-72.18053485852005
 20
768.5346614368423
 30
0.0
 10
-72.22100552479868
 20
766.8778558417406
 30
0.0
 10
-72.22997677046494
 20
766.5105871164719
 30
0.0
  0
SPLINE
  5
57
330
1F
100
AcDbEntity
  8
0
  6
CONTINUOUS
 62
     7
100
AcDbSpline
210
0.0
220
0.0
230
1.0
 70
     8
 71
     3
 72
    23
 73
    19
 74
     0
 42
0.00000001
 43
0.00000001
 12
1.0
 22
0.0
 32
0.0
 13
1.0
 23
0.0
 33
0.0
 40
0.0
 40
0.0
 40
0.0
 40
0.0
 40
0.0061326960161858
 40
0.0739239536127806
 40
0.1418326106418684
 40
0.2093576744081835
 40
0.2762874314638704
 40
0.3440480303890602
 40
0.4126421696005703
 40
0.481625018022332
 40
0.5504858437906474
 40
0.6186527447908589
 40
0.6860169972373678
 40
0.7538118063254033
 40
0.8224080755916028
 40
0.8909769486550172
 40
0.9592146629312005
 40
0.9999999999999999
 40
0.9999999999999999
 40
0.9999999999999999
 40
0.9999999999999999
 10
-418.972663821294
 20
766.512735329399
 30
0.0
 10
-418.9767515897463
 20
766.6292128862997
 30
0.0
 10
-419.0260258411764
 20
768.0332416349152
 30
0.0
 10
-418.8327116312277
 20
770.7214840805468
 30
0.0
 10
-418.3753705050971
 20
774.5380619840365
 30
0.0
 10
-417.5907268694084
 20
778.2771499440776
 30
0.0
 10
-416.5130850190935
 20
781.9248001379489
 30
0.0
 10
-415.1409713068753
 20
785.4831378714846
 30
0.0
 10
-413.4778314738675
 20
788.9460917003155
 30
0.0
 10
-411.5371547109206
 20
792.2741432239396
 30
0.0
 10
-409.3431678777115
 20
795.4201518566894
 30
0.0
 10
-406.9229255579738
 20
798.3463341280723
 30
0.0
 10
-404.2820143930741
 20
801.0374429958016
 30
0.0
 10
-401.4207531404658
 20
803.5045508014437
 30
0.0
 10
-398.3504710527274
 20
805.7454462316186
 30
0.0
 10
-395.091533005939
 20
807.7157434630942
 30
0.0
 10
-392.1550544859361
 20
809.2247373486737
 30
0.0
 10
-390.2636465778021
 20
809.9542038153124
 30
0.0
 10
-389.5560741138492
 20
810.2270959730278
 30
0.0
  0
LINE
  5
58
330
1F
100
AcDbEntity
  8
0
  6
CONTINUOUS
 62
     7
100
AcDbLine
 10
-45.2983733948
 20
567.2689513405
 30
0.0
 11
-45.2983733948
 21
766.5078909588
 31
0.0
  0
LINE
  5
59
330
1F
100
AcDbEntity
  8
0
  6
CONTINUOUS
 62
     7
100
AcDbLine
 10
-445.8859397234
 20
766.5078909588
 30
0.0
 11
-445.8859397234
 21
567.2689513405
 31
0.0
  0
SPLINE
  5
5A
330
1F
100
AcDbEntity
  8
0
  6
CONTINUOUS
 62
     7
100
AcDbSpline
210
0.0
220
0.0
230
1.0
 70
     8
 71
     3
 72
    23
 73
    19
 74
     0
 42
0.00000001
 43
0.00000001
 12
1.0
 22
0.0
 32
0.0
 13
1.0
 23
0.0
 33
0.0
 40
0.0
 40
0.0
 40
0.0
 40
0.0
 40
0.0356562371046558
 40
0.1034067808160067
 40
0.1711575089403756
 40
0.2389077715404219
 40
0.3066576579898893
 40
0.3744072562263429
 40
0.4421566530622995
 40
0.5099059345098685
 40
0.5776551860993219
 40
0.6454044748109857
 40
0.7131538760242995
 40
0.7809034755371952
 40
0.8486533598203135
 40
0.9164036163375907
 40
0.9805894137540717
 40
1.0
 40
1.0
 40
1.0
 40
1.0
 10
-371.8559865182046
 20
491.6000320707595
 30
0.0
 10
-368.871917280731
 20
491.5652132841003
 30
0.0
 10
-360.217807407232
 20
491.4642351963178
 30
0.0
 10
-345.8626640310512
 20
491.3179877737106
 30
0.0
 10
-328.7840594741396
 20
491.1703434302448
 30
0.0
 10
-311.6767177027436
 20
491.0505275828112
 30
0.0
 10
-294.547244399471
 20
490.9581110391065
 30
0.0
 10
-277.4012145358417
 20
490.8932502718106
 30
0.0
 10
-260.2444704579366
 20
490.8559330519125
 30
0.0
 10
-243.0827884650355
 20
490.8461808814502
 30
0.0
 10
-225.9219660469742
 20
490.8639940978836
 30
0.0
 10
-208.7677996560396
 20
490.9093689704083
 30
0.0
 10
-191.6260720766357
 20
490.9822841458231
 30
0.0
 10
-174.5026073180428
 20
491.082737767927
 30
0.0
 10
-157.4030451381646
 20
491.2106126461373
 30
0.0
 10
-140.6330663024858
 20
491.3634500163708
 30
0.0
 10
-127.947449899329
 20
491.4984824308335
 30
0.0
 10
-120.9525102480669
 20
491.5808961031082
 30
0.0
 10
-119.3283265999536
 20
491.6000320707595
 30
0.0
  0
SPLINE
  5
5B
330
1F
100
AcDbEntity
  8
0
  6
CONTINUOUS
 62
     7
100
AcDbSpline
210
0.0
220
0.0
230
1.0
 70
     8
 71
     3
 72
    22
 73
    18
 74
     0
 42
0.00000001
 43
0.00000001
 12
1.0
 22
0.0
 32
0.0
 13
1.0
 23
0.0
 33
0.0
 40
0.0
 40
0.0
 40
0.0
 40
0.0
 40
0.023293138193195
 40
0.0970642655924223
 40
0.1708217630865868
 40
0.2441134639369901
 40
0.317845197232036
 40
0.3917929931406833
 40
0.4653465986763041
 40
0.538435697601486
 40
0.6119663545983406
 40
0.6859260959052635
 40
0.759647865804494
 40
0.8326340125531483
 40
0.9061167693417921
 40
0.9799308741563554
 40
1.0
 40
1.0
 40
1.0
 40
1.0
 10
-429.0829014220885
 20
519.6070730216273
 30
0.0
 10
-428.7692441160762
 20
519.201329506214
 30
0.0
 10
-427.4622104393228
 20
517.5105656419448
 30
0.0
 10
-424.9168902410419
 20
514.7370132860478
 30
0.0
 10
-421.4639563821715
 20
511.3195387185951
 30
0.0
 10
-417.7831456538618
 20
508.1496878945266
 30
0.0
 10
-413.910702902591
 20
505.2161333994927
 30
0.0
 10
-409.8535214093621
 20
502.5368767211511
 30
0.0
 10
-405.6434975084803
 20
500.1377882360296
 30
0.0
 10
-401.2958952088349
 20
498.0248814493636
 30
0.0
 10
-396.8155592561899
 20
496.1928418648588
 30
0.0
 10
-392.2149880475725
 20
494.6491781030873
 30
0.0
 10
-387.5359296009012
 20
493.4156703067683
 30
0.0
 10
-382.7977624737885
 20
492.48852009794
 30
0.0
 10
-378.0091368732661
 20
491.8939342350177
 30
0.0
 10
-374.3490691520262
 20
491.6098572307265
 30
0.0
 10
-372.2934125473865
 20
491.6283300323955
 30
0.0
 10
-371.8539812368042
 20
491.6322789056796
 30
0.0
  0
SPLINE
  5
5C
330
1F
100
AcDbEntity
  8
0
  6
CONTINUOUS
 62
     7
100
AcDbSpline
210
0.0
220
0.0
230
1.0
 70
     8
 71
     3
 72
    22
 73
    18
 74
     0
 42
0.00000001
 43
0.00000001
 12
1.0
 22
0.0
 32
0.0
 13
1.0
 23
0.0
 33
0.0
 40
0.0
 40
0.0
 40
0.0
 40
0.0
 40
0.0263024920025505
 40
0.1000455262327679
 40
0.1739481191435802
 40
0.2478516924741055
 40
0.3210295144388857
 40
0.3944721797671519
 40
0.4676717537444163
 40
0.5409531819727407
 40
0.6147749015292007
 40
0.6883318596611565
 40
0.7618239982400079
 40
0.8355210861619469
 40
0.9092082721968746
 40
0.9825764483357352
 40
1.0
 40
1.0
 40
1.0
 40
1.0
 10
-119.3297926351648
 20
491.6371149175986
 30
0.0
 10
-118.7539736928246
 20
491.6341995465703
 30
0.0
 10
-116.5637588228557
 20
491.6231104897364
 30
0.0
 10
-112.7620568511886
 20
491.9314300197394
 30
0.0
 10
-107.9503657727975
 20
492.5589701796042
 30
0.0
 10
-103.2021544600885
 20
493.5197807655174
 30
0.0
 10
-98.53464894727281
 20
494.7786180125329
 30
0.0
 10
-93.97115063988349
 20
496.3341003260874
 30
0.0
 10
-89.5153006672971
 20
498.1861979941807
 30
0.0
 10
-85.1802671864972
 20
500.3291021630748
 30
0.0
 10
-80.98333904049493
 20
502.7515965888754
 30
0.0
 10
-76.94709606882228
 20
505.4463291624243
 30
0.0
 10
-73.09435194446975
 20
508.3960643211533
 30
0.0
 10
-69.42986151187563
 20
511.5868158421841
 30
0.0
 10
-65.99921176747809
 20
515.0228480015162
 30
0.0
 10
-63.55869360486071
 20
517.702278656517
 30
0.0
 10
-62.34205559461265
 20
519.2877147395168
 30
0.0
 10
-62.10857446432475
 20
519.5919707347592
 30
0.0
  0
LINE
  5
5D
330
1F
100
AcDbEntity
  8
0
  6
CONTINUOUS
 62
     7
100
AcDbLine
 10
-418.9859397234
 20
567.2689513405
 30
0.0
 11
-418.9859397234
 21
766.5078909588
 31
0.0
  0
LINE
  5
5E
330
1F
100
AcDbEntity
  8
0
  6
CONTINUOUS
 62
     7
100
AcDbLine
 10
-72.1983733948
 20
766.5078909588
 30
0.0
 11
-72.1983733948
 21
567.2689513405
 31
0.0
  0
SPLINE
  5
5F
330
1F
100
AcDbEntity
  8
0
  6
CONTINUOUS
 62
     7
100
AcDbSpline
210
0.0
220
0.0
230
1.0
 70
     8
 71
     3
 72
    17
 73
    13
 74
     0
 42
0.00000001
 43
0.00000001
 12
1.0
 22
0.0
 32
0.0
 13
1.0
 23
0.0
 33
0.0
 40
0.0
 40
0.0
 40
0.0
 40
0.0
 40
0.0004253163416003
 40
0.1142203813083579
 40
0.2271094952469064
 40
0.3399903445700158
 40
0.4539034811556311
 40
0.5680276531356051
 40
0.681227937156828
 40
0.7940984006264844
 40
0.9078127805707817
 40
1.0
 40
1.0
 40
1.0
 40
1.0
 10
-57.05946455995073
 20
526.617362622903
 30
0.0
 10
-57.0560557050151
 20
526.6223963803238
 30
0.0
 10
-56.14059426493301
 20
527.9742317926355
 30
0.0
 10
-54.55732718350206
 20
530.8178220751132
 30
0.0
 10
-52.34867857575723
 20
535.1418720998884
 30
0.0
 10
-50.45067968865249
 20
539.6183990254866
 30
0.0
 10
-48.82375902950789
 20
544.2167034926051
 30
0.0
 10
-47.49418081434878
 20
548.9140375554674
 30
0.0
 10
-46.47171381154141
 20
553.6710490243706
 30
0.0
 10
-45.76475085134146
 20
558.4752772278243
 30
0.0
 10
-45.35676565491456
 20
563.0134333042367
 30
0.0
 10
-45.33362793529794
 20
565.951346744505
 30
0.0
 10
-45.32326860811506
 20
567.2667229815333
 30
0.0
  0
SPLINE
  5
60
330
1F
100
AcDbEntity
  8
0
  6
CONTINUOUS
 62
     7
100
AcDbSpline
210
0.0
220
0.0
230
1.0
 70
     8
 71
     3
 72
    17
 73
    13
 74
     0
 42
0.00000001
 43
0.00000001
 12
1.0
 22
0.0
 32
0.0
 13
1.0
 23
0.0
 33
0.0
 40
0.0
 40
0.0
 40
0.0
 40
0.0
 40
0.0446865552987249
 40
0.158242298390938
 40
0.2721329499494747
 40
0.3860905103572575
 40
0.4989463164660861
 40
0.6123399528654218
 40
0.725380841557692
 40
0.8385624634277836
 40
0.952564399294983
 40
1.0
 40
1.0
 40
1.0
 40
1.0
 10
-445.8479496886851
 20
567.2690757648201
 30
0.0
 10
-445.8573838619272
 20
566.6317577743747
 30
0.0
 10
-445.8907917907161
 20
564.3749119973887
 30
0.0
 10
-445.6215323128664
 20
560.4937880712495
 30
0.0
 10
-445.0476283415439
 20
555.6505291372721
 30
0.0
 10
-444.1457110312774
 20
550.862143236297
 30
0.0
 10
-442.948588399909
 20
546.1454930696353
 30
0.0
 10
-441.4560114790552
 20
541.5261630162089
 30
0.0
 10
-439.6724858993617
 20
537.0044921784964
 30
0.0
 10
-437.5838861786698
 20
532.608713583059
 30
0.0
 10
-435.7243551506946
 20
529.1434712723623
 30
0.0
 10
-434.4661310906938
 20
527.2083299661546
 30
0.0
 10
-434.0964239248455
 20
526.6397224894913
 30
0.0
  0
SPLINE
  5
61
330
1F
100
AcDbEntity
  8
0
  6
CONTINUOUS
 62
     7
100
AcDbSpline
210
0.0
220
0.0
230
1.0
 70
     8
 71
     3
 72
    23
 73
    19
 74
     0
 42
0.00000001
 43
0.00000001
 12
1.0
 22
0.0
 32
0.0
 13
1.0
 23
0.0
 33
0.0
 40
0.0
 40
0.0
 40
0.0
 40
0.0
 40
0.0356557419386557
 40
0.1034033643400582
 40
0.1711521139096173
 40
0.2389013599559448
 40
0.3066510123973715
 40
0.3744009827298744
 40
0.4421511836792566
 40
0.5099015288756219
 40
0.5776519325341938
 40
0.6454022907352648
 40
0.7131525077773935
 40
0.7809024975783377
 40
0.8486521732809178
 40
0.9164014469312164
 40
0.9805846552537901
 40
1.0
 40
1.0
 40
1.0
 40
1.0
 10
-119.6491683723829
 20
518.4981186301611
 30
0.0
 10
-122.6255252401827
 20
518.4633898313648
 30
0.0
 10
-131.2571031256359
 20
518.3626746466626
 30
0.0
 10
-145.5750525669874
 20
518.21680568767
 30
0.0
 10
-162.6096093514781
 20
518.0695408516885
 30
0.0
 10
-179.6732011041084
 20
517.9500295784218
 30
0.0
 10
-196.7591779227685
 20
517.8578455915616
 30
0.0
 10
-213.8619065508485
 20
517.7931464315717
 30
0.0
 10
-230.9754860791741
 20
517.7559209811039
 30
0.0
 10
-248.0940821180217
 20
517.7461913623279
 30
0.0
 10
-265.2118392155572
 20
517.7639581908402
 30
0.0
 10
-282.3229030209268
 20
517.8092176288429
 30
0.0
 10
-299.4214328280353
 20
517.8819478645562
 30
0.0
 10
-316.5015464017843
 20
517.9821461378386
 30
0.0
 10
-333.5575459669122
 20
518.1096942368731
 30
0.0
 10
-350.2843999735813
 20
518.2621374918343
 30
0.0
 10
-362.937607540622
 20
518.3968236229919
 30
0.0
 10
-369.914740583357
 20
518.4790272499981
 30
0.0
 10
-371.5351447457761
 20
518.4981186301611
 30
0.0
  0
SPLINE
  5
62
330
1F
100
AcDbEntity
  8
0
  6
CONTINUOUS
 62
     7
100
AcDbSpline
210
0.0
220
0.0
230
1.0
 70
     8
 71
     3
 72
    28
 73
    24
 74
     0
 42
0.00000001
 43
0.00000001
 12
1.0
 22
0.0
 32
0.0
 13
1.0
 23
0.0
 33
0.0
 40
0.0
 40
0.0
 40
0.0
 40
0.0
 40
0.0063718149623312
 40
0.0580567134691779
 40
0.1097386114716053
 40
0.1610988091997384
 40
0.2125872299337014
 40
0.2642395691650409
 40
0.3156411262524592
 40
0.3666595298473742
 40
0.4180270830832765
 40
0.4695914966630078
 40
0.5206151689782267
 40
0.5717626538896318
 40
0.6231554677279841
 40
0.6744948322641147
 40
0.725567307972231
 40
0.7765297237068237
 40
0.8276597066131108
 40
0.8791894855667253
 40
0.9303794482771306
 40
0.9815297401037643
 40
1.0
 40
1.0
 40
1.0
 40
1.0
 10
-371.5390928234779
 20
518.5161562771724
 30
0.0
 10
-371.6977511150527
 20
518.5125571807029
 30
0.0
 10
-373.1433641825885
 20
518.4797640575957
 30
0.0
 10
-375.8758292321525
 20
518.7190129856515
 30
0.0
 10
-379.6971638348643
 20
519.2493732194545
 30
0.0
 10
-383.4582656257221
 20
520.1217321603201
 30
0.0
 10
-387.1383694072646
 20
521.2953309577094
 30
0.0
 10
-390.7181391834382
 20
522.7637626286263
 30
0.0
 10
-394.1623945329542
 20
524.5111733843166
 30
0.0
 10
-397.4484819084806
 20
526.5379564302227
 30
0.0
 10
-400.5705680740195
 20
528.8266715992576
 30
0.0
 10
-403.5069199872837
 20
531.3584852148434
 30
0.0
 10
-406.2287468344008
 20
534.1196922702818
 30
0.0
 10
-408.7214432214519
 20
537.0905221785433
 30
0.0
 10
-410.979662436958
 20
540.2582293914322
 30
0.0
 10
-412.9802574089826
 20
543.5961179670687
 30
0.0
 10
-414.7087129661219
 20
547.072350487417
 30
0.0
 10
-416.1578238857671
 20
550.6688386984247
 30
0.0
 10
-417.3173818306532
 20
554.3787602604668
 30
0.0
 10
-418.1905095112134
 20
558.1704240243965
 30
0.0
 10
-418.7405502846045
 20
562.0134942323057
 30
0.0
 10
-418.9943355136543
 20
565.0531901353953
 30
0.0
 10
-418.9595769011092
 20
566.8019165977043
 30
0.0
 10
-418.9503554773851
 20
567.2658519077094
 30
0.0
  0
SPLINE
  5
63
330
1F
100
AcDbEntity
  8
0
  6
CONTINUOUS
 62
     7
100
AcDbSpline
210
0.0
220
0.0
230
1.0
 70
     8
 71
     3
 72
    28
 73
    24
 74
     0
 42
0.00000001
 43
0.00000001
 12
1.0
 22
0.0
 32
0.0
 13
1.0
 23
0.0
 33
0.0
 40
0.0
 40
0.0
 40
0.0
 40
0.0
 40
0.0048678194596149
 40
0.0561164968740518
 40
0.107385030364962
 40
0.1584225279885565
 40
0.209513602310871
 40
0.2608012680613118
 40
0.3120197038935556
 40
0.362712444747455
 40
0.413865172573355
 40
0.465308763673948
 40
0.5162263710479179
 40
0.567258304544086
 40
0.6186519857876911
 40
0.6700792455855226
 40
0.721289080474311
 40
0.7724881802611094
 40
0.8238115806856411
 40
0.875645336548478
 40
0.9272647804400159
 40
0.9787640395207965
 40
1.0
 40
1.0
 40
1.0
 40
1.0
 10
-72.21222661439172
 20
567.2629925051583
 30
0.0
 10
-72.20795922177575
 20
567.1408512694768
 30
0.0
 10
-72.15876447936958
 20
565.7328002258469
 30
0.0
 10
-72.35318158244749
 20
563.0272276421884
 30
0.0
 10
-72.81312549871141
 20
559.1835385108236
 30
0.0
 10
-73.60587066940336
 20
555.386536483128
 30
0.0
 10
-74.69174961872268
 20
551.6606677994399
 30
0.0
 10
-76.06654069666862
 20
548.0239276532446
 30
0.0
 10
-77.71412715565235
 20
544.5131368580903
 30
0.0
 10
-79.6366125088104
 20
541.150468674363
 30
0.0
 10
-81.8187332776549
 20
537.9469347057496
 30
0.0
 10
-84.24420530302046
 20
534.9208995858951
 30
0.0
 10
-86.89816537849931
 20
532.1041787835784
 30
0.0
 10
-89.76531535811021
 20
529.5148995050902
 30
0.0
 10
-92.83445262608775
 20
527.1569606379876
 30
0.0
 10
-96.08177570784021
 20
525.0542134278207
 30
0.0
 10
-99.47912038725885
 20
523.2256822247668
 30
0.0
 10
-103.0048479677577
 20
521.6792302053119
 30
0.0
 10
-106.6561282991048
 20
520.4267468674218
 30
0.0
 10
-110.40353780336
 20
519.4671979837486
 30
0.0
 10
-114.2172740362918
 20
518.8368362412137
 30
0.0
 10
-117.3077801493832
 20
518.5239812892216
 30
0.0
 10
-119.1197847401543
 20
518.5338024098894
 30
0.0
 10
-119.6488222286026
 20
518.5366698093642
 30
0.0
  0
LINE
  5
64
330
1F
100
AcDbEntity
  8
0
  6
CONTINUOUS
 62
     7
100
AcDbLine
 10
-435.5921565591
 20
473.071004569
 30
0.0
 11
-435.5921565591
 21
427.2848412655
 31
0.0
  0
LINE
  5
65
330
1F
100
AcDbEntity
  8
0
  6
CONTINUOUS
 62
     7
100
AcDbLine
 10
-452.5921565591
 20
473.071004569
 30
0.0
 11
-452.5921565591
 21
427.2848412655
 31
0.0
  0
LINE
  5
66
330
1F
100
AcDbEntity
  8
0
  6
CONTINUOUS
 62
     7
100
AcDbLine
 10
-348.5921565591
 20
471.071004569
 30
0.0
 11
-348.5921565591
 21
411.071004569
 31
0.0
  0
LINE
  5
67
330
1F
100
AcDbEntity
  8
0
  6
CONTINUOUS
 62
     7
100
AcDbLine
 10
-403.5921565591
 20
383.071004569
 30
0.0
 11
-403.5921565591
 21
343.071004569
 31
0.0
  0
ARC
  5
68
330
1F
100
AcDbEntity
  8
0
  6
CONTINUOUS
 62
     7
100
AcDbCircle
 10
-442.5921565591
 20
343.071004569
 30
0.0
 40
10.00000000000006
100
AcDbArc
 50
180.0
 51
270.0
  0
ARC
  5
69
330
1F
100
AcDbEntity
  8
0
  6
CONTINUOUS
 62
     7
100
AcDbCircle
 10
-413.5921565591
 20
343.071004569
 30
0.0
 40
10.00000000000006
100
AcDbArc
 50
270.0
 51
0.0
  0
CIRCLE
  5
6A
330
1F
100
AcDbEntity
  8
0
  6
CONTINUOUS
 62
     7
100
AcDbCircle
 10
-433.0921565591
 20
355.071004569
 30
0.0
 40
5.500000000000057
  0
LINE
  5
6B
330
1F
100
AcDbEntity
  8
0
  6
CONTINUOUS
 62
     7
100
AcDbLine
 10
-413.5921565591
 20
333.071004569
 30
0.0
 11
-442.5921565591
 21
333.071004569
 31
0.0
  0
LINE
  5
6C
330
1F
100
AcDbEntity
  8
0
  6
CONTINUOUS
 62
     7
100
AcDbLine
 10
-452.5921565591
 20
343.071004569
 30
0.0
 11
-452.5921565591
 21
383.071004569
 31
0.0
  0
LINE
  5
6D
330
1F
100
AcDbEntity
  8
0
  6
CONTINUOUS
 62
     7
100
AcDbLine
 10
-452.5921565591
 20
388.071004569
 30
0.0
 11
-403.5921565591
 21
388.071004569
 31
0.0
  0
LINE
  5
6E
330
1F
100
AcDbEntity
  8
0
  6
CONTINUOUS
 62
     7
100
AcDbLine
 10
-403.5921565591
 20
388.071004569
 30
0.0
 11
-403.5921565591
 21
383.071004569
 31
0.0
  0
LINE
  5
6F
330
1F
100
AcDbEntity
  8
0
  6
CONTINUOUS
 62
     7
100
AcDbLine
 10
-452.5921565591
 20
383.071004569
 30
0.0
 11
-452.5921565591
 21
388.071004569
 31
0.0
  0
LINE
  5
70
330
1F
100
AcDbEntity
  8
0
  6
CONTINUOUS
 62
     7
100
AcDbLine
 10
-435.5921565591
 20
427.2848412655
 30
0.0
 11
-435.5921565591
 21
405.7439611037
 31
0.0
  0
LINE
  5
71
330
1F
100
AcDbEntity
  8
0
  6
CONTINUOUS
 62
     7
100
AcDbLine
 10
-452.5921565591
 20
405.7439611037
 30
0.0
 11
-452.5921565591
 21
427.2848412655
 31
0.0
  0
LINE
  5
72
330
1F
100
AcDbEntity
  8
0
  6
CONTINUOUS
 62
     7
100
AcDbLine
 10
-435.5921565591
 20
405.7439611037
 30
0.0
 11
-435.5921565591
 21
388.071004569
 31
0.0
  0
LINE
  5
73
330
1F
100
AcDbEntity
  8
0
  6
CONTINUOUS
 62
     7
100
AcDbLine
 10
-452.5921565591
 20
405.7439611037
 30
0.0
 11
-452.5921565591
 21
388.071004569
 31
0.0
  0
LINE
  5
74
330
1F
100
AcDbEntity
  8
0
  6
CONTINUOUS
 62
     7
100
AcDbLine
 10
-38.5921565591
 20
473.071004569
 30
0.0
 11
-38.5921565591
 21
427.2848412655
 31
0.0
  0
LINE
  5
75
330
1F
100
AcDbEntity
  8
0
  6
CONTINUOUS
 62
     7
100
AcDbLine
 10
-55.5921565591
 20
473.071004569
 30
0.0
 11
-55.5921565591
 21
427.2848412655
 31
0.0
  0
LINE
  5
76
330
1F
100
AcDbEntity
  8
0
  6
CONTINUOUS
 62
     7
100
AcDbLine
 10
-142.5921565591
 20
471.071004569
 30
0.0
 11
-142.5921565591
 21
411.071004569
 31
0.0
  0
LINE
  5
77
330
1F
100
AcDbEntity
  8
0
  6
CONTINUOUS
 62
     7
100
AcDbLine
 10
-87.5921565591
 20
388.071004569
 30
0.0
 11
-38.5921565591
 21
388.071004569
 31
0.0
  0
LINE
  5
78
330
1F
100
AcDbEntity
  8
0
  6
CONTINUOUS
 62
     7
100
AcDbLine
 10
-87.5921565591
 20
383.071004569
 30
0.0
 11
-87.5921565591
 21
388.071004569
 31
0.0
  0
LINE
  5
79
330
1F
100
AcDbEntity
  8
0
  6
CONTINUOUS
 62
     7
100
AcDbLine
 10
-38.5921565591
 20
388.071004569
 30
0.0
 11
-38.5921565591
 21
383.071004569
 31
0.0
  0
CIRCLE
  5
7A
330
1F
100
AcDbEntity
  8
0
  6
CONTINUOUS
 62
     7
100
AcDbCircle
 10
-58.0921565591
 20
355.071004569
 30
0.0
 40
5.5
  0
ARC
  5
7B
330
1F
100
AcDbEntity
  8
0
  6
CONTINUOUS
 62
     7
100
AcDbCircle
 10
-77.5921565591
 20
343.071004569
 30
0.0
 40
10.00000000000006
100
AcDbArc
 50
180.0
 51
270.0
  0
LINE
  5
7C
330
1F
100
AcDbEntity
  8
0
  6
CONTINUOUS
 62
     7
100
AcDbLine
 10
-48.5921565591
 20
333.071004569
 30
0.0
 11
-77.5921565591
 21
333.071004569
 31
0.0
  0
ARC
  5
7D
330
1F
100
AcDbEntity
  8
0
  6
CONTINUOUS
 62
     7
100
AcDbCircle
 10
-48.5921565591
 20
343.071004569
 30
0.0
 40
10.00000000000006
100
AcDbArc
 50
270.0
 51
0.0
  0
LINE
  5
7E
330
1F
100
AcDbEntity
  8
0
  6
CONTINUOUS
 62
     7
100
AcDbLine
 10
-87.5921565591
 20
343.071004569
 30
0.0
 11
-87.5921565591
 21
383.071004569
 31
0.0
  0
LINE
  5
7F
330
1F
100
AcDbEntity
  8
0
  6
CONTINUOUS
 62
     7
100
AcDbLine
 10
-38.5921565591
 20
343.071004569
 30
0.0
 11
-38.5921565591
 21
383.071004569
 31
0.0
  0
LINE
  5
80
330
1F
100
AcDbEntity
  8
0
  6
CONTINUOUS
 62
     7
100
AcDbLine
 10
-38.5921565591
 20
427.2848412655
 30
0.0
 11
-38.5921565591
 21
405.7439611037
 31
0.0
  0
LINE
  5
81
330
1F
100
AcDbEntity
  8
0
  6
CONTINUOUS
 62
     7
100
AcDbLine
 10
-55.5921565591
 20
405.7439611037
 30
0.0
 11
-55.5921565591
 21
427.2848412655
 31
0.0
  0
LINE
  5
82
330
1F
100
AcDbEntity
  8
0
  6
CONTINUOUS
 62
     7
100
AcDbLine
 10
-38.5921565591
 20
405.7439611037
 30
0.0
 11
-38.5921565591
 21
388.071004569
 31
0.0
  0
LINE
  5
83
330
1F
100
AcDbEntity
  8
0
  6
CONTINUOUS
 62
     7
100
AcDbLine
 10
-55.5921565591
 20
405.7439611037
 30
0.0
 11
-55.5921565591
 21
388.071004569
 31
0.0
  0
LINE
  5
84
330
1F
100
AcDbEntity
  8
0
  6
CONTINUOUS
 62
     7
100
AcDbLine
 10
-62.0921565591
 20
620.6910953252
 30
0.0
 11
-62.0921565591
 21
444.9610026845
 31
0.0
  0
LINE
  5
85
330
1F
100
AcDbEntity
  8
0
  6
CONTINUOUS
 62
     7
100
AcDbLine
 10
-62.0921565591
 20
620.6910953252
 30
0.0
 11
-57.0921565591
 21
620.6910953252
 31
0.0
  0
LINE
  5
86
330
1F
100
AcDbEntity
  8
0
  6
CONTINUOUS
 62
     7
100
AcDbLine
 10
-57.0921565591
 20
620.6910953252
 30
0.0
 11
-57.0921565591
 21
444.9610026845
 31
0.0
  0
LINE
  5
87
330
1F
100
AcDbEntity
  8
0
  6
CONTINUOUS
 62
     7
100
AcDbLine
 10
-429.0921565591
 20
620.6910953252
 30
0.0
 11
-434.0921565591
 21
620.6910953252
 31
0.0
  0
LINE
  5
88
330
1F
100
AcDbEntity
  8
0
  6
CONTINUOUS
 62
     7
100
AcDbLine
 10
-434.0921565591
 20
620.6910953252
 30
0.0
 11
-434.0921565591
 21
444.9610026845
 31
0.0
  0
LINE
  5
89
330
1F
100
AcDbEntity
  8
0
  6
CONTINUOUS
 62
     7
100
AcDbLine
 10
-429.0921565591
 20
620.6910953252
 30
0.0
 11
-429.0921565591
 21
444.9610026845
 31
0.0
  0
SPLINE
  5
8A
330
1F
100
AcDbEntity
  8
0
  6
CONTINUOUS
 62
     7
100
AcDbSpline
210
0.0
220
0.0
230
1.0
 70
     8
 71
     3
 72
    10
 73
     6
 74
     0
 42
0.00000001
 43
0.00000001
 12
1.0
 22
0.0
 32
0.0
 13
1.0
 23
0.0
 33
0.0
 40
0.0
 40
0.0
 40
0.0
 40
0.0
 40
0.3139911565224683
 40
0.7668937325955085
 40
1.0
 40
1.0
 40
1.0
 40
1.0
 10
-392.2790776589414
 20
837.5207489618986
 30
0.0
 10
-393.8415171843181
 20
837.1107626226828
 30
0.0
 10
-397.6576280991652
 20
836.1094097263892
 30
0.0
 10
-402.4448129084664
 20
834.181462981118
 30
0.0
 10
-405.52007687278
 20
832.4716098006681
 30
0.0
 10
-406.5650536406752
 20
831.8906005374582
 30
0.0
  0
SPLINE
  5
8B
330
1F
100
AcDbEntity
  8
0
  6
CONTINUOUS
 62
     7
100
AcDbSpline
210
0.0
220
0.0
230
1.0
 70
     8
 71
     3
 72
    11
 73
     7
 74
     0
 42
0.00000001
 43
0.00000001
 12
1.0
 22
0.0
 32
0.0
 13
1.0
 23
0.0
 33
0.0
 40
0.0
 40
0.0
 40
0.0
 40
0.0
 40
0.0038117129948898
 40
0.4819826671401335
 40
0.7230054125725467
 40
1.0
 40
1.0
 40
1.0
 40
1.0
 10
-84.12583096898268
 20
831.7669235340641
 30
0.0
 10
-84.14354403663127
 20
831.7777480676581
 30
0.0
 10
-86.38332221508732
 20
833.1464863696032
 30
0.0
 10
-90.0646792017934
 20
834.6299661435281
 30
0.0
 10
-95.12641936083796
 20
836.6054850440913
 30
0.0
 10
-97.87527282860428
 20
837.2960269994051
 30
0.0
 10
-99.34514166098263
 20
837.6652740725821
 30
0.0
  0
ARC
  5
8C
330
1F
100
AcDbEntity
  8
0
  6
CONTINUOUS
 62
     7
100
AcDbCircle
 10
-432.4386862909
 20
772.714482735
 30
0.0
 40
151.8271501295596
100
AcDbArc
 50
269.3760092275
 51
271.2629991327
  0
ARC
  5
8D
330
1F
100
AcDbEntity
  8
0
  6
CONTINUOUS
 62
     7
100
AcDbCircle
 10
-58.7456268273
 20
772.714482735
 30
0.0
 40
151.8271501295624
100
AcDbArc
 50
268.7370008673
 51
270.6239907725
  0
LINE
  5
8E
330
1F
100
AcDbEntity
  8
0
  6
CONTINUOUS
 62
     7
100
AcDbLine
 10
-434.0921565591
 20
620.8963364134
 30
0.0
 11
-434.0921565591
 21
620.6910953252
 31
0.0
  0
LINE
  5
8F
330
1F
100
AcDbEntity
  8
0
  6
CONTINUOUS
 62
     7
100
AcDbLine
 10
-429.0921565591
 20
620.924218702
 30
0.0
 11
-429.0921565591
 21
620.6910953252
 31
0.0
  0
LINE
  5
90
330
1F
100
AcDbEntity
  8
0
  6
CONTINUOUS
 62
     7
100
AcDbLine
 10
-62.0921565591
 20
620.924218702
 30
0.0
 11
-62.0921565591
 21
620.6910953252
 31
0.0
  0
LINE
  5
91
330
1F
100
AcDbEntity
  8
0
  6
CONTINUOUS
 62
     7
100
AcDbLine
 10
-57.0921565591
 20
620.8963364134
 30
0.0
 11
-57.0921565591
 21
620.6910953252
 31
0.0
  0
SPLINE
  5
92
330
1F
100
AcDbEntity
  8
0
  6
CONTINUOUS
 62
     7
100
AcDbSpline
210
0.0
220
0.0
230
1.0
 70
     8
 71
     3
 72
    35
 73
    31
 74
     0
 42
0.00000001
 43
0.00000001
 12
1.0
 22
0.0
 32
0.0
 13
1.0
 23
0.0
 33
0.0
 40
0.0
 40
0.0
 40
0.0
 40
0.0
 40
0.0142469714626137
 40
0.0362722410079763
 40
0.0578717184410532
 40
0.0792519671867323
 40
0.1006465328652136
 40
0.1223619433726566
 40
0.1448490884683515
 40
0.1687907932120108
 40
0.1952244980479765
 40
0.2258464703620597
 40
0.262438973286255
 40
0.3095014461117253
 40
0.3590359186944411
 40
0.4048962035771758
 40
0.4531687703777934
 40
0.4991309762181158
 40
0.5436837107661998
 40
0.5863097213897192
 40
0.6296831046803076
 40
0.6729205713145282
 40
0.7160285655422444
 40
0.7589512258064115
 40
0.801601576651975
 40
0.8438847246774152
 40
0.8856965575040614
 40
0.9273309421067013
 40
0.9694924724958794
 40
1.0
 40
1.0
 40
1.0
 40
1.0
 10
113.0958633108631
 20
840.2852364783446
 30
0.0
 10
112.6475601061873
 20
840.3264501592523
 30
0.0
 10
111.506197401326
 20
840.4313786046157
 30
0.0
 10
109.6951562559894
 20
840.2580111984227
 30
0.0
 10
107.7428722166092
 20
839.8399407751277
 30
0.0
 10
105.9369951374121
 20
839.1853312438284
 30
0.0
 10
104.2946645681094
 20
838.3530600542286
 30
0.0
 10
102.8182758393045
 20
837.3785594909768
 30
0.0
 10
101.4943083993515
 20
836.290870770504
 30
0.0
 10
100.2923604028582
 20
835.0948253592397
 30
0.0
 10
99.16809752798977
 20
833.7647780141946
 30
0.0
 10
98.05787364707861
 20
832.2146556829148
 30
0.0
 10
96.9008075267938
 20
830.3127055093362
 30
0.0
 10
95.71192964597853
 20
828.0070910662976
 30
0.0
 10
94.54147023698093
 20
825.3546601978902
 30
0.0
 10
93.41460022938746
 20
822.4438716188265
 30
0.0
 10
92.3489016832397
 20
819.3558878379968
 30
0.0
 10
91.31907188919476
 20
816.0401400472593
 30
0.0
 10
90.35368170014493
 20
812.623392883063
 30
0.0
 10
89.43238370211563
 20
809.0496537993837
 30
0.0
 10
88.55089886776405
 20
805.3188716658809
 30
0.0
 10
87.69924343485563
 20
801.3918498749595
 30
0.0
 10
86.88789238962089
 20
797.3148030093066
 30
0.0
 10
86.12193916602865
 20
793.1107642722042
 30
0.0
 10
85.40731031979513
 20
788.8072689113629
 30
0.0
 10
84.7501559307705
 20
784.4346771764457
 30
0.0
 10
84.15423310762162
 20
780.0108697186216
 30
0.0
 10
83.62061265432767
 20
775.5286534350691
 30
0.0
 10
83.18286729748405
 20
771.4124205010672
 30
0.0
 10
82.9517505636076
 20
768.7833071002923
 30
0.0
 10
82.85472439704094
 20
767.6795670531411
 30
0.0
  0
SPLINE
  5
93
330
1F
100
AcDbEntity
  8
0
  6
CONTINUOUS
 62
     7
100
AcDbSpline
210
0.0
220
0.0
230
1.0
 70
     8
 71
     3
 72
    18
 73
    14
 74
     0
 42
0.00000001
 43
0.00000001
 12
1.0
 22
0.0
 32
0.0
 13
1.0
 23
0.0
 33
0.0
 40
0.0
 40
0.0
 40
0.0
 40
0.0
 40
0.0802124387449189
 40
0.179258457935703
 40
0.2785363329400118
 40
0.3778805421607485
 40
0.4761501717559075
 40
0.574605310697656
 40
0.6735392076854726
 40
0.7729639698587982
 40
0.8729016979063772
 40
0.9734081169361201
 40
0.9999999999999999
 40
0.9999999999999999
 40
0.9999999999999999
 40
0.9999999999999999
 10
65.42048377765389
 20
568.4399862747302
 30
0.0
 10
65.31405245429124
 20
567.2006820469851
 30
0.0
 10
65.07620013112833
 20
564.4310895965515
 30
0.0
 10
64.7864130397885
 20
560.1363997353659
 30
0.0
 10
64.53850730834502
 20
555.5807822113142
 30
0.0
 10
64.36375692496502
 20
551.091640323134
 30
0.0
 10
64.25868861994324
 20
546.6916952997344
 30
0.0
 10
64.22149543490346
 20
542.3935397869875
 30
0.0
 10
64.25107027103608
 20
538.1956322670584
 30
0.0
 10
64.34501826201824
 20
534.1083227862446
 30
0.0
 10
64.50871670327132
 20
530.1691348386569
 30
0.0
 10
64.66664945969671
 20
527.2738878111132
 30
0.0
 10
64.78980586329499
 20
525.7596693614412
 30
0.0
 10
64.81557301068489
 20
525.4428600942554
 30
0.0
  0
LINE
  5
94
330
1F
100
AcDbEntity
  8
0
  6
CONTINUOUS
 62
     7
100
AcDbLine
 10
82.8440308096
 20
767.6801356988
 30
0.0
 11
65.4128822601
 21
568.4411960804
 31
0.0
  0
SPLINE
  5
95
330
1F
100
AcDbEntity
  8
0
  6
CONTINUOUS
 62
     7
100
AcDbSpline
210
0.0
220
0.0
230
1.0
 70
     8
 71
     3
 72
    27
 73
    23
 74
     0
 42
0.00000001
 43
0.00000001
 12
1.0
 22
0.0
 32
0.0
 13
1.0
 23
0.0
 33
0.0
 40
0.0
 40
0.0
 40
0.0
 40
0.0
 40
0.0480288317170059
 40
0.1037632070137173
 40
0.1593256457614655
 40
0.2146370545404166
 40
0.2696238217757308
 40
0.325068568996599
 40
0.3809310110599068
 40
0.4368871952641633
 40
0.4924829511251727
 40
0.5473477121883248
 40
0.6011087428860347
 40
0.6535741286822107
 40
0.7068706504803919
 40
0.7591473276667604
 40
0.8102785622309627
 40
0.8597484372013111
 40
0.9016725870064813
 40
0.940594982733019
 40
0.9762897480881624
 40
1.0
 40
1.0
 40
1.0
 40
1.0
 10
109.6493303247642
 20
765.3343151939084
 30
0.0
 10
109.7577125125777
 20
766.5435363718256
 30
0.0
 10
109.9918652701747
 20
769.1559810831379
 30
0.0
 10
110.4226061919405
 20
773.1425548925685
 30
0.0
 10
110.9229182404311
 20
777.263333907327
 30
0.0
 10
111.4760278983672
 20
781.2922352456337
 30
0.0
 10
112.0767293980175
 20
785.2219126201305
 30
0.0
 10
112.7214318890801
 20
789.0489160219518
 30
0.0
 10
113.406193029473
 20
792.7611062517033
 30
0.0
 10
114.121792403817
 20
796.3185084385125
 30
0.0
 10
114.8564964014202
 20
799.6757052205552
 30
0.0
 10
115.5976349323613
 20
802.7910297662131
 30
0.0
 10
116.3314110834631
 20
805.6255386270801
 30
0.0
 10
117.0587309002672
 20
808.2033504540207
 30
0.0
 10
117.7684782283044
 20
810.5139347147436
 30
0.0
 10
118.4498525951103
 20
812.539873090356
 30
0.0
 10
119.0789043733625
 20
814.2389106427389
 30
0.0
 10
119.6135878816476
 20
815.541058947551
 30
0.0
 10
120.0384134349528
 20
816.4696394694112
 30
0.0
 10
120.3336998488389
 20
817.0504978231668
 30
0.0
 10
120.5127245690494
 20
817.3572325056529
 30
0.0
 10
120.5181672760984
 20
817.36482050157
 30
0.0
 10
120.5203396171085
 20
817.367849089103
 30
0.0
  0
LINE
  5
96
330
1F
100
AcDbEntity
  8
0
  6
CONTINUOUS
 62
     7
100
AcDbLine
 10
97.0040854899
 20
620.8874149956
 30
0.0
 11
109.6416681883
 21
765.3356462189
 31
0.0
  0
LINE
  5
97
330
1F
100
AcDbEntity
  8
0
  6
CONTINUOUS
 62
     7
100
AcDbLine
 10
97.5145946574
 20
620.8427512308
 30
0.0
 11
111.6402263761
 21
782.2994605848
 31
0.0
  0
ARC
  5
98
330
1F
100
AcDbEntity
  8
0
  6
CONTINUOUS
 62
     7
100
AcDbCircle
 10
120.4975868124
 20
826.1709874079
 30
0.0
 40
13.45000000000059
100
AcDbArc
 50
265.0
 51
355.0
  0
ARC
  5
99
330
1F
100
AcDbEntity
  8
0
  6
CONTINUOUS
 62
     7
100
AcDbCircle
 10
120.4975868124
 20
826.1709874079
 30
0.0
 40
13.45000000000008
100
AcDbArc
 50
355.0
 51
85.0
  0
LINE
  5
9A
330
1F
100
AcDbEntity
  8
0
  6
CONTINUOUS
 62
     7
100
AcDbLine
 10
112.5466773391
 20
343.071004569
 30
0.0
 11
112.5466773391
 21
382.071004569
 31
0.0
  0
ARC
  5
9B
330
1F
100
AcDbEntity
  8
0
  6
CONTINUOUS
 62
     7
100
AcDbCircle
 10
110.5466773391
 20
382.071004569
 30
0.0
 40
2.0
100
AcDbArc
 50
0.0
 51
90.0
  0
LINE
  5
9C
330
1F
100
AcDbEntity
  8
0
  6
CONTINUOUS
 62
     7
100
AcDbLine
 10
110.5466773391
 20
384.071004569
 30
0.0
 11
63.5466773391
 21
384.071004569
 31
0.0
  0
ARC
  5
9D
330
1F
100
AcDbEntity
  8
0
  6
CONTINUOUS
 62
     7
100
AcDbCircle
 10
63.5466773391
 20
382.071004569
 30
0.0
 40
2.0
100
AcDbArc
 50
90.0
 51
180.0
  0
LINE
  5
9E
330
1F
100
AcDbEntity
  8
0
  6
CONTINUOUS
 62
     7
100
AcDbLine
 10
61.5466773391
 20
382.071004569
 30
0.0
 11
61.5466773391
 21
343.071004569
 31
0.0
  0
LINE
  5
9F
330
1F
100
AcDbEntity
  8
0
  6
CONTINUOUS
 62
     7
100
AcDbLine
 10
57.5466773391
 20
368.071004569
 30
0.0
 11
57.5466773391
 21
343.071004569
 31
0.0
  0
ARC
  5
A0
330
1F
100
AcDbEntity
  8
0
  6
CONTINUOUS
 62
     7
100
AcDbCircle
 10
87.0466773391
 20
441.071004569
 30
0.0
 40
32.00000000000001
100
AcDbArc
 50
334.4805415091
 51
151.3013359141
  0
ARC
  5
A1
330
1F
100
AcDbEntity
  8
0
  6
CONTINUOUS
 62
     7
100
AcDbCircle
 10
161.0466773391
 20
405.7439611037
 30
0.0
 40
49.99999999999999
100
AcDbArc
 50
154.4805415091
 51
180.0
  0
LINE
  5
A2
330
1F
100
AcDbEntity
  8
0
  6
CONTINUOUS
 62
     7
100
AcDbLine
 10
111.0466773391
 20
405.7439611037
 30
0.0
 11
111.0466773391
 21
388.071004569
 31
0.0
  0
LINE
  5
A3
330
1F
100
AcDbEntity
  8
0
  6
CONTINUOUS
 62
     7
100
AcDbLine
 10
111.5466773391
 20
388.071004569
 30
0.0
 11
111.0466773391
 21
388.071004569
 31
0.0
  0
ARC
  5
A4
330
1F
100
AcDbEntity
  8
0
  6
CONTINUOUS
 62
     7
100
AcDbCircle
 10
111.5466773391
 20
383.071004569
 30
0.0
 40
5.0
100
AcDbArc
 50
0.0
 51
90.0
  0
LINE
  5
A5
330
1F
100
AcDbEntity
  8
0
  6
CONTINUOUS
 62
     7
100
AcDbLine
 10
116.5466773391
 20
343.071004569
 30
0.0
 11
116.5466773391
 21
383.071004569
 31
0.0
  0
ARC
  5
A6
330
1F
100
AcDbEntity
  8
0
  6
CONTINUOUS
 62
     7
100
AcDbCircle
 10
165.5921318846
 20
398.071004569
 30
0.0
 40
121.5454545454544
100
AcDbArc
 50
151.3013359141
 51
194.2894890274
  0
LINE
  5
A7
330
1F
100
AcDbEntity
  8
0
  6
CONTINUOUS
 62
     7
100
AcDbLine
 10
57.5466773391
 20
368.071004569
 30
0.0
 11
47.8071688347
 21
368.071004569
 31
0.0
  0
LINE
  5
A8
330
1F
100
AcDbEntity
  8
0
  6
CONTINUOUS
 62
     7
100
AcDbLine
 10
61.5466773391
 20
343.071004569
 30
0.0
 11
61.5466773391
 21
333.071004569
 31
0.0
  0
LINE
  5
A9
330
1F
100
AcDbEntity
  8
0
  6
CONTINUOUS
 62
     7
100
AcDbLine
 10
61.5466773391
 20
333.071004569
 30
0.0
 11
57.5466773391
 21
333.071004569
 31
0.0
  0
LINE
  5
AA
330
1F
100
AcDbEntity
  8
0
  6
CONTINUOUS
 62
     7
100
AcDbLine
 10
57.5466773391
 20
333.071004569
 30
0.0
 11
57.5466773391
 21
343.071004569
 31
0.0
  0
LINE
  5
AB
330
1F
100
AcDbEntity
  8
0
  6
CONTINUOUS
 62
     7
100
AcDbLine
 10
116.5466773391
 20
343.071004569
 30
0.0
 11
116.5466773391
 21
333.071004569
 31
0.0
  0
LINE
  5
AC
330
1F
100
AcDbEntity
  8
0
  6
CONTINUOUS
 62
     7
100
AcDbLine
 10
116.5466773391
 20
333.071004569
 30
0.0
 11
112.5466773391
 21
333.071004569
 31
0.0
  0
LINE
  5
AD
330
1F
100
AcDbEntity
  8
0
  6
CONTINUOUS
 62
     7
100
AcDbLine
 10
112.5466773391
 20
333.071004569
 30
0.0
 11
112.5466773391
 21
343.071004569
 31
0.0
  0
SPLINE
  5
AE
330
1F
100
AcDbEntity
  8
0
  6
CONTINUOUS
 62
     7
100
AcDbSpline
210
0.0
220
0.0
230
1.0
 70
     8
 71
     3
 72
    13
 73
     9
 74
     0
 42
0.00000001
 43
0.00000001
 12
1.0
 22
0.0
 32
0.0
 13
1.0
 23
0.0
 33
0.0
 40
0.0
 40
0.0
 40
0.0
 40
0.0
 40
0.1215844905454721
 40
0.2483038543729846
 40
0.4119046008389893
 40
0.5800020510814117
 40
0.7885021234788888
 40
1.0
 40
1.0
 40
1.0
 40
1.0
 10
74.74824376238504
 20
527.2252553616315
 30
0.0
 10
74.15211492291473
 20
527.5369492298787
 30
0.0
 10
72.93468095679542
 20
528.1735007219561
 30
0.0
 10
71.24057672401013
 20
529.7161705165195
 30
0.0
 10
69.66789222916695
 20
531.7061971647063
 30
0.0
 10
68.21298262592434
 20
534.3155021897952
 30
0.0
 10
67.0013872499624
 20
537.3347762000241
 30
0.0
 10
66.43620480087897
 20
539.5820312545361
 30
0.0
 10
66.15159653520547
 20
540.7136788572312
 30
0.0
  0
SPLINE
  5
AF
330
1F
100
AcDbEntity
  8
0
  6
CONTINUOUS
 62
     7
100
AcDbSpline
210
0.0
220
0.0
230
1.0
 70
     8
 71
     3
 72
    16
 73
    12
 74
     0
 42
0.00000001
 43
0.00000001
 12
1.0
 22
0.0
 32
0.0
 13
1.0
 23
0.0
 33
0.0
 40
0.0
 40
0.0
 40
0.0
 40
0.0
 40
0.2754018244531135
 40
0.4242510320155579
 40
0.5725941793151973
 40
0.6760360825026841
 40
0.728295193121734
 40
0.7804565133772331
 40
0.8543556695955649
 40
0.9286897348817614
 40
1.0
 40
1.0
 40
1.0
 40
1.0
 10
91.16270076355885
 20
554.8123874424812
 30
0.0
 10
90.84648818391047
 20
551.4379315502999
 30
0.0
 10
90.3593689953629
 20
546.2396493762741
 30
0.0
 10
88.99933906216671
 20
539.3191779303311
 30
0.0
 10
87.41886219757485
 20
534.6278701880291
 30
0.0
 10
85.5808328349604
 20
531.3404878424184
 30
0.0
 10
83.9410246050081
 20
529.3691438369474
 30
0.0
 10
82.28846634602351
 20
527.9106639379487
 30
0.0
 10
80.07562710014938
 20
526.7497572463047
 30
0.0
 10
77.30544685082646
 20
526.3697543807496
 30
0.0
 10
75.5887644702254
 20
526.9440628770536
 30
0.0
 10
74.74824376238504
 20
527.2252553616315
 30
0.0
  0
LINE
  5
B0
330
1F
100
AcDbEntity
  8
0
  6
CONTINUOUS
 62
     7
100
AcDbLine
 10
92.1085473666
 20
566.1056280183
 30
0.0
 11
91.1627007636
 21
554.8123874425
 31
0.0
  0
LINE
  5
B1
330
1F
100
AcDbEntity
  8
0
  6
CONTINUOUS
 62
     7
100
AcDbLine
 10
96.9021132177
 20
620.8963364134
 30
0.0
 11
92.1085473666
 21
566.1056280183
 31
0.0
  0
ARC
  5
B2
330
1F
100
AcDbEntity
  8
0
  6
CONTINUOUS
 62
     7
100
AcDbCircle
 10
-482.509947486
 20
473.8658382746
 30
0.0
 40
600.000000000003
100
AcDbArc
 50
357.9188963395
 51
14.1646231125
  0
LINE
  5
B3
330
1F
100
AcDbEntity
  8
0
  6
CONTINUOUS
 62
     7
100
AcDbLine
 10
96.9021132177
 20
620.8963364134
 30
0.0
 11
99.2480295904
 21
620.6910953252
 31
0.0
  0
LINE
  5
B4
330
1F
100
AcDbEntity
  8
0
  6
CONTINUOUS
 62
     7
100
AcDbLine
 10
58.7402670481
 20
456.0017951872
 30
0.0
 11
66.1515965352
 21
540.7136788572
 31
0.0
  0
LINE
  5
B5
330
1F
100
AcDbEntity
  8
0
  6
CONTINUOUS
 62
     7
100
AcDbLine
 10
118.7443101205
 20
812.8230024275
 30
0.0
 11
119.3253420725
 21
812.7721687186
 31
0.0
  0
LINE
  5
B6
330
1F
100
AcDbEntity
  8
0
  6
CONTINUOUS
 62
     7
100
AcDbLine
 10
121.6698315524
 20
839.5698060972
 30
0.0
 11
113.1133527373
 21
840.3184009932
 31
0.0
  0
LINE
  5
B7
330
1F
100
AcDbEntity
  8
0
  6
CONTINUOUS
 62
     7
100
AcDbLine
 10
113.1133527373
 20
840.3184009932
 30
0.0
 11
112.8727899318
 21
840.3372340464
 31
0.0
  0
SPLINE
  5
B8
330
1F
100
AcDbEntity
  8
0
  6
CONTINUOUS
 62
     7
100
AcDbSpline
210
0.0
220
0.0
230
1.0
 70
     8
 71
     3
 72
    35
 73
    31
 74
     0
 42
0.00000001
 43
0.00000001
 12
1.0
 22
0.0
 32
0.0
 13
1.0
 23
0.0
 33
0.0
 40
0.0
 40
0.0
 40
0.0
 40
0.0
 40
0.0142469714626103
 40
0.0362722410079673
 40
0.0578717184410435
 40
0.0792519671867263
 40
0.10064653286521
 40
0.1223619433726556
 40
0.1448490884683446
 40
0.1687907932119891
 40
0.1952244980479581
 40
0.2258464703620483
 40
0.2624389732862423
 40
0.3095014461116956
 40
0.3590359186944212
 40
0.4048962035771608
 40
0.4531687703777885
 40
0.4991309762181121
 40
0.5436837107661966
 40
0.586309721389707
 40
0.6296831046802982
 40
0.672920571314519
 40
0.7160285655422249
 40
0.7589512258063955
 40
0.8016015766519572
 40
0.8438847246774002
 40
0.8856965575040479
 40
0.9273309421066934
 40
0.9694924724958689
 40
1.0
 40
1.0
 40
1.0
 40
1.0
 10
687.6887517102606
 20
449.9147565118723
 30
0.0
 10
687.6907363618899
 20
450.3649457964787
 30
0.0
 10
687.6957892085535
 20
451.511110388252
 30
0.0
 10
687.3652388815137
 20
453.300150010207
 30
0.0
 10
686.7786065768921
 20
455.2085677811435
 30
0.0
 10
685.9690954743428
 20
456.9505199729353
 30
0.0
 10
684.9968527872841
 20
458.514063764892
 30
0.0
 10
683.8973847366422
 20
459.8999010684517
 30
0.0
 10
682.6984436345305
 20
461.1240320942674
 30
0.0
 10
681.4021928667739
 20
462.2171640895774
 30
0.0
 10
679.9792207875264
 20
463.2212275405357
 30
0.0
 10
678.3382347527545
 20
464.1921246212622
 30
0.0
 10
676.3426771166796
 20
465.1790218755841
 30
0.0
 10
673.9422186979423
 20
466.1624281778583
 30
0.0
 10
671.1978688706328
 20
467.0972590530104
 30
0.0
 10
668.1999435284114
 20
467.9661490394241
 30
0.0
 10
665.0308287098203
 20
468.7586567608497
 30
0.0
 10
661.6379427598745
 20
469.4955812801487
 30
0.0
 10
658.1500580512145
 20
470.1595087311935
 30
0.0
 10
654.5096217123801
 20
470.7658290279684
 30
0.0
 10
650.7162098657901
 20
471.3188004585226
 30
0.0
 10
646.729904916564
 20
471.824952584413
 30
0.0
 10
642.5976585421524
 20
472.2778781461741
 30
0.0
 10
638.3428602195671
 20
472.674510567831
 30
0.0
 10
633.993456949952
 20
473.011345700967
 30
0.0
 10
629.5802294678323
 20
473.2849029387521
 30
0.0
 10
625.121317836697
 20
473.4929978708857
 30
0.0
 10
620.6096496523694
 20
473.6339368479019
 30
0.0
 10
616.4709282056954
 20
473.7112631128185
 30
0.0
 10
613.8316762245588
 20
473.7123580465342
 30
0.0
 10
612.7236798539018
 20
473.7128177156343
 30
0.0
  0
SPLINE
  5
B9
330
1F
100
AcDbEntity
  8
0
  6
CONTINUOUS
 62
     7
100
AcDbSpline
210
0.0
220
0.0
230
1.0
 70
     8
 71
     3
 72
    18
 73
    14
 74
     0
 42
0.00000001
 43
0.00000001
 12
1.0
 22
0.0
 32
0.0
 13
1.0
 23
0.0
 33
0.0
 40
0.0
 40
0.0
 40
0.0
 40
0.0
 40
0.0802124387449526
 40
0.1792584579357126
 40
0.278536332940015
 40
0.3778805421607356
 40
0.4761501717559125
 40
0.574605310697676
 40
0.6735392076854793
 40
0.7729639698587698
 40
0.8729016979063409
 40
0.9734081169360504
 40
1.0
 40
1.0
 40
1.0
 40
1.0
 10
412.7227716420027
 20
473.7158421384505
 30
0.0
 10
411.4789072399603
 20
473.7138559780357
 30
0.0
 10
408.6991237290732
 20
473.7094173141736
 30
0.0
 10
404.3955198502266
 20
473.6237947934193
 30
0.0
 10
399.835631418077
 20
473.4737089397268
 30
0.0
 10
395.3483415706308
 20
473.2565398495755
 30
0.0
 10
390.9559823602605
 20
472.9777278614123
 30
0.0
 10
386.6709410272201
 20
472.6401705789955
 30
0.0
 10
382.4915854295969
 20
472.2448365361578
 30
0.0
 10
378.4280175022839
 20
471.7950135520052
 30
0.0
 10
374.5180866133447
 20
471.2886151813483
 30
0.0
 10
371.6476216215297
 20
470.8789460016187
 30
0.0
 10
370.1498990180428
 20
470.6242854116545
 30
0.0
 10
369.8365410606343
 20
470.5710045690487
 30
0.0
  0
LINE
  5
BA
330
1F
100
AcDbEntity
  8
0
  6
CONTINUOUS
 62
     7
100
AcDbLine
 10
612.7233143281
 20
473.7235201715
 30
0.0
 11
412.7233143281
 21
473.7235201715
 31
0.0
  0
SPLINE
  5
BB
330
1F
100
AcDbEntity
  8
0
  6
CONTINUOUS
 62
     7
100
AcDbSpline
210
0.0
220
0.0
230
1.0
 70
     8
 71
     3
 72
    27
 73
    23
 74
     0
 42
0.00000001
 43
0.00000001
 12
1.0
 22
0.0
 32
0.0
 13
1.0
 23
0.0
 33
0.0
 40
0.0
 40
0.0
 40
0.0
 40
0.0
 40
0.0480288317170364
 40
0.1037632070137455
 40
0.1593256457615017
 40
0.2146370545404595
 40
0.2696238217757803
 40
0.3250685689966438
 40
0.3809310110599572
 40
0.4368871952642224
 40
0.4924829511252297
 40
0.5473477121883803
 40
0.6011087428860855
 40
0.6535741286822562
 40
0.7068706504804478
 40
0.7591473276668115
 40
0.8102785622310152
 40
0.85974843720136
 40
0.901672587006533
 40
0.940594982733077
 40
0.9762897480882268
 40
1.0
 40
1.0
 40
1.0
 40
1.0
 10
612.7226561673056
 20
446.8157711852571
 30
0.0
 10
613.9367220236473
 20
446.8131919942971
 30
0.0
 10
616.5596333516199
 20
446.807619817837
 30
0.0
 10
620.5685785890953
 20
446.725970796702
 30
0.0
 10
624.7172818637973
 20
446.5867121423344
 30
0.0
 10
628.7790586992121
 20
446.3868491222321
 30
0.0
 10
632.7461370502684
 20
446.1309274234775
 30
0.0
 10
636.6147670732018
 20
445.822223544018
 30
0.0
 10
640.372512164184
 20
445.4636068231937
 30
0.0
 10
643.9787459566442
 20
445.060778550358
 30
0.0
 10
647.3872012639765
 20
444.6214693023678
 30
0.0
 10
650.5552655383384
 20
444.1546694519695
 30
0.0
 10
653.4429410426876
 20
443.6707292657495
 30
0.0
 10
656.0743336162126
 20
443.1708482248727
 30
0.0
 10
658.4379839617771
 20
442.6651823871218
 30
0.0
 10
660.5155987192505
 20
442.1629730193815
 30
0.0
 10
662.2629963957531
 20
441.6843958528955
 30
0.0
 10
663.6067903714353
 20
441.2652366794585
 30
0.0
 10
664.5688633506999
 20
440.9229588407256
 30
0.0
 10
665.1732472697794
 20
440.6794212220466
 30
0.0
 10
665.4944177666518
 20
440.5278114340244
 30
0.0
 10
665.502451251129
 20
440.523050775539
 30
0.0
 10
665.5056576459664
 20
440.5211506597383
 30
0.0
  0
LINE
  5
BC
330
1F
100
AcDbEntity
  8
0
  6
CONTINUOUS
 62
     7
100
AcDbLine
 10
467.7233143281
 20
446.8235201715
 30
0.0
 11
612.7233143281
 21
446.8235201715
 31
0.0
  0
LINE
  5
BD
330
1F
100
AcDbEntity
  8
0
  6
CONTINUOUS
 62
     7
100
AcDbLine
 10
467.7233143281
 20
446.3110609418
 30
0.0
 11
629.7967620822
 21
446.3110609418
 31
0.0
  0
ARC
  5
BE
330
1F
100
AcDbEntity
  8
0
  6
CONTINUOUS
 62
     7
100
AcDbCircle
 10
674.2733143281
 20
441.3110609418
 30
0.0
 40
13.45000000000061
100
AcDbArc
 50
180.0
 51
270.0
  0
ARC
  5
BF
330
1F
100
AcDbEntity
  8
0
  6
CONTINUOUS
 62
     7
100
AcDbCircle
 10
674.2733143281
 20
441.3110609418
 30
0.0
 40
13.45000000000016
100
AcDbArc
 50
270.0
 51
0.0
  0
LINE
  5
C0
330
1F
100
AcDbEntity
  8
0
  6
CONTINUOUS
 62
     7
100
AcDbLine
 10
313.2233143281
 20
343.071004569
 30
0.0
 11
313.2233143281
 21
382.071004569
 31
0.0
  0
ARC
  5
C1
330
1F
100
AcDbEntity
  8
0
  6
CONTINUOUS
 62
     7
100
AcDbCircle
 10
311.2233143281
 20
382.071004569
 30
0.0
 40
2.0
100
AcDbArc
 50
0.0
 51
90.0
  0
LINE
  5
C2
330
1F
100
AcDbEntity
  8
0
  6
CONTINUOUS
 62
     7
100
AcDbLine
 10
311.2233143281
 20
384.071004569
 30
0.0
 11
264.2233143281
 21
384.071004569
 31
0.0
  0
ARC
  5
C3
330
1F
100
AcDbEntity
  8
0
  6
CONTINUOUS
 62
     7
100
AcDbCircle
 10
264.2233143281
 20
382.071004569
 30
0.0
 40
2.0
100
AcDbArc
 50
90.0
 51
180.0
  0
LINE
  5
C4
330
1F
100
AcDbEntity
  8
0
  6
CONTINUOUS
 62
     7
100
AcDbLine
 10
262.2233143281
 20
382.071004569
 30
0.0
 11
262.2233143281
 21
343.071004569
 31
0.0
  0
LINE
  5
C5
330
1F
100
AcDbEntity
  8
0
  6
CONTINUOUS
 62
     7
100
AcDbLine
 10
258.2233143281
 20
368.071004569
 30
0.0
 11
258.2233143281
 21
343.071004569
 31
0.0
  0
ARC
  5
C6
330
1F
100
AcDbEntity
  8
0
  6
CONTINUOUS
 62
     7
100
AcDbCircle
 10
287.7233143281
 20
441.071004569
 30
0.0
 40
32.00000000000001
100
AcDbArc
 50
334.4805415091
 51
151.3013359141
  0
ARC
  5
C7
330
1F
100
AcDbEntity
  8
0
  6
CONTINUOUS
 62
     7
100
AcDbCircle
 10
361.7233143281
 20
405.7439611037
 30
0.0
 40
50.00000000000006
100
AcDbArc
 50
154.4805415091
 51
180.0
  0
LINE
  5
C8
330
1F
100
AcDbEntity
  8
0
  6
CONTINUOUS
 62
     7
100
AcDbLine
 10
311.7233143281
 20
405.7439611037
 30
0.0
 11
311.7233143281
 21
388.071004569
 31
0.0
  0
LINE
  5
C9
330
1F
100
AcDbEntity
  8
0
  6
CONTINUOUS
 62
     7
100
AcDbLine
 10
312.2233143281
 20
388.071004569
 30
0.0
 11
311.7233143281
 21
388.071004569
 31
0.0
  0
ARC
  5
CA
330
1F
100
AcDbEntity
  8
0
  6
CONTINUOUS
 62
     7
100
AcDbCircle
 10
312.2233143281
 20
383.071004569
 30
0.0
 40
5.000000000000057
100
AcDbArc
 50
0.0
 51
90.0
  0
LINE
  5
CB
330
1F
100
AcDbEntity
  8
0
  6
CONTINUOUS
 62
     7
100
AcDbLine
 10
317.2233143281
 20
343.071004569
 30
0.0
 11
317.2233143281
 21
383.071004569
 31
0.0
  0
ARC
  5
CC
330
1F
100
AcDbEntity
  8
0
  6
CONTINUOUS
 62
     7
100
AcDbCircle
 10
366.2687688736
 20
398.071004569
 30
0.0
 40
121.5454545454544
100
AcDbArc
 50
151.3013359141
 51
194.2894890274
  0
LINE
  5
CD
330
1F
100
AcDbEntity
  8
0
  6
CONTINUOUS
 62
     7
100
AcDbLine
 10
258.2233143281
 20
368.071004569
 30
0.0
 11
248.4838058237
 21
368.071004569
 31
0.0
  0
LINE
  5
CE
330
1F
100
AcDbEntity
  8
0
  6
CONTINUOUS
 62
     7
100
AcDbLine
 10
262.2233143281
 20
343.071004569
 30
0.0
 11
262.2233143281
 21
333.071004569
 31
0.0
  0
LINE
  5
CF
330
1F
100
AcDbEntity
  8
0
  6
CONTINUOUS
 62
     7
100
AcDbLine
 10
262.2233143281
 20
333.071004569
 30
0.0
 11
258.2233143281
 21
333.071004569
 31
0.0
  0
LINE
  5
D0
330
1F
100
AcDbEntity
  8
0
  6
CONTINUOUS
 62
     7
100
AcDbLine
 10
258.2233143281
 20
333.071004569
 30
0.0
 11
258.2233143281
 21
343.071004569
 31
0.0
  0
LINE
  5
D1
330
1F
100
AcDbEntity
  8
0
  6
CONTINUOUS
 62
     7
100
AcDbLine
 10
317.2233143281
 20
343.071004569
 30
0.0
 11
317.2233143281
 21
333.071004569
 31
0.0
  0
LINE
  5
D2
330
1F
100
AcDbEntity
  8
0
  6
CONTINUOUS
 62
     7
100
AcDbLine
 10
317.2233143281
 20
333.071004569
 30
0.0
 11
313.2233143281
 21
333.071004569
 31
0.0
  0
LINE
  5
D3
330
1F
100
AcDbEntity
  8
0
  6
CONTINUOUS
 62
     7
100
AcDbLine
 10
313.2233143281
 20
333.071004569
 30
0.0
 11
313.2233143281
 21
343.071004569
 31
0.0
  0
SPLINE
  5
D4
330
1F
100
AcDbEntity
  8
0
  6
CONTINUOUS
 62
     7
100
AcDbSpline
210
0.0
220
0.0
230
1.0
 70
     8
 71
     3
 72
    13
 73
     9
 74
     0
 42
0.00000001
 43
0.00000001
 12
1.0
 22
0.0
 32
0.0
 13
1.0
 23
0.0
 33
0.0
 40
0.0
 40
0.0
 40
0.0
 40
0.0
 40
0.1215844905454721
 40
0.2483038543729848
 40
0.4119046008389899
 40
0.5800020510814112
 40
0.7885021234788882
 40
1.0
 40
1.0
 40
1.0
 40
1.0
 10
372.4778430727368
 20
460.8314766117133
 30
0.0
 10
372.7363947999351
 20
461.4525029115703
 30
0.0
 10
373.2644176598416
 20
462.7207832919842
 30
0.0
 10
374.6535662173915
 20
464.5428934784592
 30
0.0
 10
376.4989517281207
 20
466.2830356846034
 30
0.0
 10
378.9715238327173
 20
467.9598248350733
 30
0.0
 10
381.8737110988918
 20
469.4299567937592
 30
0.0
 10
384.0631557733187
 20
470.1888497364101
 30
0.0
 10
385.165691870445
 20
470.5710045690486
 30
0.0
  0
SPLINE
  5
D5
330
1F
100
AcDbEntity
  8
0
  6
CONTINUOUS
 62
     7
100
AcDbSpline
210
0.0
220
0.0
230
1.0
 70
     8
 71
     3
 72
    16
 73
    12
 74
     0
 42
0.00000001
 43
0.00000001
 12
1.0
 22
0.0
 32
0.0
 13
1.0
 23
0.0
 33
0.0
 40
0.0
 40
0.0
 40
0.0
 40
0.0
 40
0.2754018244531133
 40
0.424251032015558
 40
0.5725941793151977
 40
0.676036082502684
 40
0.728295193121734
 40
0.7804565133772332
 40
0.8543556695955649
 40
0.9286897348817614
 40
1.0
 40
1.0
 40
1.0
 40
1.0
 10
401.3906119789726
 20
446.8838585618731
 30
0.0
 10
398.001437167992
 20
446.9047646475365
 30
0.0
 10
392.780480792358
 20
446.9369700566172
 30
0.0
 10
385.7678094106274
 20
447.6886658362782
 30
0.0
 10
380.9566058756004
 20
448.8542540985031
 30
0.0
 10
377.521538198012
 20
450.3987749544495
 30
0.0
 10
375.4147770474017
 20
451.8605292680071
 30
0.0
 10
373.8178171622503
 20
453.3796841450156
 30
0.0
 10
372.468466423
 20
455.4829231845138
 30
0.0
 10
371.8484724658995
 20
458.209442629654
 30
0.0
 10
372.2709768170437
 20
459.969646799078
 30
0.0
 10
372.4778430727368
 20
460.8314766117133
 30
0.0
  0
LINE
  5
D6
330
1F
100
AcDbEntity
  8
0
  6
CONTINUOUS
 62
     7
100
AcDbLine
 10
412.7233143281
 20
446.9258819612
 30
0.0
 11
401.390611979
 21
446.8838585619
 31
0.0
  0
LINE
  5
D7
330
1F
100
AcDbEntity
  8
0
  6
CONTINUOUS
 62
     7
100
AcDbLine
 10
467.7233143281
 20
446.9258819612
 30
0.0
 11
412.7233143281
 21
446.9258819612
 31
0.0
  0
LINE
  5
D8
330
1F
100
AcDbEntity
  8
0
  6
CONTINUOUS
 62
     7
100
AcDbLine
 10
467.7233143281
 20
446.9258819612
 30
0.0
 11
467.7233143281
 21
444.571004569
 31
0.0
  0
ARC
  5
D9
330
1F
100
AcDbEntity
  8
0
  6
CONTINUOUS
 62
     7
100
AcDbCircle
 10
270.7532231169
 20
1011.3185525728
 30
0.0
 40
600.000000000003
100
AcDbArc
 50
273.9626587205
 51
289.1646231125
  0
LINE
  5
DA
330
1F
100
AcDbEntity
  8
0
  6
CONTINUOUS
 62
     7
100
AcDbLine
 10
300.1229110957
 20
470.571004569
 30
0.0
 11
385.1656918704
 21
470.571004569
 31
0.0
  0
LINE
  5
DB
330
1F
100
AcDbEntity
  8
0
  6
CONTINUOUS
 62
     7
100
AcDbLine
 10
660.8233143281
 20
441.8988833098
 30
0.0
 11
660.8233143281
 21
441.3110609418
 31
0.0
  0
LINE
  5
DC
330
1F
100
AcDbEntity
  8
0
  6
CONTINUOUS
 62
     7
100
AcDbLine
 10
687.7233143281
 20
441.3110609418
 30
0.0
 11
687.7233143281
 21
449.9002241159
 31
0.0
  0
LINE
  5
DD
330
1F
100
AcDbEntity
  8
0
  6
CONTINUOUS
 62
     7
100
AcDbLine
 10
687.7233143281
 20
449.9002241159
 30
0.0
 11
687.7211092859
 21
450.141512916
 31
0.0
  0
LINE
  5
DE
330
1F
100
AcDbEntity
  8
0
  6
CONTINUOUS
 62
     7
100
AcDbLine
 10
-452.5921565591
 20
181.103758177
 30
0.0
 11
-435.5921565591
 21
181.103758177
 31
0.0
  0
LINE
  5
DF
330
1F
100
AcDbEntity
  8
0
  6
CONTINUOUS
 62
     7
100
AcDbLine
 10
-435.5921565591
 20
183.103758177
 30
0.0
 11
-434.0921565591
 21
183.103758177
 31
0.0
  0
LINE
  5
E0
330
1F
100
AcDbEntity
  8
0
  6
CONTINUOUS
 62
     7
100
AcDbLine
 10
-429.0921565591
 20
183.103758177
 30
0.0
 11
-416.0227585476
 21
183.103758177
 31
0.0
  0
LINE
  5
E1
330
1F
100
AcDbEntity
  8
0
  6
CONTINUOUS
 62
     7
100
AcDbLine
 10
-348.5921565591
 20
243.103758177
 30
0.0
 11
-435.5921565591
 21
243.103758177
 31
0.0
  0
LINE
  5
E2
330
1F
100
AcDbEntity
  8
0
  6
CONTINUOUS
 62
     7
100
AcDbLine
 10
-435.5921565591
 20
256.103758177
 30
0.0
 11
-452.5921565591
 21
256.103758177
 31
0.0
  0
LINE
  5
E3
330
1F
100
AcDbEntity
  8
0
  6
CONTINUOUS
 62
     7
100
AcDbLine
 10
-55.5921565591
 20
181.103758177
 30
0.0
 11
-38.5921565591
 21
181.103758177
 31
0.0
  0
LINE
  5
E4
330
1F
100
AcDbEntity
  8
0
  6
CONTINUOUS
 62
     7
100
AcDbLine
 10
-55.5921565591
 20
243.103758177
 30
0.0
 11
-142.5921565591
 21
243.103758177
 31
0.0
  0
LINE
  5
E5
330
1F
100
AcDbEntity
  8
0
  6
CONTINUOUS
 62
     7
100
AcDbLine
 10
-75.1647073557
 20
183.103758177
 30
0.0
 11
-62.0921565591
 21
183.103758177
 31
0.0
  0
LINE
  5
E6
330
1F
100
AcDbEntity
  8
0
  6
CONTINUOUS
 62
     7
100
AcDbLine
 10
-57.0921565591
 20
183.103758177
 30
0.0
 11
-55.5921565591
 21
183.103758177
 31
0.0
  0
LINE
  5
E7
330
1F
100
AcDbEntity
  8
0
  6
CONTINUOUS
 62
     7
100
AcDbLine
 10
-38.5921565591
 20
256.103758177
 30
0.0
 11
-55.5921565591
 21
256.103758177
 31
0.0
  0
SPLINE
  5
E8
330
1F
100
AcDbEntity
  8
0
  6
CONTINUOUS
 62
     7
100
AcDbSpline
210
0.0
220
0.0
230
1.0
 70
     8
 71
     3
 72
    35
 73
    31
 74
     0
 42
0.00000001
 43
0.00000001
 12
1.0
 22
0.0
 32
0.0
 13
1.0
 23
0.0
 33
0.0
 40
0.0
 40
0.0
 40
0.0
 40
0.0
 40
0.0370257532678874
 40
0.0793838743775414
 40
0.1217028337345393
 40
0.163963256197159
 40
0.2056714933533775
 40
0.2476394110251461
 40
0.2899838629883794
 40
0.3325880111688447
 40
0.3753338687910859
 40
0.4181132149838789
 40
0.4608459477113959
 40
0.503459308600041
 40
0.5453214502130473
 40
0.5890511594997624
 40
0.6338182711016467
 40
0.6802263005024454
 40
0.7296352799475788
 40
0.7859146904925611
 40
0.8173690968304275
 40
0.8420274074478422
 40
0.8639968242002158
 40
0.8842014911028303
 40
0.9036234772705453
 40
0.9228809577416789
 40
0.9421933830301603
 40
0.961652232245393
 40
0.9812210863739707
 40
0.9999999999999999
 40
0.9999999999999999
 40
0.9999999999999999
 40
0.9999999999999999
 10
-117.6716770493301
 20
174.8891830184477
 30
0.0
 10
-116.3524143263082
 20
175.0713300464533
 30
0.0
 10
-113.5238915541279
 20
175.461856518253
 30
0.0
 10
-109.2086954702086
 20
176.118193570185
 30
0.0
 10
-104.7510525105483
 20
176.8418221897043
 30
0.0
 10
-100.381923661053
 20
177.60407371972
 30
0.0
 10
-96.11278938986433
 20
178.3988662924049
 30
0.0
 10
-91.94606183514323
 20
179.2228936520494
 30
0.0
 10
-87.87442855742539
 20
180.0760267606434
 30
0.0
 10
-83.92191049905442
 20
180.9523004141334
 30
0.0
 10
-80.11864588799253
 20
181.8442781423842
 30
0.0
 10
-76.49335919656855
 20
182.7443808857249
 30
0.0
 10
-73.06776346427074
 20
183.647386751398
 30
0.0
 10
-69.8889050727837
 20
184.5386805669094
 30
0.0
 10
-66.90317059178963
 20
185.428882684358
 30
0.0
 10
-64.0991179546013
 20
186.3233027124978
 30
0.0
 10
-61.44352275151868
 20
187.2378693925527
 30
0.0
 10
-58.928774530498
 20
188.1853267286236
 30
0.0
 10
-56.46098693336376
 20
189.2263824789794
 30
0.0
 10
-54.40298472684665
 20
190.2377089048728
 30
0.0
 10
-52.70506520139859
 20
191.2438519179993
 30
0.0
 10
-51.46437703119072
 20
192.1008000506518
 30
0.0
 10
-50.3353224340172
 20
193.0139562181587
 30
0.0
 10
-49.24978129858273
 20
194.0594135781888
 30
0.0
 10
-48.21260814004058
 20
195.2750907872154
 30
0.0
 10
-47.25544837742021
 20
196.6858123738194
 30
0.0
 10
-46.42825205098539
 20
198.2904162310037
 30
0.0
 10
-45.79490888133967
 20
200.0620859671692
 30
0.0
 10
-45.37998955526107
 20
201.9283706254912
 30
0.0
 10
-45.32809538456478
 20
203.2109860207163
 30
0.0
 10
-45.30268279326518
 20
203.8390831729803
 30
0.0
  0
SPLINE
  5
E9
330
1F
100
AcDbEntity
  8
0
  6
CONTINUOUS
 62
     7
100
AcDbSpline
210
0.0
220
0.0
230
1.0
 70
     8
 71
     3
 72
    36
 73
    32
 74
     0
 42
0.00000001
 43
0.00000001
 12
1.0
 22
0.0
 32
0.0
 13
1.0
 23
0.0
 33
0.0
 40
0.0
 40
0.0
 40
0.0
 40
0.0
 40
0.0105194369426097
 40
0.0300121934567
 40
0.0490039921932259
 40
0.0676011784192616
 40
0.0859170903333224
 40
0.1041584889141727
 40
0.1226455630309459
 40
0.1419360990683482
 40
0.1629209268480998
 40
0.1869385842842177
 40
0.2162332690511074
 40
0.2570413729358376
 40
0.3132065413368453
 40
0.3597612205278318
 40
0.4037477302065161
 40
0.4501497210976592
 40
0.4947330301176125
 40
0.5380204530169559
 40
0.5801902241526903
 40
0.6229498733259728
 40
0.6655966375243253
 40
0.7081721575394254
 40
0.7506880351610374
 40
0.7931410407658782
 40
0.8355242424659535
 40
0.8778232525183105
 40
0.919781232872175
 40
0.9619036895812487
 40
1.0
 40
1.0
 40
1.0
 40
1.0
 10
-445.843372410067
 20
203.9218458224124
 30
0.0
 10
-445.8503096651896
 20
203.5689405377722
 30
0.0
 10
-445.8701018122345
 20
202.5620937139073
 30
0.0
 10
-445.5997136916612
 20
200.9509312848795
 30
0.0
 10
-445.0943325063405
 20
199.1586838357029
 30
0.0
 10
-444.385900411299
 20
197.530495203102
 30
0.0
 10
-443.5403557899293
 20
196.0827657478344
 30
0.0
 10
-442.6015574838372
 20
194.8207083163327
 30
0.0
 10
-441.6093775850499
 20
193.7322985764677
 30
0.0
 10
-440.5816089027988
 20
192.7884081344037
 30
0.0
 10
-439.5053335135205
 20
191.9458779533419
 30
0.0
 10
-438.3318088381969
 20
191.153196030648
 30
0.0
 10
-436.8958669232482
 20
190.3120878431657
 30
0.0
 10
-434.9896286091983
 20
189.3527905911039
 30
0.0
 10
-432.7059520411229
 20
188.3671677989146
 30
0.0
 10
-430.118888063076
 20
187.3785840743847
 30
0.0
 10
-427.4656362519996
 20
186.4524498891705
 30
0.0
 10
-424.6007769293481
 20
185.52824407061
 30
0.0
 10
-421.4966515217419
 20
184.5965489248867
 30
0.0
 10
-418.2524601831592
 20
183.6844142514842
 30
0.0
 10
-414.8355439726812
 20
182.7810657801209
 30
0.0
 10
-411.2399696271463
 20
181.8846059757753
 30
0.0
 10
-407.449409487399
 20
180.9922526054764
 30
0.0
 10
-403.5006620418935
 20
180.1141034087576
 30
0.0
 10
-399.4107789231644
 20
179.2553544144836
 30
0.0
 10
-395.199109295403
 20
178.4216327950187
 30
0.0
 10
-390.8866122520549
 20
177.6188396646212
 30
0.0
 10
-386.5034622070876
 20
176.8538636902779
 30
0.0
 10
-382.0643520226971
 20
176.1318192551525
 30
0.0
 10
-377.7308578103006
 20
175.4712354117181
 30
0.0
 10
-374.870996870678
 20
175.0753498432284
 30
0.0
 10
-373.5128340116462
 20
174.887341724337
 30
0.0
  0
SPLINE
  5
EA
330
1F
100
AcDbEntity
  8
0
  6
CONTINUOUS
 62
     7
100
AcDbSpline
210
0.0
220
0.0
230
1.0
 70
     8
 71
     3
 72
    23
 73
    19
 74
     0
 42
0.00000001
 43
0.00000001
 12
1.0
 22
0.0
 32
0.0
 13
1.0
 23
0.0
 33
0.0
 40
0.0
 40
0.0
 40
0.0
 40
0.0
 40
0.0356560063320627
 40
0.1029257957009584
 40
0.1701962744192217
 40
0.2374667767322016
 40
0.3047372991916388
 40
0.3720078383425643
 40
0.4392783907092164
 40
0.5065489527995384
 40
0.5738195211092052
 40
0.6410900914267461
 40
0.7083606597658725
 40
0.775631222613964
 40
0.8429017764649012
 40
0.9101723178234724
 40
0.9774428432094244
 40
1.0
 40
1.0
 40
1.0
 40
1.0
 10
-373.5125061869037
 20
174.882616483399
 30
0.0
 10
-370.4893481512436
 20
174.4794185732773
 30
0.0
 10
-361.7626011495678
 20
173.3155342801863
 30
0.0
 10
-347.3010513104305
 20
171.6305443431357
 30
0.0
 10
-330.1214489911609
 20
169.9296034356657
 30
0.0
 10
-312.9128745247407
 20
168.5463609128816
 30
0.0
 10
-295.6819200470911
 20
167.4759021869889
 30
0.0
 10
-278.4341479223303
 20
166.7200284384652
 30
0.0
 10
-261.1753889121202
 20
166.2786059866015
 30
0.0
 10
-243.9114073156574
 20
166.1518877823793
 30
0.0
 10
-226.6479870801498
 20
166.3398831414436
 30
0.0
 10
-209.3909108241168
 20
166.8425570113108
 30
0.0
 10
-192.1459459543159
 20
167.6596630580943
 30
0.0
 10
-174.918909312125
 20
168.7912121689951
 30
0.0
 10
-157.7154105941254
 20
170.2357657170535
 30
0.0
 10
-140.5418024744111
 20
171.9967945672992
 30
0.0
 10
-127.199200996754
 20
173.6020595076352
 30
0.0
 10
-119.5840837447138
 20
174.6255913833316
 30
0.0
 10
-117.6718069312554
 20
174.8826164833988
 30
0.0
  0
SPLINE
  5
EB
330
1F
100
AcDbEntity
  8
0
  6
CONTINUOUS
 62
     7
100
AcDbSpline
210
0.0
220
0.0
230
1.0
 70
     8
 71
     3
 72
    29
 73
    25
 74
     0
 42
0.00000001
 43
0.00000001
 12
1.0
 22
0.0
 32
0.0
 13
1.0
 23
0.0
 33
0.0
 40
0.0
 40
0.0
 40
0.0
 40
0.0
 40
0.0082084844150651
 40
0.0401772845098256
 40
0.074901297267741
 40
0.1136328456570396
 40
0.1559780091970507
 40
0.2014069527963842
 40
0.2492808503126906
 40
0.2989786066790704
 40
0.3499636632779921
 40
0.4018044419592743
 40
0.4541181738188983
 40
0.5063371108793032
 40
0.5590230870251782
 40
0.6125478986619391
 40
0.666591507690087
 40
0.7208395614679143
 40
0.7749088552653186
 40
0.8285046474480179
 40
0.8815196385984306
 40
0.934840686543768
 40
0.9886745419449381
 40
0.9999999999999999
 40
0.9999999999999999
 40
0.9999999999999999
 40
0.9999999999999999
 10
-67.11891244822412
 20
213.9762642621897
 30
0.0
 10
-67.11331545356764
 20
213.979568172381
 30
0.0
 10
-67.0859203785033
 20
213.9957395059714
 30
0.0
 10
-67.27498626211198
 20
213.8925559988338
 30
0.0
 10
-67.70952764621796
 20
213.6870201470747
 30
0.0
 10
-68.45000792161163
 20
213.3650442163156
 30
0.0
 10
-69.50198081266859
 20
212.9463334348225
 30
0.0
 10
-70.88635926870369
 20
212.4364340793393
 30
0.0
 10
-72.60091021545223
 20
211.8491211899616
 30
0.0
 10
-74.63575419212457
 20
211.1973613565402
 30
0.0
 10
-76.97221188382547
 20
210.4948393869266
 30
0.0
 10
-79.58865383229153
 20
209.7537510897832
 30
0.0
 10
-82.4477125396692
 20
208.9901480335004
 30
0.0
 10
-85.54007328897451
 20
208.2111694578444
 30
0.0
 10
-88.84747087136938
 20
207.422767489862
 30
0.0
 10
-92.3675691854045
 20
206.6284585853539
 30
0.0
 10
-96.07927592904508
 20
205.8361943134027
 30
0.0
 10
-99.94257799134323
 20
205.0575535077535
 30
0.0
 10
-103.9145826777774
 20
204.303606202442
 30
0.0
 10
-107.9549604237155
 20
203.5844653015523
 30
0.0
 10
-112.0530511751454
 20
202.9026764146149
 30
0.0
 10
-116.2088443094992
 20
202.2620487644189
 30
0.0
 10
-119.3053072146169
 20
201.8080161623974
 30
0.0
 10
-121.0094232914511
 20
201.5828332314867
 30
0.0
 10
-121.3056187871588
 20
201.54369377922
 30
0.0
  0
SPLINE
  5
EC
330
1F
100
AcDbEntity
  8
0
  6
CONTINUOUS
 62
     7
100
AcDbSpline
210
0.0
220
0.0
230
1.0
 70
     8
 71
     3
 72
    28
 73
    24
 74
     0
 42
0.00000001
 43
0.00000001
 12
1.0
 22
0.0
 32
0.0
 13
1.0
 23
0.0
 33
0.0
 40
0.0
 40
0.0
 40
0.0
 40
0.0
 40
0.0424841603919718
 40
0.0966110236139116
 40
0.1507785294768413
 40
0.2048774173582
 40
0.2584805269687773
 40
0.3121840941214011
 40
0.3660419274582082
 40
0.4199515334679403
 40
0.473767885987398
 40
0.5273517666142997
 40
0.5805482307573891
 40
0.6332304193833014
 40
0.6854545458797987
 40
0.7376029798146765
 40
0.7892209348113303
 40
0.8396725085973079
 40
0.8830268795848716
 40
0.9230743251798965
 40
0.9591867734143099
 40
0.9911048321878679
 40
1.0
 40
1.0
 40
1.0
 40
1.0
 10
-369.8773967570119
 20
201.5423336373475
 30
0.0
 10
-370.9872534626467
 20
201.6946912851726
 30
0.0
 10
-373.5111209795483
 20
202.041159902558
 30
0.0
 10
-377.4312735238091
 20
202.6346850986664
 30
0.0
 10
-381.6098776128447
 20
203.3091075639123
 30
0.0
 10
-385.7078600058849
 20
204.0197169118497
 30
0.0
 10
-389.7046455572032
 20
204.7590193135119
 30
0.0
 10
-393.5857159291604
 20
205.5221840793663
 30
0.0
 10
-397.3434149006302
 20
206.3056224416527
 30
0.0
 10
-400.9523396982153
 20
207.102168334409
 30
0.0
 10
-404.3837386479894
 20
207.9033416601647
 30
0.0
 10
-407.6092146995804
 20
208.7000770131704
 30
0.0
 10
-410.6026994565004
 20
209.4831269469852
 30
0.0
 10
-413.3423877892637
 20
210.2436796865518
 30
0.0
 10
-415.8210724789388
 20
210.974841888413
 30
0.0
 10
-418.0293172965572
 20
211.6691315133351
 30
0.0
 10
-419.9441596371805
 20
212.3140107604182
 30
0.0
 10
-421.4785745491283
 20
212.8716802266229
 30
0.0
 10
-422.6294899847416
 20
213.3245274073385
 30
0.0
 10
-423.4279147895565
 20
213.6676817097721
 30
0.0
 10
-423.8957651105836
 20
213.8864415539569
 30
0.0
 10
-424.1053439531858
 20
213.9997916851339
 30
0.0
 10
-424.073624773493
 20
213.9811192197191
 30
0.0
 10
-424.066711636507
 20
213.9770495901597
 30
0.0
  0
SPLINE
  5
ED
330
1F
100
AcDbEntity
  8
0
  6
CONTINUOUS
 62
     7
100
AcDbSpline
210
0.0
220
0.0
230
1.0
 70
     8
 71
     3
 72
    23
 73
    19
 74
     0
 42
0.00000001
 43
0.00000001
 12
1.0
 22
0.0
 32
0.0
 13
1.0
 23
0.0
 33
0.0
 40
0.0
 40
0.0
 40
0.0
 40
0.0
 40
0.035655977947008
 40
0.1038948160474902
 40
0.1721343473403738
 40
0.2403738543919122
 40
0.3086133409816058
 40
0.3768528109359908
 40
0.4450922681027012
 40
0.5133317163456473
 40
0.5815711595403138
 40
0.6498106006690825
 40
0.7180500432227032
 40
0.7862894910844862
 40
0.8545289481313243
 40
0.9227684182288043
 40
0.9874167487957598
 40
0.9999999999999999
 40
0.9999999999999999
 40
0.9999999999999999
 40
0.9999999999999999
 10
-121.3056880410811
 20
201.5360385541131
 30
0.0
 10
-124.2429561027578
 20
201.1443038597043
 30
0.0
 10
-132.8016029979182
 20
200.0028626103431
 30
0.0
 10
-147.0125636883655
 20
198.3490185731065
 30
0.0
 10
-163.945249461677
 20
196.6792425191028
 30
0.0
 10
-180.9067347372906
 20
195.3270736994764
 30
0.0
 10
-197.890346679957
 20
194.2876493914496
 30
0.0
 10
-214.8904386072528
 20
193.5627570554799
 30
0.0
 10
-231.9010971988615
 20
193.1522631268372
 30
0.0
 10
-248.9164752573314
 20
193.0564125151042
 30
0.0
 10
-265.9307058274503
 20
193.2752071790023
 30
0.0
 10
-282.9379248115621
 20
193.808592028164
 30
0.0
 10
-299.932278631728
 20
194.6563326467145
 30
0.0
 10
-316.9078833307839
 20
195.8183186486726
 30
0.0
 10
-333.8589929066852
 20
197.2934729435812
 30
0.0
 10
-350.4825625942394
 20
199.0524059371316
 30
0.0
 10
-362.4817409493693
 20
200.535732268921
 30
0.0
 10
-368.8423057072792
 20
201.3958934928715
 30
0.0
 10
-369.8786250770771
 20
201.5360385541131
 30
0.0
  0
LINE
  5
EE
330
1F
100
AcDbEntity
  8
0
  6
CONTINUOUS
 62
     7
100
AcDbLine
 10
-445.8859397234
 20
221.3387345667
 30
0.0
 11
-445.8859397234
 21
203.9075860172
 31
0.0
  0
LINE
  5
EF
330
1F
100
AcDbEntity
  8
0
  6
CONTINUOUS
 62
     7
100
AcDbLine
 10
-45.2983733948
 20
203.9075860172
 30
0.0
 11
-45.2983733948
 21
221.3387345667
 31
0.0
  0
LINE
  5
F0
330
1F
100
AcDbEntity
  8
0
  6
CONTINUOUS
 62
     7
100
AcDbLine
 10
-62.0921565591
 20
182.6603830021
 30
0.0
 11
-57.0921565591
 21
182.6603830021
 31
0.0
  0
LINE
  5
F1
330
1F
100
AcDbEntity
  8
0
  6
CONTINUOUS
 62
     7
100
AcDbLine
 10
-434.0921565591
 20
182.6603830021
 30
0.0
 11
-429.0921565591
 21
182.6603830021
 31
0.0
  0
SPLINE
  5
F2
330
1F
100
AcDbEntity
  8
0
  6
CONTINUOUS
 62
     7
100
AcDbSpline
210
0.0
220
0.0
230
1.0
 70
     8
 71
     3
 72
    36
 73
    32
 74
     0
 42
0.00000001
 43
0.00000001
 12
1.0
 22
0.0
 32
0.0
 13
1.0
 23
0.0
 33
0.0
 40
0.0
 40
0.0
 40
0.0
 40
0.0
 40
0.0363446295589661
 40
0.0778508033968768
 40
0.1192665132710451
 40
0.1606060213630473
 40
0.2017438942123491
 40
0.2432130105907808
 40
0.2851531869691653
 40
0.3274297637895073
 40
0.3699075912552959
 40
0.4124667240144811
 40
0.4550134427471548
 40
0.4975938177180742
 40
0.540936342637752
 40
0.5853220715241032
 40
0.6312261303738742
 40
0.6796871716028566
 40
0.7334640715451299
 40
0.7685730977244764
 40
0.7965012012878507
 40
0.8207350935519949
 40
0.8423255236366535
 40
0.8624323164934196
 40
0.8819467725273465
 40
0.901386980090097
 40
0.9209036202394869
 40
0.9405598041785271
 40
0.9603023714667771
 40
0.9800873017725188
 40
1.0
 40
1.0
 40
1.0
 40
1.0
 10
-369.8784006712763
 20
229.6983442508581
 30
0.0
 10
-371.1638758664166
 20
229.8730598584915
 30
0.0
 10
-373.9173851992348
 20
230.2473036074384
 30
0.0
 10
-378.1145081914323
 20
230.8092745517105
 30
0.0
 10
-382.4434338581335
 20
231.3828597858526
 30
0.0
 10
-386.6922384552988
 20
231.9389980624518
 30
0.0
 10
-390.8535766386278
 20
232.4747283584175
 30
0.0
 10
-394.9276143010754
 20
232.9885252420783
 30
0.0
 10
-398.9118052742836
 20
233.4780880984471
 30
0.0
 10
-402.7814049219887
 20
233.9381782682893
 30
0.0
 10
-406.5042289107714
 20
234.3626418678149
 30
0.0
 10
-410.0515139312204
 20
234.7456879031523
 30
0.0
 10
-413.3989849311141
 20
235.0822241810473
 30
0.0
 10
-416.5539953019482
 20
235.3691776703488
 30
0.0
 10
-419.5301794822092
 20
235.6038829906064
 30
0.0
 10
-422.3485633155844
 20
235.7826496331954
 30
0.0
 10
-425.035209972369
 20
235.8980476215388
 30
0.0
 10
-427.667575993651
 20
235.9351739590923
 30
0.0
 10
-429.9399686276215
 20
235.8679618485201
 30
0.0
 10
-431.8802824257085
 20
235.6936415242671
 30
0.0
 10
-433.42696554444
 20
235.4572196800262
 30
0.0
 10
-434.8518889656152
 20
235.136855715522
 30
0.0
 10
-436.2578078126289
 20
234.7015250367751
 30
0.0
 10
-437.6757712165876
 20
234.1184783829875
 30
0.0
 10
-439.112810530568
 20
233.349095123293
 30
0.0
 10
-440.5410266550377
 20
232.3618905225435
 30
0.0
 10
-441.9062299824761
 20
231.1432999338293
 30
0.0
 10
-443.1474696339287
 20
229.7030177714229
 30
0.0
 10
-444.1991438126165
 20
228.0650537109855
 30
0.0
 10
-445.0496530035596
 20
226.2727479708477
 30
0.0
 10
-445.3797838179447
 20
224.9864150536894
 30
0.0
 10
-445.5453804927421
 20
224.3411785459718
 30
0.0
  0
SPLINE
  5
F3
330
1F
100
AcDbEntity
  8
0
  6
CONTINUOUS
 62
     7
100
AcDbSpline
210
0.0
220
0.0
230
1.0
 70
     8
 71
     3
 72
    37
 73
    33
 74
     0
 42
0.00000001
 43
0.00000001
 12
1.0
 22
0.0
 32
0.0
 13
1.0
 23
0.0
 33
0.0
 40
0.0
 40
0.0
 40
0.0
 40
0.0
 40
0.016933677601234
 40
0.0371953005112556
 40
0.0568312902479286
 40
0.0759717859546128
 40
0.0947246956072848
 40
0.1132085815067813
 40
0.1316416140470571
 40
0.1503497587903833
 40
0.1699177934600471
 40
0.1912643490704953
 40
0.2158025180818587
 40
0.2463174844956579
 40
0.2838894721708806
 40
0.3423686011434456
 40
0.3894345974606037
 40
0.4336691113451157
 40
0.4802695435489833
 40
0.524799207384441
 40
0.5678065196990144
 40
0.6108549989406654
 40
0.653376331861036
 40
0.6957252984601882
 40
0.737924402238991
 40
0.7799716785004468
 40
0.8218556122752063
 40
0.8635654326269377
 40
0.9049496784116637
 40
0.9462325031905843
 40
0.9875467243474346
 40
1.0
 40
1.0
 40
1.0
 40
1.0
 10
-45.65699391672945
 20
224.3355401390098
 30
0.0
 10
-45.78886115898492
 20
224.8858630155795
 30
0.0
 10
-46.07851127627111
 20
226.0946627373091
 30
0.0
 10
-46.86239184833216
 20
227.8235459237969
 30
0.0
 10
-47.88068182100547
 20
229.4790292125187
 30
0.0
 10
-49.06711434494357
 20
230.9137598701374
 30
0.0
 10
-50.35943023135778
 20
232.1245939565551
 30
0.0
 10
-51.70907274180464
 20
233.1146482251061
 30
0.0
 10
-53.06965117765469
 20
233.8989117139568
 30
0.0
 10
-54.41163615635189
 20
234.5039329142211
 30
0.0
 10
-55.73231897114858
 20
234.9638045223609
 30
0.0
 10
-57.06013320884725
 20
235.3123957107205
 30
0.0
 10
-58.48696377228541
 20
235.5811776968991
 30
0.0
 10
-60.08130778477324
 20
235.7744376243829
 30
0.0
 10
-62.16394504198533
 20
235.9073863573939
 30
0.0
 10
-64.57970205164276
 20
235.9298354112842
 30
0.0
 10
-67.34043327057488
 20
235.8514352208947
 30
0.0
 10
-70.10824227809002
 20
235.7063134159427
 30
0.0
 10
-73.06562473724118
 20
235.4973750474417
 30
0.0
 10
-76.24412267152636
 20
235.2270188248684
 30
0.0
 10
-79.5672115928503
 20
234.9066176148214
 30
0.0
 10
-83.04601224746914
 20
234.5424820281175
 30
0.0
 10
-86.70144802983945
 20
234.1353411529349
 30
0.0
 10
-90.5076536035964
 20
233.6908015735188
 30
0.0
 10
-94.45685517121963
 20
233.2121097422133
 30
0.0
 10
-98.52972613650913
 20
232.7037457172238
 30
0.0
 10
-102.7051569996029
 20
232.1704199475959
 30
0.0
 10
-106.9562968435195
 20
231.6173538383478
 30
0.0
 10
-111.2627499505152
 20
231.0496626675907
 30
0.0
 10
-115.6088999784842
 20
230.4697456052632
 30
0.0
 10
-118.9650122215957
 20
230.0181477914386
 30
0.0
 10
-120.8661758534932
 20
229.7582957045483
 30
0.0
 10
-121.3065109290235
 20
229.6981104651571
 30
0.0
  0
LINE
  5
F4
330
1F
100
AcDbEntity
  8
0
  6
CONTINUOUS
 62
     7
100
AcDbLine
 10
-45.5992932535
 20
224.0246211819
 30
0.0
 11
-45.6490952023
 21
224.3382367821
 31
0.0
  0
SPLINE
  5
F5
330
1F
100
AcDbEntity
  8
0
  6
CONTINUOUS
 62
     7
100
AcDbSpline
210
0.0
220
0.0
230
1.0
 70
     8
 71
     3
 72
     9
 73
     5
 74
     0
 42
0.00000001
 43
0.00000001
 12
1.0
 22
0.0
 32
0.0
 13
1.0
 23
0.0
 33
0.0
 40
0.0
 40
0.0
 40
0.0
 40
0.0
 40
0.4697007123811089
 40
1.0
 40
1.0
 40
1.0
 40
1.0
 10
-445.5237887698853
 20
224.3321508290647
 30
0.0
 10
-445.6306640195605
 20
223.869620982122
 30
0.0
 10
-445.8582030606096
 20
222.8848878643075
 30
0.0
 10
-445.8604600171827
 20
221.8782303873651
 30
0.0
 10
-445.8616568796456
 20
221.3444006444662
 30
0.0
  0
SPLINE
  5
F6
330
1F
100
AcDbEntity
  8
0
  6
CONTINUOUS
 62
     7
100
AcDbSpline
210
0.0
220
0.0
230
1.0
 70
     8
 71
     3
 72
    23
 73
    19
 74
     0
 42
0.00000001
 43
0.00000001
 12
1.0
 22
0.0
 32
0.0
 13
1.0
 23
0.0
 33
0.0
 40
0.0
 40
0.0
 40
0.0
 40
0.0
 40
0.0356559779470079
 40
0.1038948160474899
 40
0.1721343473403471
 40
0.2403738543918787
 40
0.3086133409816211
 40
0.3768528109359863
 40
0.4450922681026932
 40
0.5133317163456391
 40
0.5815711595403118
 40
0.6498106006690835
 40
0.7180500432227106
 40
0.7862894910844705
 40
0.8545289481313184
 40
0.9227684182288373
 40
0.9874167487957892
 40
1.0
 40
1.0
 40
1.0
 40
1.0
 10
-121.3056880410811
 20
229.6960590358804
 30
0.0
 10
-124.2429561027578
 20
229.3043243414715
 30
0.0
 10
-132.8016029979182
 20
228.1628830921103
 30
0.0
 10
-147.0125636883633
 20
226.5090390548739
 30
0.0
 10
-163.9452494616721
 20
224.8392630008703
 30
0.0
 10
-180.9067347372871
 20
223.487094181244
 30
0.0
 10
-197.8903466799554
 20
222.4476698732169
 30
0.0
 10
-214.8904386072533
 20
221.7227775372471
 30
0.0
 10
-231.9010971988601
 20
221.3122836086044
 30
0.0
 10
-248.9164752573303
 20
221.2164329968714
 30
0.0
 10
-265.93070582745
 20
221.4352276607695
 30
0.0
 10
-282.9379248115633
 20
221.9686125099311
 30
0.0
 10
-299.9322786317279
 20
222.8163531284819
 30
0.0
 10
-316.9078833307835
 20
223.9783391304399
 30
0.0
 10
-333.8589929066868
 20
225.4534934253483
 30
0.0
 10
-350.4825625942448
 20
227.2124264188994
 30
0.0
 10
-362.4817409493753
 20
228.6957527506891
 30
0.0
 10
-368.8423057072825
 20
229.5559139746391
 30
0.0
 10
-369.8786250770779
 20
229.6960590358805
 30
0.0
  0
LINE
  5
F7
330
1F
100
AcDbEntity
  8
0
  6
CONTINUOUS
 62
     7
100
AcDbLine
 10
-435.5921565591
 20
241.17279371
 30
0.0
 11
-435.5921565591
 21
235.0062568356
 31
0.0
  0
LINE
  5
F8
330
1F
100
AcDbEntity
  8
0
  6
CONTINUOUS
 62
     7
100
AcDbLine
 10
-435.5921565591
 20
189.6555675903
 30
0.0
 11
-435.5921565591
 21
181.103758177
 31
0.0
  0
LINE
  5
F9
330
1F
100
AcDbEntity
  8
0
  6
CONTINUOUS
 62
     7
100
AcDbLine
 10
-452.5921565591
 20
241.17279371
 30
0.0
 11
-452.5921565591
 21
181.103758177
 31
0.0
  0
LINE
  5
FA
330
1F
100
AcDbEntity
  8
0
  6
CONTINUOUS
 62
     7
100
AcDbLine
 10
-348.5921565591
 20
243.103758177
 30
0.0
 11
-348.5921565591
 21
227.0715275362
 31
0.0
  0
LINE
  5
FB
330
1F
100
AcDbEntity
  8
0
  6
CONTINUOUS
 62
     7
100
AcDbLine
 10
-435.5921565591
 20
256.103758177
 30
0.0
 11
-435.5921565591
 21
241.17279371
 31
0.0
  0
LINE
  5
FC
330
1F
100
AcDbEntity
  8
0
  6
CONTINUOUS
 62
     7
100
AcDbLine
 10
-452.5921565591
 20
256.103758177
 30
0.0
 11
-452.5921565591
 21
241.17279371
 31
0.0
  0
LINE
  5
FD
330
1F
100
AcDbEntity
  8
0
  6
CONTINUOUS
 62
     7
100
AcDbLine
 10
-38.5921565591
 20
241.17279371
 30
0.0
 11
-38.5921565591
 21
181.103758177
 31
0.0
  0
LINE
  5
FE
330
1F
100
AcDbEntity
  8
0
  6
CONTINUOUS
 62
     7
100
AcDbLine
 10
-55.5921565591
 20
241.17279371
 30
0.0
 11
-55.5921565591
 21
235.018172086
 31
0.0
  0
LINE
  5
FF
330
1F
100
AcDbEntity
  8
0
  6
CONTINUOUS
 62
     7
100
AcDbLine
 10
-55.5921565591
 20
189.6755687142
 30
0.0
 11
-55.5921565591
 21
181.103758177
 31
0.0
  0
LINE
  5
100
330
1F
100
AcDbEntity
  8
0
  6
CONTINUOUS
 62
     7
100
AcDbLine
 10
-142.5921565591
 20
243.103758177
 30
0.0
 11
-142.5921565591
 21
227.0837817824
 31
0.0
  0
LINE
  5
101
330
1F
100
AcDbEntity
  8
0
  6
CONTINUOUS
 62
     7
100
AcDbLine
 10
-38.5921565591
 20
256.103758177
 30
0.0
 11
-38.5921565591
 21
241.17279371
 31
0.0
  0
LINE
  5
102
330
1F
100
AcDbEntity
  8
0
  6
CONTINUOUS
 62
     7
100
AcDbLine
 10
-55.5921565591
 20
256.103758177
 30
0.0
 11
-55.5921565591
 21
241.17279371
 31
0.0
  0
LINE
  5
103
330
1F
100
AcDbEntity
  8
0
  6
CONTINUOUS
 62
     7
100
AcDbLine
 10
-420.2701988685
 20
227.0525212167
 30
0.0
 11
-420.2701988685
 21
212.4404791304
 31
0.0
  0
SPLINE
  5
104
330
1F
100
AcDbEntity
  8
0
  6
CONTINUOUS
 62
     7
100
AcDbSpline
210
0.0
220
0.0
230
1.0
 70
     8
 71
     3
 72
    20
 73
    16
 74
     0
 42
0.00000001
 43
0.00000001
 12
1.0
 22
0.0
 32
0.0
 13
1.0
 23
0.0
 33
0.0
 40
0.0
 40
0.0
 40
0.0
 40
0.0
 40
0.0793276927809405
 40
0.1589086283364403
 40
0.2382371818248968
 40
0.3175736898015983
 40
0.3971618060017007
 40
0.4765016891845404
 40
0.5562945530397236
 40
0.6363386509514299
 40
0.7161349963958987
 40
0.7966884883765663
 40
0.8774959615842931
 40
0.9580511591356571
 40
1.0
 40
1.0
 40
1.0
 40
1.0
 10
-379.0949273685854
 20
224.4553988292333
 30
0.0
 10
-380.9084660945564
 20
224.689908321131
 30
0.0
 10
-384.5413330200433
 20
225.1596759443019
 30
0.0
 10
-389.7781054647419
 20
225.8057573732995
 30
0.0
 10
-394.7818346675843
 20
226.3952070761821
 30
0.0
 10
-399.4683760611607
 20
226.9108274875358
 30
0.0
 10
-403.7943037212088
 20
227.3441439192941
 30
0.0
 10
-407.7164568588038
 20
227.6855620263225
 30
0.0
 10
-411.1688680920377
 20
227.9210847808667
 30
0.0
 10
-414.1242456578314
 20
228.0457800849092
 30
0.0
 10
-416.5503556894786
 20
228.0532447528331
 30
0.0
 10
-418.3959717216342
 20
227.9332296641588
 30
0.0
 10
-419.6432413267121
 20
227.6858864336516
 30
0.0
 10
-420.2041298419672
 20
227.3778665438104
 30
0.0
 10
-420.2533459006991
 20
227.1355106992561
 30
0.0
 10
-420.2701988685066
 20
227.0525212167277
 30
0.0
  0
LWPOLYLINE
  5
105
330
1F
100
AcDbEntity
  8
0
  6
CONTINUOUS
 62
     7
100
AcDbPolyline
 90
       15
 70
   128
 43
0.0
 10
-379.0949273686
 20
224.4553988292
 10
-360.1301194893
 20
221.8906577061
 10
-341.115958416
 20
219.7186191121
 10
-322.0606371491
 20
217.9402189558
 10
-302.9723664245
 20
216.5562235308
 10
-283.8593711758
 20
215.5672291862
 10
-264.72988699
 20
214.9736620692
 10
-245.5921565591
 20
214.7757779414
 10
-226.4544261281
 20
214.9736620692
 10
-207.3249419423
 20
215.5672291862
 10
-188.2119466936
 20
216.5562235308
 10
-169.1236759691
 20
217.9402189558
 10
-150.0683547022
 20
219.7186191121
 10
-131.0541936289
 20
221.8906577061
 10
-112.0893857496
 20
224.4553988292
  0
SPLINE
  5
106
330
1F
100
AcDbEntity
  8
0
  6
CONTINUOUS
 62
     7
100
AcDbSpline
210
0.0
220
0.0
230
1.0
 70
     8
 71
     3
 72
    20
 73
    16
 74
     0
 42
0.00000001
 43
0.00000001
 12
1.0
 22
0.0
 32
0.0
 13
1.0
 23
0.0
 33
0.0
 40
0.0
 40
0.0
 40
0.0
 40
0.0
 40
0.0812309708434213
 40
0.1627205300570202
 40
0.24395016697612
 40
0.3251638619585202
 40
0.4066381877479648
 40
0.4878483650282391
 40
0.5685674458334297
 40
0.6495472426136524
 40
0.7302625409545312
 40
0.8102093947529613
 40
0.8904142048004835
 40
0.970359729590812
 40
1.0
 40
1.0
 40
1.0
 40
1.0
 10
-70.91411424964959
 20
227.0525212167314
 30
0.0
 10
-70.97666065587867
 20
227.2074337340236
 30
0.0
 10
-71.10195257679366
 20
227.5177519127247
 30
0.0
 10
-72.08869492340588
 20
227.8238331200564
 30
0.0
 10
-73.64262407335589
 20
228.011498100918
 30
0.0
 10
-75.82606278494572
 20
228.0642465450871
 30
0.0
 10
-78.57588120031598
 20
227.9940006841458
 30
0.0
 10
-81.85862521287108
 20
227.8055242353808
 30
0.0
 10
-85.64798541756733
 20
227.5031455690193
 30
0.0
 10
-89.876225858613
 20
227.1013509211231
 30
0.0
 10
-94.48651995806928
 20
226.6111209393738
 30
0.0
 10
-99.42899970555163
 20
226.0427916933969
 30
0.0
 10
-104.6262513147327
 20
225.4111189330433
 30
0.0
 10
-108.8961663273615
 20
224.870586376809
 30
0.0
 10
-111.409571328786
 20
224.5437893983904
 30
0.0
 10
-112.0893857495729
 20
224.4553988292332
 30
0.0
  0
LINE
  5
107
330
1F
100
AcDbEntity
  8
0
  6
CONTINUOUS
 62
     7
100
AcDbLine
 10
-70.9141142497
 20
212.43339434
 30
0.0
 11
-70.9141142497
 21
227.0525212167
 31
0.0
  0
LWPOLYLINE
  5
108
330
1F
100
AcDbEntity
  8
0
  6
CONTINUOUS
 62
     7
100
AcDbPolyline
 90
        3
 70
   128
 43
0.0
 10
-445.5712394634
 20
224.2202009515
 10
-445.8748522195
 20
221.8826704855
 10
-445.8859397234
 20
221.3387345667
  0
LWPOLYLINE
  5
109
330
1F
100
AcDbEntity
  8
0
  6
CONTINUOUS
 62
     7
100
AcDbPolyline
 90
        3
 70
   128
 43
0.0
 10
-45.2983733948
 20
221.3387345667
 10
-45.3094608987
 20
221.8826704855
 10
-45.6130736547
 20
224.2202009515
  0
LINE
  5
10A
330
1F
100
AcDbEntity
  8
0
  6
CONTINUOUS
 62
     7
100
AcDbLine
 10
-62.0921565591
 20
186.8720533742
 30
0.0
 11
-62.0921565591
 21
182.6603830021
 31
0.0
  0
LINE
  5
10B
330
1F
100
AcDbEntity
  8
0
  6
CONTINUOUS
 62
     7
100
AcDbLine
 10
-57.0921565591
 20
188.9059178312
 30
0.0
 11
-57.0921565591
 21
182.6603830021
 31
0.0
  0
LINE
  5
10C
330
1F
100
AcDbEntity
  8
0
  6
CONTINUOUS
 62
     7
100
AcDbLine
 10
-429.0921565591
 20
186.8770822771
 30
0.0
 11
-429.0921565591
 21
182.6603830021
 31
0.0
  0
LINE
  5
10D
330
1F
100
AcDbEntity
  8
0
  6
CONTINUOUS
 62
     7
100
AcDbLine
 10
-434.0921565591
 20
188.9215251688
 30
0.0
 11
-434.0921565591
 21
182.6603830021
 31
0.0
  0
LINE
  5
10E
330
1F
100
AcDbEntity
  8
0
  6
CONTINUOUS
 62
     7
100
AcDbLine
 10
-62.0921565591
 20
242.0161233173
 30
0.0
 11
-62.0921565591
 21
235.8756024432
 31
0.0
  0
LINE
  5
10F
330
1F
100
AcDbEntity
  8
0
  6
CONTINUOUS
 62
     7
100
AcDbLine
 10
-57.0921565591
 20
242.0161233173
 30
0.0
 11
-57.0921565591
 21
235.2992677373
 31
0.0
  0
LINE
  5
110
330
1F
100
AcDbEntity
  8
0
  6
CONTINUOUS
 62
     7
100
AcDbLine
 10
-429.0921565591
 20
242.0161233173
 30
0.0
 11
-429.0921565591
 21
235.8650148362
 31
0.0
  0
LINE
  5
111
330
1F
100
AcDbEntity
  8
0
  6
CONTINUOUS
 62
     7
100
AcDbLine
 10
-434.0921565591
 20
242.0161233173
 30
0.0
 11
-434.0921565591
 21
235.2897095571
 31
0.0
  0
LINE
  5
112
330
1F
100
AcDbEntity
  8
0
  6
CONTINUOUS
 62
     7
100
AcDbLine
 10
-452.5921565591
 20
45.9450284972
 30
0.0
 11
-435.5921565591
 21
45.9450284972
 31
0.0
  0
LINE
  5
113
330
1F
100
AcDbEntity
  8
0
  6
CONTINUOUS
 62
     7
100
AcDbLine
 10
-435.5921565591
 20
47.9450284972
 30
0.0
 11
-434.0921565591
 21
47.9450284972
 31
0.0
  0
LINE
  5
114
330
1F
100
AcDbEntity
  8
0
  6
CONTINUOUS
 62
     7
100
AcDbLine
 10
-429.0921565591
 20
47.9450284972
 30
0.0
 11
-348.5921565591
 21
47.9450284972
 31
0.0
  0
LINE
  5
115
330
1F
100
AcDbEntity
  8
0
  6
CONTINUOUS
 62
     7
100
AcDbLine
 10
-348.5921565591
 20
107.9450284972
 30
0.0
 11
-435.5921565591
 21
107.9450284972
 31
0.0
  0
LINE
  5
116
330
1F
100
AcDbEntity
  8
0
  6
CONTINUOUS
 62
     7
100
AcDbLine
 10
-435.5921565591
 20
120.9450284972
 30
0.0
 11
-452.5921565591
 21
120.9450284972
 31
0.0
  0
LINE
  5
117
330
1F
100
AcDbEntity
  8
0
  6
CONTINUOUS
 62
     7
100
AcDbLine
 10
-55.5921565591
 20
45.9450284972
 30
0.0
 11
-38.5921565591
 21
45.9450284972
 31
0.0
  0
LINE
  5
118
330
1F
100
AcDbEntity
  8
0
  6
CONTINUOUS
 62
     7
100
AcDbLine
 10
-55.5921565591
 20
107.9450284972
 30
0.0
 11
-142.5921565591
 21
107.9450284972
 31
0.0
  0
LINE
  5
119
330
1F
100
AcDbEntity
  8
0
  6
CONTINUOUS
 62
     7
100
AcDbLine
 10
-142.5921565591
 20
47.9450284972
 30
0.0
 11
-62.0921565591
 21
47.9450284972
 31
0.0
  0
LINE
  5
11A
330
1F
100
AcDbEntity
  8
0
  6
CONTINUOUS
 62
     7
100
AcDbLine
 10
-57.0921565591
 20
47.9450284972
 30
0.0
 11
-55.5921565591
 21
47.9450284972
 31
0.0
  0
LINE
  5
11B
330
1F
100
AcDbEntity
  8
0
  6
CONTINUOUS
 62
     7
100
AcDbLine
 10
-38.5921565591
 20
120.9450284972
 30
0.0
 11
-55.5921565591
 21
120.9450284972
 31
0.0
  0
SPLINE
  5
11C
330
1F
100
AcDbEntity
  8
0
  6
CONTINUOUS
 62
     7
100
AcDbSpline
210
0.0
220
0.0
230
1.0
 70
     8
 71
     3
 72
    26
 73
    22
 74
     0
 42
0.00000001
 43
0.00000001
 12
1.0
 22
0.0
 32
0.0
 13
1.0
 23
0.0
 33
0.0
 40
0.0
 40
0.0
 40
0.0
 40
0.0
 40
0.0333574661102864
 40
0.0885230229359427
 40
0.1439127571394405
 40
0.1993486982244663
 40
0.2546417837320856
 40
0.3096461770464186
 40
0.3640263727263667
 40
0.418191326736231
 40
0.472995349545323
 40
0.5279977951871123
 40
0.5831555222591002
 40
0.6384194953327094
 40
0.693731333818509
 40
0.7490390354409574
 40
0.8043069822352549
 40
0.8591690696084197
 40
0.9140900755153788
 40
0.9690900936994107
 40
1.0
 40
1.0
 40
1.0
 40
1.0
 10
-91.11445855793262
 20
-316.3364118445898
 30
0.0
 10
-90.21306089117259
 20
-315.9629454019014
 30
0.0
 10
-87.82095934289586
 20
-314.9718515831258
 30
0.0
 10
-84.07570394776043
 20
-313.0400020592165
 30
0.0
 10
-79.88597538438123
 20
-310.5825729584162
 30
0.0
 10
-75.86624014922016
 20
-307.8430710957156
 30
0.0
 10
-72.03985409398008
 20
-304.8558131197098
 30
0.0
 10
-68.43994032443274
 20
-301.6412511565664
 30
0.0
 10
-65.08361862953599
 20
-298.2160890607262
 30
0.0
 10
-61.95764749177993
 20
-294.5841001107695
 30
0.0
 10
-59.05914523954209
 20
-290.7414639887112
 30
0.0
 10
-56.39664246350018
 20
-286.6931679617633
 30
0.0
 10
-53.99202062217675
 20
-282.4674705674722
 30
0.0
 10
-51.85892413041093
 20
-278.0849016481162
 30
0.0
 10
-50.00968329490071
 20
-273.5673266001972
 30
0.0
 10
-48.45414838931403
 20
-268.937337418176
 30
0.0
 10
-47.20488570500611
 20
-264.2270352792448
 30
0.0
 10
-46.25871310137553
 20
-259.4555862801165
 30
0.0
 10
-45.63291240494635
 20
-254.6402956547315
 30
0.0
 10
-45.31475690231876
 20
-250.4979261435844
 30
0.0
 10
-45.3297393029613
 20
-247.9661778216282
 30
0.0
 10
-45.33512988621221
 20
-247.0552690543607
 30
0.0
  0
SPLINE
  5
11D
330
1F
100
AcDbEntity
  8
0
  6
CONTINUOUS
 62
     7
100
AcDbSpline
210
0.0
220
0.0
230
1.0
 70
     8
 71
     3
 72
    32
 73
    28
 74
     0
 42
0.00000001
 43
0.00000001
 12
1.0
 22
0.0
 32
0.0
 13
1.0
 23
0.0
 33
0.0
 40
0.0
 40
0.0
 40
0.0
 40
0.0
 40
0.0272945502063606
 40
0.0693151771010065
 40
0.1113182170308778
 40
0.1533109810128602
 40
0.1950546473745144
 40
0.2364569409988255
 40
0.2782381942119768
 40
0.3202984248950967
 40
0.3625271877345612
 40
0.4047855070104138
 40
0.4469285547438906
 40
0.4888423986219896
 40
0.5302732609317846
 40
0.5714940824532754
 40
0.6131752589902715
 40
0.6549891632431487
 40
0.6969044495303319
 40
0.738885846562685
 40
0.7808884076599201
 40
0.822879018020904
 40
0.8648333987519295
 40
0.9064643697362943
 40
0.948140918444372
 40
0.9898937724932207
 40
1.0
 40
1.0
 40
1.0
 40
1.0
 10
-445.8445998618319
 20
-247.0560325563164
 30
0.0
 10
-445.8461047173546
 20
-248.113557279662
 30
0.0
 10
-445.8499263347211
 20
-250.7991671517131
 30
0.0
 10
-445.5020277254835
 20
-255.1021044364556
 30
0.0
 10
-444.8437409575503
 20
-259.939575624434
 30
0.0
 10
-443.8665582177395
 20
-264.7123886205119
 30
0.0
 10
-442.5882842662414
 20
-269.3866621543966
 30
0.0
 10
-441.0149776764159
 20
-273.9589036986989
 30
0.0
 10
-439.1513014451107
 20
-278.4309832857931
 30
0.0
 10
-436.9944077969423
 20
-282.8017175730798
 30
0.0
 10
-434.55548582817
 20
-287.0393702660174
 30
0.0
 10
-431.8493501679389
 20
-291.1118005564354
 30
0.0
 10
-428.8939990498181
 20
-294.9881393292379
 30
0.0
 10
-425.7136728969483
 20
-298.6364163827523
 30
0.0
 10
-422.3245803978807
 20
-302.0375979395646
 30
0.0
 10
-418.7311084836779
 20
-305.2043699848958
 30
0.0
 10
-414.9299099044687
 20
-308.1394544503005
 30
0.0
 10
-410.9250935419067
 20
-310.8349220106273
 30
0.0
 10
-406.7442682928719
 20
-313.2687697924853
 30
0.0
 10
-402.4076587472574
 20
-315.4271852582643
 30
0.0
 10
-397.9366358045376
 20
-317.2977018705575
 30
0.0
 10
-393.3532970755813
 20
-318.8706980475056
 30
0.0
 10
-388.6893069664984
 20
-320.1324582186361
 30
0.0
 10
-383.963799428746
 20
-321.089972029822
 30
0.0
 10
-379.1924697925182
 20
-321.7128649262623
 30
0.0
 10
-375.6001575810922
 20
-322.0169440858251
 30
0.0
 10
-373.6036161258996
 20
-322.0132831907445
 30
0.0
 10
-373.2145328338778
 20
-322.0125697604743
 30
0.0
  0
SPLINE
  5
11E
330
1F
100
AcDbEntity
  8
0
  6
CONTINUOUS
 62
     7
100
AcDbSpline
210
0.0
220
0.0
230
1.0
 70
     8
 71
     3
 72
    17
 73
    13
 74
     0
 42
0.00000001
 43
0.00000001
 12
1.0
 22
0.0
 32
0.0
 13
1.0
 23
0.0
 33
0.0
 40
0.0
 40
0.0
 40
0.0
 40
0.0
 40
0.0622381901098539
 40
0.175939909696887
 40
0.2896043103339829
 40
0.4031978368145745
 40
0.5164805279660504
 40
0.6283912350276486
 40
0.741354054644433
 40
0.8550999804033484
 40
0.9693338837548087
 40
1.0
 40
1.0
 40
1.0
 40
1.0
 10
-45.34286797725861
 20
-47.05478356110705
 30
0.0
 10
-45.33670128877329
 20
-46.1636549991394
 30
0.0
 10
-45.31926879895764
 20
-43.64454127741692
 30
0.0
 10
-45.63299380008268
 20
-39.5054255332747
 30
0.0
 10
-46.25745115717642
 20
-34.66391524084668
 30
0.0
 10
-47.20445221720124
 20
-29.88035698308143
 30
0.0
 10
-48.45173287654861
 20
-25.19474418339272
 30
0.0
 10
-49.99729821711413
 20
-20.61133641398043
 30
0.0
 10
-51.82635907370217
 20
-16.12785236619853
 30
0.0
 10
-53.96994024762722
 20
-11.75599844915041
 30
0.0
 10
-55.74578800596902
 20
-8.512856476829493
 30
0.0
 10
-56.88873870014341
 20
-6.791115142413498
 30
0.0
 10
-57.13062865259227
 20
-6.426732031546242
 30
0.0
  0
SPLINE
  5
11F
330
1F
100
AcDbEntity
  8
0
  6
CONTINUOUS
 62
     7
100
AcDbSpline
210
0.0
220
0.0
230
1.0
 70
     8
 71
     3
 72
    17
 73
    13
 74
     0
 42
0.00000001
 43
0.00000001
 12
1.0
 22
0.0
 32
0.0
 13
1.0
 23
0.0
 33
0.0
 40
0.0
 40
0.0
 40
0.0
 40
0.0
 40
0.0784906709805363
 40
0.1921114249774457
 40
0.3059054542917314
 40
0.4197409906558366
 40
0.5335331025771328
 40
0.647052804149074
 40
0.759734165502933
 40
0.8728698587321289
 40
0.986101894488981
 40
1.0
 40
1.0
 40
1.0
 40
1.0
 10
-434.0662852141617
 20
-6.421549659318335
 30
0.0
 10
-434.6656562679207
 20
-7.367659465073936
 30
0.0
 10
-436.1326589803374
 20
-9.683329603935517
 30
0.0
 10
-438.1595291010777
 20
-13.55787405651666
 30
0.0
 10
-440.1768967472527
 20
-17.99769437912753
 30
0.0
 10
-441.8956652938384
 20
-22.56896502401857
 30
0.0
 10
-443.3191614983779
 20
-27.23867992185576
 30
0.0
 10
-444.4313620368848
 20
-31.97703880768173
 30
0.0
 10
-445.2465964094348
 20
-36.76905286529579
 30
0.0
 10
-445.7241643524116
 20
-41.59943648645039
 30
0.0
 10
-445.925695240726
 20
-45.03991080619215
 30
0.0
 10
-445.8761320763334
 20
-46.85943497399035
 30
0.0
 10
-445.8707137382327
 20
-47.05834876903307
 30
0.0
  0
SPLINE
  5
120
330
1F
100
AcDbEntity
  8
0
  6
CONTINUOUS
 62
     7
100
AcDbSpline
210
0.0
220
0.0
230
1.0
 70
     8
 71
     3
 72
    22
 73
    18
 74
     0
 42
0.00000001
 43
0.00000001
 12
1.0
 22
0.0
 32
0.0
 13
1.0
 23
0.0
 33
0.0
 40
0.0
 40
0.0
 40
0.0
 40
0.0
 40
0.0162547352659613
 40
0.0916524518317655
 40
0.1669813744198181
 40
0.2422228276684739
 40
0.3172154096990094
 40
0.3912609720796615
 40
0.4660104116894828
 40
0.5412876347390165
 40
0.6168997742972415
 40
0.6926156257765543
 40
0.7681658495693874
 40
0.8433482277336308
 40
0.9177823839197965
 40
0.9916562173051918
 40
1.0
 40
1.0
 40
1.0
 40
1.0
 10
-373.1362254316653
 20
27.89835223202242
 30
0.0
 10
-373.4847788927034
 20
27.89993237142753
 30
0.0
 10
-375.4501003067958
 20
27.90884199981245
 30
0.0
 10
-379.0230166072749
 20
27.6152983808073
 30
0.0
 10
-383.8267658033499
 20
27.00270587138127
 30
0.0
 10
-388.5687069590003
 20
26.05197482355009
 30
0.0
 10
-393.2096551883966
 20
24.80003636524636
 30
0.0
 10
-397.746908164973
 20
23.24726553800532
 30
0.0
 10
-402.179814309467
 20
21.40278433786718
 30
0.0
 10
-406.5147680419941
 20
19.26084736741768
 30
0.0
 10
-410.7207899221181
 20
16.83237756018199
 30
0.0
 10
-414.76696924719
 20
14.13251271125505
 30
0.0
 10
-418.6206050912369
 20
11.17727861140182
 30
0.0
 10
-422.2597571792279
 20
7.997051205044007
 30
0.0
 10
-425.6299829042034
 20
4.585462965885648
 30
0.0
 10
-427.8986190337625
 20
2.095587830433745
 30
0.0
 10
-428.9707303144753
 20
0.6922321773352863
 30
0.0
 10
-429.079532587971
 20
0.5498138590814133
 30
0.0
  0
SPLINE
  5
121
330
1F
100
AcDbEntity
  8
0
  6
CONTINUOUS
 62
     7
100
AcDbSpline
210
0.0
220
0.0
230
1.0
 70
     8
 71
     3
 72
    21
 73
    17
 74
     0
 42
0.00000001
 43
0.00000001
 12
1.0
 22
0.0
 32
0.0
 13
1.0
 23
0.0
 33
0.0
 40
0.0
 40
0.0
 40
0.0
 40
0.0
 40
0.0576929334843882
 40
0.1312865251423164
 40
0.2040708739857931
 40
0.2776600189982422
 40
0.3514993375642639
 40
0.4255363352772675
 40
0.4997099032930191
 40
0.5739462494168847
 40
0.6481775201640957
 40
0.7223565581563075
 40
0.7962050885076669
 40
0.8696616259013327
 40
0.9434415039580557
 40
1.0
 40
1.0
 40
1.0
 40
1.0
 10
-62.07810185482493
 20
0.4881242039191519
 30
0.0
 10
-62.87361302723538
 20
1.463591685951657
 30
0.0
 10
-64.68388494842159
 20
3.68337370033002
 30
0.0
 10
-67.78037549286259
 20
6.883823579972699
 30
0.0
 10
-71.30706161771491
 20
10.13096451820299
 30
0.0
 10
-75.04619661437059
 20
13.13853822936033
 30
0.0
 10
-78.99192237289324
 20
15.91282854548604
 30
0.0
 10
-83.12010438398704
 20
18.42960789680384
 30
0.0
 10
-87.41038760384242
 20
20.67522086349786
 30
0.0
 10
-91.84186502780112
 20
22.63664150459828
 30
0.0
 10
-96.39258554818494
 20
24.30316330873982
 30
0.0
 10
-101.035539599169
 20
25.66351611020288
 30
0.0
 10
-105.7423161223547
 20
26.71377236018784
 30
0.0
 10
-110.4998116114454
 20
27.4452852696955
 30
0.0
 10
-114.9210387098041
 20
27.86819893573401
 30
0.0
 10
-117.7600770863055
 20
27.90241671873978
 30
0.0
 10
-118.9920376803415
 20
27.91726504225218
 30
0.0
  0
LINE
  5
122
330
1F
100
AcDbEntity
  8
0
  6
CONTINUOUS
 62
     7
100
AcDbLine
 10
-445.8859397234
 20
-47.0549715028
 30
0.0
 11
-445.8859397234
 21
-247.0549715028
 31
0.0
  0
LINE
  5
123
330
1F
100
AcDbEntity
  8
0
  6
CONTINUOUS
 62
     7
100
AcDbLine
 10
-45.2983733948
 20
-247.0549715028
 30
0.0
 11
-45.2983733948
 21
-47.0549715028
 31
0.0
  0
LINE
  5
124
330
1F
100
AcDbEntity
  8
0
  6
CONTINUOUS
 62
     7
100
AcDbLine
 10
-435.5921565591
 20
106.0140640302
 30
0.0
 11
-435.5921565591
 21
45.9450284972
 31
0.0
  0
LINE
  5
125
330
1F
100
AcDbEntity
  8
0
  6
CONTINUOUS
 62
     7
100
AcDbLine
 10
-452.5921565591
 20
106.0140640302
 30
0.0
 11
-452.5921565591
 21
45.9450284972
 31
0.0
  0
LINE
  5
126
330
1F
100
AcDbEntity
  8
0
  6
CONTINUOUS
 62
     7
100
AcDbLine
 10
-348.5921565591
 20
107.9450284972
 30
0.0
 11
-348.5921565591
 21
47.9450284972
 31
0.0
  0
LINE
  5
127
330
1F
100
AcDbEntity
  8
0
  6
CONTINUOUS
 62
     7
100
AcDbLine
 10
-435.5921565591
 20
120.9450284972
 30
0.0
 11
-435.5921565591
 21
106.0140640302
 31
0.0
  0
LINE
  5
128
330
1F
100
AcDbEntity
  8
0
  6
CONTINUOUS
 62
     7
100
AcDbLine
 10
-452.5921565591
 20
120.9450284972
 30
0.0
 11
-452.5921565591
 21
106.0140640302
 31
0.0
  0
LINE
  5
129
330
1F
100
AcDbEntity
  8
0
  6
CONTINUOUS
 62
     7
100
AcDbLine
 10
-55.5921565591
 20
106.0140640302
 30
0.0
 11
-55.5921565591
 21
45.9450284972
 31
0.0
  0
LINE
  5
12A
330
1F
100
AcDbEntity
  8
0
  6
CONTINUOUS
 62
     7
100
AcDbLine
 10
-38.5921565591
 20
106.0140640302
 30
0.0
 11
-38.5921565591
 21
45.9450284972
 31
0.0
  0
LINE
  5
12B
330
1F
100
AcDbEntity
  8
0
  6
CONTINUOUS
 62
     7
100
AcDbLine
 10
-142.5921565591
 20
107.9450284972
 30
0.0
 11
-142.5921565591
 21
47.9450284972
 31
0.0
  0
LINE
  5
12C
330
1F
100
AcDbEntity
  8
0
  6
CONTINUOUS
 62
     7
100
AcDbLine
 10
-55.5921565591
 20
120.9450284972
 30
0.0
 11
-55.5921565591
 21
106.0140640302
 31
0.0
  0
LINE
  5
12D
330
1F
100
AcDbEntity
  8
0
  6
CONTINUOUS
 62
     7
100
AcDbLine
 10
-38.5921565591
 20
120.9450284972
 30
0.0
 11
-38.5921565591
 21
106.0140640302
 31
0.0
  0
LINE
  5
12E
330
1F
100
AcDbEntity
  8
0
  6
CONTINUOUS
 62
     7
100
AcDbLine
 10
-119.0741949638
 20
-322.0460198314
 30
0.0
 11
-119.4887474862
 21
-322.0549715028
 31
0.0
  0
SPLINE
  5
12F
330
1F
100
AcDbEntity
  8
0
  6
CONTINUOUS
 62
     7
100
AcDbSpline
210
0.0
220
0.0
230
1.0
 70
     8
 71
     3
 72
    20
 73
    16
 74
     0
 42
0.00000001
 43
0.00000001
 12
1.0
 22
0.0
 32
0.0
 13
1.0
 23
0.0
 33
0.0
 40
0.0
 40
0.0
 40
0.0
 40
0.0
 40
0.0793276927809686
 40
0.1589086283364969
 40
0.2382371818249829
 40
0.3175736898017064
 40
0.3971618060018322
 40
0.4765016891846934
 40
0.5562945530398787
 40
0.6363386509515864
 40
0.7161349963960563
 40
0.7966884883767231
 40
0.8774959615844491
 40
0.9580511591358123
 40
0.9999999999999999
 40
0.9999999999999999
 40
0.9999999999999999
 40
0.9999999999999999
 10
-112.0893857495721
 20
-297.0549715027815
 30
0.0
 10
-110.2758470236005
 20
-296.6735539492726
 30
0.0
 10
-106.6429800981123
 20
-295.9095012190501
 30
0.0
 10
-101.4062076534121
 20
-293.9940070740969
 30
0.0
 10
-96.40247845056835
 20
-291.5481350202234
 30
0.0
 10
-91.71593705699085
 20
-288.5254308691289
 30
0.0
 10
-87.39000939694208
 20
-285.0006844921614
 30
0.0
 10
-83.46785625934704
 20
-281.0054186017891
 30
0.0
 10
-80.01544502611382
 20
-276.5740957550582
 30
0.0
 10
-77.0600674603212
 20
-271.7753623228336
 30
0.0
 10
-74.6339574286751
 20
-266.6592860043419
 30
0.0
 10
-72.78834139652062
 20
-261.2782415549958
 30
0.0
 10
-71.54107179144387
 20
-255.7068573240821
 30
0.0
 10
-70.98018327619025
 20
-250.9332770093624
 30
0.0
 10
-70.93096721745864
 20
-248.0442543978616
 30
0.0
 10
-70.91411424965128
 20
-247.0549715027803
 30
0.0
  0
SPLINE
  5
130
330
1F
100
AcDbEntity
  8
0
  6
CONTINUOUS
 62
     7
100
AcDbSpline
210
0.0
220
0.0
230
1.0
 70
     8
 71
     3
 72
    11
 73
     7
 74
     0
 42
0.00000001
 43
0.00000001
 12
1.0
 22
0.0
 32
0.0
 13
1.0
 23
0.0
 33
0.0
 40
0.0
 40
0.0
 40
0.0
 40
0.0
 40
0.2485051177886384
 40
0.4976461732097298
 40
0.7485567332550023
 40
1.0
 40
1.0
 40
1.0
 40
1.0
 10
-429.0921565590789
 20
-12.23599873085183
 30
0.0
 10
-429.5559807009347
 20
-12.80166998161821
 30
0.0
 10
-430.4848159349566
 20
-13.93446006555553
 30
0.0
 10
-431.7689303955931
 20
-15.72595975165335
 30
0.0
 10
-432.9839840808926
 20
-17.57506790799064
 30
0.0
 10
-433.7225046853562
 20
-18.85613584216265
 30
0.0
 10
-434.0921565590789
 20
-19.49734904511284
 30
0.0
  0
LINE
  5
131
330
1F
100
AcDbEntity
  8
0
  6
CONTINUOUS
 62
     7
100
AcDbLine
 10
-372.3238769814
 20
27.9246716946
 30
0.0
 11
-371.695565632
 21
27.9450284972
 31
0.0
  0
SPLINE
  5
132
330
1F
100
AcDbEntity
  8
0
  6
CONTINUOUS
 62
     7
100
AcDbSpline
210
0.0
220
0.0
230
1.0
 70
     8
 71
     3
 72
    20
 73
    16
 74
     0
 42
0.00000001
 43
0.00000001
 12
1.0
 22
0.0
 32
0.0
 13
1.0
 23
0.0
 33
0.0
 40
0.0
 40
0.0
 40
0.0
 40
0.0
 40
0.0793276927809404
 40
0.1589086283364402
 40
0.2382371818248968
 40
0.3175736898015981
 40
0.3971618060017007
 40
0.4765016891845403
 40
0.5562945530397234
 40
0.6363386509514298
 40
0.7161349963958987
 40
0.7966884883765664
 40
0.8774959615842934
 40
0.9580511591356571
 40
1.0
 40
1.0
 40
1.0
 40
1.0
 10
-379.0949273685854
 20
2.945028497219879
 30
0.0
 10
-380.9084660945564
 20
2.563610943711284
 30
0.0
 10
-384.5413330200433
 20
1.799558213489191
 30
0.0
 10
-389.7781054647419
 20
-0.115935931462155
 30
0.0
 10
-394.7818346675843
 20
-2.561807985334216
 30
0.0
 10
-399.4683760611607
 20
-5.58451213642748
 30
0.0
 10
-403.7943037212087
 20
-9.109258513393184
 30
0.0
 10
-407.7164568588038
 20
-13.10452440376393
 30
0.0
 10
-411.1688680920376
 20
-17.53584725049335
 30
0.0
 10
-414.1242456578314
 20
-22.33458068271717
 30
0.0
 10
-416.5503556894786
 20
-27.45065700120848
 30
0.0
 10
-418.3959717216342
 20
-32.83170145055413
 30
0.0
 10
-419.643241326712
 20
-38.40308568146754
 30
0.0
 10
-420.2041298419673
 20
-43.17666599619076
 30
0.0
 10
-420.2533459006991
 20
-46.06568860769526
 30
0.0
 10
-420.2701988685066
 20
-47.05497150278022
 30
0.0
  0
SPLINE
  5
133
330
1F
100
AcDbEntity
  8
0
  6
CONTINUOUS
 62
     7
100
AcDbSpline
210
0.0
220
0.0
230
1.0
 70
     8
 71
     3
 72
    11
 73
     7
 74
     0
 42
0.00000001
 43
0.00000001
 12
1.0
 22
0.0
 32
0.0
 13
1.0
 23
0.0
 33
0.0
 40
0.0
 40
0.0
 40
0.0
 40
0.0
 40
0.2485051177886429
 40
0.4976461732097298
 40
0.7485567332549627
 40
1.0
 40
1.0
 40
1.0
 40
1.0
 10
-62.09215655907893
 20
-12.23599873085261
 30
0.0
 10
-61.62833241722313
 20
-12.80166998161898
 30
0.0
 10
-60.6994971832012
 20
-13.93446006555628
 30
0.0
 10
-59.41538272256489
 20
-15.7259597516539
 30
0.0
 10
-58.2003290372651
 20
-17.57506790799106
 30
0.0
 10
-57.46180843280166
 20
-18.8561358421631
 30
0.0
 10
-57.09215655907893
 20
-19.4973490451134
 30
0.0
  0
SPLINE
  5
134
330
1F
100
AcDbEntity
  8
0
  6
CONTINUOUS
 62
     7
100
AcDbSpline
210
0.0
220
0.0
230
1.0
 70
     8
 71
     3
 72
    20
 73
    16
 74
     0
 42
0.00000001
 43
0.00000001
 12
1.0
 22
0.0
 32
0.0
 13
1.0
 23
0.0
 33
0.0
 40
0.0
 40
0.0
 40
0.0
 40
0.0
 40
0.0812309708434214
 40
0.1627205300570205
 40
0.24395016697612
 40
0.3251638619585204
 40
0.4066381877479647
 40
0.487848365028239
 40
0.5685674458334298
 40
0.6495472426136524
 40
0.7302625409545314
 40
0.8102093947529612
 40
0.8904142048004835
 40
0.9703597295908117
 40
1.0
 40
1.0
 40
1.0
 40
1.0
 10
-70.91411424964956
 20
-47.05497150278011
 30
0.0
 10
-70.97666065587867
 20
-45.13853655609861
 30
0.0
 10
-71.10195257679364
 20
-41.29956593804567
 30
0.0
 10
-72.08869492340591
 20
-35.61718079849603
 30
0.0
 10
-73.6426240733558
 20
-30.07681288510113
 30
0.0
 10
-75.82606278494578
 20
-24.75694815318934
 30
0.0
 10
-78.575881200316
 20
-19.71855463281723
 30
0.0
 10
-81.85862521287105
 20
-15.03298951533057
 30
0.0
 10
-85.64798541756721
 20
-10.77432857065218
 30
0.0
 10
-89.87622585861297
 20
-6.980576014641568
 30
0.0
 10
-94.48651995806925
 20
-3.702034762901693
 30
0.0
 10
-99.4289997055516
 20
-0.9951294504951108
 30
0.0
 10
-104.6262513147325
 20
1.123012756229516
 30
0.0
 10
-108.8961663273616
 20
2.342210045358298
 30
0.0
 10
-111.409571328786
 20
2.816692600901213
 30
0.0
 10
-112.0893857495729
 20
2.94502849721999
 30
0.0
  0
LINE
  5
135
330
1F
100
AcDbEntity
  8
0
  6
CONTINUOUS
 62
     7
100
AcDbLine
 10
-371.695565632
 20
-322.0549715028
 30
0.0
 11
-372.173295757
 21
-322.0416357378
 31
0.0
  0
SPLINE
  5
136
330
1F
100
AcDbEntity
  8
0
  6
CONTINUOUS
 62
     7
100
AcDbSpline
210
0.0
220
0.0
230
1.0
 70
     8
 71
     3
 72
    20
 73
    16
 74
     0
 42
0.00000001
 43
0.00000001
 12
1.0
 22
0.0
 32
0.0
 13
1.0
 23
0.0
 33
0.0
 40
0.0
 40
0.0
 40
0.0
 40
0.0
 40
0.0812309708434214
 40
0.1627205300570207
 40
0.2439501669761206
 40
0.3251638619585225
 40
0.4066381877479679
 40
0.4878483650282437
 40
0.5685674458334342
 40
0.6495472426136574
 40
0.7302625409545362
 40
0.8102093947529669
 40
0.8904142048004899
 40
0.9703597295908187
 40
1.0
 40
1.0
 40
1.0
 40
1.0
 10
-420.2701988685083
 20
-247.0549715027803
 30
0.0
 10
-420.2076524622792
 20
-248.9714064494618
 30
0.0
 10
-420.0823605413642
 20
-252.8103770675148
 30
0.0
 10
-419.0956181947519
 20
-258.4927622070644
 30
0.0
 10
-417.541689044802
 20
-264.0331301204594
 30
0.0
 10
-415.358250333212
 20
-269.3529948523712
 30
0.0
 10
-412.6084319178418
 20
-274.3913883727434
 30
0.0
 10
-409.3256879052867
 20
-279.0769534902302
 30
0.0
 10
-405.5363277005906
 20
-283.3356144349087
 30
0.0
 10
-401.3080872595449
 20
-287.1293669909194
 30
0.0
 10
-396.6977931600886
 20
-290.4079082426594
 30
0.0
 10
-391.7553134126062
 20
-293.1148135550658
 30
0.0
 10
-386.5580618034252
 20
-295.2329557617909
 30
0.0
 10
-382.2881467907963
 20
-296.4521530509188
 30
0.0
 10
-379.7747417893721
 20
-296.9266356064626
 30
0.0
 10
-379.0949273685854
 20
-297.0549715027815
 30
0.0
  0
LINE
  5
137
330
1F
100
AcDbEntity
  8
0
  6
CONTINUOUS
 62
     7
100
AcDbLine
 10
-420.2701988685
 20
-47.0549715028
 30
0.0
 11
-420.2701988685
 21
-247.0549715028
 31
0.0
  0
LINE
  5
138
330
1F
100
AcDbEntity
  8
0
  6
CONTINUOUS
 62
     7
100
AcDbLine
 10
-70.9141142496
 20
-247.0549715028
 30
0.0
 11
-70.9141142497
 21
-47.0549715028
 31
0.0
  0
LINE
  5
139
330
1F
100
AcDbEntity
  8
0
  6
CONTINUOUS
 62
     7
100
AcDbLine
 10
-57.0921565591
 20
72.4906724399
 30
0.0
 11
-57.0921565591
 21
-19.4973490451
 31
0.0
  0
LINE
  5
13A
330
1F
100
AcDbEntity
  8
0
  6
CONTINUOUS
 62
     7
100
AcDbLine
 10
-62.0921565591
 20
72.4906724399
 30
0.0
 11
-62.0921565591
 21
-12.2359987309
 31
0.0
  0
LINE
  5
13B
330
1F
100
AcDbEntity
  8
0
  6
CONTINUOUS
 62
     7
100
AcDbLine
 10
-434.0921565591
 20
72.4906724399
 30
0.0
 11
-434.0921565591
 21
-19.4973490451
 31
0.0
  0
LINE
  5
13C
330
1F
100
AcDbEntity
  8
0
  6
CONTINUOUS
 62
     7
100
AcDbLine
 10
-429.0921565591
 20
72.4906724399
 30
0.0
 11
-429.0921565591
 21
-12.2359987309
 31
0.0
  0
LINE
  5
13D
330
1F
100
AcDbEntity
  8
0
  6
CONTINUOUS
 62
     7
100
AcDbLine
 10
-379.0949273686
 20
-297.0549715028
 30
0.0
 11
-112.0893857496
 21
-297.0549715028
 31
0.0
  0
LINE
  5
13E
330
1F
100
AcDbEntity
  8
0
  6
CONTINUOUS
 62
     7
100
AcDbLine
 10
-379.0949273686
 20
2.9450284972
 30
0.0
 11
-112.0893857496
 21
2.9450284972
 31
0.0
  0
LINE
  5
13F
330
1F
100
AcDbEntity
  8
0
  6
CONTINUOUS
 62
     7
100
AcDbLine
 10
-371.695565632
 20
27.9450284972
 30
0.0
 11
-119.4887474862
 21
27.9450284972
 31
0.0
  0
LINE
  5
140
330
1F
100
AcDbEntity
  8
0
  6
CONTINUOUS
 62
     7
100
AcDbLine
 10
-119.4887474862
 20
-322.0549715028
 30
0.0
 11
-371.695565632
 21
-322.0549715028
 31
0.0
  0
ENDSEC
  0
SECTION
  2
OBJECTS
  0
DICTIONARY
  5
C
330
0
100
AcDbDictionary
  3
ACAD_GROUP
350
D
  3
ACAD_MLINESTYLE
350
17
  0
DICTIONARY
  5
D
102
{ACAD_REACTORS
330
C
102
}
330
C
100
AcDbDictionary
  0
DICTIONARY
  5
17
102
{ACAD_REACTORS
330
C
102
}
330
C
100
AcDbDictionary
  3
STANDARD
350
18
  0
MLINESTYLE
  5
18
102
{ACAD_REACTORS
330
17
102
}
330
17
100
AcDbMlineStyle
  2
Standard
 70
     0
  3

 62
   256
 51
90.0
 52
90.0
 71
     2
 49
0.5
 62
   256
  6
BYLAYER
 49
-0.5
 62
   256
  6
BYLAYER
  0
ENDSEC
  0
EOF
