  0
SECTION
  2
HEADER
  9
$ACADVER
  1
AC1015
  9
$ACADMAINTVER
 70
     6
  9
$DWGCODEPAGE
  3
ANSI_1252
  9
$INSBASE
 10
0.0
 20
0.0
 30
0.0
  9
$EXTMIN
 10
0.0
 20
0.0
 30
0.0
  9
$EXTMAX
 10
420.0
 20
297.0
 30
0.0
  9
$LIMMIN
 10
0.0
 20
0.0
  9
$LIMMAX
 10
420.0
 20
297.0
  9
$ORTHOMODE
 70
     0
  9
$REGENMODE
 70
     1
  9
$FILLMODE
 70
     1
  9
$QTEXTMODE
 70
     0
  9
$MIRRTEXT
 70
     1
  9
$LTSCALE
 40
1.0
  9
$ATTMODE
 70
     1
  9
$TEXTSIZE
 40
3.5
  9
$TRACEWID
 40
1.0
  9
$TEXTSTYLE
  7
Standard
  9
$CLAYER
  8
0
  9
$CELTYPE
  6
ByLayer
  9
$CECOLOR
 62
   256
  9
$CELTSCALE
 40
1.0
  9
$DISPSILH
 70
     0
  9
$DIMSCALE
 40
1.0
  9
$DIMASZ
 40
4.0
  9
$DIMEXO
 40
0.0
  9
$DIMDLI
 40
3.75
  9
$DIMRND
 40
0.0
  9
$DIMDLE
 40
0.0
  9
$DIMEXE
 40
2.0
  9
$DIMTP
 40
0.0
  9
$DIMTM
 40
0.0
  9
$DIMTXT
 40
3.5
  9
$DIMCEN
 40
2.5
  9
$DIMTSZ
 40
0.0
  9
$DIMTOL
 70
     0
  9
$DIMLIM
 70
     0
  9
$DIMTIH
 70
     1
  9
$DIMTOH
 70
     1
  9
$DIMSE1
 70
     0
  9
$DIMSE2
 70
     0
  9
$DIMTAD
 70
     1
  9
$DIMZIN
 70
     0
  9
$DIMBLK
  1

  9
$DIMASO
 70
     1
  9
$DIMSHO
 70
     1
  9
$DIMPOST
  1

  9
$DIMAPOST
  1

  9
$DIMALT
 70
     0
  9
$DIMALTD
 70
     3
  9
$DIMALTF
 40
0.0393700787
  9
$DIMLFAC
 40
5.0
  9
$DIMTOFL
 70
     1
  9
$DIMTVP
 40
0.0
  9
$DIMTIX
 70
     0
  9
$DIMSOXD
 70
     0
  9
$DIMSAH
 70
     0
  9
$DIMBLK1
  1

  9
$DIMBLK2
  1

  9
$DIMSTYLE
  2
ISO-25
  9
$DIMCLRD
 70
     0
  9
$DIMCLRE
 70
     0
  9
$DIMCLRT
 70
     0
  9
$DIMTFAC
 40
1.0
  9
$DIMGAP
 40
1.524
  9
$DIMJUST
 70
     0
  9
$DIMSD1
 70
     0
  9
$DIMSD2
 70
     0
  9
$DIMTOLJ
 70
     0
  9
$DIMTZIN
 70
     0
  9
$DIMALTZ
 70
     0
  9
$DIMALTTZ
 70
     0
  9
$DIMUPT
 70
     0
  9
$DIMDEC
 70
     2
  9
$DIMTDEC
 70
     2
  9
$DIMALTU
 70
     2
  9
$DIMALTTD
 70
     3
  9
$DIMTXSTY
  7
Standard
  9
$DIMAUNIT
 70
     0
  9
$DIMADEC
 70
     2
  9
$DIMALTRND
 40
0.0
  9
$DIMAZIN
 70
     0
  9
$DIMDSEP
 70
    44
  9
$DIMATFIT
 70
     3
  9
$DIMFRAC
 70
     0
  9
$DIMLDRBLK
  1

  9
$DIMLUNIT
 70
     2
  9
$DIMLWD
 70
    -2
  9
$DIMLWE
 70
    -2
  9
$DIMTMOVE
 70
     0
  9
$LUNITS
 70
     2
  9
$LUPREC
 70
     2
  9
$SKETCHINC
 40
1.0
  9
$FILLETRAD
 40
10.0
  9
$AUNITS
 70
     0
  9
$AUPREC
 70
     2
  9
$MENU
  1
.
  9
$ELEVATION
 40
0.0
  9
$PELEVATION
 40
0.0
  9
$THICKNESS
 40
0.0
  9
$LIMCHECK
 70
     0
  9
$CHAMFERA
 40
10.0
  9
$CHAMFERB
 40
10.0
  9
$CHAMFERC
 40
20.0
  9
$CHAMFERD
 40
0.0
  9
$SKPOLY
 70
     0
  9
$TDCREATE
 40
2457823.665814942
  9
$TDUCREATE
 40
2457823.624148275
  9
$TDUPDATE
 40
2457823.665815347
  9
$TDUUPDATE
 40
2457823.62414868
  9
$TDINDWG
 40
0.0000000116
  9
$TDUSRTIMER
 40
0.0000000116
  9
$USRTIMER
 70
     1
  9
$ANGBASE
 50
0.0
  9
$ANGDIR
 70
     0
  9
$PDMODE
 70
     0
  9
$PDSIZE
 40
-1.0
  9
$PLINEWID
 40
0.0
  9
$SPLFRAME
 70
     0
  9
$SPLINETYPE
 70
     6
  9
$SPLINESEGS
 70
     8
  9
$HANDSEED
  5
1A8
  9
$SURFTAB1
 70
     6
  9
$SURFTAB2
 70
     6
  9
$SURFTYPE
 70
     6
  9
$SURFU
 70
     6
  9
$SURFV
 70
     6
  9
$UCSBASE
  2

  9
$UCSNAME
  2

  9
$UCSORG
 10
0.0
 20
0.0
 30
0.0
  9
$UCSXDIR
 10
1.0
 20
0.0
 30
0.0
  9
$UCSYDIR
 10
0.0
 20
1.0
 30
0.0
  9
$UCSORTHOREF
  2

  9
$UCSORTHOVIEW
 70
     0
  9
$UCSORGTOP
 10
0.0
 20
0.0
 30
0.0
  9
$UCSORGBOTTOM
 10
0.0
 20
0.0
 30
0.0
  9
$UCSORGLEFT
 10
0.0
 20
0.0
 30
0.0
  9
$UCSORGRIGHT
 10
0.0
 20
0.0
 30
0.0
  9
$UCSORGFRONT
 10
0.0
 20
0.0
 30
0.0
  9
$UCSORGBACK
 10
0.0
 20
0.0
 30
0.0
  9
$PUCSBASE
  2

  9
$PUCSNAME
  2

  9
$PUCSORG
 10
0.0
 20
0.0
 30
0.0
  9
$PUCSXDIR
 10
1.0
 20
0.0
 30
0.0
  9
$PUCSYDIR
 10
0.0
 20
1.0
 30
0.0
  9
$PUCSORTHOREF
  2

  9
$PUCSORTHOVIEW
 70
     0
  9
$PUCSORGTOP
 10
0.0
 20
0.0
 30
0.0
  9
$PUCSORGBOTTOM
 10
0.0
 20
0.0
 30
0.0
  9
$PUCSORGLEFT
 10
0.0
 20
0.0
 30
0.0
  9
$PUCSORGRIGHT
 10
0.0
 20
0.0
 30
0.0
  9
$PUCSORGFRONT
 10
0.0
 20
0.0
 30
0.0
  9
$PUCSORGBACK
 10
0.0
 20
0.0
 30
0.0
  9
$USERI1
 70
     0
  9
$USERI2
 70
     0
  9
$USERI3
 70
     0
  9
$USERI4
 70
     0
  9
$USERI5
 70
     0
  9
$USERR1
 40
0.0
  9
$USERR2
 40
0.0
  9
$USERR3
 40
0.0
  9
$USERR4
 40
0.0
  9
$USERR5
 40
0.0
  9
$WORLDVIEW
 70
     1
  9
$SHADEDGE
 70
     3
  9
$SHADEDIF
 70
    70
  9
$TILEMODE
 70
     1
  9
$MAXACTVP
 70
    64
  9
$PINSBASE
 10
0.0
 20
0.0
 30
0.0
  9
$PLIMCHECK
 70
     0
  9
$PEXTMIN
 10
1.0000000000E+20
 20
1.0000000000E+20
 30
1.0000000000E+20
  9
$PEXTMAX
 10
-1.0000000000E+20
 20
-1.0000000000E+20
 30
-1.0000000000E+20
  9
$PLIMMIN
 10
0.0
 20
0.0
  9
$PLIMMAX
 10
420.0
 20
297.0
  9
$UNITMODE
 70
     0
  9
$VISRETAIN
 70
     1
  9
$PLINEGEN
 70
     0
  9
$PSLTSCALE
 70
     1
  9
$TREEDEPTH
 70
  3020
  9
$CMLSTYLE
  2
Standard
  9
$CMLJUST
 70
     0
  9
$CMLSCALE
 40
20.0
  9
$PROXYGRAPHICS
 70
     1
  9
$MEASUREMENT
 70
     1
  9
$CELWEIGHT
370
    -1
  9
$ENDCAPS
280
     0
  9
$JOINSTYLE
280
     0
  9
$LWDISPLAY
290
     1
  9
$INSUNITS
 70
     4
  9
$HYPERLINKBASE
  1

  9
$STYLESHEET
  1

  9
$XEDIT
290
     1
  9
$CEPSNTYPE
380
     0
  9
$PSTYLEMODE
290
     1
  9
$FINGERPRINTGUID
  2
{471FFCA1-03F2-4FBE-9CD4-D652E581BACA}
  9
$VERSIONGUID
  2
{FAEB1C32-E019-11D5-929B-00C0DF256EC4}
  9
$EXTNAMES
290
     1
  9
$PSVPSCALE
 40
0.0
  9
$OLESTARTUP
290
     0
  0
ENDSEC
  0
SECTION
  2
CLASSES
  0
CLASS
  1
ACDBDICTIONARYWDFLT
  2
AcDbDictionaryWithDefault
  3
ObjectDBX Classes
 90
        0
280
     0
281
     0
  0
CLASS
  1
VISUALSTYLE
  2
AcDbVisualStyle
  3
ObjectDBX Classes
 90
     4095
280
     0
281
     0
  0
CLASS
  1
MATERIAL
  2
AcDbMaterial
  3
ObjectDBX Classes
 90
     1153
280
     0
281
     0
  0
CLASS
  1
ACDBPLACEHOLDER
  2
AcDbPlaceHolder
  3
ObjectDBX Classes
 90
        0
280
     0
281
     0
  0
CLASS
  1
LAYOUT
  2
AcDbLayout
  3
ObjectDBX Classes
 90
        0
280
     0
281
     0
  0
ENDSEC
  0
SECTION
  2
TABLES
  0
TABLE
  2
VPORT
  5
8
330
0
100
AcDbSymbolTable
 70
     1
  0
VPORT
  5
29
330
8
100
AcDbSymbolTableRecord
100
AcDbViewportTableRecord
  2
*Active
 70
     0
 10
0.0
 20
0.0
 11
1.0
 21
1.0
 12
210.0
 22
148.5
 13
0.0
 23
0.0
 14
10.0
 24
10.0
 15
10.0
 25
10.0
 16
0.0
 26
0.0
 36
1.0
 17
0.0
 27
0.0
 37
0.0
 40
297.0
 41
1.4141414141
 42
50.0
 43
0.0
 44
0.0
 50
0.0
 51
0.0
 71
     0
 72
  2000
 73
     1
 74
     3
 75
     0
 76
     0
 77
     0
 78
     0
281
     0
 65
     1
110
0.0
120
0.0
130
0.0
111
1.0
121
0.0
131
0.0
112
0.0
122
1.0
132
0.0
 79
     0
146
0.0
  0
ENDTAB
  0
TABLE
  2
LTYPE
  5
5
330
0
100
AcDbSymbolTable
 70
     6
  0
LTYPE
  5
14
330
5
100
AcDbSymbolTableRecord
100
AcDbLinetypeTableRecord
  2
ByBlock
 70
     0
  3

 72
    65
 73
     0
 40
0.0
  0
LTYPE
  5
15
330
5
100
AcDbSymbolTableRecord
100
AcDbLinetypeTableRecord
  2
ByLayer
 70
     0
  3

 72
    65
 73
     0
 40
0.0
  0
LTYPE
  5
16
330
5
100
AcDbSymbolTableRecord
100
AcDbLinetypeTableRecord
  2
Continuous
 70
     0
  3
Solid line
 72
    65
 73
     0
 40
0.0
  0
LTYPE
  5
3F
330
5
100
AcDbSymbolTableRecord
100
AcDbLinetypeTableRecord
  2
HIDDEN
 70
     0
  3
Hidden __ __ __ __ __ __ __ __ __ __ __ __ __ __
 72
    65
 73
     2
 40
1.905
 49
1.27
 74
     0
 49
-0.635
 74
     0
  0
LTYPE
  5
40
330
5
100
AcDbSymbolTableRecord
100
AcDbLinetypeTableRecord
  2
PHANTOM
 70
     0
  3
Phantom ______  __  __  ______  __  __  ______
 72
    65
 73
     6
 40
12.7
 49
6.35
 74
     0
 49
-1.27
 74
     0
 49
1.27
 74
     0
 49
-1.27
 74
     0
 49
1.27
 74
     0
 49
-1.27
 74
     0
  0
LTYPE
  5
41
330
5
100
AcDbSymbolTableRecord
100
AcDbLinetypeTableRecord
  2
CENTER
 70
     0
  3
Center ____ _ ____ _ ____ _ ____ _ ____ _ ____
 72
    65
 73
     4
 40
10.16
 49
6.35
 74
     0
 49
-1.27
 74
     0
 49
1.27
 74
     0
 49
-1.27
 74
     0
  0
LTYPE
  5
42
330
5
100
AcDbSymbolTableRecord
100
AcDbLinetypeTableRecord
  2
CENTERX2
 70
     0
  3
Center (2x) ________  __  ________  __  _____
 72
    65
 73
     4
 40
20.32
 49
12.7
 74
     0
 49
-2.54
 74
     0
 49
2.54
 74
     0
 49
-2.54
 74
     0
  0
LTYPE
  5
43
330
5
100
AcDbSymbolTableRecord
100
AcDbLinetypeTableRecord
  2
DOT2
 70
     0
  3
Dot (.5x) ........................................
 72
    65
 73
     2
 40
0.635
 49
0.0
 74
     0
 49
-0.635
 74
     0
  0
ENDTAB
  0
TABLE
  2
LAYER
  5
2
330
0
100
AcDbSymbolTable
 70
     2
  0
LAYER
  5
10
330
2
100
AcDbSymbolTableRecord
100
AcDbLayerTableRecord
  2
0
 70
     0
 62
     7
  6
Continuous
370
    -3
390
F
  0
LAYER
  5
44
330
2
100
AcDbSymbolTableRecord
100
AcDbLayerTableRecord
  2
FORMAT
 70
     0
 62
     7
  6
Continuous
370
    -3
390
F
  0
ENDTAB
  0
TABLE
  2
STYLE
  5
3
330
0
100
AcDbSymbolTable
 70
     1
  0
STYLE
  5
11
330
3
100
AcDbSymbolTableRecord
100
AcDbTextStyleTableRecord
  2
Standard
 70
     0
 40
0.0
 41
1.0
 50
0.0
 71
     0
 42
3.5
  3
txt
  4

  0
ENDTAB
  0
TABLE
  2
VIEW
  5
6
330
0
100
AcDbSymbolTable
 70
     0
  0
ENDTAB
  0
TABLE
  2
UCS
  5
7
330
0
100
AcDbSymbolTable
 70
     0
  0
ENDTAB
  0
TABLE
  2
APPID
  5
9
330
0
100
AcDbSymbolTable
 70
     1
  0
APPID
  5
12
330
9
100
AcDbSymbolTableRecord
100
AcDbRegAppTableRecord
  2
ACAD
 70
     0
  0
ENDTAB
  0
TABLE
  2
DIMSTYLE
  5
A
330
0
100
AcDbSymbolTable
 70
     1
100
AcDbDimStyleTable
  0
DIMSTYLE
105
27
330
A
100
AcDbSymbolTableRecord
100
AcDbDimStyleTableRecord
  2
ISO-25
 70
     0
 41
2.5
 42
0.625
 43
3.75
 44
1.25
 73
     0
 74
     0
 77
     1
 78
     8
140
2.5
141
2.5
143
0.0393700787
147
0.625
171
     3
172
     1
178
     0
271
     2
272
     2
274
     3
278
    44
283
     0
284
     8
340
11
  0
ENDTAB
  0
TABLE
  2
BLOCK_RECORD
  5
1
330
0
100
AcDbSymbolTable
 70
     1
  0
BLOCK_RECORD
  5
1F
330
1
100
AcDbSymbolTableRecord
100
AcDbBlockTableRecord
  2
*Model_Space
340
22
  0
BLOCK_RECORD
  5
1B
330
1
100
AcDbSymbolTableRecord
100
AcDbBlockTableRecord
  2
*Paper_Space
340
1E
  0
BLOCK_RECORD
  5
23
330
1
100
AcDbSymbolTableRecord
100
AcDbBlockTableRecord
  2
*Paper_Space0
340
26
  0
ENDTAB
  0
ENDSEC
  0
SECTION
  2
BLOCKS
  0
BLOCK
  5
20
330
1F
100
AcDbEntity
  8
0
100
AcDbBlockBegin
  2
*Model_Space
 70
     0
 10
0.0
 20
0.0
 30
0.0
  3
*Model_Space
  1

  0
ENDBLK
  5
21
330
1F
100
AcDbEntity
  8
0
100
AcDbBlockEnd
  0
BLOCK
  5
1C
330
1B
100
AcDbEntity
 67
     1
  8
0
100
AcDbBlockBegin
  2
*Paper_Space
 70
     0
 10
0.0
 20
0.0
 30
0.0
  3
*Paper_Space
  1

  0
ENDBLK
  5
1D
330
1B
100
AcDbEntity
 67
     1
  8
0
100
AcDbBlockEnd
  0
BLOCK
  5
24
330
23
100
AcDbEntity
  8
0
100
AcDbBlockBegin
  2
*Paper_Space0
 70
     0
 10
0.0
 20
0.0
 30
0.0
  3
*Paper_Space0
  1

  0
ENDBLK
  5
25
330
23
100
AcDbEntity
  8
0
100
AcDbBlockEnd
  0
ENDSEC
  0
SECTION
  2
ENTITIES
  0
LINE
  5
45
330
1F
100
AcDbEntity
  8
0
  6
Continuous
 62
     7
370
     0
100
AcDbLine
 10
414.85
 20
5.15
 30
0.0
 11
5.15
 21
5.15
 31
0.0
  0
LINE
  5
46
330
1F
100
AcDbEntity
  8
0
  6
Continuous
 62
     7
370
     0
100
AcDbLine
 10
415.0
 20
5.0
 30
0.0
 11
415.0
 21
277.0
 31
0.0
  0
LINE
  5
47
330
1F
100
AcDbEntity
  8
0
  6
Continuous
 62
     7
370
     0
100
AcDbLine
 10
415.0
 20
277.0
 30
0.0
 11
5.0
 21
277.0
 31
0.0
  0
LINE
  5
48
330
1F
100
AcDbEntity
  8
0
  6
Continuous
 62
     7
370
     0
100
AcDbLine
 10
5.15
 20
276.85
 30
0.0
 11
5.15
 21
5.15
 31
0.0
  0
SPLINE
  5
49
330
1F
100
AcDbEntity
  8
0
  6
Continuous
 62
     7
370
    40
100
AcDbSpline
210
0.0
220
0.0
230
1.0
 70
     8
 71
     3
 72
     9
 73
     5
 74
     0
 42
0.00000001
 43
0.00000001
 12
1.0
 22
0.0
 32
0.0
 13
1.0
 23
0.0
 33
0.0
 40
0.0
 40
0.0
 40
0.0
 40
0.0
 40
0.7815511104430876
 40
1.0
 40
1.0
 40
1.0
 40
1.0
 10
221.5480786250877
 20
199.8123168249938
 30
0.0
 10
221.5459929968361
 20
199.8119597112749
 30
0.0
 10
221.5433244212002
 20
199.811502781825
 30
0.0
 10
221.5417973946965
 20
199.8112223646312
 30
0.0
 10
221.5414638174525
 20
199.8111611078066
 30
0.0
  0
SPLINE
  5
4A
330
1F
100
AcDbEntity
  8
0
  6
Continuous
 62
     7
370
    40
100
AcDbSpline
210
0.0
220
0.0
230
1.0
 70
     8
 71
     3
 72
     9
 73
     5
 74
     0
 42
0.00000001
 43
0.00000001
 12
1.0
 22
0.0
 32
0.0
 13
1.0
 23
0.0
 33
0.0
 40
0.0
 40
0.0
 40
0.0
 40
0.0
 40
0.1276015997999861
 40
1.0
 40
1.0
 40
1.0
 40
1.0
 10
147.755371155736
 20
199.8110718577856
 30
0.0
 10
147.7550530230006
 20
199.8111303916906
 30
0.0
 10
147.752559851003
 20
199.8115891156028
 30
0.0
 10
147.7477004110252
 20
199.8124183336911
 30
0.0
 10
147.7434610433627
 20
199.8131417422247
 30
0.0
  0
LINE
  5
4B
330
1F
100
AcDbEntity
  8
0
  6
Continuous
 62
     7
370
    40
100
AcDbLine
 10
147.7551213844
 20
199.811131838
 30
0.0
 11
147.7477420679
 21
199.8124402103
 31
0.0
  0
SPLINE
  5
4C
330
1F
100
AcDbEntity
  8
0
  6
Continuous
 62
     7
370
    40
100
AcDbSpline
210
0.0
220
0.0
230
1.0
 70
     8
 71
     3
 72
    10
 73
     6
 74
     0
 42
0.00000001
 43
0.00000001
 12
1.0
 22
0.0
 32
0.0
 13
1.0
 23
0.0
 33
0.0
 40
0.0
 40
0.0
 40
0.0
 40
0.0
 40
0.3660947270877913
 40
0.8747385610149789
 40
1.0
 40
1.0
 40
1.0
 40
1.0
 10
146.768033849159
 20
194.5225836141346
 30
0.0
 10
146.779826456377
 20
194.5202120798941
 30
0.0
 10
146.8080034485738
 20
194.5145455889684
 30
0.0
 10
146.8684026544773
 20
194.5023470083335
 30
0.0
 10
146.9350470457023
 20
194.4888072155365
 30
0.0
 10
146.9482161621332
 20
194.4861317149502
 30
0.0
  0
LINE
  5
4D
330
1F
100
AcDbEntity
  8
0
  6
Continuous
 62
     7
370
    40
100
AcDbLine
 10
146.7625666452
 20
194.5236759734
 30
0.0
 11
146.7670321198
 21
194.5227837618
 31
0.0
  0
LINE
  5
4E
330
1F
100
AcDbEntity
  8
0
  6
Continuous
 62
     7
370
    40
100
AcDbLine
 10
222.4657853704
 20
194.5099471185
 30
0.0
 11
222.5224276405
 21
194.5213728252
 31
0.0
  0
LINE
  5
4F
330
1F
100
AcDbEntity
  8
0
  6
Continuous
 62
     7
370
    40
100
AcDbLine
 10
225.4482552284
 20
199.7236099938
 30
0.0
 11
224.6482552284
 21
199.7236099938
 31
0.0
  0
LINE
  5
50
330
1F
100
AcDbEntity
  8
0
  6
Continuous
 62
     7
370
    40
100
AcDbLine
 10
224.6482552284
 20
199.3236099938
 30
0.0
 11
223.6209673555
 21
199.3236099938
 31
0.0
  0
LINE
  5
51
330
1F
100
AcDbEntity
  8
0
  6
Continuous
 62
     7
370
    40
100
AcDbLine
 10
219.0748225828
 20
199.3236099938
 30
0.0
 11
205.8082552284
 21
199.3236099938
 31
0.0
  0
LINE
  5
52
330
1F
100
AcDbEntity
  8
0
  6
Continuous
 62
     7
370
    40
100
AcDbLine
 10
205.8082552284
 20
187.3236099938
 30
0.0
 11
222.6482552284
 21
187.3236099938
 31
0.0
  0
LINE
  5
53
330
1F
100
AcDbEntity
  8
0
  6
Continuous
 62
     7
370
    40
100
AcDbLine
 10
205.4082552284
 20
190.9236099938
 30
0.0
 11
205.8082552284
 21
190.9236099938
 31
0.0
  0
LINE
  5
54
330
1F
100
AcDbEntity
  8
0
  6
Continuous
 62
     7
370
    40
100
AcDbLine
 10
144.6482552284
 20
199.7236099938
 30
0.0
 11
143.8482552284
 21
199.7236099938
 31
0.0
  0
LINE
  5
55
330
1F
100
AcDbEntity
  8
0
  6
Continuous
 62
     7
370
    40
100
AcDbLine
 10
146.6482552284
 20
187.3236099938
 30
0.0
 11
163.4882552284
 21
187.3236099938
 31
0.0
  0
LINE
  5
56
330
1F
100
AcDbEntity
  8
0
  6
Continuous
 62
     7
370
    40
100
AcDbLine
 10
163.4882552284
 20
199.3236099938
 30
0.0
 11
150.2207847212
 21
199.3236099938
 31
0.0
  0
LINE
  5
57
330
1F
100
AcDbEntity
  8
0
  6
Continuous
 62
     7
370
    40
100
AcDbLine
 10
145.6755431013
 20
199.3236099938
 30
0.0
 11
144.6482552284
 21
199.3236099938
 31
0.0
  0
LINE
  5
58
330
1F
100
AcDbEntity
  8
0
  6
Continuous
 62
     7
370
    40
100
AcDbLine
 10
163.4882552284
 20
190.9236099938
 30
0.0
 11
163.8882552284
 21
190.9236099938
 31
0.0
  0
SPLINE
  5
59
330
1F
100
AcDbEntity
  8
0
  6
Continuous
 62
     7
370
    40
100
AcDbSpline
210
0.0
220
0.0
230
1.0
 70
     8
 71
     3
 72
    25
 73
    21
 74
     0
 42
0.00000001
 43
0.00000001
 12
1.0
 22
0.0
 32
0.0
 13
1.0
 23
0.0
 33
0.0
 40
0.0
 40
0.0
 40
0.0
 40
0.0
 40
0.0535168833317929
 40
0.1070335506476835
 40
0.1620589454696458
 40
0.2170839931787757
 40
0.2704409222237594
 40
0.3237974789212134
 40
0.3786841578119297
 40
0.4335703736369019
 40
0.4865697172390926
 40
0.5395686426278256
 40
0.5941098738092019
 40
0.6486506532055312
 40
0.7014069389655614
 40
0.7541628819111071
 40
0.8084793741922435
 40
0.8627955865261896
 40
0.9328247118433858
 40
1.0
 40
1.0
 40
1.0
 40
1.0
 10
210.2336877638565
 20
192.4242978267774
 30
0.0
 10
210.576804533148
 20
192.4718190916596
 30
0.0
 10
211.2630366867721
 20
192.5668614296088
 30
0.0
 10
212.2941660603912
 20
192.7169731906225
 30
0.0
 10
213.3199250298135
 20
192.871728434055
 30
0.0
 10
214.3223275659912
 20
193.0286648811037
 30
0.0
 10
215.2854227037239
 20
193.1846842657179
 30
0.0
 10
216.2129105475586
 20
193.3396982921261
 30
0.0
 10
217.1066626029667
 20
193.4936282733045
 30
0.0
 10
217.949378400611
 20
193.6428432752132
 30
0.0
 10
218.7280261520518
 20
193.7842501128243
 30
0.0
 10
219.446975519069
 20
193.9177706694621
 30
0.0
 10
220.1075615274094
 20
194.0430187683053
 30
0.0
 10
220.6967891702663
 20
194.1568189384266
 30
0.0
 10
221.2059717767444
 20
194.2567225194279
 30
0.0
 10
221.639173317165
 20
194.3428627192965
 30
0.0
 10
221.9961838125417
 20
194.4146393298591
 30
0.0
 10
222.2957908552494
 20
194.4754239410701
 30
0.0
 10
222.5101862204187
 20
194.519259548759
 30
0.0
 10
222.5391999546134
 20
194.5252160232111
 30
0.0
 10
222.5534050804231
 20
194.5281323134206
 30
0.0
  0
ARC
  5
5A
330
1F
100
AcDbEntity
  8
0
  6
Continuous
 62
     7
370
    40
100
AcDbCircle
 10
222.0170118613
 20
197.1641131143
 30
0.0
 40
2.690000000000002
100
AcDbArc
 50
281.5900201068
 51
12.4186815058
  0
SPLINE
  5
5B
330
1F
100
AcDbEntity
  8
0
  6
Continuous
 62
     7
370
    40
100
AcDbSpline
210
0.0
220
0.0
230
1.0
 70
     8
 71
     3
 72
    25
 73
    21
 74
     0
 42
0.00000001
 43
0.00000001
 12
1.0
 22
0.0
 32
0.0
 13
1.0
 23
0.0
 33
0.0
 40
0.0
 40
0.0
 40
0.0
 40
0.0
 40
0.0672752412105179
 40
0.1391802473878796
 40
0.1923245745912682
 40
0.2458280110031514
 40
0.3004674936781091
 40
0.3555016023919331
 40
0.4084121852634884
 40
0.4616857564692386
 40
0.5161111379150815
 40
0.570937921100362
 40
0.6236858615547853
 40
0.6768043532938622
 40
0.7310986006007019
 40
0.785802061920028
 40
0.8385735952104209
 40
0.8917232549454694
 40
0.9454596137843636
 40
1.0
 40
1.0
 40
1.0
 40
1.0
 10
221.4727260376007
 20
199.7984769102593
 30
0.0
 10
221.4592641022426
 20
199.7957134989776
 30
0.0
 10
221.4314138045736
 20
199.7899965032612
 30
0.0
 10
221.2258969815505
 20
199.7479700590474
 30
0.0
 10
220.9404001208545
 20
199.6900523986362
 30
0.0
 10
220.6012797529476
 20
199.6218343283997
 30
0.0
 10
220.1795943425088
 20
199.5379358885626
 30
0.0
 10
219.6819671416547
 20
199.4402638757591
 30
0.0
 10
219.1162844536171
 20
199.3309808473013
 30
0.0
 10
218.4853421053903
 20
199.2112454567865
 30
0.0
 10
217.7817972102366
 20
199.0804304744345
 30
0.0
 10
217.0194644255942
 20
198.9419268276723
 30
0.0
 10
216.2088683722226
 20
198.7983179097276
 30
0.0
 10
215.3528887087618
 20
198.6507067122851
 30
0.0
 10
214.4430417399897
 20
198.4983834163932
 30
0.0
 10
213.4977504714632
 20
198.3451732202294
 30
0.0
 10
212.5294445363384
 20
198.1934683275288
 30
0.0
 10
211.5445480430542
 20
198.0446802174071
 30
0.0
 10
210.5330934525307
 20
197.8971511176294
 30
0.0
 10
209.8488490233674
 20
197.8023583256057
 30
0.0
 10
209.5041863221229
 20
197.7546099795981
 30
0.0
  0
ARC
  5
5C
330
1F
100
AcDbEntity
  8
0
  6
Continuous
 62
     7
370
    40
100
AcDbCircle
 10
222.0170118613
 20
197.1641131143
 30
0.0
 40
2.690000000000018
100
AcDbArc
 50
12.4186815058
 51
100.0467259536
  0
SPLINE
  5
5D
330
1F
100
AcDbEntity
  8
0
  6
Continuous
 62
     7
370
    40
100
AcDbSpline
210
0.0
220
0.0
230
1.0
 70
     8
 71
     3
 72
    25
 73
    21
 74
     0
 42
0.00000001
 43
0.00000001
 12
1.0
 22
0.0
 32
0.0
 13
1.0
 23
0.0
 33
0.0
 40
0.0
 40
0.0
 40
0.0
 40
0.0
 40
0.048483983266537
 40
0.1013844754892828
 40
0.1554680031512256
 40
0.2099596442666911
 40
0.2630329374448396
 40
0.3161065543474588
 40
0.3699521586613885
 40
0.4245942704131807
 40
0.4775277342414068
 40
0.5308309407969668
 40
0.5852932633615829
 40
0.6401529392536924
 40
0.6932953122481497
 40
0.7468015620800796
 40
0.8014481546601236
 40
0.856485774185883
 40
0.9278093466109978
 40
1.0
 40
1.0
 40
1.0
 40
1.0
 10
146.7422852787213
 20
194.5283000150175
 30
0.0
 10
146.7499541403664
 20
194.5267264184418
 30
0.0
 10
146.7659904365429
 20
194.5234358830378
 30
0.0
 10
146.8959313130653
 20
194.4968306149316
 30
0.0
 10
147.1098151892328
 20
194.4532484379018
 30
0.0
 10
147.4119695383909
 20
194.3921210665755
 30
0.0
 10
147.7942944293932
 20
194.315512336868
 30
0.0
 10
148.2531037055648
 20
194.2246684128851
 30
0.0
 10
148.792680456197
 20
194.1193331486217
 30
0.0
 10
149.4048700107842
 20
194.0018166548373
 30
0.0
 10
150.0826702144053
 20
193.8741642104294
 30
0.0
 10
150.8216760583456
 20
193.737884828563
 30
0.0
 10
151.6277968429437
 20
193.5926981843398
 30
0.0
 10
152.4862398700738
 20
193.4420999453744
 30
0.0
 10
153.3855813421328
 20
193.2887194825036
 30
0.0
 10
154.3229199527869
 20
193.1335920270252
 30
0.0
 10
155.3049228290965
 20
192.9762405833672
 30
0.0
 10
156.4241251451878
 20
192.8032407087164
 30
0.0
 10
157.6800455020204
 20
192.6165701796543
 30
0.0
 10
158.6000441537154
 20
192.4886462403789
 30
0.0
 10
159.0628226929584
 20
192.4242978267774
 30
0.0
  0
ARC
  5
5E
330
1F
100
AcDbEntity
  8
0
  6
Continuous
 62
     7
370
    40
100
AcDbCircle
 10
147.2794985955
 20
197.1641131143
 30
0.0
 40
2.690000000000009
100
AcDbArc
 50
167.5813184942
 51
258.4099798932
  0
ARC
  5
5F
330
1F
100
AcDbEntity
  8
0
  6
Continuous
 62
     7
370
    40
100
AcDbCircle
 10
147.2794985955
 20
197.1641131143
 30
0.0
 40
2.690000000000027
100
AcDbArc
 50
80.0567778904
 51
167.5813184942
  0
SPLINE
  5
60
330
1F
100
AcDbEntity
  8
0
  6
Continuous
 62
     7
370
    40
100
AcDbSpline
210
0.0
220
0.0
230
1.0
 70
     8
 71
     3
 72
    21
 73
    17
 74
     0
 42
0.00000001
 43
0.00000001
 12
1.0
 22
0.0
 32
0.0
 13
1.0
 23
0.0
 33
0.0
 40
0.0
 40
0.0
 40
0.0
 40
0.0
 40
0.0707709048614176
 40
0.1415416541277089
 40
0.2128426303298989
 40
0.2843766996152315
 40
0.3556805462523226
 40
0.4273295758027921
 40
0.4992106775739432
 40
0.5708648836370593
 40
0.6428669218488152
 40
0.7150974294703596
 40
0.7871039126322795
 40
0.8593189615632101
 40
0.9317589220027187
 40
1.0
 40
1.0
 40
1.0
 40
1.0
 10
159.792324134692
 20
197.7546099795981
 30
0.0
 10
159.3452507928523
 20
197.8167911787532
 30
0.0
 10
158.451105092097
 20
197.9411534403535
 30
0.0
 10
157.1250925439084
 20
198.1380919779479
 30
0.0
 10
155.8303830234459
 20
198.3395651701168
 30
0.0
 10
154.5845597568352
 20
198.5424570235048
 30
0.0
 10
153.4037617489054
 20
198.7427133547452
 30
0.0
 10
152.306287606128
 20
198.9362848731754
 30
0.0
 10
151.3029821676394
 20
199.1191732666969
 30
0.0
 10
150.4056126843098
 20
199.2876366398202
 30
0.0
 10
149.6295195859329
 20
199.4371149599791
 30
0.0
 10
148.980351733166
 20
199.5648158369046
 30
0.0
 10
148.4646739429188
 20
199.6680864450911
 30
0.0
 10
148.097766013824
 20
199.7423463604912
 30
0.0
 10
147.8676248674493
 20
199.7894064902553
 30
0.0
 10
147.8383211435786
 20
199.7954675647339
 30
0.0
 10
147.8241065932135
 20
199.7984076500562
 30
0.0
  0
ARC
  5
61
330
1F
100
AcDbEntity
  8
0
  6
Continuous
 62
     7
370
    40
100
AcDbCircle
 10
184.6482552284
 20
379.3716212684
 30
0.0
 40
183.3100000000007
100
AcDbArc
 50
262.2069690737
 51
277.7930309263
  0
ARC
  5
62
330
1F
100
AcDbEntity
  8
0
  6
Continuous
 62
     7
370
    40
100
AcDbCircle
 10
184.6482552284
 20
379.3716212684
 30
0.0
 40
188.6900000000007
100
AcDbArc
 50
262.2069690737
 51
277.7930309263
  0
LINE
  5
63
330
1F
100
AcDbEntity
  8
0
  6
Continuous
 62
     7
370
    40
100
AcDbLine
 10
221.3482552284
 20
194.0236099938
 30
0.0
 11
222.3482552284
 21
194.0236099938
 31
0.0
  0
LINE
  5
64
330
1F
100
AcDbEntity
  8
0
  6
Continuous
 62
     7
370
    40
100
AcDbLine
 10
221.3482552284
 20
194.2852023383
 30
0.0
 11
221.3482552284
 21
194.0236099938
 31
0.0
  0
LINE
  5
65
330
1F
100
AcDbEntity
  8
0
  6
Continuous
 62
     7
370
    40
100
AcDbLine
 10
222.3482552284
 20
194.4945854722
 30
0.0
 11
222.3482552284
 21
194.0236099938
 31
0.0
  0
LINE
  5
66
330
1F
100
AcDbEntity
  8
0
  6
Continuous
 62
     7
370
    40
100
AcDbLine
 10
147.9482552284
 20
194.0236099938
 30
0.0
 11
146.9482552284
 21
194.0236099938
 31
0.0
  0
LINE
  5
67
330
1F
100
AcDbEntity
  8
0
  6
Continuous
 62
     7
370
    40
100
AcDbLine
 10
147.9482552284
 20
194.2852075559
 30
0.0
 11
147.9482552284
 21
194.0236099938
 31
0.0
  0
LINE
  5
68
330
1F
100
AcDbEntity
  8
0
  6
Continuous
 62
     7
370
    40
100
AcDbLine
 10
146.9482552284
 20
194.4945854722
 30
0.0
 11
146.9482552284
 21
194.0236099938
 31
0.0
  0
LINE
  5
69
330
1F
100
AcDbEntity
  8
0
  6
Continuous
 62
     7
370
    40
100
AcDbLine
 10
147.9482552284
 20
194.0236099938
 30
0.0
 11
147.9482552284
 21
187.4647102904
 31
0.0
  0
LINE
  5
6A
330
1F
100
AcDbEntity
  8
0
  6
Continuous
 62
     7
370
    40
100
AcDbLine
 10
146.9482552284
 20
194.0236099938
 30
0.0
 11
146.9482552284
 21
187.4647102904
 31
0.0
  0
LINE
  5
6B
330
1F
100
AcDbEntity
  8
0
  6
Continuous
 62
     7
370
    40
100
AcDbLine
 10
221.3482552284
 20
194.0236099938
 30
0.0
 11
221.3482552284
 21
187.4647102904
 31
0.0
  0
LINE
  5
6C
330
1F
100
AcDbEntity
  8
0
  6
Continuous
 62
     7
370
    40
100
AcDbLine
 10
222.3482552284
 20
194.0236099938
 30
0.0
 11
222.3482552284
 21
187.4647102904
 31
0.0
  0
LINE
  5
6D
330
1F
100
AcDbEntity
  8
0
  6
Continuous
 62
     7
370
    40
100
AcDbLine
 10
147.8199392157
 20
199.7992647107
 30
0.0
 11
147.8238616453
 21
199.7984610883
 31
0.0
  0
LINE
  5
6E
330
1F
100
AcDbEntity
  8
0
  6
Continuous
 62
     7
370
    40
100
AcDbLine
 10
221.4733955286
 20
199.7986134176
 30
0.0
 11
221.4765712412
 21
199.7992647107
 31
0.0
  0
LINE
  5
6F
330
1F
100
AcDbEntity
  8
0
  6
Continuous
 62
     7
370
    40
100
AcDbLine
 10
225.4482552284
 20
199.7236099938
 30
0.0
 11
225.4482552284
 21
189.0593320259
 31
0.0
  0
LINE
  5
70
330
1F
100
AcDbEntity
  8
0
  6
Continuous
 62
     7
370
    40
100
AcDbLine
 10
224.6482552284
 20
199.7236099938
 30
0.0
 11
224.6482552284
 21
197.7232717169
 31
0.0
  0
LINE
  5
71
330
1F
100
AcDbEntity
  8
0
  6
Continuous
 62
     7
370
    40
100
AcDbLine
 10
224.6482552284
 20
196.6049545117
 30
0.0
 11
224.6482552284
 21
189.0593320259
 31
0.0
  0
LINE
  5
72
330
1F
100
AcDbEntity
  8
0
  6
Continuous
 62
     7
370
    40
100
AcDbLine
 10
205.8082552284
 20
199.3236099938
 30
0.0
 11
205.8082552284
 21
197.2869967115
 31
0.0
  0
LINE
  5
73
330
1F
100
AcDbEntity
  8
0
  6
Continuous
 62
     7
370
    40
100
AcDbLine
 10
205.8082552284
 20
191.8718332685
 30
0.0
 11
205.8082552284
 21
187.3236099938
 31
0.0
  0
LINE
  5
74
330
1F
100
AcDbEntity
  8
0
  6
Continuous
 62
     7
370
    40
100
AcDbLine
 10
225.4482552284
 20
189.0593320259
 30
0.0
 11
225.4482552284
 21
162.4075947266
 31
0.0
  0
LINE
  5
75
330
1F
100
AcDbEntity
  8
0
  6
Continuous
 62
     7
370
    40
100
AcDbLine
 10
224.6482552284
 20
189.0593320259
 30
0.0
 11
224.6482552284
 21
162.4075947266
 31
0.0
  0
LINE
  5
76
330
1F
100
AcDbEntity
  8
0
  6
Continuous
 62
     7
370
    40
100
AcDbLine
 10
222.6482552284
 20
177.3236099938
 30
0.0
 11
224.6482552284
 21
177.3236099938
 31
0.0
  0
LINE
  5
77
330
1F
100
AcDbEntity
  8
0
  6
Continuous
 62
     7
370
    40
100
AcDbLine
 10
222.6482552284
 20
189.3258493989
 30
0.0
 11
222.6482552284
 21
177.3236099938
 31
0.0
  0
LINE
  5
78
330
1F
100
AcDbEntity
  8
0
  6
Continuous
 62
     7
370
    40
100
AcDbLine
 10
205.4082552284
 20
191.8271238817
 30
0.0
 11
205.4082552284
 21
190.9236099938
 31
0.0
  0
LINE
  5
79
330
1F
100
AcDbEntity
  8
0
  6
Continuous
 62
     7
370
    40
100
AcDbLine
 10
224.6482552284
 20
151.3236099938
 30
0.0
 11
225.4482552284
 21
151.3236099938
 31
0.0
  0
LINE
  5
7A
330
1F
100
AcDbEntity
  8
0
  6
Continuous
 62
     7
370
    40
100
AcDbLine
 10
225.4482552284
 20
153.3236099938
 30
0.0
 11
225.4482552284
 21
151.3236099938
 31
0.0
  0
LINE
  5
7B
330
1F
100
AcDbEntity
  8
0
  6
Continuous
 62
     7
370
    40
100
AcDbLine
 10
224.6482552284
 20
153.3236099938
 30
0.0
 11
224.6482552284
 21
151.3236099938
 31
0.0
  0
LINE
  5
7C
330
1F
100
AcDbEntity
  8
0
  6
Continuous
 62
     7
370
    40
100
AcDbLine
 10
225.4482552284
 20
162.4075947266
 30
0.0
 11
225.4482552284
 21
153.3236099938
 31
0.0
  0
LINE
  5
7D
330
1F
100
AcDbEntity
  8
0
  6
Continuous
 62
     7
370
    40
100
AcDbLine
 10
224.6482552284
 20
162.4075947266
 30
0.0
 11
224.6482552284
 21
153.3236099938
 31
0.0
  0
ARC
  5
7E
330
1F
100
AcDbEntity
  8
0
  6
Continuous
 62
     7
370
    40
100
AcDbCircle
 10
218.8482552284
 20
154.3236099938
 30
0.0
 40
3.0
100
AcDbArc
 50
180.0
 51
270.0
  0
CIRCLE
  5
7F
330
1F
100
AcDbEntity
  8
0
  6
Continuous
 62
     7
370
    40
100
AcDbCircle
 10
218.6482552284
 20
155.3236099938
 30
0.0
 40
1.099999999999994
  0
CIRCLE
  5
80
330
1F
100
AcDbEntity
  8
0
  6
Continuous
 62
     7
370
    40
100
AcDbCircle
 10
218.6482552284
 20
185.3236099938
 30
0.0
 40
1.099999999999994
  0
LINE
  5
81
330
1F
100
AcDbEntity
  8
0
  6
Continuous
 62
     7
370
    40
100
AcDbLine
 10
215.8482552284
 20
187.3236099938
 30
0.0
 11
215.8482552284
 21
154.3236099938
 31
0.0
  0
LINE
  5
82
330
1F
100
AcDbEntity
  8
0
  6
Continuous
 62
     7
370
    40
100
AcDbLine
 10
218.8482552284
 20
151.3236099938
 30
0.0
 11
224.6482552284
 21
151.3236099938
 31
0.0
  0
LINE
  5
83
330
1F
100
AcDbEntity
  8
0
  6
Continuous
 62
     7
370
    40
100
AcDbLine
 10
143.8482552284
 20
199.7236099938
 30
0.0
 11
143.8482552284
 21
189.0593320259
 31
0.0
  0
LINE
  5
84
330
1F
100
AcDbEntity
  8
0
  6
Continuous
 62
     7
370
    40
100
AcDbLine
 10
144.6482552284
 20
199.7236099938
 30
0.0
 11
144.6482552284
 21
197.7232717169
 31
0.0
  0
LINE
  5
85
330
1F
100
AcDbEntity
  8
0
  6
Continuous
 62
     7
370
    40
100
AcDbLine
 10
144.6482552284
 20
196.6049545117
 30
0.0
 11
144.6482552284
 21
189.0593320259
 31
0.0
  0
LINE
  5
86
330
1F
100
AcDbEntity
  8
0
  6
Continuous
 62
     7
370
    40
100
AcDbLine
 10
163.4882552284
 20
199.3236099938
 30
0.0
 11
163.4882552284
 21
197.2869967115
 31
0.0
  0
LINE
  5
87
330
1F
100
AcDbEntity
  8
0
  6
Continuous
 62
     7
370
    40
100
AcDbLine
 10
163.4882552284
 20
191.8718332685
 30
0.0
 11
163.4882552284
 21
187.3236099938
 31
0.0
  0
LINE
  5
88
330
1F
100
AcDbEntity
  8
0
  6
Continuous
 62
     7
370
    40
100
AcDbLine
 10
143.8482552284
 20
189.0593320259
 30
0.0
 11
143.8482552284
 21
162.4075947266
 31
0.0
  0
LINE
  5
89
330
1F
100
AcDbEntity
  8
0
  6
Continuous
 62
     7
370
    40
100
AcDbLine
 10
144.6482552284
 20
189.0593320259
 30
0.0
 11
144.6482552284
 21
162.4075947266
 31
0.0
  0
LINE
  5
8A
330
1F
100
AcDbEntity
  8
0
  6
Continuous
 62
     7
370
    40
100
AcDbLine
 10
146.6482552284
 20
189.3258493989
 30
0.0
 11
146.6482552284
 21
177.3236099938
 31
0.0
  0
LINE
  5
8B
330
1F
100
AcDbEntity
  8
0
  6
Continuous
 62
     7
370
    40
100
AcDbLine
 10
146.6482552284
 20
177.3236099938
 30
0.0
 11
144.6482552284
 21
177.3236099938
 31
0.0
  0
LINE
  5
8C
330
1F
100
AcDbEntity
  8
0
  6
Continuous
 62
     7
370
    40
100
AcDbLine
 10
163.8882552284
 20
191.8271238817
 30
0.0
 11
163.8882552284
 21
190.9236099938
 31
0.0
  0
LINE
  5
8D
330
1F
100
AcDbEntity
  8
0
  6
Continuous
 62
     7
370
    40
100
AcDbLine
 10
144.6482552284
 20
151.3236099938
 30
0.0
 11
143.8482552284
 21
151.3236099938
 31
0.0
  0
LINE
  5
8E
330
1F
100
AcDbEntity
  8
0
  6
Continuous
 62
     7
370
    40
100
AcDbLine
 10
143.8482552284
 20
153.3236099938
 30
0.0
 11
143.8482552284
 21
151.3236099938
 31
0.0
  0
LINE
  5
8F
330
1F
100
AcDbEntity
  8
0
  6
Continuous
 62
     7
370
    40
100
AcDbLine
 10
144.6482552284
 20
153.3236099938
 30
0.0
 11
144.6482552284
 21
151.3236099938
 31
0.0
  0
LINE
  5
90
330
1F
100
AcDbEntity
  8
0
  6
Continuous
 62
     7
370
    40
100
AcDbLine
 10
143.8482552284
 20
162.4075947266
 30
0.0
 11
143.8482552284
 21
153.3236099938
 31
0.0
  0
LINE
  5
91
330
1F
100
AcDbEntity
  8
0
  6
Continuous
 62
     7
370
    40
100
AcDbLine
 10
144.6482552284
 20
162.4075947266
 30
0.0
 11
144.6482552284
 21
153.3236099938
 31
0.0
  0
ARC
  5
92
330
1F
100
AcDbEntity
  8
0
  6
Continuous
 62
     7
370
    40
100
AcDbCircle
 10
150.4482552284
 20
154.3236099938
 30
0.0
 40
3.0
100
AcDbArc
 50
270.0
 51
0.0
  0
CIRCLE
  5
93
330
1F
100
AcDbEntity
  8
0
  6
Continuous
 62
     7
370
    40
100
AcDbCircle
 10
150.6482552284
 20
155.3236099938
 30
0.0
 40
1.099999999999994
  0
CIRCLE
  5
94
330
1F
100
AcDbEntity
  8
0
  6
Continuous
 62
     7
370
    40
100
AcDbCircle
 10
150.6482552284
 20
185.3236099938
 30
0.0
 40
1.099999999999994
  0
LINE
  5
95
330
1F
100
AcDbEntity
  8
0
  6
Continuous
 62
     7
370
    40
100
AcDbLine
 10
153.4482552284
 20
187.3236099938
 30
0.0
 11
153.4482552284
 21
154.3236099938
 31
0.0
  0
LINE
  5
96
330
1F
100
AcDbEntity
  8
0
  6
Continuous
 62
     7
370
    40
100
AcDbLine
 10
150.4482552284
 20
151.3236099938
 30
0.0
 11
144.6482552284
 21
151.3236099938
 31
0.0
  0
SPLINE
  5
97
330
1F
100
AcDbEntity
  8
0
  6
Continuous
 62
     7
370
    40
100
AcDbSpline
210
0.0
220
0.0
230
1.0
 70
     8
 71
     3
 72
    35
 73
    31
 74
     0
 42
0.00000001
 43
0.00000001
 12
1.0
 22
0.0
 32
0.0
 13
1.0
 23
0.0
 33
0.0
 40
0.0
 40
0.0
 40
0.0
 40
0.0
 40
0.0142469714626157
 40
0.0362722410079694
 40
0.0578717184410411
 40
0.0792519671867199
 40
0.1006465328652083
 40
0.1223619433726538
 40
0.1448490884683321
 40
0.1687907932119817
 40
0.1952244980479685
 40
0.2258464703620374
 40
0.2624389732862337
 40
0.3095014461116867
 40
0.3590359186944134
 40
0.4048962035771506
 40
0.4531687703777699
 40
0.4991309762180937
 40
0.543683710766175
 40
0.5863097213896927
 40
0.6296831046802803
 40
0.6729205713144997
 40
0.7160285655422092
 40
0.7589512258063784
 40
0.8016015766519442
 40
0.843884724677386
 40
0.8856965575040323
 40
0.9273309421066677
 40
0.9694924724958419
 40
1.0
 40
1.0
 40
1.0
 40
1.0
 10
349.4520099665054
 20
195.0923603823782
 30
0.0
 10
349.4524068968313
 20
195.1823982392995
 30
0.0
 10
349.453417466164
 20
195.4116311576541
 30
0.0
 10
349.3873074007561
 20
195.7694390820451
 30
0.0
 10
349.2699809398317
 20
196.1511226362323
 30
0.0
 10
349.108078719322
 20
196.4995130745907
 30
0.0
 10
348.9136301819102
 20
196.8122218329821
 30
0.0
 10
348.6937365717818
 20
197.0893892936939
 30
0.0
 10
348.4539483513595
 20
197.3342154988571
 30
0.0
 10
348.1946981978081
 20
197.5528418979192
 30
0.0
 10
347.9101037819586
 20
197.7536545881108
 30
0.0
 10
347.5819065750042
 20
197.9478340042561
 30
0.0
 10
347.1827950477894
 20
198.1452134551205
 30
0.0
 10
346.7027033640418
 20
198.3418947155753
 30
0.0
 10
346.15383339858
 20
198.5288608906057
 30
0.0
 10
345.5542483301357
 20
198.7026388878884
 30
0.0
 10
344.9204253664176
 20
198.8611404321736
 30
0.0
 10
344.2418481764286
 20
199.0085253360334
 30
0.0
 10
343.5442712346966
 20
199.1413108262423
 30
0.0
 10
342.8161839669297
 20
199.2625748855973
 30
0.0
 10
342.0575015976117
 20
199.3731691717081
 30
0.0
 10
341.2602406077664
 20
199.4743995968862
 30
0.0
 10
340.4337913328842
 20
199.5649847092385
 30
0.0
 10
339.5828316683671
 20
199.6443111935698
 30
0.0
 10
338.7129510144441
 20
199.7116782201971
 30
0.0
 10
337.8303055180201
 20
199.7663896677541
 30
0.0
 10
336.9385231917931
 20
199.8080086541808
 30
0.0
 10
336.0361895549277
 20
199.8361964495841
 30
0.0
 10
335.2084452655928
 20
199.8516617025674
 30
0.0
 10
334.6805948693653
 20
199.8518806893106
 30
0.0
 10
334.4589955952337
 20
199.8519726231306
 30
0.0
  0
SPLINE
  5
98
330
1F
100
AcDbEntity
  8
0
  6
Continuous
 62
     7
370
    40
100
AcDbSpline
210
0.0
220
0.0
230
1.0
 70
     8
 71
     3
 72
    18
 73
    14
 74
     0
 42
0.00000001
 43
0.00000001
 12
1.0
 22
0.0
 32
0.0
 13
1.0
 23
0.0
 33
0.0
 40
0.0
 40
0.0
 40
0.0
 40
0.0
 40
0.0802124387449265
 40
0.1792584579356907
 40
0.278536332939997
 40
0.3778805421607151
 40
0.4761501717558655
 40
0.5746053106976132
 40
0.6735392076854012
 40
0.7729639698587224
 40
0.87290169790629
 40
0.9734081169360084
 40
1.0
 40
1.0
 40
1.0
 40
1.0
 10
294.4588139528539
 20
199.8525775076938
 30
0.0
 10
294.2100410724454
 20
199.8521802756109
 30
0.0
 10
293.6540843702682
 20
199.8512925428384
 30
0.0
 10
292.7933635944989
 20
199.8341680386875
 30
0.0
 10
291.881385908069
 20
199.8041508679491
 30
0.0
 10
290.9839279385799
 20
199.7607170499188
 30
0.0
 10
290.105456096506
 20
199.7049546522862
 30
0.0
 10
289.2484478298981
 20
199.6374431958028
 30
0.0
 10
288.4125767103735
 20
199.5583763872353
 30
0.0
 10
287.5998631249108
 20
199.4684117904048
 30
0.0
 10
286.8178769471229
 20
199.3671321162734
 30
0.0
 10
286.2437839487598
 20
199.2851982803275
 30
0.0
 10
285.9442394280622
 20
199.2342661623346
 30
0.0
 10
285.8815678365805
 20
199.2236099938135
 30
0.0
  0
LINE
  5
99
330
1F
100
AcDbEntity
  8
0
  6
Continuous
 62
     7
370
    40
100
AcDbLine
 10
334.4589224901
 20
199.8541131143
 30
0.0
 11
294.4589224901
 21
199.8541131143
 31
0.0
  0
SPLINE
  5
9A
330
1F
100
AcDbEntity
  8
0
  6
Continuous
 62
     7
370
    40
100
AcDbSpline
210
0.0
220
0.0
230
1.0
 70
     8
 71
     3
 72
    27
 73
    23
 74
     0
 42
0.00000001
 43
0.00000001
 12
1.0
 22
0.0
 32
0.0
 13
1.0
 23
0.0
 33
0.0
 40
0.0
 40
0.0
 40
0.0
 40
0.0
 40
0.0480288317170272
 40
0.1037632070137262
 40
0.1593256457614825
 40
0.2146370545404402
 40
0.2696238217757619
 40
0.3250685689966222
 40
0.3809310110599322
 40
0.4368871952641897
 40
0.492482951125196
 40
0.5473477121883465
 40
0.6011087428860609
 40
0.6535741286822263
 40
0.7068706504804201
 40
0.7591473276667907
 40
0.8102785622309978
 40
0.8597484372013428
 40
0.9016725870065139
 40
0.9405949827330534
 40
0.9762897480881964
 40
1.0
 40
1.0
 40
1.0
 40
1.0
 10
334.4587908579145
 20
194.4725633170551
 30
0.0
 10
334.7016040291828
 20
194.4720474788631
 30
0.0
 10
335.2261862947772
 20
194.4709330435711
 30
0.0
 10
336.0279753422722
 20
194.4546032393441
 30
0.0
 10
336.8577159972126
 20
194.4267515084705
 30
0.0
 10
337.6700713642955
 20
194.3867789044501
 30
0.0
 10
338.4634870345068
 20
194.3355945646992
 30
0.0
 10
339.2372130390934
 20
194.2738537888073
 30
0.0
 10
339.9887620572898
 20
194.2021304446424
 30
0.0
 10
340.7100088157819
 20
194.1215647900753
 30
0.0
 10
341.3916998772483
 20
194.0337029404773
 30
0.0
 10
342.0253127321207
 20
193.9403429703976
 30
0.0
 10
342.6028478329907
 20
193.8435549331536
 30
0.0
 10
343.1291263476956
 20
193.7435787249783
 30
0.0
 10
343.6018564168086
 20
193.6424455574281
 30
0.0
 10
344.0173793683034
 20
193.54200368388
 30
0.0
 10
344.3668589036039
 20
193.4462882505828
 30
0.0
 10
344.6356176987404
 20
193.3624564158954
 30
0.0
 10
344.8280322945932
 20
193.2940008481488
 30
0.0
 10
344.9489090784091
 20
193.245293324413
 30
0.0
 10
345.0131431777837
 20
193.2149713668085
 30
0.0
 10
345.0147498746791
 20
193.2140192351115
 30
0.0
 10
345.0153911536466
 20
193.2136392119513
 30
0.0
  0
LINE
  5
9B
330
1F
100
AcDbEntity
  8
0
  6
Continuous
 62
     7
370
    40
100
AcDbLine
 10
305.4589224901
 20
194.4741131143
 30
0.0
 11
334.4589224901
 21
194.4741131143
 31
0.0
  0
LINE
  5
9C
330
1F
100
AcDbEntity
  8
0
  6
Continuous
 62
     7
370
    40
100
AcDbLine
 10
305.4589224901
 20
194.3716212684
 30
0.0
 11
337.8736120409
 21
194.3716212684
 31
0.0
  0
ARC
  5
9D
330
1F
100
AcDbEntity
  8
0
  6
Continuous
 62
     7
370
    40
100
AcDbCircle
 10
346.7689224901
 20
193.3716212684
 30
0.0
 40
2.690000000000168
100
AcDbArc
 50
180.0
 51
270.0
  0
ARC
  5
9E
330
1F
100
AcDbEntity
  8
0
  6
Continuous
 62
     7
370
    40
100
AcDbCircle
 10
346.7689224901
 20
193.3716212684
 30
0.0
 40
2.690000000000026
100
AcDbArc
 50
270.0
 51
0.0
  0
SPLINE
  5
9F
330
1F
100
AcDbEntity
  8
0
  6
Continuous
 62
     7
370
    40
100
AcDbSpline
210
0.0
220
0.0
230
1.0
 70
     8
 71
     3
 72
    13
 73
     9
 74
     0
 42
0.00000001
 43
0.00000001
 12
1.0
 22
0.0
 32
0.0
 13
1.0
 23
0.0
 33
0.0
 40
0.0
 40
0.0
 40
0.0
 40
0.0
 40
0.1215844905454589
 40
0.248303854372987
 40
0.4119046008389716
 40
0.5800020510814147
 40
0.7885021234788703
 40
1.0
 40
1.0
 40
1.0
 40
1.0
 10
286.4098282390007
 20
197.2757044023464
 30
0.0
 10
286.4615385844402
 20
197.3999096623178
 30
0.0
 10
286.5671431564214
 20
197.6535657384008
 30
0.0
 10
286.8449728679318
 20
198.0179877756954
 30
0.0
 10
287.214049970077
 20
198.366016216925
 30
0.0
 10
287.708564390997
 20
198.701374047018
 30
0.0
 10
288.2890018442313
 20
198.9954004387563
 30
0.0
 10
288.726890779117
 20
199.147179027286
 30
0.0
 10
288.9473979985423
 20
199.2236099938135
 30
0.0
  0
SPLINE
  5
A0
330
1F
100
AcDbEntity
  8
0
  6
Continuous
 62
     7
370
    40
100
AcDbSpline
210
0.0
220
0.0
230
1.0
 70
     8
 71
     3
 72
    16
 73
    12
 74
     0
 42
0.00000001
 43
0.00000001
 12
1.0
 22
0.0
 32
0.0
 13
1.0
 23
0.0
 33
0.0
 40
0.0
 40
0.0
 40
0.0
 40
0.0
 40
0.2754018244531135
 40
0.4242510320155573
 40
0.5725941793151976
 40
0.676036082502684
 40
0.7282951931217324
 40
0.780456513377233
 40
0.8543556695955646
 40
0.9286897348817611
 40
0.9999999999999999
 40
0.9999999999999999
 40
0.9999999999999999
 40
0.9999999999999999
 10
292.1923820202479
 20
194.4861807923783
 30
0.0
 10
291.5145470580517
 20
194.490362009511
 30
0.0
 10
290.470355782925
 20
194.4968030913271
 30
0.0
 10
289.0678215065788
 20
194.6471422472594
 30
0.0
 10
288.1055807995734
 20
194.8802598997044
 30
0.0
 10
287.4185672640558
 20
195.1891640708936
 30
0.0
 10
286.9972150339337
 20
195.4815149336052
 30
0.0
 10
286.6778230569034
 20
195.7853459090068
 30
0.0
 10
286.4079529090533
 20
196.2059937169065
 30
0.0
 10
286.2839541176332
 20
196.7512976059345
 30
0.0
 10
286.368454987862
 20
197.1033384398193
 30
0.0
 10
286.4098282390007
 20
197.2757044023464
 30
0.0
  0
LINE
  5
A1
330
1F
100
AcDbEntity
  8
0
  6
Continuous
 62
     7
370
    40
100
AcDbLine
 10
294.4589224901
 20
194.4945854722
 30
0.0
 11
292.1923820202
 21
194.4861807924
 31
0.0
  0
LINE
  5
A2
330
1F
100
AcDbEntity
  8
0
  6
Continuous
 62
     7
370
    40
100
AcDbLine
 10
305.4589224901
 20
194.4945854722
 30
0.0
 11
294.4589224901
 21
194.4945854722
 31
0.0
  0
ARC
  5
A3
330
1F
100
AcDbEntity
  8
0
  6
Continuous
 62
     7
370
    40
100
AcDbCircle
 10
266.0649042478
 20
307.3731195946
 30
0.0
 40
120.0000000000006
100
AcDbArc
 50
273.2968747219
 51
289.1646231125
  0
LINE
  5
A4
330
1F
100
AcDbEntity
  8
0
  6
Continuous
 62
     7
370
    40
100
AcDbLine
 10
271.9388418436
 20
199.2236099938
 30
0.0
 11
288.9473979985
 21
199.2236099938
 31
0.0
  0
LINE
  5
A5
330
1F
100
AcDbEntity
  8
0
  6
Continuous
 62
     7
370
    40
100
AcDbLine
 10
305.4589224901
 20
194.4945854722
 30
0.0
 11
305.4589224901
 21
194.0236099938
 31
0.0
  0
LINE
  5
A6
330
1F
100
AcDbEntity
  8
0
  6
Continuous
 62
     7
370
    40
100
AcDbLine
 10
344.0789224901
 20
193.489185742
 30
0.0
 11
344.0789224901
 21
193.3716212684
 31
0.0
  0
LINE
  5
A7
330
1F
100
AcDbEntity
  8
0
  6
Continuous
 62
     7
370
    40
100
AcDbLine
 10
349.4589224901
 20
193.3716212684
 30
0.0
 11
349.4589224901
 21
195.0894539032
 31
0.0
  0
LINE
  5
A8
330
1F
100
AcDbEntity
  8
0
  6
Continuous
 62
     7
370
    40
100
AcDbLine
 10
349.4589224901
 20
195.0894539032
 30
0.0
 11
349.4584814816
 21
195.1377116632
 31
0.0
  0
ARC
  5
A9
330
1F
100
AcDbEntity
  8
0
  6
Continuous
 62
     7
370
    40
100
AcDbCircle
 10
269.4589224901
 20
193.3236099938
 30
0.0
 40
6.40000000000002
100
AcDbArc
 50
318.2183693274
 51
138.2183693274
  0
ARC
  5
AA
330
1F
100
AcDbEntity
  8
0
  6
Continuous
 62
     7
370
    40
100
AcDbCircle
 10
304.0589224901
 20
162.4075947266
 30
0.0
 40
40.00000000000006
100
AcDbArc
 50
138.2183693274
 51
180.0
  0
LINE
  5
AB
330
1F
100
AcDbEntity
  8
0
  6
Continuous
 62
     7
370
    40
100
AcDbLine
 10
264.0589224901
 20
162.4075947266
 30
0.0
 11
264.0589224901
 21
153.3236099938
 31
0.0
  0
ARC
  5
AC
330
1F
100
AcDbEntity
  8
0
  6
Continuous
 62
     7
370
    40
100
AcDbCircle
 10
262.0589224901
 20
153.3236099938
 30
0.0
 40
2.0
100
AcDbArc
 50
270.0
 51
0.0
  0
LINE
  5
AD
330
1F
100
AcDbEntity
  8
0
  6
Continuous
 62
     7
370
    40
100
AcDbLine
 10
262.0589224901
 20
151.3236099938
 30
0.0
 11
258.4589224901
 21
151.3236099938
 31
0.0
  0
ARC
  5
AE
330
1F
100
AcDbEntity
  8
0
  6
Continuous
 62
     7
370
    40
100
AcDbCircle
 10
304.0589224901
 20
162.4075947266
 30
0.0
 40
52.80000000000003
100
AcDbArc
 50
138.2183693274
 51
146.7939343943
  0
LINE
  5
AF
330
1F
100
AcDbEntity
  8
0
  6
Continuous
 62
     7
370
    40
100
AcDbLine
 10
258.4589224901
 20
151.3236099938
 30
0.0
 11
258.4589224901
 21
191.3236099938
 31
0.0
  0
LINE
  5
B0
330
1F
100
AcDbEntity
  8
0
  6
Continuous
 62
     7
370
    40
100
AcDbLine
 10
258.4589224901
 20
191.3236099938
 30
0.0
 11
259.8808276798
 21
191.3236099938
 31
0.0
  0
SPLINE
  5
B1
330
1F
100
AcDbEntity
  8
0
  6
Continuous
 62
     7
370
    40
100
AcDbSpline
210
0.0
220
0.0
230
1.0
 70
     8
 71
     3
 72
    35
 73
    31
 74
     0
 42
0.00000001
 43
0.00000001
 12
1.0
 22
0.0
 32
0.0
 13
1.0
 23
0.0
 33
0.0
 40
0.0
 40
0.0
 40
0.0
 40
0.0
 40
0.0142469714626124
 40
0.0362722410079773
 40
0.0578717184410476
 40
0.0792519671867301
 40
0.1006465328652123
 40
0.1223619433726509
 40
0.1448490884683406
 40
0.1687907932119953
 40
0.1952244980479705
 40
0.2258464703620388
 40
0.262438973286242
 40
0.3095014461116983
 40
0.3590359186944359
 40
0.40489620357717
 40
0.4531687703777802
 40
0.4991309762181003
 40
0.5436837107661922
 40
0.5863097213897063
 40
0.6296831046803024
 40
0.6729205713145182
 40
0.7160285655422242
 40
0.7589512258063904
 40
0.8016015766519565
 40
0.843884724677395
 40
0.8856965575040454
 40
0.9273309421066922
 40
0.9694924724958693
 40
0.9999999999999999
 40
0.9999999999999999
 40
0.9999999999999999
 40
0.9999999999999999
 10
377.3256006729397
 20
273.3166974702432
 30
0.0
 10
377.2355628160184
 20
273.3170944005691
 30
0.0
 10
377.0063298976638
 20
273.3181049699018
 30
0.0
 10
376.6485219732727
 20
273.2519949044938
 30
0.0
 10
376.2668384190854
 20
273.1346684435695
 30
0.0
 10
375.9184479807271
 20
272.9727662230596
 30
0.0
 10
375.6057392223358
 20
272.7783176856479
 30
0.0
 10
375.3285717616239
 20
272.5584240755196
 30
0.0
 10
375.0837455564607
 20
272.3186358550972
 30
0.0
 10
374.8651191573987
 20
272.0593857015458
 30
0.0
 10
374.6643064672071
 20
271.7747912856964
 30
0.0
 10
374.4701270510618
 20
271.446594078742
 30
0.0
 10
374.2727476001975
 20
271.047482551527
 30
0.0
 10
374.0760663397426
 20
270.5673908677795
 30
0.0
 10
373.8891001647121
 20
270.0185209023176
 30
0.0
 10
373.7153221674294
 20
269.4189358338733
 30
0.0
 10
373.5568206231443
 20
268.7851128701552
 30
0.0
 10
373.4094357192845
 20
268.1065356801662
 30
0.0
 10
373.2766502290756
 20
267.4089587384341
 30
0.0
 10
373.1553861697206
 20
266.6808714706671
 30
0.0
 10
373.0447918836098
 20
265.9221891013491
 30
0.0
 10
372.9435614584316
 20
265.1249281115038
 30
0.0
 10
372.8529763460795
 20
264.2984788366217
 30
0.0
 10
372.7736498617481
 20
263.4475191721045
 30
0.0
 10
372.7062828351209
 20
262.5776385181816
 30
0.0
 10
372.6515713875638
 20
261.6949930217576
 30
0.0
 10
372.6099524011371
 20
260.8032106955306
 30
0.0
 10
372.5817646057339
 20
259.900877058665
 30
0.0
 10
372.5662993527505
 20
259.0731327693302
 30
0.0
 10
372.5660803660074
 20
258.5452823731029
 30
0.0
 10
372.5659884321873
 20
258.3236830989715
 30
0.0
  0
SPLINE
  5
B2
330
1F
100
AcDbEntity
  8
0
  6
Continuous
 62
     7
370
    40
100
AcDbSpline
210
0.0
220
0.0
230
1.0
 70
     8
 71
     3
 72
    18
 73
    14
 74
     0
 42
0.00000001
 43
0.00000001
 12
1.0
 22
0.0
 32
0.0
 13
1.0
 23
0.0
 33
0.0
 40
0.0
 40
0.0
 40
0.0
 40
0.0
 40
0.0802124387449475
 40
0.1792584579357223
 40
0.2785363329400402
 40
0.3778805421607786
 40
0.4761501717559581
 40
0.5746053106977252
 40
0.6735392076855515
 40
0.7729639698588763
 40
0.8729016979064658
 40
0.9734081169362071
 40
1.0
 40
1.0
 40
1.0
 40
1.0
 10
372.5653835476242
 20
218.3235014565917
 30
0.0
 10
372.5657807797071
 20
218.0747285761833
 30
0.0
 10
372.5666685124796
 20
217.518771874006
 30
0.0
 10
372.5837930166304
 20
216.6580510982367
 30
0.0
 10
372.6138101873689
 20
215.7460734118069
 30
0.0
 10
372.6572440053991
 20
214.8486154423178
 30
0.0
 10
372.7130064030317
 20
213.9701436002439
 30
0.0
 10
372.7805178595151
 20
213.1131353336359
 30
0.0
 10
372.8595846680826
 20
212.2772642141113
 30
0.0
 10
372.9495492649131
 20
211.4645506286486
 30
0.0
 10
373.0508289390445
 20
210.6825644508607
 30
0.0
 10
373.1327627749903
 20
210.1084714524981
 30
0.0
 10
373.1836948929832
 20
209.808926931801
 30
0.0
 10
373.1943510615042
 20
209.7462553403197
 30
0.0
  0
LINE
  5
B3
330
1F
100
AcDbEntity
  8
0
  6
Continuous
 62
     7
370
    40
100
AcDbLine
 10
372.563847941
 20
258.3236099938
 30
0.0
 11
372.563847941
 21
218.3236099938
 31
0.0
  0
SPLINE
  5
B4
330
1F
100
AcDbEntity
  8
0
  6
Continuous
 62
     7
370
    40
100
AcDbSpline
210
0.0
220
0.0
230
1.0
 70
     8
 71
     3
 72
    27
 73
    23
 74
     0
 42
0.00000001
 43
0.00000001
 12
1.0
 22
0.0
 32
0.0
 13
1.0
 23
0.0
 33
0.0
 40
0.0
 40
0.0
 40
0.0
 40
0.0
 40
0.0480288317170278
 40
0.1037632070137259
 40
0.1593256457614872
 40
0.2146370545404394
 40
0.2696238217757609
 40
0.3250685689966211
 40
0.3809310110599315
 40
0.4368871952641926
 40
0.4924829511251963
 40
0.5473477121883475
 40
0.6011087428860603
 40
0.653574128682223
 40
0.7068706504804143
 40
0.7591473276667736
 40
0.8102785622309828
 40
0.8597484372013331
 40
0.9016725870065058
 40
0.9405949827330476
 40
0.9762897480881956
 40
1.0
 40
1.0
 40
1.0
 40
1.0
 10
377.9453977382628
 20
258.3234783616522
 30
0.0
 10
377.9459135764549
 20
258.5662915329206
 30
0.0
 10
377.9470280117469
 20
259.090873798515
 30
0.0
 10
377.9633578159739
 20
259.89266284601
 30
0.0
 10
377.9912095468474
 20
260.7224035009504
 30
0.0
 10
378.0311821508678
 20
261.5347588680333
 30
0.0
 10
378.0823664906188
 20
262.3281745382446
 30
0.0
 10
378.1441072665107
 20
263.1019005428312
 30
0.0
 10
378.2158306106755
 20
263.8534495610276
 30
0.0
 10
378.2963962652427
 20
264.5746963195196
 30
0.0
 10
378.3842581148407
 20
265.2563873809861
 30
0.0
 10
378.4776180849203
 20
265.8900002358585
 30
0.0
 10
378.5744061221643
 20
266.4675353367284
 30
0.0
 10
378.6743823303397
 20
266.9938138514334
 30
0.0
 10
378.7755154978898
 20
267.4665439205464
 30
0.0
 10
378.8759573714379
 20
267.882066872041
 30
0.0
 10
378.9716728047351
 20
268.2315464073416
 30
0.0
 10
379.0555046394226
 20
268.500305202478
 30
0.0
 10
379.1239602071691
 20
268.6927197983311
 30
0.0
 10
379.1726677309049
 20
268.8135965821469
 30
0.0
 10
379.2029896885094
 20
268.8778306815215
 30
0.0
 10
379.2039418202065
 20
268.8794373784169
 30
0.0
 10
379.2043218433666
 20
268.8800786573844
 30
0.0
  0
LINE
  5
B5
330
1F
100
AcDbEntity
  8
0
  6
Continuous
 62
     7
370
    40
100
AcDbLine
 10
377.943847941
 20
229.3236099938
 30
0.0
 11
377.943847941
 21
258.3236099938
 31
0.0
  0
LINE
  5
B6
330
1F
100
AcDbEntity
  8
0
  6
Continuous
 62
     7
370
    40
100
AcDbLine
 10
378.046339787
 20
229.3236099938
 30
0.0
 11
378.046339787
 21
261.7382995446
 31
0.0
  0
ARC
  5
B7
330
1F
100
AcDbEntity
  8
0
  6
Continuous
 62
     7
370
    40
100
AcDbCircle
 10
379.046339787
 20
270.6336099938
 30
0.0
 40
2.690000000000168
100
AcDbArc
 50
270.0
 51
0.0
  0
ARC
  5
B8
330
1F
100
AcDbEntity
  8
0
  6
Continuous
 62
     7
370
    40
100
AcDbCircle
 10
379.046339787
 20
270.6336099938
 30
0.0
 40
2.690000000000055
100
AcDbArc
 50
0.0
 51
90.0
  0
SPLINE
  5
B9
330
1F
100
AcDbEntity
  8
0
  6
Continuous
 62
     7
370
    40
100
AcDbSpline
210
0.0
220
0.0
230
1.0
 70
     8
 71
     3
 72
    13
 73
     9
 74
     0
 42
0.00000001
 43
0.00000001
 12
1.0
 22
0.0
 32
0.0
 13
1.0
 23
0.0
 33
0.0
 40
0.0
 40
0.0
 40
0.0
 40
0.0
 40
0.1215844905454589
 40
0.248303854372987
 40
0.4119046008389716
 40
0.5800020510814147
 40
0.7885021234788703
 40
1.0
 40
1.0
 40
1.0
 40
1.0
 10
375.1422566529716
 20
210.2745157427385
 30
0.0
 10
375.0180513930002
 20
210.326226088178
 30
0.0
 10
374.7643953169172
 20
210.4318306601591
 30
0.0
 10
374.3999732796226
 20
210.7096603716696
 30
0.0
 10
374.051944838393
 20
211.0787374738148
 30
0.0
 10
373.7165870082999
 20
211.5732518947347
 30
0.0
 10
373.4225606165616
 20
212.1536893479691
 30
0.0
 10
373.2707820280319
 20
212.5915782828548
 30
0.0
 10
373.1943510615045
 20
212.8120855022802
 30
0.0
  0
SPLINE
  5
BA
330
1F
100
AcDbEntity
  8
0
  6
Continuous
 62
     7
370
    40
100
AcDbSpline
210
0.0
220
0.0
230
1.0
 70
     8
 71
     3
 72
    16
 73
    12
 74
     0
 42
0.00000001
 43
0.00000001
 12
1.0
 22
0.0
 32
0.0
 13
1.0
 23
0.0
 33
0.0
 40
0.0
 40
0.0
 40
0.0
 40
0.0
 40
0.2754018244531135
 40
0.4242510320155573
 40
0.5725941793151976
 40
0.676036082502684
 40
0.7282951931217324
 40
0.780456513377233
 40
0.8543556695955646
 40
0.9286897348817611
 40
0.9999999999999999
 40
0.9999999999999999
 40
0.9999999999999999
 40
0.9999999999999999
 10
377.9317802629396
 20
216.0570695239857
 30
0.0
 10
377.927599045807
 20
215.3792345617895
 30
0.0
 10
377.9211579639908
 20
214.3350432866627
 30
0.0
 10
377.7708188080585
 20
212.9325090103166
 30
0.0
 10
377.5377011556136
 20
211.9702683033112
 30
0.0
 10
377.2287969844244
 20
211.2832547677935
 30
0.0
 10
376.9364461217128
 20
210.8619025376715
 30
0.0
 10
376.6326151463111
 20
210.5425105606412
 30
0.0
 10
376.2119673384115
 20
210.2726404127911
 30
0.0
 10
375.6666634493834
 20
210.148641621371
 30
0.0
 10
375.3146226154986
 20
210.2331424915999
 30
0.0
 10
375.1422566529716
 20
210.2745157427385
 30
0.0
  0
LINE
  5
BB
330
1F
100
AcDbEntity
  8
0
  6
Continuous
 62
     7
370
    40
100
AcDbLine
 10
377.9233755831
 20
218.3236099938
 30
0.0
 11
377.9317802629
 21
216.057069524
 31
0.0
  0
LINE
  5
BC
330
1F
100
AcDbEntity
  8
0
  6
Continuous
 62
     7
370
    40
100
AcDbLine
 10
377.9233755831
 20
229.3236099938
 30
0.0
 11
377.9233755831
 21
218.3236099938
 31
0.0
  0
ARC
  5
BD
330
1F
100
AcDbEntity
  8
0
  6
Continuous
 62
     7
370
    40
100
AcDbCircle
 10
265.0448414608
 20
189.9295917516
 30
0.0
 40
120.0000000000006
100
AcDbArc
 50
2.9188963395
 51
19.1646231125
  0
LINE
  5
BE
330
1F
100
AcDbEntity
  8
0
  6
Continuous
 62
     7
370
    40
100
AcDbLine
 10
373.1943510615
 20
196.2836924948
 30
0.0
 11
373.1943510615
 21
212.8120855023
 31
0.0
  0
LINE
  5
BF
330
1F
100
AcDbEntity
  8
0
  6
Continuous
 62
     7
370
    40
100
AcDbLine
 10
377.9233755831
 20
229.3236099938
 30
0.0
 11
378.3943510615
 21
229.3236099938
 31
0.0
  0
LINE
  5
C0
330
1F
100
AcDbEntity
  8
0
  6
Continuous
 62
     7
370
    40
100
AcDbLine
 10
378.929689507
 20
267.9436099938
 30
0.0
 11
379.046339787
 21
267.9436099938
 31
0.0
  0
LINE
  5
C1
330
1F
100
AcDbEntity
  8
0
  6
Continuous
 62
     7
370
    40
100
AcDbLine
 10
379.046339787
 20
273.3236099938
 30
0.0
 11
377.3285071521
 21
273.3236099938
 31
0.0
  0
LINE
  5
C2
330
1F
100
AcDbEntity
  8
0
  6
Continuous
 62
     7
370
    40
100
AcDbLine
 10
377.3285071521
 20
273.3236099938
 30
0.0
 11
377.2802493921
 21
273.3231689854
 31
0.0
  0
ARC
  5
C3
330
1F
100
AcDbEntity
  8
0
  6
Continuous
 62
     7
370
    40
100
AcDbCircle
 10
379.0943510615
 20
193.3236099938
 30
0.0
 40
6.40000000000002
100
AcDbArc
 50
318.2183693274
 51
138.2183693274
  0
ARC
  5
C4
330
1F
100
AcDbEntity
  8
0
  6
Continuous
 62
     7
370
    40
100
AcDbCircle
 10
413.6943510615
 20
162.4075947266
 30
0.0
 40
40.00000000000006
100
AcDbArc
 50
138.2183693274
 51
180.0
  0
LINE
  5
C5
330
1F
100
AcDbEntity
  8
0
  6
Continuous
 62
     7
370
    40
100
AcDbLine
 10
373.6943510615
 20
162.4075947266
 30
0.0
 11
373.6943510615
 21
153.3236099938
 31
0.0
  0
ARC
  5
C6
330
1F
100
AcDbEntity
  8
0
  6
Continuous
 62
     7
370
    40
100
AcDbCircle
 10
371.6943510615
 20
153.3236099938
 30
0.0
 40
2.0
100
AcDbArc
 50
270.0
 51
0.0
  0
LINE
  5
C7
330
1F
100
AcDbEntity
  8
0
  6
Continuous
 62
     7
370
    40
100
AcDbLine
 10
371.6943510615
 20
151.3236099938
 30
0.0
 11
368.0943510615
 21
151.3236099938
 31
0.0
  0
ARC
  5
C8
330
1F
100
AcDbEntity
  8
0
  6
Continuous
 62
     7
370
    40
100
AcDbCircle
 10
413.6943510615
 20
162.4075947266
 30
0.0
 40
52.80000000000005
100
AcDbArc
 50
138.2183693274
 51
146.7939343943
  0
LINE
  5
C9
330
1F
100
AcDbEntity
  8
0
  6
Continuous
 62
     7
370
    40
100
AcDbLine
 10
368.0943510615
 20
151.3236099938
 30
0.0
 11
368.0943510615
 21
191.3236099938
 31
0.0
  0
LINE
  5
CA
330
1F
100
AcDbEntity
  8
0
  6
Continuous
 62
     7
370
    40
100
AcDbLine
 10
368.0943510615
 20
191.3236099938
 30
0.0
 11
369.5162562512
 21
191.3236099938
 31
0.0
  0
SPLINE
  5
CB
330
1F
100
AcDbEntity
  8
0
  6
Continuous
 62
     7
370
    40
100
AcDbSpline
210
0.0
220
0.0
230
1.0
 70
     8
 71
     3
 72
    32
 73
    28
 74
     0
 42
0.00000001
 43
0.00000001
 12
1.0
 22
0.0
 32
0.0
 13
1.0
 23
0.0
 33
0.0
 40
0.0
 40
0.0
 40
0.0
 40
0.0
 40
0.0165175439759825
 40
0.0584143924231775
 40
0.1002681545934549
 40
0.1420956736844161
 40
0.1836049674422111
 40
0.2248139557850555
 40
0.2664007356060943
 40
0.3082666896566912
 40
0.3503027752230428
 40
0.3923739278727363
 40
0.4343366653194719
 40
0.4760803100062613
 40
0.517350241909505
 40
0.5584568237373058
 40
0.600048404294797
 40
0.6417905708641843
 40
0.6836505827993404
 40
0.7255912263908743
 40
0.7675681957491096
 40
0.8095420255807986
 40
0.8514856848875192
 40
0.8931213314983796
 40
0.9348016922528196
 40
0.9765420165887467
 40
1.0
 40
1.0
 40
1.0
 40
1.0
 10
210.120215744546
 20
42.12539464980502
 30
0.0
 10
210.2476916102913
 20
42.12561161040058
 30
0.0
 10
210.6985107669987
 20
42.12637889283605
 30
0.0
 10
211.4701060618119
 20
42.19361060409674
 30
0.0
 10
212.4296271683215
 20
42.32608732819563
 30
0.0
 10
213.3750010273636
 20
42.52451840374822
 30
0.0
 10
214.3000797592215
 20
42.78347702319875
 30
0.0
 10
215.2042473332764
 20
43.10205269275361
 30
0.0
 10
216.0884503198335
 20
43.47938543778739
 30
0.0
 10
216.9522070888634
 20
43.91594079914378
 30
0.0
 10
217.789313771985
 20
44.4094156523153
 30
0.0
 10
218.5934860124252
 20
44.95678217343166
 30
0.0
 10
219.3587030761444
 20
45.55437635600897
 30
0.0
 10
220.078701813786
 20
46.19725085703956
 30
0.0
 10
220.7499619283786
 20
46.88229329068778
 30
0.0
 10
221.3751572819404
 20
47.60868841131881
 30
0.0
 10
221.9548574274147
 20
48.37721635871066
 30
0.0
 10
222.4873580649933
 20
49.18687536883057
 30
0.0
 10
222.9682824110913
 20
50.0320149002379
 30
0.0
 10
223.3949017154018
 20
50.90852866998654
 30
0.0
 10
223.7647498809052
 20
51.81204368336025
 30
0.0
 10
224.075856862451
 20
52.73804151874894
 30
0.0
 10
224.3257093991981
 20
53.68010194680677
 30
0.0
 10
224.5149439199546
 20
54.63439174656001
 30
0.0
 10
224.6401040592322
 20
55.59744987165635
 30
0.0
 10
224.7037351597598
 20
56.42592377388105
 30
0.0
 10
224.7007386796311
 20
56.93227343827268
 30
0.0
 10
224.6996605629809
 20
57.11445519172632
 30
0.0
  0
SPLINE
  5
CC
330
1F
100
AcDbEntity
  8
0
  6
Continuous
 62
     7
370
    40
100
AcDbSpline
210
0.0
220
0.0
230
1.0
 70
     8
 71
     3
 72
    29
 73
    25
 74
     0
 42
0.00000001
 43
0.00000001
 12
1.0
 22
0.0
 32
0.0
 13
1.0
 23
0.0
 33
0.0
 40
0.0
 40
0.0
 40
0.0
 40
0.0
 40
0.0313798785737849
 40
0.0796899683015263
 40
0.127979838724882
 40
0.176257895141603
 40
0.2242495701004854
 40
0.2718487771503942
 40
0.3198836647955924
 40
0.3682392860328833
 40
0.4167886645793215
 40
0.465372023439691
 40
0.5138228574196209
 40
0.5620101813180192
 40
0.6096422330887494
 40
0.6570328060887091
 40
0.7049526380205083
 40
0.753025063769626
 40
0.8012140459705593
 40
0.8494790340825678
 40
0.8977683540037125
 40
0.9460439344549111
 40
0.9942778625842893
 40
0.9999999999999999
 40
0.9999999999999999
 40
0.9999999999999999
 40
0.9999999999999999
 10
144.5977665678569
 20
57.11430249133519
 30
0.0
 10
144.5974655967523
 20
56.90279754666594
 30
0.0
 10
144.596701273279
 20
56.36567557225568
 30
0.0
 10
144.6662809951266
 20
55.50508811530736
 30
0.0
 10
144.7979383487131
 20
54.53759387771068
 30
0.0
 10
144.993374896676
 20
53.58303127849869
 30
0.0
 10
145.2490296869728
 20
52.64817657170875
 30
0.0
 10
145.5636910049482
 20
51.7337282628966
 30
0.0
 10
145.9364262511709
 20
50.83931234529618
 30
0.0
 10
146.367804980949
 20
49.96516548852332
 30
0.0
 10
146.8555893741614
 20
49.1176349473673
 30
0.0
 10
147.3968165082319
 20
48.30314889887432
 30
0.0
 10
147.9878867243342
 20
47.52788110867628
 30
0.0
 10
148.6239519827093
 20
46.79822582969107
 30
0.0
 10
149.3017703802107
 20
46.11798903358788
 30
0.0
 10
150.0204651435156
 20
45.48463642710716
 30
0.0
 10
150.7807034239271
 20
44.89761273316257
 30
0.0
 10
151.5816720870889
 20
44.35854476122243
 30
0.0
 10
152.4178169494619
 20
43.87167955967708
 30
0.0
 10
153.2852143622366
 20
43.44035419201862
 30
0.0
 10
154.1791369706833
 20
43.06491488821199
 30
0.0
 10
155.0968565824967
 20
42.755299243507
 30
0.0
 10
155.7546142883778
 20
42.56348051148455
 30
0.0
 10
156.1087162063479
 20
42.4932451309636
 30
0.0
 10
156.1462693491377
 20
42.48579654302957
 30
0.0
  0
SPLINE
  5
CD
330
1F
100
AcDbEntity
  8
0
  6
Continuous
 62
     7
370
    40
100
AcDbSpline
210
0.0
220
0.0
230
1.0
 70
     8
 71
     3
 72
    17
 73
    13
 74
     0
 42
0.00000001
 43
0.00000001
 12
1.0
 22
0.0
 32
0.0
 13
1.0
 23
0.0
 33
0.0
 40
0.0
 40
0.0
 40
0.0
 40
0.0
 40
0.0622381901098556
 40
0.1759399096968881
 40
0.2896043103339773
 40
0.4031978368145701
 40
0.5164805279660567
 40
0.6283912350276633
 40
0.7413540546444572
 40
0.8550999804033723
 40
0.9693338837548419
 40
1.0
 40
1.0
 40
1.0
 40
1.0
 10
224.6981129447715
 20
97.11455229037706
 30
0.0
 10
224.6993462824686
 20
97.29277800277059
 30
0.0
 10
224.7028327804317
 20
97.79660074711508
 30
0.0
 10
224.6400877802067
 20
98.62442389594352
 30
0.0
 10
224.515196308788
 20
99.59272595442908
 30
0.0
 10
224.325796096783
 20
100.5494376059822
 30
0.0
 10
224.0763399649136
 20
101.48656016592
 30
0.0
 10
223.7672268968004
 20
102.4032417198025
 30
0.0
 10
223.4014147254827
 20
103.2999385293589
 30
0.0
 10
222.9726984906977
 20
104.1743093127686
 30
0.0
 10
222.6175289390294
 20
104.8229377072327
 30
0.0
 10
222.3889388001945
 20
105.1672859741158
 30
0.0
 10
222.3405608097048
 20
105.2401625962892
 30
0.0
  0
SPLINE
  5
CE
330
1F
100
AcDbEntity
  8
0
  6
Continuous
 62
     7
370
    40
100
AcDbSpline
210
0.0
220
0.0
230
1.0
 70
     8
 71
     3
 72
    17
 73
    13
 74
     0
 42
0.00000001
 43
0.00000001
 12
1.0
 22
0.0
 32
0.0
 13
1.0
 23
0.0
 33
0.0
 40
0.0
 40
0.0
 40
0.0
 40
0.0
 40
0.0784906709806229
 40
0.1921114249775046
 40
0.3059054542918171
 40
0.4197409906559491
 40
0.5335331025772492
 40
0.6470528041491824
 40
0.7597341655030478
 40
0.8728698587322307
 40
0.9861018944890996
 40
1.0
 40
1.0
 40
1.0
 40
1.0
 10
146.9534294973909
 20
105.2411990707348
 30
0.0
 10
146.833555286639
 20
105.0519771095835
 30
0.0
 10
146.5401547441556
 20
104.588843081811
 30
0.0
 10
146.1347807200074
 20
103.8139341912946
 30
0.0
 10
145.7313071907725
 20
102.9259701267723
 30
0.0
 10
145.3875534814553
 20
102.0117159977939
 30
0.0
 10
145.1028542405474
 20
101.0777730182264
 30
0.0
 10
144.8804141328461
 20
100.1301012410612
 30
0.0
 10
144.7173672583361
 20
99.1716984295384
 30
0.0
 10
144.6218536697408
 20
98.20562170530742
 30
0.0
 10
144.5815474920781
 20
97.51752684135943
 30
0.0
 10
144.5914601249565
 20
97.15362200780007
 30
0.0
 10
144.5925437925767
 20
97.11383924879186
 30
0.0
  0
SPLINE
  5
CF
330
1F
100
AcDbEntity
  8
0
  6
Continuous
 62
     7
370
    40
100
AcDbSpline
210
0.0
220
0.0
230
1.0
 70
     8
 71
     3
 72
    22
 73
    18
 74
     0
 42
0.00000001
 43
0.00000001
 12
1.0
 22
0.0
 32
0.0
 13
1.0
 23
0.0
 33
0.0
 40
0.0
 40
0.0
 40
0.0
 40
0.0
 40
0.0218136214092318
 40
0.0967821664392388
 40
0.171682309073904
 40
0.2464954802536265
 40
0.3210611968156757
 40
0.3946852842608524
 40
0.4690092423938242
 40
0.5438579797690462
 40
0.6190397272738152
 40
0.6943245963607915
 40
0.7694447805310797
 40
0.8441992128877975
 40
0.9182096822226954
 40
0.9916630181716757
 40
1.0
 40
1.0
 40
1.0
 40
1.0
 10
159.2125589747339
 20
112.1052219429442
 30
0.0
 10
159.1184695478525
 20
112.1057744198852
 30
0.0
 10
158.7010157742781
 20
112.1082256366844
 30
0.0
 10
157.9620732438648
 20
112.0489700849774
 30
0.0
 10
157.0013360482012
 20
111.9259427859379
 30
0.0
 10
156.0529444360774
 20
111.7359326340601
 30
0.0
 10
155.1247556903344
 20
111.4855087155443
 30
0.0
 10
154.217304856931
 20
111.1749641456606
 30
0.0
 10
153.3307236909468
 20
110.8060653191995
 30
0.0
 10
152.46373293225
 20
110.3776786217583
 30
0.0
 10
151.6225285413007
 20
109.8919844871784
 30
0.0
 10
150.8132927483683
 20
109.3520115084558
 30
0.0
 10
150.0425653071279
 20
108.7609648970531
 30
0.0
 10
149.3147358987986
 20
108.1249185973678
 30
0.0
 10
148.6406870361573
 20
107.4426039762602
 30
0.0
 10
148.1868509663578
 20
106.9444909572465
 30
0.0
 10
147.9723254571769
 20
106.6636772812668
 30
0.0
 10
147.9504586235424
 20
106.6350536180092
 30
0.0
  0
SPLINE
  5
D0
330
1F
100
AcDbEntity
  8
0
  6
Continuous
 62
     7
370
    40
100
AcDbSpline
210
0.0
220
0.0
230
1.0
 70
     8
 71
     3
 72
    21
 73
    17
 74
     0
 42
0.00000001
 43
0.00000001
 12
1.0
 22
0.0
 32
0.0
 13
1.0
 23
0.0
 33
0.0
 40
0.0
 40
0.0
 40
0.0
 40
0.0
 40
0.0576929334843501
 40
0.1312865251422655
 40
0.2040708739857321
 40
0.2776600189981729
 40
0.3514993375641995
 40
0.4255363352771903
 40
0.4997099032929475
 40
0.5739462494168209
 40
0.6481775201640311
 40
0.7223565581562409
 40
0.7962050885076003
 40
0.8696616259012756
 40
0.9434415039580084
 40
1.0
 40
1.0
 40
1.0
 40
1.0
 10
221.3510661692583
 20
106.6231338433823
 30
0.0
 10
221.1919639347763
 20
106.8182273397887
 30
0.0
 10
220.8299095505392
 20
107.2621837426642
 30
0.0
 10
220.2106114416512
 20
107.9022737185926
 30
0.0
 10
219.5052742166808
 20
108.5517019062386
 30
0.0
 10
218.7574472173498
 20
109.1532166484701
 30
0.0
 10
217.9683020656453
 20
109.7080747116952
 30
0.0
 10
217.1426656634266
 20
110.2114305819588
 30
0.0
 10
216.2846090194555
 20
110.6605531752977
 30
0.0
 10
215.3983135346637
 20
111.0528373035179
 30
0.0
 10
214.4881694305869
 20
111.3861416643462
 30
0.0
 10
213.5595786203901
 20
111.6582122246389
 30
0.0
 10
212.6182233157529
 20
111.8682634746359
 30
0.0
 10
211.6667242179347
 20
112.0145660565375
 30
0.0
 10
210.7824787982626
 20
112.0991487897453
 30
0.0
 10
210.2146711229621
 20
112.1059923463464
 30
0.0
 10
209.9682790041547
 20
112.1089620110489
 30
0.0
  0
LINE
  5
D1
330
1F
100
AcDbEntity
  8
0
  6
Continuous
 62
     7
370
    40
100
AcDbLine
 10
144.5894985955
 20
97.114514702
 30
0.0
 11
144.5894985955
 21
57.114514702
 31
0.0
  0
LINE
  5
D2
330
1F
100
AcDbEntity
  8
0
  6
Continuous
 62
     7
370
    40
100
AcDbLine
 10
224.7070118613
 20
57.114514702
 30
0.0
 11
224.7070118613
 21
97.114514702
 31
0.0
  0
LINE
  5
D3
330
1F
100
AcDbEntity
  8
0
  6
Continuous
 62
     7
370
    40
100
AcDbLine
 10
224.6482552284
 20
115.714514702
 30
0.0
 11
225.4482552284
 21
115.714514702
 31
0.0
  0
LINE
  5
D4
330
1F
100
AcDbEntity
  8
0
  6
Continuous
 62
     7
370
    40
100
AcDbLine
 10
222.6482552284
 20
128.114514702
 30
0.0
 11
205.8082552284
 21
128.114514702
 31
0.0
  0
LINE
  5
D5
330
1F
100
AcDbEntity
  8
0
  6
Continuous
 62
     7
370
    40
100
AcDbLine
 10
205.8082552284
 20
116.114514702
 30
0.0
 11
221.3482552284
 21
116.114514702
 31
0.0
  0
LINE
  5
D6
330
1F
100
AcDbEntity
  8
0
  6
Continuous
 62
     7
370
    40
100
AcDbLine
 10
222.3482552284
 20
116.114514702
 30
0.0
 11
224.6482552284
 21
116.114514702
 31
0.0
  0
LINE
  5
D7
330
1F
100
AcDbEntity
  8
0
  6
Continuous
 62
     7
370
    40
100
AcDbLine
 10
205.8082552284
 20
124.514514702
 30
0.0
 11
205.4082552284
 21
124.514514702
 31
0.0
  0
LINE
  5
D8
330
1F
100
AcDbEntity
  8
0
  6
Continuous
 62
     7
370
    40
100
AcDbLine
 10
205.4082552284
 20
119.714514702
 30
0.0
 11
205.8082552284
 21
119.714514702
 31
0.0
  0
LINE
  5
D9
330
1F
100
AcDbEntity
  8
0
  6
Continuous
 62
     7
370
    40
100
AcDbLine
 10
143.8482552284
 20
115.714514702
 30
0.0
 11
144.6482552284
 21
115.714514702
 31
0.0
  0
LINE
  5
DA
330
1F
100
AcDbEntity
  8
0
  6
Continuous
 62
     7
370
    40
100
AcDbLine
 10
144.6482552284
 20
116.114514702
 30
0.0
 11
146.9482552284
 21
116.114514702
 31
0.0
  0
LINE
  5
DB
330
1F
100
AcDbEntity
  8
0
  6
Continuous
 62
     7
370
    40
100
AcDbLine
 10
147.9482552284
 20
116.114514702
 30
0.0
 11
163.4882552284
 21
116.114514702
 31
0.0
  0
LINE
  5
DC
330
1F
100
AcDbEntity
  8
0
  6
Continuous
 62
     7
370
    40
100
AcDbLine
 10
163.4882552284
 20
128.114514702
 30
0.0
 11
146.6482552284
 21
128.114514702
 31
0.0
  0
LINE
  5
DD
330
1F
100
AcDbEntity
  8
0
  6
Continuous
 62
     7
370
    40
100
AcDbLine
 10
163.4882552284
 20
119.714514702
 30
0.0
 11
163.8882552284
 21
119.714514702
 31
0.0
  0
LINE
  5
DE
330
1F
100
AcDbEntity
  8
0
  6
Continuous
 62
     7
370
    40
100
AcDbLine
 10
163.8882552284
 20
124.514514702
 30
0.0
 11
163.4882552284
 21
124.514514702
 31
0.0
  0
LINE
  5
DF
330
1F
100
AcDbEntity
  8
0
  6
Continuous
 62
     7
370
    40
100
AcDbLine
 10
209.9854786727
 20
42.1195607598
 30
0.0
 11
209.868937043
 21
42.114514702
 31
0.0
  0
SPLINE
  5
E0
330
1F
100
AcDbEntity
  8
0
  6
Continuous
 62
     7
370
    40
100
AcDbSpline
210
0.0
220
0.0
230
1.0
 70
     8
 71
     3
 72
    20
 73
    16
 74
     0
 42
0.00000001
 43
0.00000001
 12
1.0
 22
0.0
 32
0.0
 13
1.0
 23
0.0
 33
0.0
 40
0.0
 40
0.0
 40
0.0
 40
0.0
 40
0.0793276927809684
 40
0.1589086283364974
 40
0.238237181824983
 40
0.3175736898017065
 40
0.3971618060018314
 40
0.4765016891846935
 40
0.5562945530398783
 40
0.636338650951586
 40
0.7161349963960564
 40
0.7966884883767232
 40
0.8774959615844492
 40
0.9580511591358123
 40
1.0
 40
1.0
 40
1.0
 40
1.0
 10
211.3488093903088
 20
47.11451470204217
 30
0.0
 10
211.7115171355032
 20
47.19079821274394
 30
0.0
 10
212.4380905206008
 20
47.34360875878844
 30
0.0
 10
213.4854450095409
 20
47.72670758777904
 30
0.0
 10
214.4861908501096
 20
48.21588199855376
 30
0.0
 10
215.4234991288251
 20
48.82042282877272
 30
0.0
 10
216.2886846608348
 20
49.52537210416622
 30
0.0
 10
217.0731152883538
 20
50.32442528224065
 30
0.0
 10
217.7635975350005
 20
51.21068985158677
 30
0.0
 10
218.354673048159
 20
52.17043653803174
 30
0.0
 10
218.8398950544883
 20
53.1936518017301
 30
0.0
 10
219.2090182609192
 20
54.26986069159931
 30
0.0
 10
219.4584721819345
 20
55.38413753778205
 30
0.0
 10
219.5706498849852
 20
56.338853600726
 30
0.0
 10
219.5804930967315
 20
56.91665812302614
 30
0.0
 10
219.583863690293
 20
57.11451470204238
 30
0.0
  0
SPLINE
  5
E1
330
1F
100
AcDbEntity
  8
0
  6
Continuous
 62
     7
370
    40
100
AcDbSpline
210
0.0
220
0.0
230
1.0
 70
     8
 71
     3
 72
     9
 73
     5
 74
     0
 42
0.00000001
 43
0.00000001
 12
1.0
 22
0.0
 32
0.0
 13
1.0
 23
0.0
 33
0.0
 40
0.0
 40
0.0
 40
0.0
 40
0.0
 40
0.4976333698291237
 40
1.0
 40
1.0
 40
1.0
 40
1.0
 10
147.9482552284075
 20
104.0783092564281
 30
0.0
 10
147.7650987064432
 20
103.8493134059405
 30
0.0
 10
147.3970435616943
 20
103.3891436014794
 30
0.0
 10
147.0983226474553
 20
102.8812087255452
 30
0.0
 10
146.9482552284075
 20
102.6260391935759
 30
0.0
  0
LINE
  5
E2
330
1F
100
AcDbEntity
  8
0
  6
Continuous
 62
     7
370
    40
100
AcDbLine
 10
159.304035626
 20
112.1091754936
 30
0.0
 11
159.4275734138
 21
112.114514702
 31
0.0
  0
SPLINE
  5
E3
330
1F
100
AcDbEntity
  8
0
  6
Continuous
 62
     7
370
    40
100
AcDbSpline
210
0.0
220
0.0
230
1.0
 70
     8
 71
     3
 72
    20
 73
    16
 74
     0
 42
0.00000001
 43
0.00000001
 12
1.0
 22
0.0
 32
0.0
 13
1.0
 23
0.0
 33
0.0
 40
0.0
 40
0.0
 40
0.0
 40
0.0
 40
0.0793276927809404
 40
0.1589086283364398
 40
0.2382371818248966
 40
0.3175736898015981
 40
0.3971618060017007
 40
0.4765016891845403
 40
0.5562945530397233
 40
0.6363386509514299
 40
0.7161349963958987
 40
0.7966884883765666
 40
0.8774959615842934
 40
0.9580511591356571
 40
1.0
 40
1.0
 40
1.0
 40
1.0
 10
157.9477010665062
 20
107.1145147020424
 30
0.0
 10
157.584993321312
 20
107.0382311913407
 30
0.0
 10
156.8584199362146
 20
106.8854206452963
 30
0.0
 10
155.8110654472749
 20
106.502321816306
 30
0.0
 10
154.8103196067064
 20
106.0131474055316
 30
0.0
 10
153.8730113279911
 20
105.408606575313
 30
0.0
 10
153.0078257959815
 20
104.7036572999198
 30
0.0
 10
152.2233951684625
 20
103.9046041218457
 30
0.0
 10
151.5329129218157
 20
103.0183395524998
 30
0.0
 10
150.941837408657
 20
102.058592866055
 30
0.0
 10
150.4566154023275
 20
101.0353776023568
 30
0.0
 10
150.0874921958964
 20
99.95916871248764
 30
0.0
 10
149.8380382748809
 20
98.84489186630495
 30
0.0
 10
149.7258605718298
 20
97.89017580336032
 30
0.0
 10
149.7160173600834
 20
97.31237128105941
 30
0.0
 10
149.712646766522
 20
97.11451470204243
 30
0.0
  0
SPLINE
  5
E4
330
1F
100
AcDbEntity
  8
0
  6
Continuous
 62
     7
370
    40
100
AcDbSpline
210
0.0
220
0.0
230
1.0
 70
     8
 71
     3
 72
     9
 73
     5
 74
     0
 42
0.00000001
 43
0.00000001
 12
1.0
 22
0.0
 32
0.0
 13
1.0
 23
0.0
 33
0.0
 40
0.0
 40
0.0
 40
0.0
 40
0.0
 40
0.4976333698291294
 40
1.0
 40
1.0
 40
1.0
 40
1.0
 10
221.3482552284075
 20
104.0783092564279
 30
0.0
 10
221.5314117503718
 20
103.8493134059404
 30
0.0
 10
221.8994668951207
 20
103.3891436014793
 30
0.0
 10
222.1981878093597
 20
102.8812087255451
 30
0.0
 10
222.3482552284075
 20
102.6260391935758
 30
0.0
  0
SPLINE
  5
E5
330
1F
100
AcDbEntity
  8
0
  6
Continuous
 62
     7
370
    40
100
AcDbSpline
210
0.0
220
0.0
230
1.0
 70
     8
 71
     3
 72
    20
 73
    16
 74
     0
 42
0.00000001
 43
0.00000001
 12
1.0
 22
0.0
 32
0.0
 13
1.0
 23
0.0
 33
0.0
 40
0.0
 40
0.0
 40
0.0
 40
0.0
 40
0.0812309708434216
 40
0.1627205300570205
 40
0.2439501669761199
 40
0.32516386195852
 40
0.4066381877479647
 40
0.4878483650282389
 40
0.5685674458334297
 40
0.6495472426136524
 40
0.7302625409545312
 40
0.8102093947529615
 40
0.8904142048004837
 40
0.9703597295908118
 40
1.0
 40
1.0
 40
1.0
 40
1.0
 10
219.5838636902934
 20
97.11451470204246
 30
0.0
 10
219.5713544090475
 20
97.49780169137875
 30
0.0
 10
219.5462960248645
 20
98.26559581498934
 30
0.0
 10
219.3489475555421
 20
99.40207284289926
 30
0.0
 10
219.0381617255521
 20
100.5101464255782
 30
0.0
 10
218.6014739832341
 20
101.5741193719606
 30
0.0
 10
218.0515103001601
 20
102.581798076035
 30
0.0
 10
217.3949614976491
 20
103.5189110995324
 30
0.0
 10
216.6370894567098
 20
104.370643288468
 30
0.0
 10
215.7914413685007
 20
105.1293937996702
 30
0.0
 10
214.8693825486094
 20
105.7851020500181
 30
0.0
 10
213.880886599113
 20
106.3264831124994
 30
0.0
 10
212.8414362772767
 20
106.7501115538444
 30
0.0
 10
211.987453274751
 20
106.9939510116701
 30
0.0
 10
211.4847722744661
 20
107.0888475227787
 30
0.0
 10
211.3488093903087
 20
107.1145147020425
 30
0.0
  0
LINE
  5
E6
330
1F
100
AcDbEntity
  8
0
  6
Continuous
 62
     7
370
    40
100
AcDbLine
 10
159.4275734138
 20
42.114514702
 30
0.0
 11
159.3340966707
 21
42.1197395583
 31
0.0
  0
SPLINE
  5
E7
330
1F
100
AcDbEntity
  8
0
  6
Continuous
 62
     7
370
    40
100
AcDbSpline
210
0.0
220
0.0
230
1.0
 70
     8
 71
     3
 72
    20
 73
    16
 74
     0
 42
0.00000001
 43
0.00000001
 12
1.0
 22
0.0
 32
0.0
 13
1.0
 23
0.0
 33
0.0
 40
0.0
 40
0.0
 40
0.0
 40
0.0
 40
0.0812309708434214
 40
0.1627205300570207
 40
0.2439501669761205
 40
0.3251638619585223
 40
0.4066381877479684
 40
0.4878483650282437
 40
0.5685674458334342
 40
0.6495472426136574
 40
0.7302625409545362
 40
0.8102093947529665
 40
0.8904142048004899
 40
0.9703597295908186
 40
0.9999999999999999
 40
0.9999999999999999
 40
0.9999999999999999
 40
0.9999999999999999
 10
149.7126467665216
 20
57.1145147020424
 30
0.0
 10
149.7251560477674
 20
56.73122771270612
 30
0.0
 10
149.7502144319504
 20
55.96343358909551
 30
0.0
 10
149.9475629012729
 20
54.82695656118559
 30
0.0
 10
150.2583487312629
 20
53.7188829785066
 30
0.0
 10
150.6950364735808
 20
52.65491003212423
 30
0.0
 10
151.2450001566549
 20
51.64723132804974
 30
0.0
 10
151.901548959166
 20
50.71011830455244
 30
0.0
 10
152.6594210001052
 20
49.85838611561672
 30
0.0
 10
153.5050690883143
 20
49.09963560441459
 30
0.0
 10
154.4271279082055
 20
48.4439273540666
 30
0.0
 10
155.415623857702
 20
47.90254629158529
 30
0.0
 10
156.4550741795382
 20
47.47891785024029
 30
0.0
 10
157.309057182064
 20
47.23507839241466
 30
0.0
 10
157.8117381823488
 20
47.14018188130596
 30
0.0
 10
157.9477010665062
 20
47.11451470204217
 30
0.0
  0
LINE
  5
E8
330
1F
100
AcDbEntity
  8
0
  6
Continuous
 62
     7
370
    40
100
AcDbLine
 10
149.7126467665
 20
97.114514702
 30
0.0
 11
149.7126467665
 21
57.114514702
 31
0.0
  0
LINE
  5
E9
330
1F
100
AcDbEntity
  8
0
  6
Continuous
 62
     7
370
    40
100
AcDbLine
 10
219.5838636903
 20
57.114514702
 30
0.0
 11
219.5838636903
 21
97.114514702
 31
0.0
  0
LINE
  5
EA
330
1F
100
AcDbEntity
  8
0
  6
Continuous
 62
     7
370
    40
100
AcDbLine
 10
222.3482552284
 20
121.0236434906
 30
0.0
 11
222.3482552284
 21
102.6260391936
 31
0.0
  0
LINE
  5
EB
330
1F
100
AcDbEntity
  8
0
  6
Continuous
 62
     7
370
    40
100
AcDbLine
 10
221.3482552284
 20
121.0236434906
 30
0.0
 11
221.3482552284
 21
104.0783092564
 31
0.0
  0
LINE
  5
EC
330
1F
100
AcDbEntity
  8
0
  6
Continuous
 62
     7
370
    40
100
AcDbLine
 10
146.9482552284
 20
121.0236434906
 30
0.0
 11
146.9482552284
 21
102.6260391936
 31
0.0
  0
LINE
  5
ED
330
1F
100
AcDbEntity
  8
0
  6
Continuous
 62
     7
370
    40
100
AcDbLine
 10
147.9482552284
 20
121.0236434906
 30
0.0
 11
147.9482552284
 21
104.0783092564
 31
0.0
  0
LINE
  5
EE
330
1F
100
AcDbEntity
  8
0
  6
Continuous
 62
     7
370
    40
100
AcDbLine
 10
157.9477010665
 20
47.114514702
 30
0.0
 11
211.3488093903
 21
47.114514702
 31
0.0
  0
LINE
  5
EF
330
1F
100
AcDbEntity
  8
0
  6
Continuous
 62
     7
370
    40
100
AcDbLine
 10
157.9477010665
 20
107.114514702
 30
0.0
 11
211.3488093903
 21
107.114514702
 31
0.0
  0
LINE
  5
F0
330
1F
100
AcDbEntity
  8
0
  6
Continuous
 62
     7
370
    40
100
AcDbLine
 10
159.4275734138
 20
112.114514702
 30
0.0
 11
209.868937043
 21
112.114514702
 31
0.0
  0
LINE
  5
F1
330
1F
100
AcDbEntity
  8
0
  6
Continuous
 62
     7
370
    40
100
AcDbLine
 10
209.868937043
 20
42.114514702
 30
0.0
 11
159.4275734138
 21
42.114514702
 31
0.0
  0
LINE
  5
F2
330
1F
100
AcDbEntity
  8
0
  6
Continuous
 62
     7
370
    40
100
AcDbLine
 10
224.6482552284
 20
126.8869284951
 30
0.0
 11
224.6482552284
 21
115.714514702
 31
0.0
  0
LINE
  5
F3
330
1F
100
AcDbEntity
  8
0
  6
Continuous
 62
     7
370
    40
100
AcDbLine
 10
225.4482552284
 20
126.8869284951
 30
0.0
 11
225.4482552284
 21
115.714514702
 31
0.0
  0
LINE
  5
F4
330
1F
100
AcDbEntity
  8
0
  6
Continuous
 62
     7
370
    40
100
AcDbLine
 10
205.8082552284
 20
128.114514702
 30
0.0
 11
205.8082552284
 21
116.114514702
 31
0.0
  0
LINE
  5
F5
330
1F
100
AcDbEntity
  8
0
  6
Continuous
 62
     7
370
    40
100
AcDbLine
 10
224.6482552284
 20
131.6926095124
 30
0.0
 11
225.4482552284
 21
131.6926095124
 31
0.0
  0
LINE
  5
F6
330
1F
100
AcDbEntity
  8
0
  6
Continuous
 62
     7
370
    40
100
AcDbLine
 10
224.6482552284
 20
131.6926095124
 30
0.0
 11
224.6482552284
 21
126.8869284951
 31
0.0
  0
LINE
  5
F7
330
1F
100
AcDbEntity
  8
0
  6
Continuous
 62
     7
370
    40
100
AcDbLine
 10
225.4482552284
 20
131.6926095124
 30
0.0
 11
225.4482552284
 21
126.8869284951
 31
0.0
  0
LINE
  5
F8
330
1F
100
AcDbEntity
  8
0
  6
Continuous
 62
     7
370
    40
100
AcDbLine
 10
222.6482552284
 20
131.2137602455
 30
0.0
 11
224.6482552284
 21
131.2137602455
 31
0.0
  0
LINE
  5
F9
330
1F
100
AcDbEntity
  8
0
  6
Continuous
 62
     7
370
    40
100
AcDbLine
 10
222.6482552284
 20
131.2137602455
 30
0.0
 11
222.6482552284
 21
126.5886526331
 31
0.0
  0
LINE
  5
FA
330
1F
100
AcDbEntity
  8
0
  6
Continuous
 62
     7
370
    40
100
AcDbLine
 10
205.4082552284
 20
124.514514702
 30
0.0
 11
205.4082552284
 21
119.714514702
 31
0.0
  0
LINE
  5
FB
330
1F
100
AcDbEntity
  8
0
  6
Continuous
 62
     7
370
    40
100
AcDbLine
 10
222.6482552284
 20
132.314514702
 30
0.0
 11
218.8482552284
 21
132.314514702
 31
0.0
  0
LINE
  5
FC
330
1F
100
AcDbEntity
  8
0
  6
Continuous
 62
     7
370
    40
100
AcDbLine
 10
218.8482552284
 20
133.114514702
 30
0.0
 11
225.4482552284
 21
133.114514702
 31
0.0
  0
LINE
  5
FD
330
1F
100
AcDbEntity
  8
0
  6
Continuous
 62
     7
370
    40
100
AcDbLine
 10
222.6482552284
 20
132.314514702
 30
0.0
 11
222.6482552284
 21
131.2137602455
 31
0.0
  0
LINE
  5
FE
330
1F
100
AcDbEntity
  8
0
  6
Continuous
 62
     7
370
    40
100
AcDbLine
 10
225.4482552284
 20
133.114514702
 30
0.0
 11
225.4482552284
 21
131.6926095124
 31
0.0
  0
LINE
  5
FF
330
1F
100
AcDbEntity
  8
0
  6
Continuous
 62
     7
370
    40
100
AcDbLine
 10
218.8482552284
 20
132.314514702
 30
0.0
 11
215.8482552284
 21
132.314514702
 31
0.0
  0
LINE
  5
100
330
1F
100
AcDbEntity
  8
0
  6
Continuous
 62
     7
370
    40
100
AcDbLine
 10
215.8482552284
 20
132.314514702
 30
0.0
 11
215.8482552284
 21
133.114514702
 31
0.0
  0
LINE
  5
101
330
1F
100
AcDbEntity
  8
0
  6
Continuous
 62
     7
370
    40
100
AcDbLine
 10
218.8482552284
 20
133.114514702
 30
0.0
 11
215.8482552284
 21
133.114514702
 31
0.0
  0
LINE
  5
102
330
1F
100
AcDbEntity
  8
0
  6
Continuous
 62
     7
370
    40
100
AcDbLine
 10
144.6482552284
 20
126.8869284951
 30
0.0
 11
144.6482552284
 21
115.714514702
 31
0.0
  0
LINE
  5
103
330
1F
100
AcDbEntity
  8
0
  6
Continuous
 62
     7
370
    40
100
AcDbLine
 10
143.8482552284
 20
126.8869284951
 30
0.0
 11
143.8482552284
 21
115.714514702
 31
0.0
  0
LINE
  5
104
330
1F
100
AcDbEntity
  8
0
  6
Continuous
 62
     7
370
    40
100
AcDbLine
 10
163.4882552284
 20
128.114514702
 30
0.0
 11
163.4882552284
 21
116.114514702
 31
0.0
  0
LINE
  5
105
330
1F
100
AcDbEntity
  8
0
  6
Continuous
 62
     7
370
    40
100
AcDbLine
 10
144.6482552284
 20
131.6926095124
 30
0.0
 11
143.8482552284
 21
131.6926095124
 31
0.0
  0
LINE
  5
106
330
1F
100
AcDbEntity
  8
0
  6
Continuous
 62
     7
370
    40
100
AcDbLine
 10
144.6482552284
 20
131.6926095124
 30
0.0
 11
144.6482552284
 21
126.8869284951
 31
0.0
  0
LINE
  5
107
330
1F
100
AcDbEntity
  8
0
  6
Continuous
 62
     7
370
    40
100
AcDbLine
 10
143.8482552284
 20
131.6926095124
 30
0.0
 11
143.8482552284
 21
126.8869284951
 31
0.0
  0
LINE
  5
108
330
1F
100
AcDbEntity
  8
0
  6
Continuous
 62
     7
370
    40
100
AcDbLine
 10
146.6482552284
 20
131.2137602455
 30
0.0
 11
144.6482552284
 21
131.2137602455
 31
0.0
  0
LINE
  5
109
330
1F
100
AcDbEntity
  8
0
  6
Continuous
 62
     7
370
    40
100
AcDbLine
 10
146.6482552284
 20
131.2137602455
 30
0.0
 11
146.6482552284
 21
126.5886526331
 31
0.0
  0
LINE
  5
10A
330
1F
100
AcDbEntity
  8
0
  6
Continuous
 62
     7
370
    40
100
AcDbLine
 10
163.8882552284
 20
124.514514702
 30
0.0
 11
163.8882552284
 21
119.714514702
 31
0.0
  0
LINE
  5
10B
330
1F
100
AcDbEntity
  8
0
  6
Continuous
 62
     7
370
    40
100
AcDbLine
 10
150.4482552284
 20
133.114514702
 30
0.0
 11
143.8482552284
 21
133.114514702
 31
0.0
  0
LINE
  5
10C
330
1F
100
AcDbEntity
  8
0
  6
Continuous
 62
     7
370
    40
100
AcDbLine
 10
146.6482552284
 20
132.314514702
 30
0.0
 11
150.4482552284
 21
132.314514702
 31
0.0
  0
LINE
  5
10D
330
1F
100
AcDbEntity
  8
0
  6
Continuous
 62
     7
370
    40
100
AcDbLine
 10
146.6482552284
 20
132.314514702
 30
0.0
 11
146.6482552284
 21
131.2137602455
 31
0.0
  0
LINE
  5
10E
330
1F
100
AcDbEntity
  8
0
  6
Continuous
 62
     7
370
    40
100
AcDbLine
 10
143.8482552284
 20
133.114514702
 30
0.0
 11
143.8482552284
 21
131.6926095124
 31
0.0
  0
LINE
  5
10F
330
1F
100
AcDbEntity
  8
0
  6
Continuous
 62
     7
370
    40
100
AcDbLine
 10
153.4482552284
 20
132.314514702
 30
0.0
 11
153.4482552284
 21
133.114514702
 31
0.0
  0
LINE
  5
110
330
1F
100
AcDbEntity
  8
0
  6
Continuous
 62
     7
370
    40
100
AcDbLine
 10
150.4482552284
 20
132.314514702
 30
0.0
 11
153.4482552284
 21
132.314514702
 31
0.0
  0
LINE
  5
111
330
1F
100
AcDbEntity
  8
0
  6
Continuous
 62
     7
370
    40
100
AcDbLine
 10
150.4482552284
 20
133.114514702
 30
0.0
 11
153.4482552284
 21
133.114514702
 31
0.0
  0
SPLINE
  5
112
330
1F
100
AcDbEntity
  8
0
  6
Continuous
 62
     7
370
    40
100
AcDbSpline
210
0.0
220
0.0
230
1.0
 70
     8
 71
     3
 72
     9
 73
     5
 74
     0
 42
0.00000001
 43
0.00000001
 12
1.0
 22
0.0
 32
0.0
 13
1.0
 23
0.0
 33
0.0
 40
0.0
 40
0.0
 40
0.0
 40
0.0
 40
0.7815511107433095
 40
1.0
 40
1.0
 40
1.0
 40
1.0
 10
221.5480786250866
 20
27.62322153322237
 30
0.0
 10
221.5459929968347
 20
27.62286441950336
 30
0.0
 10
221.5433244211995
 20
27.62240749005358
 30
0.0
 10
221.5417973946961
 20
27.62212707285984
 30
0.0
 10
221.5414638174526
 20
27.62206581603534
 30
0.0
  0
SPLINE
  5
113
330
1F
100
AcDbEntity
  8
0
  6
Continuous
 62
     7
370
    40
100
AcDbSpline
210
0.0
220
0.0
230
1.0
 70
     8
 71
     3
 72
     9
 73
     5
 74
     0
 42
0.00000001
 43
0.00000001
 12
1.0
 22
0.0
 32
0.0
 13
1.0
 23
0.0
 33
0.0
 40
0.0
 40
0.0
 40
0.0
 40
0.0
 40
0.1276015998309845
 40
1.0
 40
1.0
 40
1.0
 40
1.0
 10
147.7553711557359
 20
27.62197656601433
 30
0.0
 10
147.7550530230004
 20
27.6220350999194
 30
0.0
 10
147.7525598510032
 20
27.6224938238315
 30
0.0
 10
147.7477004110262
 20
27.62332304191964
 30
0.0
 10
147.7434610433646
 20
27.62404645045312
 30
0.0
  0
LINE
  5
114
330
1F
100
AcDbEntity
  8
0
  6
Continuous
 62
     7
370
    40
100
AcDbLine
 10
147.7551213844
 20
27.6220365462
 30
0.0
 11
147.7477420679
 21
27.6233449185
 31
0.0
  0
SPLINE
  5
115
330
1F
100
AcDbEntity
  8
0
  6
Continuous
 62
     7
370
    40
100
AcDbSpline
210
0.0
220
0.0
230
1.0
 70
     8
 71
     3
 72
    10
 73
     6
 74
     0
 42
0.00000001
 43
0.00000001
 12
1.0
 22
0.0
 32
0.0
 13
1.0
 23
0.0
 33
0.0
 40
0.0
 40
0.0
 40
0.0
 40
0.0
 40
0.3660947271652501
 40
0.8747385611485301
 40
1.0
 40
1.0
 40
1.0
 40
1.0
 10
146.7680338491642
 20
22.33348832236233
 30
0.0
 10
146.7798264563868
 20
22.33111678812081
 30
0.0
 10
146.8080034485933
 20
22.32545029719318
 30
0.0
 10
146.8684026544983
 20
22.313251716558
 30
0.0
 10
146.9350470457162
 20
22.29971192376244
 30
0.0
 10
146.9482161621332
 20
22.29703642317899
 30
0.0
  0
LINE
  5
116
330
1F
100
AcDbEntity
  8
0
  6
Continuous
 62
     7
370
    40
100
AcDbLine
 10
146.7625666452
 20
22.3345806817
 30
0.0
 11
146.7670321198
 21
22.3336884701
 31
0.0
  0
LINE
  5
117
330
1F
100
AcDbEntity
  8
0
  6
Continuous
 62
     7
370
    40
100
AcDbLine
 10
222.4657853704
 20
22.3208518268
 30
0.0
 11
222.5224276405
 21
22.3322775335
 31
0.0
  0
LINE
  5
118
330
1F
100
AcDbEntity
  8
0
  6
Continuous
 62
     7
370
    40
100
AcDbLine
 10
224.6482552284
 20
14.734514702
 30
0.0
 11
225.4482552284
 21
14.734514702
 31
0.0
  0
LINE
  5
119
330
1F
100
AcDbEntity
  8
0
  6
Continuous
 62
     7
370
    40
100
AcDbLine
 10
219.0748272814
 20
27.134514702
 30
0.0
 11
205.8082552284
 21
27.134514702
 31
0.0
  0
LINE
  5
11A
330
1F
100
AcDbEntity
  8
0
  6
Continuous
 62
     7
370
    40
100
AcDbLine
 10
205.8082552284
 20
15.134514702
 30
0.0
 11
224.6482552284
 21
15.134514702
 31
0.0
  0
LINE
  5
11B
330
1F
100
AcDbEntity
  8
0
  6
Continuous
 62
     7
370
    40
100
AcDbLine
 10
205.4082552284
 20
18.734514702
 30
0.0
 11
205.8082552284
 21
18.734514702
 31
0.0
  0
LINE
  5
11C
330
1F
100
AcDbEntity
  8
0
  6
Continuous
 62
     7
370
    40
100
AcDbLine
 10
143.8482552284
 20
14.734514702
 30
0.0
 11
144.6482552284
 21
14.734514702
 31
0.0
  0
LINE
  5
11D
330
1F
100
AcDbEntity
  8
0
  6
Continuous
 62
     7
370
    40
100
AcDbLine
 10
144.6482552284
 20
15.134514702
 30
0.0
 11
163.4882552284
 21
15.134514702
 31
0.0
  0
LINE
  5
11E
330
1F
100
AcDbEntity
  8
0
  6
Continuous
 62
     7
370
    40
100
AcDbLine
 10
163.4882552284
 20
27.134514702
 30
0.0
 11
150.2207847212
 21
27.134514702
 31
0.0
  0
LINE
  5
11F
330
1F
100
AcDbEntity
  8
0
  6
Continuous
 62
     7
370
    40
100
AcDbLine
 10
163.4882552284
 20
18.734514702
 30
0.0
 11
163.8882552284
 21
18.734514702
 31
0.0
  0
SPLINE
  5
120
330
1F
100
AcDbEntity
  8
0
  6
Continuous
 62
     7
370
    40
100
AcDbSpline
210
0.0
220
0.0
230
1.0
 70
     8
 71
     3
 72
    25
 73
    21
 74
     0
 42
0.00000001
 43
0.00000001
 12
1.0
 22
0.0
 32
0.0
 13
1.0
 23
0.0
 33
0.0
 40
0.0
 40
0.0
 40
0.0
 40
0.0
 40
0.0533375943950287
 40
0.107033586916185
 40
0.1618623362723458
 40
0.2170841103878616
 40
0.2702596609297808
 40
0.3237976449980819
 40
0.3784842683774743
 40
0.4335706385624783
 40
0.4863873380939679
 40
0.5395689680642333
 40
0.5939083937886351
 40
0.6486510923399768
 40
0.7016031708273116
 40
0.754554901527339
 40
0.8082757678963337
 40
0.8627959130904795
 40
0.9328248717292356
 40
1.0
 40
1.0
 40
1.0
 40
1.0
 10
210.2336877638565
 20
20.23520253500611
 30
0.0
 10
210.5756585578667
 20
20.28255799948201
 30
0.0
 10
211.2618979940213
 20
20.37758713006856
 30
0.0
 10
212.2917788173319
 20
20.52753332113382
 30
0.0
 10
213.318737263513
 20
20.68243091368898
 30
0.0
 10
214.3200200117898
 20
20.8392104104881
 30
0.0
 10
215.2844143531968
 20
20.99540786423801
 30
0.0
 10
216.2107329397904
 20
21.15024068512475
 30
0.0
 10
217.1056790281427
 20
21.30434859285016
 30
0.0
 10
217.9474178841602
 20
21.45340090227833
 30
0.0
 10
218.7272689879071
 20
21.59500914758781
 30
0.0
 10
219.4452728978298
 20
21.72835821329094
 30
0.0
 10
220.1069000447647
 20
21.85379473530651
 30
0.0
 10
220.6968256445728
 20
21.96772909847596
 30
0.0
 10
221.207814779647
 20
22.06799023056453
 30
0.0
 10
221.6399856594386
 20
22.15392971611869
 30
0.0
 10
221.9965794852144
 20
22.22563106346381
 30
0.0
 10
222.2955159733181
 20
22.28627017823081
 30
0.0
 10
222.5101984112409
 20
22.33016734489785
 30
0.0
 10
222.5392039614791
 20
22.33612174637063
 30
0.0
 10
222.5534050804231
 20
22.33903702164937
 30
0.0
  0
ARC
  5
121
330
1F
100
AcDbEntity
  8
0
  6
Continuous
 62
     7
370
    40
100
AcDbCircle
 10
222.0170118613
 20
24.9750178225
 30
0.0
 40
2.690000000000012
100
AcDbArc
 50
281.5900201068
 51
12.4186815058
  0
SPLINE
  5
122
330
1F
100
AcDbEntity
  8
0
  6
Continuous
 62
     7
370
    40
100
AcDbSpline
210
0.0
220
0.0
230
1.0
 70
     8
 71
     3
 72
    25
 73
    21
 74
     0
 42
0.00000001
 43
0.00000001
 12
1.0
 22
0.0
 32
0.0
 13
1.0
 23
0.0
 33
0.0
 40
0.0
 40
0.0
 40
0.0
 40
0.0
 40
0.0672752404190982
 40
0.139180245750468
 40
0.1923245723285918
 40
0.2458280081109852
 40
0.3004674901430869
 40
0.355501598209412
 40
0.4084121804584526
 40
0.4616857510374173
 40
0.5161111318429232
 40
0.5709379143831442
 40
0.6236858542169663
 40
0.6771974805808856
 40
0.7310986037644374
 40
0.7858020644401547
 40
0.8385735971096687
 40
0.8917232562193899
 40
0.9454596144260536
 40
1.0
 40
1.0
 40
1.0
 40
1.0
 10
221.4727260376008
 20
27.60938161848809
 30
0.0
 10
221.4592641022442
 20
27.60661820720662
 30
0.0
 10
221.4314138045784
 20
27.60090121149067
 30
0.0
 10
221.2258969815325
 20
27.55887476727326
 30
0.0
 10
220.9404001209028
 20
27.50095710687276
 30
0.0
 10
220.6012797527629
 20
27.43273903659859
 30
0.0
 10
220.1795943432169
 20
27.34884059690587
 30
0.0
 10
219.6819671390357
 20
27.25116858356446
 30
0.0
 10
219.1162844629967
 20
27.14188555704632
 30
0.0
 10
218.4853420697489
 20
27.02215015925346
 30
0.0
 10
217.7817973468646
 20
26.89133520475031
 30
0.0
 10
217.0194639201164
 20
26.75283145418618
 30
0.0
 10
216.2068870700059
 20
26.60887157317796
 30
0.0
 10
215.3507200958295
 20
26.46124232218449
 30
0.0
 10
214.4407463540513
 20
26.30891612084037
 30
0.0
 10
213.4977500018387
 20
26.15607784560248
 30
0.0
 10
212.5294446611545
 20
26.00437305777885
 30
0.0
 10
211.5445480092746
 20
25.85558491967611
 30
0.0
 10
210.5330934611624
 20
25.70805582738104
 30
0.0
 10
209.8488490262589
 20
25.61326303434454
 30
0.0
 10
209.5041863221229
 20
25.56551468782687
 30
0.0
  0
ARC
  5
123
330
1F
100
AcDbEntity
  8
0
  6
Continuous
 62
     7
370
    40
100
AcDbCircle
 10
222.0170118613
 20
24.9750178225
 30
0.0
 40
2.690000000000016
100
AcDbArc
 50
12.4186815058
 51
100.0467259537
  0
SPLINE
  5
124
330
1F
100
AcDbEntity
  8
0
  6
Continuous
 62
     7
370
    40
100
AcDbSpline
210
0.0
220
0.0
230
1.0
 70
     8
 71
     3
 72
    25
 73
    21
 74
     0
 42
0.00000001
 43
0.00000001
 12
1.0
 22
0.0
 32
0.0
 13
1.0
 23
0.0
 33
0.0
 40
0.0
 40
0.0
 40
0.0
 40
0.0
 40
0.0484839832666383
 40
0.1013844754893785
 40
0.1554680031513155
 40
0.2099596442667752
 40
0.2630329374449176
 40
0.3161065543475317
 40
0.3699521586614556
 40
0.4245942704132419
 40
0.4775277342414624
 40
0.5308309407970168
 40
0.5852932633616271
 40
0.6401529392537307
 40
0.6932953122481823
 40
0.7468015620801065
 40
0.8014481546601446
 40
0.8564857741858982
 40
0.9278093466110053
 40
0.9999999999999999
 40
0.9999999999999999
 40
0.9999999999999999
 40
0.9999999999999999
 10
146.7422852787212
 20
22.33920472324634
 30
0.0
 10
146.7499541403663
 20
22.33763112667058
 30
0.0
 10
146.7659904365429
 20
22.3343405912666
 30
0.0
 10
146.8959313130653
 20
22.30773532316037
 30
0.0
 10
147.1098151892328
 20
22.26415314613054
 30
0.0
 10
147.4119695383909
 20
22.20302577480429
 30
0.0
 10
147.7942944293932
 20
22.12641704509675
 30
0.0
 10
148.2531037055648
 20
22.03557312111381
 30
0.0
 10
148.792680456197
 20
21.93023785685046
 30
0.0
 10
149.4048700107842
 20
21.81272136306604
 30
0.0
 10
150.0826702144053
 20
21.68506891865816
 30
0.0
 10
150.8216760583456
 20
21.54878953679176
 30
0.0
 10
151.6277968429437
 20
21.40360289256855
 30
0.0
 10
152.4862398700738
 20
21.25300465360318
 30
0.0
 10
153.3855813421328
 20
21.0996241907324
 30
0.0
 10
154.322919952787
 20
20.94449673525392
 30
0.0
 10
155.3049228290965
 20
20.78714529159598
 30
0.0
 10
156.4241251451878
 20
20.61414541694513
 30
0.0
 10
157.6800455020204
 20
20.42747488788309
 30
0.0
 10
158.6000441537154
 20
20.29955094860764
 30
0.0
 10
159.0628226929584
 20
20.23520253500611
 30
0.0
  0
ARC
  5
125
330
1F
100
AcDbEntity
  8
0
  6
Continuous
 62
     7
370
    40
100
AcDbCircle
 10
147.2794985955
 20
24.9750178225
 30
0.0
 40
2.690000000000016
100
AcDbArc
 50
167.5813184942
 51
258.4099798932
  0
ARC
  5
126
330
1F
100
AcDbEntity
  8
0
  6
Continuous
 62
     7
370
    40
100
AcDbCircle
 10
147.2794985955
 20
24.9750178225
 30
0.0
 40
2.690000000000016
100
AcDbArc
 50
80.0567778904
 51
167.5813184942
  0
SPLINE
  5
127
330
1F
100
AcDbEntity
  8
0
  6
Continuous
 62
     7
370
    40
100
AcDbSpline
210
0.0
220
0.0
230
1.0
 70
     8
 71
     3
 72
    21
 73
    17
 74
     0
 42
0.00000001
 43
0.00000001
 12
1.0
 22
0.0
 32
0.0
 13
1.0
 23
0.0
 33
0.0
 40
0.0
 40
0.0
 40
0.0
 40
0.0
 40
0.0707709048614102
 40
0.141541654127694
 40
0.2128426303298763
 40
0.2843766996152016
 40
0.3556805462522851
 40
0.4273295758027473
 40
0.4992106775738905
 40
0.5708648836369992
 40
0.6428669218487474
 40
0.7150974294702841
 40
0.7871039126321964
 40
0.8593189615631192
 40
0.9317589220026208
 40
1.0
 40
1.0
 40
1.0
 40
1.0
 10
159.792324134692
 20
25.56551468782686
 30
0.0
 10
159.3452507928523
 20
25.62769588698199
 30
0.0
 10
158.451105092097
 20
25.75205814858224
 30
0.0
 10
157.1250925439084
 20
25.94899668617661
 30
0.0
 10
155.8303830234459
 20
26.15046987834556
 30
0.0
 10
154.5845597568352
 20
26.35336173173352
 30
0.0
 10
153.4037617489054
 20
26.55361806297392
 30
0.0
 10
152.306287606128
 20
26.74718958140415
 30
0.0
 10
151.3029821676394
 20
26.93007797492567
 30
0.0
 10
150.4056126843098
 20
27.09854134804899
 30
0.0
 10
149.6295195859329
 20
27.24801966820782
 30
0.0
 10
148.980351733166
 20
27.37572054513329
 30
0.0
 10
148.4646739429188
 20
27.47899115331985
 30
0.0
 10
148.097766013824
 20
27.5532510687199
 30
0.0
 10
147.8676248674492
 20
27.6003111984841
 30
0.0
 10
147.8383211435785
 20
27.60637227296266
 30
0.0
 10
147.8241065932134
 20
27.609312358285
 30
0.0
  0
ARC
  5
128
330
1F
100
AcDbEntity
  8
0
  6
Continuous
 62
     7
370
    40
100
AcDbCircle
 10
184.6482552284
 20
207.1825259766
 30
0.0
 40
183.3100000000007
100
AcDbArc
 50
262.2069690737
 51
277.7930309263
  0
ARC
  5
129
330
1F
100
AcDbEntity
  8
0
  6
Continuous
 62
     7
370
    40
100
AcDbCircle
 10
184.6482552284
 20
207.1825259766
 30
0.0
 40
188.6900000000007
100
AcDbArc
 50
262.2069690737
 51
277.7930309263
  0
LINE
  5
12A
330
1F
100
AcDbEntity
  8
0
  6
Continuous
 62
     7
370
    40
100
AcDbLine
 10
147.9482552284
 20
21.834514702
 30
0.0
 11
146.9482552284
 21
21.834514702
 31
0.0
  0
LINE
  5
12B
330
1F
100
AcDbEntity
  8
0
  6
Continuous
 62
     7
370
    40
100
AcDbLine
 10
147.9482552284
 20
22.0961122641
 30
0.0
 11
147.9482552284
 21
21.834514702
 31
0.0
  0
LINE
  5
12C
330
1F
100
AcDbEntity
  8
0
  6
Continuous
 62
     7
370
    40
100
AcDbLine
 10
146.9482552284
 20
22.3054901805
 30
0.0
 11
146.9482552284
 21
21.834514702
 31
0.0
  0
LINE
  5
12D
330
1F
100
AcDbEntity
  8
0
  6
Continuous
 62
     7
370
    40
100
AcDbLine
 10
221.3482552284
 20
21.834514702
 30
0.0
 11
222.3482552284
 21
21.834514702
 31
0.0
  0
LINE
  5
12E
330
1F
100
AcDbEntity
  8
0
  6
Continuous
 62
     7
370
    40
100
AcDbLine
 10
221.3482552284
 20
22.0961069337
 30
0.0
 11
221.3482552284
 21
21.834514702
 31
0.0
  0
LINE
  5
12F
330
1F
100
AcDbEntity
  8
0
  6
Continuous
 62
     7
370
    40
100
AcDbLine
 10
222.3482552284
 20
22.3054901805
 30
0.0
 11
222.3482552284
 21
21.834514702
 31
0.0
  0
LINE
  5
130
330
1F
100
AcDbEntity
  8
0
  6
Continuous
 62
     7
370
    40
100
AcDbLine
 10
147.9482552284
 20
21.834514702
 30
0.0
 11
147.9482552284
 21
15.2756149987
 31
0.0
  0
LINE
  5
131
330
1F
100
AcDbEntity
  8
0
  6
Continuous
 62
     7
370
    40
100
AcDbLine
 10
146.9482552284
 20
21.834514702
 30
0.0
 11
146.9482552284
 21
15.2756149987
 31
0.0
  0
LINE
  5
132
330
1F
100
AcDbEntity
  8
0
  6
Continuous
 62
     7
370
    40
100
AcDbLine
 10
221.3482552284
 20
21.834514702
 30
0.0
 11
221.3482552284
 21
15.2756149987
 31
0.0
  0
LINE
  5
133
330
1F
100
AcDbEntity
  8
0
  6
Continuous
 62
     7
370
    40
100
AcDbLine
 10
222.3482552284
 20
21.834514702
 30
0.0
 11
222.3482552284
 21
15.2756149987
 31
0.0
  0
LINE
  5
134
330
1F
100
AcDbEntity
  8
0
  6
Continuous
 62
     7
370
    40
100
AcDbLine
 10
147.8199392157
 20
27.610169419
 30
0.0
 11
147.8238616453
 21
27.6093657965
 31
0.0
  0
LINE
  5
135
330
1F
100
AcDbEntity
  8
0
  6
Continuous
 62
     7
370
    40
100
AcDbLine
 10
221.473389551
 20
27.6095172926
 30
0.0
 11
221.4765712412
 21
27.610169419
 31
0.0
  0
LINE
  5
136
330
1F
100
AcDbEntity
  8
0
  6
Continuous
 62
     7
370
    40
100
AcDbLine
 10
224.6482552284
 20
25.9069284951
 30
0.0
 11
224.6482552284
 21
25.5341764252
 31
0.0
  0
LINE
  5
137
330
1F
100
AcDbEntity
  8
0
  6
Continuous
 62
     7
370
    40
100
AcDbLine
 10
224.6482552284
 20
24.4158592199
 30
0.0
 11
224.6482552284
 21
14.734514702
 31
0.0
  0
LINE
  5
138
330
1F
100
AcDbEntity
  8
0
  6
Continuous
 62
     7
370
    40
100
AcDbLine
 10
225.4482552284
 20
25.9069284951
 30
0.0
 11
225.4482552284
 21
14.734514702
 31
0.0
  0
LINE
  5
139
330
1F
100
AcDbEntity
  8
0
  6
Continuous
 62
     7
370
    40
100
AcDbLine
 10
205.8082552284
 20
27.134514702
 30
0.0
 11
205.8082552284
 21
25.0979014198
 31
0.0
  0
LINE
  5
13A
330
1F
100
AcDbEntity
  8
0
  6
Continuous
 62
     7
370
    40
100
AcDbLine
 10
205.8082552284
 20
19.6827379767
 30
0.0
 11
205.8082552284
 21
15.134514702
 31
0.0
  0
LINE
  5
13B
330
1F
100
AcDbEntity
  8
0
  6
Continuous
 62
     7
370
    40
100
AcDbLine
 10
224.6482552284
 20
30.7126095124
 30
0.0
 11
225.4482552284
 21
30.7126095124
 31
0.0
  0
LINE
  5
13C
330
1F
100
AcDbEntity
  8
0
  6
Continuous
 62
     7
370
    40
100
AcDbLine
 10
224.6482552284
 20
30.7126095124
 30
0.0
 11
224.6482552284
 21
25.9069284951
 31
0.0
  0
LINE
  5
13D
330
1F
100
AcDbEntity
  8
0
  6
Continuous
 62
     7
370
    40
100
AcDbLine
 10
225.4482552284
 20
30.7126095124
 30
0.0
 11
225.4482552284
 21
25.9069284951
 31
0.0
  0
LINE
  5
13E
330
1F
100
AcDbEntity
  8
0
  6
Continuous
 62
     7
370
    40
100
AcDbLine
 10
222.6482552284
 20
30.2337602455
 30
0.0
 11
224.6482552284
 21
30.2337602455
 31
0.0
  0
LINE
  5
13F
330
1F
100
AcDbEntity
  8
0
  6
Continuous
 62
     7
370
    40
100
AcDbLine
 10
222.6482552284
 20
30.2337602455
 30
0.0
 11
222.6482552284
 21
27.5899043997
 31
0.0
  0
LINE
  5
140
330
1F
100
AcDbEntity
  8
0
  6
Continuous
 62
     7
370
    40
100
AcDbLine
 10
205.4082552284
 20
19.63802859
 30
0.0
 11
205.4082552284
 21
18.734514702
 31
0.0
  0
LINE
  5
141
330
1F
100
AcDbEntity
  8
0
  6
Continuous
 62
     7
370
    40
100
AcDbLine
 10
222.6482552284
 20
31.334514702
 30
0.0
 11
218.8482552284
 21
31.334514702
 31
0.0
  0
LINE
  5
142
330
1F
100
AcDbEntity
  8
0
  6
Continuous
 62
     7
370
    40
100
AcDbLine
 10
218.8482552284
 20
32.134514702
 30
0.0
 11
225.4482552284
 21
32.134514702
 31
0.0
  0
LINE
  5
143
330
1F
100
AcDbEntity
  8
0
  6
Continuous
 62
     7
370
    40
100
AcDbLine
 10
222.6482552284
 20
31.334514702
 30
0.0
 11
222.6482552284
 21
30.2337602455
 31
0.0
  0
LINE
  5
144
330
1F
100
AcDbEntity
  8
0
  6
Continuous
 62
     7
370
    40
100
AcDbLine
 10
225.4482552284
 20
32.134514702
 30
0.0
 11
225.4482552284
 21
30.7126095124
 31
0.0
  0
LINE
  5
145
330
1F
100
AcDbEntity
  8
0
  6
Continuous
 62
     7
370
    40
100
AcDbLine
 10
218.8482552284
 20
31.334514702
 30
0.0
 11
215.8482552284
 21
31.334514702
 31
0.0
  0
LINE
  5
146
330
1F
100
AcDbEntity
  8
0
  6
Continuous
 62
     7
370
    40
100
AcDbLine
 10
215.8482552284
 20
31.334514702
 30
0.0
 11
215.8482552284
 21
32.134514702
 31
0.0
  0
LINE
  5
147
330
1F
100
AcDbEntity
  8
0
  6
Continuous
 62
     7
370
    40
100
AcDbLine
 10
218.8482552284
 20
32.134514702
 30
0.0
 11
215.8482552284
 21
32.134514702
 31
0.0
  0
LINE
  5
148
330
1F
100
AcDbEntity
  8
0
  6
Continuous
 62
     7
370
    40
100
AcDbLine
 10
144.6482552284
 20
25.9069284951
 30
0.0
 11
144.6482552284
 21
25.5341764252
 31
0.0
  0
LINE
  5
149
330
1F
100
AcDbEntity
  8
0
  6
Continuous
 62
     7
370
    40
100
AcDbLine
 10
144.6482552284
 20
24.4158592199
 30
0.0
 11
144.6482552284
 21
14.734514702
 31
0.0
  0
LINE
  5
14A
330
1F
100
AcDbEntity
  8
0
  6
Continuous
 62
     7
370
    40
100
AcDbLine
 10
143.8482552284
 20
25.9069284951
 30
0.0
 11
143.8482552284
 21
14.734514702
 31
0.0
  0
LINE
  5
14B
330
1F
100
AcDbEntity
  8
0
  6
Continuous
 62
     7
370
    40
100
AcDbLine
 10
163.4882552284
 20
27.134514702
 30
0.0
 11
163.4882552284
 21
25.0979014198
 31
0.0
  0
LINE
  5
14C
330
1F
100
AcDbEntity
  8
0
  6
Continuous
 62
     7
370
    40
100
AcDbLine
 10
163.4882552284
 20
19.6827379767
 30
0.0
 11
163.4882552284
 21
15.134514702
 31
0.0
  0
LINE
  5
14D
330
1F
100
AcDbEntity
  8
0
  6
Continuous
 62
     7
370
    40
100
AcDbLine
 10
144.6482552284
 20
30.7126095124
 30
0.0
 11
143.8482552284
 21
30.7126095124
 31
0.0
  0
LINE
  5
14E
330
1F
100
AcDbEntity
  8
0
  6
Continuous
 62
     7
370
    40
100
AcDbLine
 10
144.6482552284
 20
30.7126095124
 30
0.0
 11
144.6482552284
 21
25.9069284951
 31
0.0
  0
LINE
  5
14F
330
1F
100
AcDbEntity
  8
0
  6
Continuous
 62
     7
370
    40
100
AcDbLine
 10
143.8482552284
 20
30.7126095124
 30
0.0
 11
143.8482552284
 21
25.9069284951
 31
0.0
  0
LINE
  5
150
330
1F
100
AcDbEntity
  8
0
  6
Continuous
 62
     7
370
    40
100
AcDbLine
 10
146.6482552284
 20
30.2337602455
 30
0.0
 11
144.6482552284
 21
30.2337602455
 31
0.0
  0
LINE
  5
151
330
1F
100
AcDbEntity
  8
0
  6
Continuous
 62
     7
370
    40
100
AcDbLine
 10
146.6482552284
 20
30.2337602455
 30
0.0
 11
146.6482552284
 21
27.5899043997
 31
0.0
  0
LINE
  5
152
330
1F
100
AcDbEntity
  8
0
  6
Continuous
 62
     7
370
    40
100
AcDbLine
 10
163.8882552284
 20
19.63802859
 30
0.0
 11
163.8882552284
 21
18.734514702
 31
0.0
  0
LINE
  5
153
330
1F
100
AcDbEntity
  8
0
  6
Continuous
 62
     7
370
    40
100
AcDbLine
 10
150.4482552284
 20
32.134514702
 30
0.0
 11
143.8482552284
 21
32.134514702
 31
0.0
  0
LINE
  5
154
330
1F
100
AcDbEntity
  8
0
  6
Continuous
 62
     7
370
    40
100
AcDbLine
 10
146.6482552284
 20
31.334514702
 30
0.0
 11
150.4482552284
 21
31.334514702
 31
0.0
  0
LINE
  5
155
330
1F
100
AcDbEntity
  8
0
  6
Continuous
 62
     7
370
    40
100
AcDbLine
 10
146.6482552284
 20
31.334514702
 30
0.0
 11
146.6482552284
 21
30.2337602455
 31
0.0
  0
LINE
  5
156
330
1F
100
AcDbEntity
  8
0
  6
Continuous
 62
     7
370
    40
100
AcDbLine
 10
143.8482552284
 20
32.134514702
 30
0.0
 11
143.8482552284
 21
30.7126095124
 31
0.0
  0
LINE
  5
157
330
1F
100
AcDbEntity
  8
0
  6
Continuous
 62
     7
370
    40
100
AcDbLine
 10
153.4482552284
 20
31.334514702
 30
0.0
 11
153.4482552284
 21
32.134514702
 31
0.0
  0
LINE
  5
158
330
1F
100
AcDbEntity
  8
0
  6
Continuous
 62
     7
370
    40
100
AcDbLine
 10
150.4482552284
 20
31.334514702
 30
0.0
 11
153.4482552284
 21
31.334514702
 31
0.0
  0
LINE
  5
159
330
1F
100
AcDbEntity
  8
0
  6
Continuous
 62
     7
370
    40
100
AcDbLine
 10
150.4482552284
 20
32.134514702
 30
0.0
 11
153.4482552284
 21
32.134514702
 31
0.0
  0
SPLINE
  5
15A
330
1F
100
AcDbEntity
  8
0
  6
Continuous
 62
     7
370
    40
100
AcDbSpline
210
0.0
220
0.0
230
1.0
 70
     8
 71
     3
 72
    32
 73
    28
 74
     0
 42
0.00000001
 43
0.00000001
 12
1.0
 22
0.0
 32
0.0
 13
1.0
 23
0.0
 33
0.0
 40
0.0
 40
0.0
 40
0.0
 40
0.0
 40
0.0107169725680825
 40
0.0522920188312217
 40
0.0939006046300968
 40
0.1355531849250075
 40
0.1769669210425089
 40
0.218348404214706
 40
0.2595744456657196
 40
0.3008373816361644
 40
0.3423933955530605
 40
0.383801036874749
 40
0.4251618608221797
 40
0.4666356946169317
 40
0.5081260784101047
 40
0.5493049756330426
 40
0.5902500713446985
 40
0.6315847592791758
 40
0.6732104593899364
 40
0.7150179149397917
 40
0.7568749132115764
 40
0.7986336083739154
 40
0.8401820150557829
 40
0.8812736894621575
 40
0.9223246069906744
 40
0.9639116312077085
 40
1.0
 40
1.0
 40
1.0
 40
1.0
 10
46.09166241505865
 20
273.3176721831338
 30
0.0
 10
46.00839530338263
 20
273.3189447037192
 30
0.0
 10
45.602104688741
 20
273.3251537958852
 30
0.0
 10
44.87348932655536
 20
273.2732043665903
 30
0.0
 10
43.91071147826418
 20
273.159704021935
 30
0.0
 10
42.95922136655962
 20
272.9785659077734
 30
0.0
 10
42.02339318185044
 20
272.7378534887042
 30
0.0
 10
41.10845775070963
 20
272.4372646370834
 30
0.0
 10
40.21639384900811
 20
272.0776253155418
 30
0.0
 10
39.34861194602175
 20
271.6596399054429
 30
0.0
 10
38.50839626439003
 20
271.1854861209473
 30
0.0
 10
37.70037433507202
 20
270.6564916932486
 30
0.0
 10
36.92870701205992
 20
270.0763152115363
 30
0.0
 10
36.1956049192024
 20
269.4464941274583
 30
0.0
 10
35.50568012075535
 20
268.7708971423501
 30
0.0
 10
34.86466252846452
 20
268.0534561988783
 30
0.0
 10
34.27201824899421
 20
267.2964927457872
 30
0.0
 10
33.72670294222066
 20
266.4998227619153
 30
0.0
 10
33.22954699994187
 20
265.6637154418488
 30
0.0
 10
32.78455581301796
 20
264.7934493518104
 30
0.0
 10
32.39544205162439
 20
263.8950205307275
 30
0.0
 10
32.06532141051127
 20
262.9748205078574
 30
0.0
 10
31.79702745309762
 20
262.0404393928868
 30
0.0
 10
31.59115402087576
 20
261.0955188572106
 30
0.0
 10
31.44702301588661
 20
260.1389163933546
 30
0.0
 10
31.36126394187031
 20
259.2138194299919
 30
0.0
 10
31.35453989327503
 20
258.6064453572942
 30
0.0
 10
31.35141586729869
 20
258.3242563823667
 30
0.0
  0
LINE
  5
15B
330
1F
100
AcDbEntity
  8
0
  6
Continuous
 62
     7
370
    40
100
AcDbLine
 10
46.1857500365
 20
273.3167901258
 30
0.0
 11
46.0916624151
 21
273.3176721831
 31
0.0
  0
SPLINE
  5
15C
330
1F
100
AcDbEntity
  8
0
  6
Continuous
 62
     7
370
    40
100
AcDbSpline
210
0.0
220
0.0
230
1.0
 70
     8
 71
     3
 72
    32
 73
    28
 74
     0
 42
0.00000001
 43
0.00000001
 12
1.0
 22
0.0
 32
0.0
 13
1.0
 23
0.0
 33
0.0
 40
0.0
 40
0.0
 40
0.0
 40
0.0
 40
0.01641196821432
 40
0.0579912720717478
 40
0.099620376340244
 40
0.1413025156328515
 40
0.1829584804602015
 40
0.2241972552828346
 40
0.2655255202055192
 40
0.3069634532402527
 40
0.348484656686209
 40
0.3900525073646425
 40
0.4316207277256785
 40
0.4731514037482152
 40
0.5146656385980533
 40
0.5558157486427278
 40
0.5967340357754843
 40
0.638022753934391
 40
0.6795856569489229
 40
0.7213152676848179
 40
0.7630771938478061
 40
0.8047292105508954
 40
0.8461605043654261
 40
0.8870971433794471
 40
0.9279369830277056
 40
0.9692540595063874
 40
0.9999999999999999
 40
0.9999999999999999
 40
0.9999999999999999
 40
0.9999999999999999
 10
111.4580058835866
 20
258.323508913184
 30
0.0
 10
111.4598747709415
 20
258.4518972449022
 30
0.0
 10
111.4664784368549
 20
258.9055541481016
 30
0.0
 10
111.4125695513587
 20
259.6840788960754
 30
0.0
 10
111.2972936554475
 20
260.6542888350029
 30
0.0
 10
111.1161605230439
 20
261.6152760690704
 30
0.0
 10
110.8754408683772
 20
262.5593551205996
 30
0.0
 10
110.5751640549206
 20
263.4828852406865
 30
0.0
 10
110.2174399309068
 20
264.3833017038306
 30
0.0
 10
109.8021272606919
 20
265.2604738516889
 30
0.0
 10
109.3307901784612
 20
266.1103120390072
 30
0.0
 10
108.8054754307032
 20
266.9283670947557
 30
0.0
 10
108.2286459077738
 20
267.710292552705
 30
0.0
 10
107.6027771186579
 20
268.4522169173759
 30
0.0
 10
106.9323747980764
 20
269.1489441872823
 30
0.0
 10
106.220804228001
 20
269.7957842037073
 30
0.0
 10
105.4703716935991
 20
270.3934424569043
 30
0.0
 10
104.6806430244912
 20
270.9430794076782
 30
0.0
 10
103.8519807471084
 20
271.4437550639869
 30
0.0
 10
102.9895933813249
 20
271.8914125557883
 30
0.0
 10
102.0993774055242
 20
272.2823075986636
 30
0.0
 10
101.187633407653
 20
272.613321005318
 30
0.0
 10
100.2620099019877
 20
272.8814990945477
 30
0.0
 10
99.32655531875882
 20
273.0864363268669
 30
0.0
 10
98.3805174875508
 20
273.228197068691
 30
0.0
 10
97.50594502984677
 20
273.3089692187757
 30
0.0
 10
96.94564425189076
 20
273.3139789722803
 30
0.0
 10
96.70658994773662
 20
273.3161164012919
 30
0.0
  0
LINE
  5
15D
330
1F
100
AcDbEntity
  8
0
  6
Continuous
 62
     7
370
    40
100
AcDbLine
 10
46.0850141716
 20
203.3303394583
 30
0.0
 11
46.1857320306
 21
203.3316124246
 31
0.0
  0
SPLINE
  5
15E
330
1F
100
AcDbEntity
  8
0
  6
Continuous
 62
     7
370
    40
100
AcDbSpline
210
0.0
220
0.0
230
1.0
 70
     8
 71
     3
 72
    22
 73
    18
 74
     0
 42
0.00000001
 43
0.00000001
 12
1.0
 22
0.0
 32
0.0
 13
1.0
 23
0.0
 33
0.0
 40
0.0
 40
0.0
 40
0.0
 40
0.0
 40
0.0238543963628612
 40
0.0979992920995668
 40
0.1721733522460633
 40
0.2452753559490406
 40
0.3187432458271611
 40
0.3927873414339131
 40
0.4672260632630692
 40
0.5418569204354211
 40
0.6163991010885626
 40
0.6906409280528537
 40
0.7643407172345619
 40
0.8371346646390166
 40
0.9108076851901374
 40
0.9847746587824568
 40
1.0
 40
1.0
 40
1.0
 40
1.0
 10
34.71151290826544
 20
208.8055079818268
 30
0.0
 10
34.77540950388389
 20
208.7234816463458
 30
0.0
 10
35.03791126846131
 20
208.386498782123
 30
0.0
 10
35.54844782007897
 20
207.8357637480447
 30
0.0
 10
36.23777351059742
 20
207.1616326087002
 30
0.0
 10
36.97094061564339
 20
206.5399880180854
 30
0.0
 10
37.74105003808035
 20
205.9668258743666
 30
0.0
 10
38.55134387200779
 20
205.4417541600331
 30
0.0
 10
39.39796674892902
 20
204.9676694247641
 30
0.0
 10
40.27538036803312
 20
204.5485848144283
 30
0.0
 10
41.17744257428523
 20
204.187999418178
 30
0.0
 10
42.09747825464657
 20
203.8885701649563
 30
0.0
 10
43.02828490151522
 20
203.6534275311582
 30
0.0
 10
43.97020287468162
 20
203.4790499440675
 30
0.0
 10
44.92278165052628
 20
203.3711277754575
 30
0.0
 10
45.63069125679856
 20
203.3223649759446
 30
0.0
 10
46.01876846500758
 20
203.3291766835304
 30
0.0
 10
46.08501417156122
 20
203.3303394582884
 30
0.0
  0
SPLINE
  5
15F
330
1F
100
AcDbEntity
  8
0
  6
Continuous
 62
     7
370
    40
100
AcDbSpline
210
0.0
220
0.0
230
1.0
 70
     8
 71
     3
 72
    22
 73
    18
 74
     0
 42
0.00000001
 43
0.00000001
 12
1.0
 22
0.0
 32
0.0
 13
1.0
 23
0.0
 33
0.0
 40
0.0
 40
0.0
 40
0.0
 40
0.0
 40
0.0202030464121934
 40
0.094241118516676
 40
0.1683389188184609
 40
0.242515065820048
 40
0.3166521437293803
 40
0.3899387100929852
 40
0.4633752923458522
 40
0.5370085120124051
 40
0.6107981232063462
 40
0.6846918929369665
 40
0.7586094663233774
 40
0.8324880321579483
 40
0.9063508296097292
 40
0.9796519130256605
 40
1.0
 40
1.0
 40
1.0
 40
1.0
 10
96.70650250128755
 20
203.3296849703102
 30
0.0
 10
96.79464748268754
 20
203.3283147904269
 30
0.0
 10
97.20581723745057
 20
203.321923314501
 30
0.0
 10
97.93930866424239
 20
203.3739285968442
 30
0.0
 10
98.90208213470993
 20
203.487566244164
 30
0.0
 10
99.85523859495144
 20
203.6688551611373
 30
0.0
 10
100.7909043570021
 20
203.9102194333426
 30
0.0
 10
101.7054353418454
 20
204.211886870719
 30
0.0
 10
102.5963417974322
 20
204.5714696832963
 30
0.0
 10
103.4640071267069
 20
204.9892371534482
 30
0.0
 10
104.3045087656488
 20
205.4636347469039
 30
0.0
 10
105.1136431285041
 20
205.9925374103948
 30
0.0
 10
105.8868661507662
 20
206.5737511019061
 30
0.0
 10
106.6216148188179
 20
207.2037107784698
 30
0.0
 10
107.3082638129798
 20
207.8818227240047
 30
0.0
 10
107.8041216989173
 20
208.4212572119282
 30
0.0
 10
108.0543918744383
 20
208.7451216955778
 30
0.0
 10
108.1087705654332
 20
208.8154909540958
 30
0.0
  0
LINE
  5
160
330
1F
100
AcDbEntity
  8
0
  6
Continuous
 62
     7
370
    40
100
AcDbLine
 10
96.6270496143
 20
203.3304298292
 30
0.0
 11
96.7065025013
 21
203.3296849703
 31
0.0
  0
SPLINE
  5
161
330
1F
100
AcDbEntity
  8
0
  6
Continuous
 62
     7
370
    40
100
AcDbSpline
210
0.0
220
0.0
230
1.0
 70
     8
 71
     3
 72
    16
 73
    12
 74
     0
 42
0.00000001
 43
0.00000001
 12
1.0
 22
0.0
 32
0.0
 13
1.0
 23
0.0
 33
0.0
 40
0.0
 40
0.0
 40
0.0
 40
0.0
 40
0.112116219705997
 40
0.2262860019662461
 40
0.3405737642303956
 40
0.4545805994969103
 40
0.5680020401576724
 40
0.6800933891255615
 40
0.7920011926010679
 40
0.9051419014645338
 40
1.0
 40
1.0
 40
1.0
 40
1.0
 10
109.10342582278
 20
210.1946323403402
 30
0.0
 10
109.2699600700094
 20
210.4678607275042
 30
0.0
 10
109.6060788679391
 20
211.0193220550191
 30
0.0
 10
110.0438528779352
 20
211.8887880512338
 30
0.0
 10
110.4315426373431
 20
212.7876521375582
 30
0.0
 10
110.7590887749953
 20
213.7087094687876
 30
0.0
 10
111.0249272700722
 20
214.6433236219853
 30
0.0
 10
111.2282643547209
 20
215.587872324976
 30
0.0
 10
111.3695919103806
 20
216.5428518957436
 30
0.0
 10
111.4520347800468
 20
217.4559555625211
 30
0.0
 10
111.4573013024157
 20
218.0516054578968
 30
0.0
 10
111.4597031060801
 20
218.3232522869088
 30
0.0
  0
SPLINE
  5
162
330
1F
100
AcDbEntity
  8
0
  6
Continuous
 62
     7
370
    40
100
AcDbSpline
210
0.0
220
0.0
230
1.0
 70
     8
 71
     3
 72
    17
 73
    13
 74
     0
 42
0.00000001
 43
0.00000001
 12
1.0
 22
0.0
 32
0.0
 13
1.0
 23
0.0
 33
0.0
 40
0.0
 40
0.0
 40
0.0
 40
0.0
 40
0.0448446635024414
 40
0.1584404285676497
 40
0.2721722496816659
 40
0.3860489638934981
 40
0.4998541687693654
 40
0.6125195994459081
 40
0.725429519458236
 40
0.83863905567226
 40
0.9520760888665535
 40
0.9999999999999999
 40
0.9999999999999999
 40
0.9999999999999999
 40
0.9999999999999999
 10
31.35479067237259
 20
218.323768875706
 30
0.0
 10
31.3529213860463
 20
218.1953612647046
 30
0.0
 10
31.34631702103335
 20
217.7416850560003
 30
0.0
 10
31.40022712138409
 20
216.9631415766956
 30
0.0
 10
31.51549985358809
 20
215.9929293726054
 30
0.0
 10
31.69664580506296
 20
215.0319505599531
 30
0.0
 10
31.93731752857687
 20
214.0878402067031
 30
0.0
 10
32.23777166534362
 20
213.1644258393611
 30
0.0
 10
32.59483341140321
 20
212.2635770037101
 30
0.0
 10
33.01262746837444
 20
211.3880245973555
 30
0.0
 10
33.38552914966224
 20
210.6972622052089
 30
0.0
 10
33.63751300969444
 20
210.3119904342415
 30
0.0
 10
33.71235176429864
 20
210.1975654090844
 30
0.0
  0
LINE
  5
163
330
1F
100
AcDbEntity
  8
0
  6
Continuous
 62
     7
370
    40
100
AcDbLine
 10
111.4651547184
 20
218.3236099938
 30
0.0
 11
111.4651547184
 21
258.3236099938
 31
0.0
  0
LINE
  5
164
330
1F
100
AcDbEntity
  8
0
  6
Continuous
 62
     7
370
    40
100
AcDbLine
 10
31.3476414527
 20
258.3236099938
 30
0.0
 11
31.3476414527
 21
218.3236099938
 31
0.0
  0
SPLINE
  5
165
330
1F
100
AcDbEntity
  8
0
  6
Continuous
 62
     7
370
    40
100
AcDbSpline
210
0.0
220
0.0
230
1.0
 70
     8
 71
     3
 72
    28
 73
    24
 74
     0
 42
0.00000001
 43
0.00000001
 12
1.0
 22
0.0
 32
0.0
 13
1.0
 23
0.0
 33
0.0
 40
0.0
 40
0.0
 40
0.0
 40
0.0
 40
0.0038559466987922
 40
0.0557758871324625
 40
0.1075679122332779
 40
0.1590250220265824
 40
0.2101385603829037
 40
0.261715919087741
 40
0.3138483933962747
 40
0.3661981338780813
 40
0.4183536401388283
 40
0.469909052902916
 40
0.520848905534109
 40
0.5718287853206805
 40
0.623364388764364
 40
0.6750966872671295
 40
0.7269171114639617
 40
0.778688229526364
 40
0.8303168288510684
 40
0.8817797222120641
 40
0.9328540403063754
 40
0.98407420940512
 40
1.0
 40
1.0
 40
1.0
 40
1.0
 10
46.15068991510385
 20
208.7071012861696
 30
0.0
 10
46.13154720911401
 20
208.7064552648514
 30
0.0
 10
45.85464986272849
 20
208.697110630461
 30
0.0
 10
45.32104614706195
 20
208.7376250254121
 30
0.0
 10
44.55789847827465
 20
208.8333111540874
 30
0.0
 10
43.81029791201707
 20
208.9970466950073
 30
0.0
 10
43.08051249455326
 20
209.2212461278996
 30
0.0
 10
42.36827031090423
 20
209.5058974186283
 30
0.0
 10
41.6756044719875
 20
209.8498181544384
 30
0.0
 10
41.01004505329983
 20
210.2501919454687
 30
0.0
 10
40.38092242837457
 20
210.7019163309953
 30
0.0
 10
39.79547477571125
 20
211.1995426237216
 30
0.0
 10
39.2572829394183
 20
211.7412518060085
 30
0.0
 10
38.76386180162574
 20
212.3259110622461
 30
0.0
 10
38.31580152074054
 20
212.9526855725395
 30
0.0
 10
37.91642025917096
 20
213.6182283917074
 30
0.0
 10
37.57027805413269
 20
214.3158983521969
 30
0.0
 10
37.28046529771412
 20
215.0397488029343
 30
0.0
 10
37.04977298284955
 20
215.7838587839532
 30
0.0
 10
36.87878049664554
 20
216.5416585616126
 30
0.0
 10
36.77232001212973
 20
217.3090758074273
 30
0.0
 10
36.72425757869406
 20
217.904377630356
 30
0.0
 10
36.73202800070667
 20
218.2427879424913
 30
0.0
 10
36.73387100234626
 20
218.3230526641634
 30
0.0
  0
SPLINE
  5
166
330
1F
100
AcDbEntity
  8
0
  6
Continuous
 62
     7
370
    40
100
AcDbSpline
210
0.0
220
0.0
230
1.0
 70
     8
 71
     3
 72
    28
 73
    24
 74
     0
 42
0.00000001
 43
0.00000001
 12
1.0
 22
0.0
 32
0.0
 13
1.0
 23
0.0
 33
0.0
 40
0.0
 40
0.0
 40
0.0
 40
0.0
 40
0.0041499457863466
 40
0.0560546850982971
 40
0.1078315465284468
 40
0.1592735907076124
 40
0.2103721640406362
 40
0.2619344219248468
 40
0.3140516328859775
 40
0.3663860464091993
 40
0.4185262825792571
 40
0.4700666009480501
 40
0.5209915394076517
 40
0.5719564933034846
 40
0.6234770081516487
 40
0.6751941604704981
 40
0.7269994126819705
 40
0.7787553731948633
 40
0.8303688566967098
 40
0.8818166827502422
 40
0.9328760473041627
 40
0.9840812201602576
 40
1.0
 40
1.0
 40
1.0
 40
1.0
 10
96.65770959024857
 20
267.9399814278426
 30
0.0
 10
96.67831790338005
 20
267.9406805576585
 30
0.0
 10
96.95668117906256
 20
267.9501239344369
 30
0.0
 10
97.49175032237675
 20
267.9096372223245
 30
0.0
 10
98.25489761352888
 20
267.8138976009424
 30
0.0
 10
99.00249828010877
 20
267.6501762708413
 30
0.0
 10
99.73228367087536
 20
267.425973056223
 30
0.0
 10
100.4445258617406
 20
267.1413227876803
 30
0.0
 10
101.137191698696
 20
266.7974017740455
 30
0.0
 10
101.802751117913
 20
266.397028057974
 30
0.0
 10
102.4318737426966
 20
265.9453036524525
 30
0.0
 10
103.0173213953992
 20
265.4476773650043
 30
0.0
 10
103.5555132316751
 20
264.9059681813247
 30
0.0
 10
104.048934369497
 20
264.3213089254601
 30
0.0
 10
104.4969946502807
 20
263.6945344150648
 30
0.0
 10
104.8963759122291
 20
263.0289915959274
 30
0.0
 10
105.2425181158512
 20
262.3313216354186
 30
0.0
 10
105.5323308775468
 20
261.6074711847276
 30
0.0
 10
105.7630231727949
 20
260.8633612035433
 30
0.0
 10
105.9340157317562
 20
260.1055614264956
 30
0.0
 10
106.0404759466392
 20
259.3381441784143
 30
0.0
 10
106.0885382010622
 20
258.7428541889042
 30
0.0
 10
106.080768351705
 20
258.4044557165058
 30
0.0
 10
106.0789256932152
 20
258.3242028326414
 30
0.0
  0
SPLINE
  5
167
330
1F
100
AcDbEntity
  8
0
  6
Continuous
 62
     7
370
    40
100
AcDbSpline
210
0.0
220
0.0
230
1.0
 70
     8
 71
     3
 72
    28
 73
    24
 74
     0
 42
0.00000001
 43
0.00000001
 12
1.0
 22
0.0
 32
0.0
 13
1.0
 23
0.0
 33
0.0
 40
0.0
 40
0.0
 40
0.0
 40
0.0
 40
0.0046562326533986
 40
0.0560283084535671
 40
0.1073014364201656
 40
0.1582865225102665
 40
0.2088682579426594
 40
0.2598958261309378
 40
0.3115488515554588
 40
0.363493119142392
 40
0.4153431184566795
 40
0.4666662429838308
 40
0.5173280660517202
 40
0.5681226256004708
 40
0.6195383848927767
 40
0.671223775642489
 40
0.7230697436327439
 40
0.7749578446496904
 40
0.8267682405535545
 40
0.8784831956098027
 40
0.9298411236804742
 40
0.9813586328326523
 40
1.0
 40
1.0
 40
1.0
 40
1.0
 10
106.0814543875534
 20
218.3223944899731
 30
0.0
 10
106.082282178595
 20
218.2988858547358
 30
0.0
 10
106.0922429634751
 20
218.0160071490432
 30
0.0
 10
106.0540512967045
 20
217.4736590599916
 30
0.0
 10
105.9624470222955
 20
216.7032486780826
 30
0.0
 10
105.804984274143
 20
215.9472290017099
 30
0.0
 10
105.5888358678617
 20
215.2086227214985
 30
0.0
 10
105.3139132610406
 20
214.487327307777
 30
0.0
 10
104.9811616081465
 20
213.7847066873891
 30
0.0
 10
104.592941063028
 20
213.1079815173985
 30
0.0
 10
104.1540892778152
 20
212.4667637610899
 30
0.0
 10
103.670175478247
 20
211.8689964893717
 30
0.0
 10
103.1430852356535
 20
211.3184544236044
 30
0.0
 10
102.573219863271
 20
210.8132121714789
 30
0.0
 10
101.961051337472
 20
210.3533021384664
 30
0.0
 10
101.3096785365071
 20
209.9423795851093
 30
0.0
 10
100.6253310865095
 20
209.585174462843
 30
0.0
 10
99.91366891691992
 20
209.285078368098
 30
0.0
 10
99.180332644603
 20
209.0451023080736
 30
0.0
 10
98.43182188642113
 20
208.8663539022928
 30
0.0
 10
97.67206665081684
 20
208.753460819269
 30
0.0
 10
97.0689486472131
 20
208.7013117335825
 30
0.0
 10
96.71973741824146
 20
208.7085177852438
 30
0.0
 10
96.6269512295264
 20
208.7104324489598
 30
0.0
  0
SPLINE
  5
168
330
1F
100
AcDbEntity
  8
0
  6
Continuous
 62
     7
370
    40
100
AcDbSpline
210
0.0
220
0.0
230
1.0
 70
     8
 71
     3
 72
    28
 73
    24
 74
     0
 42
0.00000001
 43
0.00000001
 12
1.0
 22
0.0
 32
0.0
 13
1.0
 23
0.0
 33
0.0
 40
0.0
 40
0.0
 40
0.0
 40
0.0
 40
0.0046616063043511
 40
0.05603352048355
 40
0.1073064871404739
 40
0.1582914128270999
 40
0.2088729891249922
 40
0.2599003967761446
 40
0.3115532596957919
 40
0.3634973638615871
 40
0.4153472000513116
 40
0.4666701631114898
 40
0.5173318267929148
 40
0.5681262265375903
 40
0.6195418240714943
 40
0.671227052214508
 40
0.7230728570928837
 40
0.7749607948654024
 40
0.8267710277692879
 40
0.8784858201258355
 40
0.9298435866200365
 40
0.9813609336936873
 40
1.0
 40
1.0
 40
1.0
 40
1.0
 10
36.73134441838013
 20
258.3247438806926
 30
0.0
 10
36.73051559720553
 20
258.3482797199956
 30
0.0
 10
36.72055298663054
 20
258.6311856214343
 30
0.0
 10
36.75874413726013
 20
259.1735609199268
 30
0.0
 10
36.85034934497351
 20
259.943971311596
 30
0.0
 10
37.00781184499903
 20
260.6999909853739
 30
0.0
 10
37.22396031724565
 20
261.4385972662752
 30
0.0
 10
37.49888290624321
 20
262.1598926798102
 30
0.0
 10
37.83163456398959
 20
262.8625133002487
 30
0.0
 10
38.21985510779599
 20
263.5392384702257
 30
0.0
 10
38.65870689335978
 20
264.1804562265375
 30
0.0
 10
39.1426206928351
 20
264.7782234982565
 30
0.0
 10
39.66971093545327
 20
265.3287655640177
 30
0.0
 10
40.23957630782853
 20
265.8340078161666
 30
0.0
 10
40.85174483363167
 20
266.2939178490897
 30
0.0
 10
41.50311763458717
 20
266.7048404027832
 30
0.0
 10
42.18746508461854
 20
267.0620455237888
 30
0.0
 10
42.89912725408256
 20
267.3621416232428
 30
0.0
 10
43.63246352686739
 20
267.6021176657266
 30
0.0
 10
44.38097428331077
 20
267.7808661366818
 30
0.0
 10
45.14072952536409
 20
267.8937589779348
 30
0.0
 10
45.74383638129822
 20
267.9459078126383
 30
0.0
 10
46.09303644228409
 20
267.9387022716336
 30
0.0
 10
46.18581146850489
 20
267.9367879127021
 30
0.0
  0
LINE
  5
169
330
1F
100
AcDbEntity
  8
0
  6
Continuous
 62
     7
370
    40
100
AcDbLine
 10
36.7276414527
 20
218.3236099938
 30
0.0
 11
36.7276414527
 21
258.3236099938
 31
0.0
  0
LINE
  5
16A
330
1F
100
AcDbEntity
  8
0
  6
Continuous
 62
     7
370
    40
100
AcDbLine
 10
106.0851547184
 20
258.3236099938
 30
0.0
 11
106.0851547184
 21
218.3236099938
 31
0.0
  0
LINE
  5
16B
330
1F
100
AcDbEntity
  8
0
  6
Continuous
 62
     7
370
    40
100
AcDbLine
 10
112.2063980856
 20
199.7236099938
 30
0.0
 11
111.4063980856
 21
199.7236099938
 31
0.0
  0
LINE
  5
16C
330
1F
100
AcDbEntity
  8
0
  6
Continuous
 62
     7
370
    40
100
AcDbLine
 10
111.4063980856
 20
199.3236099938
 30
0.0
 11
109.1063980856
 21
199.3236099938
 31
0.0
  0
LINE
  5
16D
330
1F
100
AcDbEntity
  8
0
  6
Continuous
 62
     7
370
    40
100
AcDbLine
 10
108.1063980856
 20
199.3236099938
 30
0.0
 11
92.5663980856
 21
199.3236099938
 31
0.0
  0
LINE
  5
16E
330
1F
100
AcDbEntity
  8
0
  6
Continuous
 62
     7
370
    40
100
AcDbLine
 10
92.5663980856
 20
187.3236099938
 30
0.0
 11
109.4063980856
 21
187.3236099938
 31
0.0
  0
LINE
  5
16F
330
1F
100
AcDbEntity
  8
0
  6
Continuous
 62
     7
370
    40
100
AcDbLine
 10
92.5663980856
 20
195.7236099938
 30
0.0
 11
92.1663980856
 21
195.7236099938
 31
0.0
  0
LINE
  5
170
330
1F
100
AcDbEntity
  8
0
  6
Continuous
 62
     7
370
    40
100
AcDbLine
 10
92.1663980856
 20
190.9236099938
 30
0.0
 11
92.5663980856
 21
190.9236099938
 31
0.0
  0
LINE
  5
171
330
1F
100
AcDbEntity
  8
0
  6
Continuous
 62
     7
370
    40
100
AcDbLine
 10
31.4063980856
 20
199.7236099938
 30
0.0
 11
30.6063980856
 21
199.7236099938
 31
0.0
  0
LINE
  5
172
330
1F
100
AcDbEntity
  8
0
  6
Continuous
 62
     7
370
    40
100
AcDbLine
 10
33.4063980856
 20
187.3236099938
 30
0.0
 11
50.2463980856
 21
187.3236099938
 31
0.0
  0
LINE
  5
173
330
1F
100
AcDbEntity
  8
0
  6
Continuous
 62
     7
370
    40
100
AcDbLine
 10
50.2463980856
 20
199.3236099938
 30
0.0
 11
34.7063980856
 21
199.3236099938
 31
0.0
  0
LINE
  5
174
330
1F
100
AcDbEntity
  8
0
  6
Continuous
 62
     7
370
    40
100
AcDbLine
 10
33.7063980856
 20
199.3236099938
 30
0.0
 11
31.4063980856
 21
199.3236099938
 31
0.0
  0
LINE
  5
175
330
1F
100
AcDbEntity
  8
0
  6
Continuous
 62
     7
370
    40
100
AcDbLine
 10
50.2463980856
 20
190.9236099938
 30
0.0
 11
50.6463980856
 21
190.9236099938
 31
0.0
  0
LINE
  5
176
330
1F
100
AcDbEntity
  8
0
  6
Continuous
 62
     7
370
    40
100
AcDbLine
 10
50.6463980856
 20
195.7236099938
 30
0.0
 11
50.2463980856
 21
195.7236099938
 31
0.0
  0
LINE
  5
177
330
1F
100
AcDbEntity
  8
0
  6
Continuous
 62
     7
370
    40
100
AcDbLine
 10
108.1063980856
 20
229.3236099938
 30
0.0
 11
108.1063980856
 21
194.6171687539
 31
0.0
  0
LINE
  5
178
330
1F
100
AcDbEntity
  8
0
  6
Continuous
 62
     7
370
    40
100
AcDbLine
 10
108.1063980856
 20
229.3236099938
 30
0.0
 11
109.1063980856
 21
229.3236099938
 31
0.0
  0
LINE
  5
179
330
1F
100
AcDbEntity
  8
0
  6
Continuous
 62
     7
370
    40
100
AcDbLine
 10
109.1063980856
 20
229.3236099938
 30
0.0
 11
109.1063980856
 21
194.6171687539
 31
0.0
  0
LINE
  5
17A
330
1F
100
AcDbEntity
  8
0
  6
Continuous
 62
     7
370
    40
100
AcDbLine
 10
34.7063980856
 20
229.3236099938
 30
0.0
 11
33.7063980856
 21
229.3236099938
 31
0.0
  0
LINE
  5
17B
330
1F
100
AcDbEntity
  8
0
  6
Continuous
 62
     7
370
    40
100
AcDbLine
 10
33.7063980856
 20
229.3236099938
 30
0.0
 11
33.7063980856
 21
194.6171687539
 31
0.0
  0
LINE
  5
17C
330
1F
100
AcDbEntity
  8
0
  6
Continuous
 62
     7
370
    40
100
AcDbLine
 10
34.7063980856
 20
229.3236099938
 30
0.0
 11
34.7063980856
 21
194.6171687539
 31
0.0
  0
LINE
  5
17D
330
1F
100
AcDbEntity
  8
0
  6
Continuous
 62
     7
370
    40
100
AcDbLine
 10
96.6270799001
 20
273.3236099938
 30
0.0
 11
46.185716271
 21
273.3236099938
 31
0.0
  0
LINE
  5
17E
330
1F
100
AcDbEntity
  8
0
  6
Continuous
 62
     7
370
    40
100
AcDbLine
 10
46.185716271
 20
267.9436099938
 30
0.0
 11
96.6270799001
 21
267.9436099938
 31
0.0
  0
LINE
  5
17F
330
1F
100
AcDbEntity
  8
0
  6
Continuous
 62
     7
370
    40
100
AcDbLine
 10
96.6270799001
 20
208.7036099938
 30
0.0
 11
46.185716271
 21
208.7036099938
 31
0.0
  0
LINE
  5
180
330
1F
100
AcDbEntity
  8
0
  6
Continuous
 62
     7
370
    40
100
AcDbLine
 10
46.185716271
 20
203.3236099938
 30
0.0
 11
96.6270799001
 21
203.3236099938
 31
0.0
  0
LWPOLYLINE
  5
181
330
1F
100
AcDbEntity
  8
0
  6
Continuous
 62
     7
370
    40
100
AcDbPolyline
 90
       10
 70
   128
 43
0.0
 10
46.185716271
 20
203.3236099938
 10
46.122377973
 20
203.3644771382
 10
46.0609641771
 20
203.4858368439
 10
46.0033409105
 20
203.6840016576
 10
45.951259027
 20
203.9529504418
 10
45.9063010081
 20
204.2845113238
 10
45.8698328806
 20
204.6686099938
 10
45.8429627101
 20
205.0935758083
 10
45.8265069331
 20
205.5464963959
 10
45.8209655501
 20
206.0136099938
  0
LWPOLYLINE
  5
182
330
1F
100
AcDbEntity
  8
0
  6
Continuous
 62
     7
370
    40
100
AcDbPolyline
 90
       10
 70
   128
 43
0.0
 10
96.6270799001
 20
203.3236099938
 10
96.6904181981
 20
203.3644771382
 10
96.751831994
 20
203.4858368439
 10
96.8094552606
 20
203.6840016576
 10
96.8615371441
 20
203.9529504418
 10
96.906495163
 20
204.2845113238
 10
96.9429632905
 20
204.6686099938
 10
96.969833461
 20
205.0935758083
 10
96.986289238
 20
205.5464963959
 10
96.991830621
 20
206.0136099938
  0
LINE
  5
183
330
1F
100
AcDbEntity
  8
0
  6
Continuous
 62
     7
370
    40
100
AcDbLine
 10
96.7064209485
 20
273.320174659
 30
0.0
 11
96.6270799001
 21
273.3236099938
 31
0.0
  0
LINE
  5
184
330
1F
100
AcDbEntity
  8
0
  6
Continuous
 62
     7
370
    40
100
AcDbLine
 10
111.4063980856
 20
199.7236099938
 30
0.0
 11
111.4063980856
 21
189.0593320259
 31
0.0
  0
LINE
  5
185
330
1F
100
AcDbEntity
  8
0
  6
Continuous
 62
     7
370
    40
100
AcDbLine
 10
112.2063980856
 20
199.7236099938
 30
0.0
 11
112.2063980856
 21
189.0593320259
 31
0.0
  0
LINE
  5
186
330
1F
100
AcDbEntity
  8
0
  6
Continuous
 62
     7
370
    40
100
AcDbLine
 10
92.5663980856
 20
199.3236099938
 30
0.0
 11
92.5663980856
 21
187.3236099938
 31
0.0
  0
LINE
  5
187
330
1F
100
AcDbEntity
  8
0
  6
Continuous
 62
     7
370
    40
100
AcDbLine
 10
112.2063980856
 20
189.0593320259
 30
0.0
 11
112.2063980856
 21
162.4075947266
 31
0.0
  0
LINE
  5
188
330
1F
100
AcDbEntity
  8
0
  6
Continuous
 62
     7
370
    40
100
AcDbLine
 10
111.4063980856
 20
189.0593320259
 30
0.0
 11
111.4063980856
 21
162.4075947266
 31
0.0
  0
LINE
  5
189
330
1F
100
AcDbEntity
  8
0
  6
Continuous
 62
     7
370
    40
100
AcDbLine
 10
109.4063980856
 20
177.3236099938
 30
0.0
 11
111.4063980856
 21
177.3236099938
 31
0.0
  0
LINE
  5
18A
330
1F
100
AcDbEntity
  8
0
  6
Continuous
 62
     7
370
    40
100
AcDbLine
 10
109.4063980856
 20
189.3258493989
 30
0.0
 11
109.4063980856
 21
177.3236099938
 31
0.0
  0
LINE
  5
18B
330
1F
100
AcDbEntity
  8
0
  6
Continuous
 62
     7
370
    40
100
AcDbLine
 10
92.1663980856
 20
195.7236099938
 30
0.0
 11
92.1663980856
 21
190.9236099938
 31
0.0
  0
LINE
  5
18C
330
1F
100
AcDbEntity
  8
0
  6
Continuous
 62
     7
370
    40
100
AcDbLine
 10
112.2063980856
 20
162.4075947266
 30
0.0
 11
112.2063980856
 21
153.3236099938
 31
0.0
  0
LINE
  5
18D
330
1F
100
AcDbEntity
  8
0
  6
Continuous
 62
     7
370
    40
100
AcDbLine
 10
111.4063980856
 20
162.4075947266
 30
0.0
 11
111.4063980856
 21
153.3236099938
 31
0.0
  0
LINE
  5
18E
330
1F
100
AcDbEntity
  8
0
  6
Continuous
 62
     7
370
    40
100
AcDbLine
 10
111.4063980856
 20
151.3236099938
 30
0.0
 11
112.2063980856
 21
151.3236099938
 31
0.0
  0
LINE
  5
18F
330
1F
100
AcDbEntity
  8
0
  6
Continuous
 62
     7
370
    40
100
AcDbLine
 10
112.2063980856
 20
153.3236099938
 30
0.0
 11
112.2063980856
 21
151.3236099938
 31
0.0
  0
LINE
  5
190
330
1F
100
AcDbEntity
  8
0
  6
Continuous
 62
     7
370
    40
100
AcDbLine
 10
111.4063980856
 20
153.3236099938
 30
0.0
 11
111.4063980856
 21
151.3236099938
 31
0.0
  0
ARC
  5
191
330
1F
100
AcDbEntity
  8
0
  6
Continuous
 62
     7
370
    40
100
AcDbCircle
 10
105.6063980856
 20
154.3236099938
 30
0.0
 40
3.0
100
AcDbArc
 50
180.0
 51
270.0
  0
CIRCLE
  5
192
330
1F
100
AcDbEntity
  8
0
  6
Continuous
 62
     7
370
    40
100
AcDbCircle
 10
105.4063980856
 20
155.3236099938
 30
0.0
 40
1.100000000000023
  0
CIRCLE
  5
193
330
1F
100
AcDbEntity
  8
0
  6
Continuous
 62
     7
370
    40
100
AcDbCircle
 10
105.4063980856
 20
185.3236099938
 30
0.0
 40
1.100000000000023
  0
LINE
  5
194
330
1F
100
AcDbEntity
  8
0
  6
Continuous
 62
     7
370
    40
100
AcDbLine
 10
102.6063980856
 20
187.3236099938
 30
0.0
 11
102.6063980856
 21
154.3236099938
 31
0.0
  0
LINE
  5
195
330
1F
100
AcDbEntity
  8
0
  6
Continuous
 62
     7
370
    40
100
AcDbLine
 10
105.6063980856
 20
151.3236099938
 30
0.0
 11
111.4063980856
 21
151.3236099938
 31
0.0
  0
LINE
  5
196
330
1F
100
AcDbEntity
  8
0
  6
Continuous
 62
     7
370
    40
100
AcDbLine
 10
31.4063980856
 20
199.7236099938
 30
0.0
 11
31.4063980856
 21
189.0593320259
 31
0.0
  0
LINE
  5
197
330
1F
100
AcDbEntity
  8
0
  6
Continuous
 62
     7
370
    40
100
AcDbLine
 10
30.6063980856
 20
199.7236099938
 30
0.0
 11
30.6063980856
 21
189.0593320259
 31
0.0
  0
LINE
  5
198
330
1F
100
AcDbEntity
  8
0
  6
Continuous
 62
     7
370
    40
100
AcDbLine
 10
50.2463980856
 20
199.3236099938
 30
0.0
 11
50.2463980856
 21
187.3236099938
 31
0.0
  0
LINE
  5
199
330
1F
100
AcDbEntity
  8
0
  6
Continuous
 62
     7
370
    40
100
AcDbLine
 10
31.4063980856
 20
189.0593320259
 30
0.0
 11
31.4063980856
 21
162.4075947266
 31
0.0
  0
LINE
  5
19A
330
1F
100
AcDbEntity
  8
0
  6
Continuous
 62
     7
370
    40
100
AcDbLine
 10
30.6063980856
 20
189.0593320259
 30
0.0
 11
30.6063980856
 21
162.4075947266
 31
0.0
  0
LINE
  5
19B
330
1F
100
AcDbEntity
  8
0
  6
Continuous
 62
     7
370
    40
100
AcDbLine
 10
33.4063980856
 20
177.3236099938
 30
0.0
 11
31.4063980856
 21
177.3236099938
 31
0.0
  0
LINE
  5
19C
330
1F
100
AcDbEntity
  8
0
  6
Continuous
 62
     7
370
    40
100
AcDbLine
 10
33.4063980856
 20
189.3258493989
 30
0.0
 11
33.4063980856
 21
177.3236099938
 31
0.0
  0
LINE
  5
19D
330
1F
100
AcDbEntity
  8
0
  6
Continuous
 62
     7
370
    40
100
AcDbLine
 10
50.6463980856
 20
195.7236099938
 30
0.0
 11
50.6463980856
 21
190.9236099938
 31
0.0
  0
LINE
  5
19E
330
1F
100
AcDbEntity
  8
0
  6
Continuous
 62
     7
370
    40
100
AcDbLine
 10
31.4063980856
 20
162.4075947266
 30
0.0
 11
31.4063980856
 21
153.3236099938
 31
0.0
  0
LINE
  5
19F
330
1F
100
AcDbEntity
  8
0
  6
Continuous
 62
     7
370
    40
100
AcDbLine
 10
30.6063980856
 20
162.4075947266
 30
0.0
 11
30.6063980856
 21
153.3236099938
 31
0.0
  0
LINE
  5
1A0
330
1F
100
AcDbEntity
  8
0
  6
Continuous
 62
     7
370
    40
100
AcDbLine
 10
31.4063980856
 20
151.3236099938
 30
0.0
 11
30.6063980856
 21
151.3236099938
 31
0.0
  0
LINE
  5
1A1
330
1F
100
AcDbEntity
  8
0
  6
Continuous
 62
     7
370
    40
100
AcDbLine
 10
31.4063980856
 20
153.3236099938
 30
0.0
 11
31.4063980856
 21
151.3236099938
 31
0.0
  0
LINE
  5
1A2
330
1F
100
AcDbEntity
  8
0
  6
Continuous
 62
     7
370
    40
100
AcDbLine
 10
30.6063980856
 20
153.3236099938
 30
0.0
 11
30.6063980856
 21
151.3236099938
 31
0.0
  0
ARC
  5
1A3
330
1F
100
AcDbEntity
  8
0
  6
Continuous
 62
     7
370
    40
100
AcDbCircle
 10
37.2063980856
 20
154.3236099938
 30
0.0
 40
3.000000000000007
100
AcDbArc
 50
270.0
 51
0.0
  0
CIRCLE
  5
1A4
330
1F
100
AcDbEntity
  8
0
  6
Continuous
 62
     7
370
    40
100
AcDbCircle
 10
37.4063980856
 20
155.3236099938
 30
0.0
 40
1.100000000000023
  0
CIRCLE
  5
1A5
330
1F
100
AcDbEntity
  8
0
  6
Continuous
 62
     7
370
    40
100
AcDbCircle
 10
37.4063980856
 20
185.3236099938
 30
0.0
 40
1.100000000000023
  0
LINE
  5
1A6
330
1F
100
AcDbEntity
  8
0
  6
Continuous
 62
     7
370
    40
100
AcDbLine
 10
40.2063980856
 20
187.3236099938
 30
0.0
 11
40.2063980856
 21
154.3236099938
 31
0.0
  0
LINE
  5
1A7
330
1F
100
AcDbEntity
  8
0
  6
Continuous
 62
     7
370
    40
100
AcDbLine
 10
37.2063980856
 20
151.3236099938
 30
0.0
 11
31.4063980856
 21
151.3236099938
 31
0.0
  0
ENDSEC
  0
SECTION
  2
OBJECTS
  0
DICTIONARY
  5
C
330
0
100
AcDbDictionary
281
     1
  3
ACAD_GROUP
350
D
  3
ACAD_LAYOUT
350
1A
  3
ACAD_MLINESTYLE
350
17
  3
ACAD_PLOTSETTINGS
350
19
  3
ACAD_PLOTSTYLENAME
350
E
  0
DICTIONARY
  5
D
102
{ACAD_REACTORS
330
C
102
}
330
C
100
AcDbDictionary
281
     1
  0
DICTIONARY
  5
1A
102
{ACAD_REACTORS
330
C
102
}
330
C
100
AcDbDictionary
281
     1
  3
Layout1
350
1E
  3
Layout2
350
26
  3
Model
350
22
  0
DICTIONARY
  5
17
102
{ACAD_REACTORS
330
C
102
}
330
C
100
AcDbDictionary
281
     1
  3
Standard
350
18
  0
DICTIONARY
  5
19
102
{ACAD_REACTORS
330
C
102
}
330
C
100
AcDbDictionary
281
     1
  0
ACDBDICTIONARYWDFLT
  5
E
102
{ACAD_REACTORS
330
C
102
}
330
C
100
AcDbDictionary
281
     1
  3
Normal
350
F
100
AcDbDictionaryWithDefault
340
F
  0
LAYOUT
  5
1E
102
{ACAD_REACTORS
330
1A
102
}
330
1A
100
AcDbPlotSettings
  1

  2
none_device
  4

  6

 40
0.0
 41
0.0
 42
0.0
 43
0.0
 44
0.0
 45
0.0
 46
0.0
 47
0.0
 48
0.0
 49
0.0
140
0.0
141
0.0
142
1.0
143
1.0
 70
   688
 72
     0
 73
     0
 74
     5
  7

 75
    16
147
1.0
148
0.0
149
0.0
100
AcDbLayout
  1
Layout1
 70
     1
 71
     1
 10
0.0
 20
0.0
 11
420.0
 21
297.0
 12
0.0
 22
0.0
 32
0.0
 14
1.0000000000E+20
 24
1.0000000000E+20
 34
1.0000000000E+20
 15
-1.0000000000E+20
 25
-1.0000000000E+20
 35
-1.0000000000E+20
146
0.0
 13
0.0
 23
0.0
 33
0.0
 16
1.0
 26
0.0
 36
0.0
 17
0.0
 27
1.0
 37
0.0
 76
     0
330
1B
  0
LAYOUT
  5
26
102
{ACAD_REACTORS
330
1A
102
}
330
1A
100
AcDbPlotSettings
  1

  2
none_device
  4

  6

 40
0.0
 41
0.0
 42
0.0
 43
0.0
 44
0.0
 45
0.0
 46
0.0
 47
0.0
 48
0.0
 49
0.0
140
0.0
141
0.0
142
1.0
143
1.0
 70
   688
 72
     0
 73
     0
 74
     5
  7

 75
    16
147
1.0
148
0.0
149
0.0
100
AcDbLayout
  1
Layout2
 70
     1
 71
     2
 10
0.0
 20
0.0
 11
0.0
 21
0.0
 12
0.0
 22
0.0
 32
0.0
 14
0.0
 24
0.0
 34
0.0
 15
0.0
 25
0.0
 35
0.0
146
0.0
 13
0.0
 23
0.0
 33
0.0
 16
1.0
 26
0.0
 36
0.0
 17
0.0
 27
1.0
 37
0.0
 76
     0
330
23
  0
LAYOUT
  5
22
102
{ACAD_REACTORS
330
1A
102
}
330
1A
100
AcDbPlotSettings
  1

  2
none_device
  4

  6

 40
0.0
 41
0.0
 42
0.0
 43
0.0
 44
0.0
 45
0.0
 46
0.0
 47
0.0
 48
0.0
 49
0.0
140
0.0
141
0.0
142
1.0
143
1.0
 70
  1712
 72
     0
 73
     0
 74
     0
  7

 75
     0
147
1.0
148
0.0
149
0.0
100
AcDbLayout
  1
Model
 70
     1
 71
     0
 10
0.0
 20
0.0
 11
420.0
 21
297.0
 12
0.0
 22
0.0
 32
0.0
 14
0.0
 24
0.0
 34
0.0
 15
420.0
 25
297.0
 35
0.0
146
0.0
 13
0.0
 23
0.0
 33
0.0
 16
1.0
 26
0.0
 36
0.0
 17
0.0
 27
1.0
 37
0.0
 76
     0
330
1F
331
29
  0
MLINESTYLE
  5
18
102
{ACAD_REACTORS
330
17
102
}
330
17
100
AcDbMlineStyle
  2
Standard
 70
     0
  3

 62
   256
 51
90.0
 52
90.0
 71
     2
 49
0.5
 62
   256
  6
BYLAYER
 49
-0.5
 62
   256
  6
BYLAYER
  0
ACDBPLACEHOLDER
  5
F
102
{ACAD_REACTORS
330
E
102
}
330
E
  0
ENDSEC
  0
EOF
