  0
SECTION
  2
HEADER
  9
$ACADVER
  1
AC1009
  9
$DWGCODEPAGE
  3
ansi_1252
  9
$INSBASE
 10
0.0
 20
0.0
 30
0.0
  9
$EXTMIN
 10
0.0
 20
0.0
 30
0.0
  9
$EXTMAX
 10
2100.0
 20
1485.0
 30
0.0
  9
$LIMMIN
 10
0.0
 20
0.0
  9
$LIMMAX
 10
2100.0
 20
1485.0
  9
$ORTHOMODE
 70
     0
  9
$REGENMODE
 70
     1
  9
$FILLMODE
 70
     1
  9
$QTEXTMODE
 70
     0
  9
$MIRRTEXT
 70
     1
  9
$DRAGMODE
 70
     2
  9
$LTSCALE
 40
5.0
  9
$OSMODE
 70
    37
  9
$ATTMODE
 70
     1
  9
$TEXTSIZE
 40
17.5
  9
$TRACEWID
 40
1.0
  9
$TEXTSTYLE
  7
STANDARD
  9
$CLAYER
  8
0
  9
$CELTYPE
  6
BYLAYER
  9
$CECOLOR
 62
   256
  9
$DIMSCALE
 40
1.0
  9
$DIMASZ
 40
20.0
  9
$DIMEXO
 40
0.0
  9
$DIMDLI
 40
3.75
  9
$DIMRND
 40
0.0
  9
$DIMDLE
 40
0.0
  9
$DIMEXE
 40
10.0
  9
$DIMTP
 40
0.0
  9
$DIMTM
 40
0.0
  9
$DIMTXT
 40
17.5
  9
$DIMCEN
 40
2.5
  9
$DIMTSZ
 40
0.0
  9
$DIMTOL
 70
     0
  9
$DIMLIM
 70
     0
  9
$DIMTIH
 70
     1
  9
$DIMTOH
 70
     1
  9
$DIMSE1
 70
     0
  9
$DIMSE2
 70
     0
  9
$DIMTAD
 70
     1
  9
$DIMZIN
 70
     0
  9
$DIMBLK
  1

  9
$DIMASO
 70
     1
  9
$DIMSHO
 70
     1
  9
$DIMPOST
  1

  9
$DIMAPOST
  1

  9
$DIMALT
 70
     0
  9
$DIMALTD
 70
     3
  9
$DIMALTF
 40
0.0393700787
  9
$DIMLFAC
 40
1.0
  9
$DIMTOFL
 70
     1
  9
$DIMTVP
 40
0.0
  9
$DIMTIX
 70
     0
  9
$DIMSOXD
 70
     0
  9
$DIMSAH
 70
     0
  9
$DIMBLK1
  1

  9
$DIMBLK2
  1

  9
$DIMSTYLE
  2
ISO-25
  9
$DIMCLRD
 70
     0
  9
$DIMCLRE
 70
     0
  9
$DIMCLRT
 70
     0
  9
$DIMTFAC
 40
1.0
  9
$DIMGAP
 40
7.62
  9
$LUNITS
 70
     2
  9
$LUPREC
 70
     2
  9
$SKETCHINC
 40
1.0
  9
$FILLETRAD
 40
10.0
  9
$AUNITS
 70
     0
  9
$AUPREC
 70
     2
  9
$MENU
  1
.
  9
$ELEVATION
 40
0.0
  9
$PELEVATION
 40
0.0
  9
$THICKNESS
 40
0.0
  9
$LIMCHECK
 70
     0
  9
$CHAMFERA
 40
10.0
  9
$CHAMFERB
 40
10.0
  9
$SKPOLY
 70
     0
  9
$TDCREATE
 40
2457029.615278611
  9
$TDUPDATE
 40
2457029.615278982
  9
$TDINDWG
 40
0.0000000116
  9
$TDUSRTIMER
 40
0.0000000116
  9
$USRTIMER
 70
     1
  9
$ANGBASE
 50
0.0
  9
$ANGDIR
 70
     0
  9
$PDMODE
 70
     0
  9
$PDSIZE
 40
-1.0
  9
$PLINEWID
 40
0.0
  9
$COORDS
 70
     1
  9
$SPLFRAME
 70
     0
  9
$SPLINETYPE
 70
     6
  9
$SPLINESEGS
 70
     8
  9
$ATTDIA
 70
     0
  9
$ATTREQ
 70
     1
  9
$HANDLING
 70
     1
  9
$HANDSEED
  5
F7
  9
$SURFTAB1
 70
     6
  9
$SURFTAB2
 70
     6
  9
$SURFTYPE
 70
     6
  9
$SURFU
 70
     6
  9
$SURFV
 70
     6
  9
$UCSNAME
  2

  9
$UCSORG
 10
0.0
 20
0.0
 30
0.0
  9
$UCSXDIR
 10
1.0
 20
0.0
 30
0.0
  9
$UCSYDIR
 10
0.0
 20
1.0
 30
0.0
  9
$PUCSNAME
  2

  9
$PUCSORG
 10
0.0
 20
0.0
 30
0.0
  9
$PUCSXDIR
 10
1.0
 20
0.0
 30
0.0
  9
$PUCSYDIR
 10
0.0
 20
1.0
 30
0.0
  9
$USERI1
 70
     0
  9
$USERI2
 70
     0
  9
$USERI3
 70
     0
  9
$USERI4
 70
     0
  9
$USERI5
 70
     0
  9
$USERR1
 40
0.0
  9
$USERR2
 40
0.0
  9
$USERR3
 40
0.0
  9
$USERR4
 40
0.0
  9
$USERR5
 40
0.0
  9
$WORLDVIEW
 70
     1
  9
$SHADEDGE
 70
     3
  9
$SHADEDIF
 70
    70
  9
$TILEMODE
 70
     1
  9
$MAXACTVP
 70
    64
  9
$PLIMCHECK
 70
     0
  9
$PEXTMIN
 10
1.0000000000E+20
 20
1.0000000000E+20
 30
1.0000000000E+20
  9
$PEXTMAX
 10
-1.0000000000E+20
 20
-1.0000000000E+20
 30
-1.0000000000E+20
  9
$PLIMMIN
 10
0.0
 20
0.0
  9
$PLIMMAX
 10
420.0
 20
297.0
  9
$UNITMODE
 70
     0
  9
$VISRETAIN
 70
     1
  9
$PLINEGEN
 70
     0
  9
$PSLTSCALE
 70
     1
  0
ENDSEC
  0
SECTION
  2
TABLES
  0
TABLE
  2
VPORT
 70
     1
  0
VPORT
  2
*ACTIVE
 70
     0
 10
0.0
 20
0.0
 11
1.0
 21
1.0
 12
1050.0
 22
742.5
 13
0.0
 23
0.0
 14
10.0
 24
10.0
 15
10.0
 25
10.0
 16
0.0
 26
0.0
 36
1.0
 17
0.0
 27
0.0
 37
0.0
 40
1485.0
 41
1.4141414141
 42
50.0
 43
0.0
 44
0.0
 50
0.0
 51
0.0
 71
     0
 72
  2000
 73
     1
 74
     3
 75
     0
 76
     0
 77
     0
 78
     0
  0
ENDTAB
  0
TABLE
  2
LTYPE
 70
     6
  0
LTYPE
  2
CONTINUOUS
 70
     0
  3
Solid line
 72
    65
 73
     0
 40
0.0
  0
LTYPE
  2
HIDDEN
 70
     0
  3
Hidden __ __ __ __ __ __ __ __ __ __ __ __ __ __
 72
    65
 73
     2
 40
1.905
 49
1.27
 49
-0.635
  0
LTYPE
  2
PHANTOM
 70
     0
  3
Phantom ______  __  __  ______  __  __  ______
 72
    65
 73
     6
 40
12.7
 49
6.35
 49
-1.27
 49
1.27
 49
-1.27
 49
1.27
 49
-1.27
  0
LTYPE
  2
CENTER
 70
     0
  3
Center ____ _ ____ _ ____ _ ____ _ ____ _ ____
 72
    65
 73
     4
 40
10.16
 49
6.35
 49
-1.27
 49
1.27
 49
-1.27
  0
LTYPE
  2
CENTERX2
 70
     0
  3
Center (2x) ________  __  ________  __  _____
 72
    65
 73
     4
 40
20.32
 49
12.7
 49
-2.54
 49
2.54
 49
-2.54
  0
LTYPE
  2
DOT2
 70
     0
  3
Dot (.5x) ........................................
 72
    65
 73
     2
 40
0.635
 49
0.0
 49
-0.635
  0
ENDTAB
  0
TABLE
  2
LAYER
 70
     2
  0
LAYER
  2
0
 70
     0
 62
     7
  6
CONTINUOUS
  0
LAYER
  2
FORMAT
 70
     0
 62
     7
  6
CONTINUOUS
  0
ENDTAB
  0
TABLE
  2
STYLE
 70
     1
  0
STYLE
  2
STANDARD
 70
     0
 40
0.0
 41
1.0
 50
0.0
 71
     0
 42
17.5
  3
txt
  4

  0
ENDTAB
  0
TABLE
  2
VIEW
 70
     0
  0
ENDTAB
  0
TABLE
  2
UCS
 70
     0
  0
ENDTAB
  0
TABLE
  2
APPID
 70
     1
  0
APPID
  2
ACAD
 70
     0
  0
ENDTAB
  0
TABLE
  2
DIMSTYLE
 70
     1
  0
DIMSTYLE
  2
ISO-25
 70
     0
  3

  4

  5

  6

  7

 40
1.0
 41
2.5
 42
0.625
 43
3.75
 44
1.25
 45
0.0
 46
0.0
 47
0.0
 48
0.0
140
2.5
141
2.5
142
0.0
143
0.0393700787
144
1.0
145
0.0
146
1.0
147
0.625
 71
     0
 72
     0
 73
     0
 74
     0
 75
     0
 76
     0
 77
     1
 78
     8
170
     0
171
     3
172
     1
173
     0
174
     0
175
     0
176
     0
177
     0
178
     0
  0
ENDTAB
  0
ENDSEC
  0
SECTION
  2
BLOCKS
  0
BLOCK
  8
0
  2
$MODEL_SPACE
 70
     0
 10
0.0
 20
0.0
 30
0.0
  3
$MODEL_SPACE
  1

  0
ENDBLK
  5
21
  8
0
  0
BLOCK
 67
     1
  8
0
  2
$PAPER_SPACE
 70
     0
 10
0.0
 20
0.0
 30
0.0
  3
$PAPER_SPACE
  1

  0
ENDBLK
  5
1D
 67
     1
  8
0
  0
ENDSEC
  0
SECTION
  2
ENTITIES
  0
LINE
  5
45
  8
0
  6
CONTINUOUS
 62
     7
 10
2074.25
 20
25.75
 30
0.0
 11
25.75
 21
25.75
 31
0.0
  0
LINE
  5
46
  8
0
  6
CONTINUOUS
 62
     7
 10
2075.0
 20
25.0
 30
0.0
 11
2075.0
 21
1385.0
 31
0.0
  0
LINE
  5
47
  8
0
  6
CONTINUOUS
 62
     7
 10
2075.0
 20
1385.0
 30
0.0
 11
25.0
 21
1385.0
 31
0.0
  0
LINE
  5
48
  8
0
  6
CONTINUOUS
 62
     7
 10
25.75
 20
1384.25
 30
0.0
 11
25.75
 21
25.75
 31
0.0
  0
LINE
  5
49
  8
0
  6
CONTINUOUS
 62
     7
 10
764.2602216749
 20
707.5417301202
 30
0.0
 11
764.2602216749
 21
698.315
 31
0.0
  0
LINE
  5
4A
  8
0
  6
CONTINUOUS
 62
     7
 10
767.2602216749
 20
707.5417301202
 30
0.0
 11
767.2602216749
 21
698.315
 31
0.0
  0
ARC
  5
4B
  8
0
  6
CONTINUOUS
 62
     7
 10
764.1602216749
 20
698.315
 30
0.0
 40
3.100000000000023
 50
270.0
 51
0.0
  0
ARC
  5
4C
  8
0
  6
CONTINUOUS
 62
     7
 10
764.1602216749
 20
698.315
 30
0.0
 40
0.1000000000000227
 50
270.0
 51
0.0000000002
  0
LINE
  5
4D
  8
0
  6
CONTINUOUS
 62
     7
 10
764.1602216749
 20
698.215
 30
0.0
 11
312.3602216749
 21
698.215
 31
0.0
  0
LINE
  5
4E
  8
0
  6
CONTINUOUS
 62
     7
 10
764.1602216749
 20
695.215
 30
0.0
 11
312.3602216749
 21
695.215
 31
0.0
  0
LINE
  5
4F
  8
0
  6
CONTINUOUS
 62
     7
 10
764.2602216749
 20
717.2009883831
 30
0.0
 11
764.2602216749
 21
707.5417301202
 31
0.0
  0
LINE
  5
50
  8
0
  6
CONTINUOUS
 62
     7
 10
767.2602216749
 20
717.2009883831
 30
0.0
 11
767.2602216749
 21
707.5417301202
 31
0.0
  0
LINE
  5
51
  8
0
  6
CONTINUOUS
 62
     7
 10
312.2602216749
 20
707.5417301202
 30
0.0
 11
312.2602216749
 21
717.2009883831
 31
0.0
  0
LINE
  5
52
  8
0
  6
CONTINUOUS
 62
     7
 10
309.2602216749
 20
707.5417301202
 30
0.0
 11
309.2602216749
 21
717.2009883831
 31
0.0
  0
ARC
  5
53
  8
0
  6
CONTINUOUS
 62
     7
 10
312.3602216749
 20
698.315
 30
0.0
 40
3.100000000000023
 50
180.0
 51
270.0
  0
ARC
  5
54
  8
0
  6
CONTINUOUS
 62
     7
 10
312.3602216749
 20
698.315
 30
0.0
 40
0.1000000000000227
 50
180.0
 51
270.0
  0
LINE
  5
55
  8
0
  6
CONTINUOUS
 62
     7
 10
312.2602216749
 20
707.5417301202
 30
0.0
 11
312.2602216749
 21
698.315
 31
0.0
  0
LINE
  5
56
  8
0
  6
CONTINUOUS
 62
     7
 10
309.2602216749
 20
707.5417301202
 30
0.0
 11
309.2602216749
 21
698.315
 31
0.0
  0
LINE
  5
57
  8
0
  6
CONTINUOUS
 62
     7
 10
764.2602216749
 20
732.0799773276
 30
0.0
 11
764.2602216749
 21
717.2009883831
 31
0.0
  0
LINE
  5
58
  8
0
  6
CONTINUOUS
 62
     7
 10
767.2602216749
 20
732.0799773276
 30
0.0
 11
767.2602216749
 21
717.2009883831
 31
0.0
  0
LINE
  5
59
  8
0
  6
CONTINUOUS
 62
     7
 10
312.2602216749
 20
732.0799773276
 30
0.0
 11
312.2602216749
 21
717.2009883831
 31
0.0
  0
LINE
  5
5A
  8
0
  6
CONTINUOUS
 62
     7
 10
309.2602216749
 20
732.0799773276
 30
0.0
 11
309.2602216749
 21
717.2009883831
 31
0.0
  0
LINE
  5
5B
  8
0
  6
CONTINUOUS
 62
     7
 10
312.2602216749
 20
732.0799773276
 30
0.0
 11
312.2602216749
 21
780.3762686421
 31
0.0
  0
LINE
  5
5C
  8
0
  6
CONTINUOUS
 62
     7
 10
309.2602216749
 20
732.0799773276
 30
0.0
 11
309.2602216749
 21
780.3762686421
 31
0.0
  0
LINE
  5
5D
  8
0
  6
CONTINUOUS
 62
     7
 10
764.2602216749
 20
780.3762686421
 30
0.0
 11
764.2602216749
 21
732.0799773276
 31
0.0
  0
LINE
  5
5E
  8
0
  6
CONTINUOUS
 62
     7
 10
767.2602216749
 20
780.3762686421
 30
0.0
 11
767.2602216749
 21
732.0799773276
 31
0.0
  0
LINE
  5
5F
  8
0
  6
CONTINUOUS
 62
     7
 10
764.2602216749
 20
1143.215
 30
0.0
 11
767.2602216749
 21
1143.215
 31
0.0
  0
LINE
  5
60
  8
0
  6
CONTINUOUS
 62
     7
 10
764.2602216749
 20
1143.215
 30
0.0
 11
764.2602216749
 21
1123.215
 31
0.0
  0
LINE
  5
61
  8
0
  6
CONTINUOUS
 62
     7
 10
767.2602216749
 20
1143.215
 30
0.0
 11
767.2602216749
 21
1123.215
 31
0.0
  0
LINE
  5
62
  8
0
  6
CONTINUOUS
 62
     7
 10
764.2602216749
 20
1123.215
 30
0.0
 11
764.2602216749
 21
780.3762686421
 31
0.0
  0
LINE
  5
63
  8
0
  6
CONTINUOUS
 62
     7
 10
767.2602216749
 20
1123.215
 30
0.0
 11
767.2602216749
 21
780.3762686421
 31
0.0
  0
LINE
  5
64
  8
0
  6
CONTINUOUS
 62
     7
 10
312.2602216749
 20
1123.215
 30
0.0
 11
312.2602216749
 21
780.3762686421
 31
0.0
  0
LINE
  5
65
  8
0
  6
CONTINUOUS
 62
     7
 10
309.2602216749
 20
1123.215
 30
0.0
 11
309.2602216749
 21
780.3762686421
 31
0.0
  0
LINE
  5
66
  8
0
  6
CONTINUOUS
 62
     7
 10
312.2602216749
 20
1143.215
 30
0.0
 11
309.2602216749
 21
1143.215
 31
0.0
  0
LINE
  5
67
  8
0
  6
CONTINUOUS
 62
     7
 10
312.2602216749
 20
1123.215
 30
0.0
 11
312.2602216749
 21
1143.215
 31
0.0
  0
LINE
  5
68
  8
0
  6
CONTINUOUS
 62
     7
 10
309.2602216749
 20
1123.215
 30
0.0
 11
309.2602216749
 21
1143.215
 31
0.0
  0
LINE
  5
69
  8
0
  6
CONTINUOUS
 62
     7
 10
312.7602216749
 20
778.215
 30
0.0
 11
312.2602216749
 21
778.215
 31
0.0
  0
LINE
  5
6A
  8
0
  6
CONTINUOUS
 62
     7
 10
312.2602216749
 20
781.215
 30
0.0
 11
312.7602216749
 21
781.215
 31
0.0
  0
LINE
  5
6B
  8
0
  6
CONTINUOUS
 62
     7
 10
764.2602216749
 20
778.215
 30
0.0
 11
763.7602216749
 21
778.215
 31
0.0
  0
LINE
  5
6C
  8
0
  6
CONTINUOUS
 62
     7
 10
763.7602216749
 20
781.215
 30
0.0
 11
764.2602216749
 21
781.215
 31
0.0
  0
LINE
  5
6D
  8
0
  6
CONTINUOUS
 62
     7
 10
312.2602216749
 20
1140.215
 30
0.0
 11
764.2602216749
 21
1140.215
 31
0.0
  0
LINE
  5
6E
  8
0
  6
CONTINUOUS
 62
     7
 10
764.2602216749
 20
1143.215
 30
0.0
 11
312.2602216749
 21
1143.215
 31
0.0
  0
LINE
  5
6F
  8
0
  6
CONTINUOUS
 62
     7
 10
763.5602216749
 20
698.315
 30
0.0
 11
763.5602216749
 21
698.215
 31
0.0
  0
LINE
  5
70
  8
0
  6
CONTINUOUS
 62
     7
 10
312.9602216749
 20
698.215
 30
0.0
 11
312.9602216749
 21
698.315
 31
0.0
  0
LINE
  5
71
  8
0
  6
CONTINUOUS
 62
     7
 10
312.3602216749
 20
698.915
 30
0.0
 11
312.2602216749
 21
698.915
 31
0.0
  0
LINE
  5
72
  8
0
  6
CONTINUOUS
 62
     7
 10
764.2602216749
 20
698.915
 30
0.0
 11
764.1602216749
 21
698.915
 31
0.0
  0
LINE
  5
73
  8
0
  6
CONTINUOUS
 62
     7
 10
764.1602216749
 20
698.915
 30
0.0
 11
763.5602216749
 21
698.915
 31
0.0
  0
LINE
  5
74
  8
0
  6
CONTINUOUS
 62
     7
 10
763.5602216749
 20
698.315
 30
0.0
 11
763.5602216749
 21
698.915
 31
0.0
  0
LINE
  5
75
  8
0
  6
CONTINUOUS
 62
     7
 10
312.9602216749
 20
698.915
 30
0.0
 11
312.9602216749
 21
698.315
 31
0.0
  0
LINE
  5
76
  8
0
  6
CONTINUOUS
 62
     7
 10
312.9602216749
 20
698.915
 30
0.0
 11
312.3602216749
 21
698.915
 31
0.0
  0
LINE
  5
77
  8
0
  6
CONTINUOUS
 62
     7
 10
365.2602216749
 20
698.215
 30
0.0
 11
365.2602216749
 21
774.215
 31
0.0
  0
ARC
  5
78
  8
0
  6
CONTINUOUS
 62
     7
 10
361.2602216749
 20
774.215
 30
0.0
 40
4.0
 50
0.0
 51
90.0
  0
LINE
  5
79
  8
0
  6
CONTINUOUS
 62
     7
 10
361.2602216749
 20
778.215
 30
0.0
 11
312.7602216749
 21
778.215
 31
0.0
  0
LINE
  5
7A
  8
0
  6
CONTINUOUS
 62
     7
 10
312.7602216749
 20
778.215
 30
0.0
 11
312.7602216749
 21
986.4252141655
 31
0.0
  0
LINE
  5
7B
  8
0
  6
CONTINUOUS
 62
     7
 10
763.7602216749
 20
778.215
 30
0.0
 11
763.7602216749
 21
986.4252141655
 31
0.0
  0
LINE
  5
7C
  8
0
  6
CONTINUOUS
 62
     7
 10
763.7602216749
 20
778.215
 30
0.0
 11
715.2602216749
 21
778.215
 31
0.0
  0
ARC
  5
7D
  8
0
  6
CONTINUOUS
 62
     7
 10
715.2602216749
 20
774.215
 30
0.0
 40
3.999999999999886
 50
90.0
 51
180.0
  0
LINE
  5
7E
  8
0
  6
CONTINUOUS
 62
     7
 10
711.2602216749
 20
774.215
 30
0.0
 11
711.2602216749
 21
698.215
 31
0.0
  0
LINE
  5
7F
  8
0
  6
CONTINUOUS
 62
     7
 10
763.7602216749
 20
986.4252141655
 30
0.0
 11
763.7602216749
 21
989.1098929172
 31
0.0
  0
LINE
  5
80
  8
0
  6
CONTINUOUS
 62
     7
 10
312.7602216749
 20
989.1098929172
 30
0.0
 11
312.7602216749
 21
986.4252141655
 31
0.0
  0
LINE
  5
81
  8
0
  6
CONTINUOUS
 62
     7
 10
312.7602216749
 20
989.1098929172
 30
0.0
 11
312.7602216749
 21
1010.463711306
 31
0.0
  0
POLYLINE
  5
82
  8
0
  6
CONTINUOUS
 62
     7
 66
     1
 10
0.0
 20
0.0
 30
0.0
  0
VERTEX
  5
E3
  8
0
  6
CONTINUOUS
 62
     7
 10
316.7602216749
 20
1012.463711306
 30
0.0
  0
VERTEX
  5
E4
  8
0
  6
CONTINUOUS
 62
     7
 10
315.9798603868
 20
1012.4252818668
 30
0.0
  0
VERTEX
  5
E5
  8
0
  6
CONTINUOUS
 62
     7
 10
315.2294879454
 20
1012.311470371
 30
0.0
  0
VERTEX
  5
E6
  8
0
  6
CONTINUOUS
 62
     7
 10
314.5379407428
 20
1012.1266505306
 30
0.0
  0
VERTEX
  5
E7
  8
0
  6
CONTINUOUS
 62
     7
 10
313.9317945501
 20
1011.8779248683
 30
0.0
  0
VERTEX
  5
E8
  8
0
  6
CONTINUOUS
 62
     7
 10
313.4343432257
 20
1011.574851772
 30
0.0
  0
VERTEX
  5
E9
  8
0
  6
CONTINUOUS
 62
     7
 10
313.0647035448
 20
1011.2290781707
 30
0.0
  0
VERTEX
  5
EA
  8
0
  6
CONTINUOUS
 62
     7
 10
312.8370805533
 20
1010.85389195
 30
0.0
  0
VERTEX
  5
EB
  8
0
  6
CONTINUOUS
 62
     7
 10
312.7602216749
 20
1010.463711306
 30
0.0
  0
SEQEND
  5
F6
  8
0
  6
CONTINUOUS
 62
     7
  0
LINE
  5
83
  8
0
  6
CONTINUOUS
 62
     7
 10
759.7602216749
 20
1012.463711306
 30
0.0
 11
316.7602216749
 21
1012.463711306
 31
0.0
  0
POLYLINE
  5
84
  8
0
  6
CONTINUOUS
 62
     7
 66
     1
 10
0.0
 20
0.0
 30
0.0
  0
VERTEX
  5
EC
  8
0
  6
CONTINUOUS
 62
     7
 10
763.7602216749
 20
1010.463711306
 30
0.0
  0
VERTEX
  5
ED
  8
0
  6
CONTINUOUS
 62
     7
 10
763.6833627965
 20
1010.85389195
 30
0.0
  0
VERTEX
  5
EE
  8
0
  6
CONTINUOUS
 62
     7
 10
763.4557398049
 20
1011.2290781707
 30
0.0
  0
VERTEX
  5
EF
  8
0
  6
CONTINUOUS
 62
     7
 10
763.0861001241
 20
1011.574851772
 30
0.0
  0
VERTEX
  5
F0
  8
0
  6
CONTINUOUS
 62
     7
 10
762.5886487996
 20
1011.8779248683
 30
0.0
  0
VERTEX
  5
F1
  8
0
  6
CONTINUOUS
 62
     7
 10
761.982502607
 20
1012.1266505306
 30
0.0
  0
VERTEX
  5
F2
  8
0
  6
CONTINUOUS
 62
     7
 10
761.2909554043
 20
1012.311470371
 30
0.0
  0
VERTEX
  5
F3
  8
0
  6
CONTINUOUS
 62
     7
 10
760.5405829629
 20
1012.4252818668
 30
0.0
  0
VERTEX
  5
F4
  8
0
  6
CONTINUOUS
 62
     7
 10
759.7602216749
 20
1012.463711306
 30
0.0
  0
SEQEND
  5
F5
  8
0
  6
CONTINUOUS
 62
     7
  0
LINE
  5
85
  8
0
  6
CONTINUOUS
 62
     7
 10
763.7602216749
 20
1010.463711306
 30
0.0
 11
763.7602216749
 21
989.1098929172
 31
0.0
  0
CIRCLE
  5
86
  8
0
  6
CONTINUOUS
 62
     7
 10
737.0102216749
 20
1058.715
 30
0.0
 40
4.199999999999932
  0
CIRCLE
  5
87
  8
0
  6
CONTINUOUS
 62
     7
 10
737.0102216749
 20
1058.715
 30
0.0
 40
5.0
  0
CIRCLE
  5
88
  8
0
  6
CONTINUOUS
 62
     7
 10
339.5102216749
 20
1113.715
 30
0.0
 40
4.200000000000045
  0
CIRCLE
  5
89
  8
0
  6
CONTINUOUS
 62
     7
 10
339.5102216749
 20
1113.715
 30
0.0
 40
5.0
  0
CIRCLE
  5
8A
  8
0
  6
CONTINUOUS
 62
     7
 10
737.0102216749
 20
1113.715
 30
0.0
 40
4.200000000000045
  0
CIRCLE
  5
8B
  8
0
  6
CONTINUOUS
 62
     7
 10
737.0102216749
 20
1113.715
 30
0.0
 40
5.0
  0
CIRCLE
  5
8C
  8
0
  6
CONTINUOUS
 62
     7
 10
339.5102216749
 20
1058.715
 30
0.0
 40
4.199999999999932
  0
CIRCLE
  5
8D
  8
0
  6
CONTINUOUS
 62
     7
 10
339.5102216749
 20
1058.715
 30
0.0
 40
5.0
  0
LINE
  5
8E
  8
0
  6
CENTERX2
 62
     7
 10
538.2602216749
 20
1200.9852762325
 30
0.0
 11
538.2602216749
 21
688.315
 31
0.0
  0
LINE
  5
8F
  8
0
  6
CONTINUOUS
 62
     7
 10
334.5102216749
 20
389.8644642857
 30
0.0
 11
334.5102216749
 21
380.6644642857
 31
0.0
  0
LINE
  5
90
  8
0
  6
CONTINUOUS
 62
     7
 10
344.5102216749
 20
380.6644642857
 30
0.0
 11
344.5102216749
 21
389.8644642857
 31
0.0
  0
LINE
  5
91
  8
0
  6
CONTINUOUS
 62
     7
 10
334.5102216749
 20
380.6644642857
 30
0.0
 11
335.3102216749
 21
379.8644642857
 31
0.0
  0
LINE
  5
92
  8
0
  6
CONTINUOUS
 62
     7
 10
343.7102216749
 20
379.8644642857
 30
0.0
 11
344.5102216749
 21
380.6644642857
 31
0.0
  0
LINE
  5
93
  8
0
  6
CONTINUOUS
 62
     7
 10
732.0102216749
 20
389.8644642857
 30
0.0
 11
732.0102216749
 21
380.6644642857
 31
0.0
  0
LINE
  5
94
  8
0
  6
CONTINUOUS
 62
     7
 10
742.0102216749
 20
380.6644642857
 30
0.0
 11
742.0102216749
 21
389.8644642857
 31
0.0
  0
LINE
  5
95
  8
0
  6
CONTINUOUS
 62
     7
 10
732.0102216749
 20
380.6644642857
 30
0.0
 11
732.8102216749
 21
379.8644642857
 31
0.0
  0
LINE
  5
96
  8
0
  6
CONTINUOUS
 62
     7
 10
741.2102216749
 20
379.8644642857
 30
0.0
 11
742.0102216749
 21
380.6644642857
 31
0.0
  0
LINE
  5
97
  8
0
  6
CONTINUOUS
 62
     7
 10
764.2602216749
 20
389.8644642857
 30
0.0
 11
764.2602216749
 21
374.8644642857
 31
0.0
  0
LINE
  5
98
  8
0
  6
CONTINUOUS
 62
     7
 10
764.2602216749
 20
389.8644642857
 30
0.0
 11
312.2602216749
 21
389.8644642857
 31
0.0
  0
LINE
  5
99
  8
0
  6
CONTINUOUS
 62
     7
 10
309.2602216749
 20
401.7644642857
 30
0.0
 11
309.2602216749
 21
374.8644642857
 31
0.0
  0
LINE
  5
9A
  8
0
  6
CONTINUOUS
 62
     7
 10
312.2602216749
 20
389.8644642857
 30
0.0
 11
312.2602216749
 21
374.8644642857
 31
0.0
  0
LINE
  5
9B
  8
0
  6
CONTINUOUS
 62
     7
 10
767.2602216749
 20
401.7644642857
 30
0.0
 11
767.2602216749
 21
374.8644642857
 31
0.0
  0
LINE
  5
9C
  8
0
  6
CONTINUOUS
 62
     7
 10
764.1602216749
 20
404.8644642857
 30
0.0
 11
312.3602216749
 21
404.8644642857
 31
0.0
  0
ARC
  5
9D
  8
0
  6
CONTINUOUS
 62
     7
 10
764.1602216749
 20
401.7644642857
 30
0.0
 40
3.10000000000008
 50
360.0
 51
90.0
  0
ARC
  5
9E
  8
0
  6
CONTINUOUS
 62
     7
 10
312.3602216749
 20
401.7644642857
 30
0.0
 40
3.099999999999909
 50
90.0
 51
180.0
  0
LINE
  5
9F
  8
0
  6
CONTINUOUS
 62
     7
 10
312.2602216749
 20
354.8644642857
 30
0.0
 11
309.2602216749
 21
354.8644642857
 31
0.0
  0
LINE
  5
A0
  8
0
  6
CONTINUOUS
 62
     7
 10
309.2602216749
 20
354.8644642857
 30
0.0
 11
309.2602216749
 21
374.8644642857
 31
0.0
  0
LINE
  5
A1
  8
0
  6
CONTINUOUS
 62
     7
 10
312.2602216749
 20
354.8644642857
 30
0.0
 11
312.2602216749
 21
374.8644642857
 31
0.0
  0
LINE
  5
A2
  8
0
  6
CONTINUOUS
 62
     7
 10
764.2602216749
 20
354.8644642857
 30
0.0
 11
767.2602216749
 21
354.8644642857
 31
0.0
  0
LINE
  5
A3
  8
0
  6
CONTINUOUS
 62
     7
 10
764.2602216749
 20
374.8644642857
 30
0.0
 11
764.2602216749
 21
354.8644642857
 31
0.0
  0
LINE
  5
A4
  8
0
  6
CONTINUOUS
 62
     7
 10
767.2602216749
 20
374.8644642857
 30
0.0
 11
767.2602216749
 21
354.8644642857
 31
0.0
  0
ARC
  5
A5
  8
0
  6
CONTINUOUS
 62
     7
 10
762.2602216749
 20
363.3644642857
 30
0.0
 40
2.000000000000031
 50
318.5903778907
 51
0.0
  0
ARC
  5
A6
  8
0
  6
CONTINUOUS
 62
     7
 10
314.2602216749
 20
363.3644642857
 30
0.0
 40
2.000000000000008
 50
180.0
 51
221.4096221093
  0
LINE
  5
A7
  8
0
  6
CONTINUOUS
 62
     7
 10
309.2602216749
 20
317.8054165408
 30
0.0
 11
309.2602216749
 21
354.8644642857
 31
0.0
  0
LINE
  5
A8
  8
0
  6
CONTINUOUS
 62
     7
 10
312.2602216749
 20
317.8054165408
 30
0.0
 11
312.2602216749
 21
354.8644642857
 31
0.0
  0
LINE
  5
A9
  8
0
  6
CONTINUOUS
 62
     7
 10
764.2602216749
 20
354.8644642857
 30
0.0
 11
764.2602216749
 21
317.8054165408
 31
0.0
  0
LINE
  5
AA
  8
0
  6
CONTINUOUS
 62
     7
 10
767.2602216749
 20
354.8644642857
 30
0.0
 11
767.2602216749
 21
317.8054165408
 31
0.0
  0
LINE
  5
AB
  8
0
  6
CONTINUOUS
 62
     7
 10
764.2602216749
 20
317.8054165408
 30
0.0
 11
764.2602216749
 21
262.2762738347
 31
0.0
  0
LINE
  5
AC
  8
0
  6
CONTINUOUS
 62
     7
 10
767.2602216749
 20
317.8054165408
 30
0.0
 11
767.2602216749
 21
262.2762738347
 31
0.0
  0
LINE
  5
AD
  8
0
  6
CONTINUOUS
 62
     7
 10
309.2602216749
 20
317.8054165408
 30
0.0
 11
309.2602216749
 21
262.2762738347
 31
0.0
  0
LINE
  5
AE
  8
0
  6
CONTINUOUS
 62
     7
 10
312.2602216749
 20
317.8054165408
 30
0.0
 11
312.2602216749
 21
262.2762738347
 31
0.0
  0
LINE
  5
AF
  8
0
  6
CONTINUOUS
 62
     7
 10
764.2602216749
 20
254.8644642857
 30
0.0
 11
767.2602216749
 21
254.8644642857
 31
0.0
  0
LINE
  5
B0
  8
0
  6
CONTINUOUS
 62
     7
 10
764.2602216749
 20
262.2762738347
 30
0.0
 11
764.2602216749
 21
254.8644642857
 31
0.0
  0
LINE
  5
B1
  8
0
  6
CONTINUOUS
 62
     7
 10
767.2602216749
 20
262.2762738347
 30
0.0
 11
767.2602216749
 21
254.8644642857
 31
0.0
  0
LINE
  5
B2
  8
0
  6
CONTINUOUS
 62
     7
 10
312.2602216749
 20
254.8644642857
 30
0.0
 11
309.2602216749
 21
254.8644642857
 31
0.0
  0
LINE
  5
B3
  8
0
  6
CONTINUOUS
 62
     7
 10
309.2602216749
 20
254.8644642857
 30
0.0
 11
309.2602216749
 21
262.2762738347
 31
0.0
  0
LINE
  5
B4
  8
0
  6
CONTINUOUS
 62
     7
 10
312.2602216749
 20
254.8644642857
 30
0.0
 11
312.2602216749
 21
262.2762738347
 31
0.0
  0
LINE
  5
B5
  8
0
  6
CONTINUOUS
 62
     7
 10
312.3602216749
 20
254.8644642857
 30
0.0
 11
312.2602216749
 21
254.8644642857
 31
0.0
  0
LINE
  5
B6
  8
0
  6
CONTINUOUS
 62
     7
 10
764.2602216749
 20
254.8644642857
 30
0.0
 11
764.1602216749
 21
254.8644642857
 31
0.0
  0
LINE
  5
B7
  8
0
  6
CONTINUOUS
 62
     7
 10
535.2602216749
 20
357.8644642857
 30
0.0
 11
541.2602216749
 21
357.8644642857
 31
0.0
  0
LINE
  5
B8
  8
0
  6
CONTINUOUS
 62
     7
 10
541.2602216749
 20
357.8644642857
 30
0.0
 11
541.2602216749
 21
358.3644642857
 31
0.0
  0
LINE
  5
B9
  8
0
  6
CONTINUOUS
 62
     7
 10
535.2602216749
 20
358.3644642857
 30
0.0
 11
535.2602216749
 21
357.8644642857
 31
0.0
  0
CIRCLE
  5
BA
  8
0
  6
CONTINUOUS
 62
     7
 10
338.2602216749
 20
274.8644642857
 30
0.0
 40
6.5
  0
CIRCLE
  5
BB
  8
0
  6
CONTINUOUS
 62
     7
 10
738.2602216749
 20
274.8644642857
 30
0.0
 40
6.499999999999659
  0
LINE
  5
BC
  8
0
  6
CONTINUOUS
 62
     7
 10
764.1602216749
 20
254.8644642857
 30
0.0
 11
312.3602216749
 21
254.8644642857
 31
0.0
  0
LINE
  5
BD
  8
0
  6
CONTINUOUS
 62
     7
 10
312.7602216749
 20
359.9144642857
 30
0.0
 11
312.7602216749
 21
389.8644642857
 31
0.0
  0
LINE
  5
BE
  8
0
  6
CONTINUOUS
 62
     7
 10
763.7602216749
 20
389.8644642857
 30
0.0
 11
763.7602216749
 21
359.9144642857
 31
0.0
  0
LINE
  5
BF
  8
0
  6
CONTINUOUS
 62
     7
 10
763.7602216749
 20
358.3644642857
 30
0.0
 11
312.7602216749
 21
358.3644642857
 31
0.0
  0
LINE
  5
C0
  8
0
  6
CONTINUOUS
 62
     7
 10
312.7602216749
 20
359.9144642857
 30
0.0
 11
312.7602216749
 21
358.3644642857
 31
0.0
  0
LINE
  5
C1
  8
0
  6
CONTINUOUS
 62
     7
 10
763.7602216749
 20
358.3644642857
 30
0.0
 11
763.7602216749
 21
359.9144642857
 31
0.0
  0
LINE
  5
C2
  8
0
  6
CONTINUOUS
 62
     7
 10
334.5102216749
 20
380.6644642857
 30
0.0
 11
344.5102216749
 21
380.6644642857
 31
0.0
  0
LINE
  5
C3
  8
0
  6
CONTINUOUS
 62
     7
 10
343.7102216749
 20
379.8644642857
 30
0.0
 11
335.3102216749
 21
379.8644642857
 31
0.0
  0
LINE
  5
C4
  8
0
  6
CONTINUOUS
 62
     7
 10
732.0102216749
 20
380.6644642857
 30
0.0
 11
742.0102216749
 21
380.6644642857
 31
0.0
  0
LINE
  5
C5
  8
0
  6
CONTINUOUS
 62
     7
 10
741.2102216749
 20
379.8644642857
 30
0.0
 11
732.8102216749
 21
379.8644642857
 31
0.0
  0
CIRCLE
  5
C6
  8
0
  6
CONTINUOUS
 62
     7
 10
338.2602216749
 20
374.8644642857
 30
0.0
 40
6.499999999999572
  0
CIRCLE
  5
C7
  8
0
  6
CONTINUOUS
 62
     7
 10
738.2602216749
 20
374.8644642857
 30
0.0
 40
6.50000000000002
  0
LINE
  5
C8
  8
0
  6
CENTERX2
 62
     7
 10
538.2602216749
 20
411.7644642857
 30
0.0
 11
538.2602216749
 21
220.3153351074
 31
0.0
  0
LINE
  5
C9
  8
0
  6
CONTINUOUS
 62
     7
 10
1102.566761232
 20
698.915
 30
0.0
 11
1105.666761232
 21
698.915
 31
0.0
  0
LINE
  5
CA
  8
0
  6
CONTINUOUS
 62
     7
 10
1102.566761232
 20
1140.115
 30
0.0
 11
1102.566761232
 21
698.915
 31
0.0
  0
ARC
  5
CB
  8
0
  6
CONTINUOUS
 62
     7
 10
1105.666761232
 20
1140.115
 30
0.0
 40
3.099999999999909
 50
90.0
 51
180.0
  0
ARC
  5
CC
  8
0
  6
CONTINUOUS
 62
     7
 10
1132.566761232
 20
1123.215
 30
0.0
 40
20.0
 50
0.0
 51
90.0
  0
LINE
  5
CD
  8
0
  6
CONTINUOUS
 62
     7
 10
1152.566761232
 20
1123.215
 30
0.0
 11
1152.566761232
 21
780.3762686421
 31
0.0
  0
ARC
  5
CE
  8
0
  6
CONTINUOUS
 62
     7
 10
1202.566761232
 20
780.3762686421
 30
0.0
 40
50.00000000000009
 50
180.0
 51
255.0
  0
LINE
  5
CF
  8
0
  6
CONTINUOUS
 62
     7
 10
1189.6258089769
 20
732.0799773276
 30
0.0
 11
1245.154951683
 21
717.2009883831
 31
0.0
  0
ARC
  5
D0
  8
0
  6
CONTINUOUS
 62
     7
 10
1242.566761232
 20
707.5417301202
 30
0.0
 40
10.00000000000023
 50
0.0
 51
75.0
  0
LINE
  5
D1
  8
0
  6
CONTINUOUS
 62
     7
 10
1252.566761232
 20
707.5417301202
 30
0.0
 11
1252.566761232
 21
698.315
 31
0.0
  0
LINE
  5
D2
  8
0
  6
CONTINUOUS
 62
     7
 10
1106.266761232
 20
698.315
 30
0.0
 11
1106.266761232
 21
698.4907359313
 31
0.0
  0
LINE
  5
D3
  8
0
  6
CONTINUOUS
 62
     7
 10
1105.8424971633
 20
698.915
 30
0.0
 11
1106.266761232
 21
698.4907359313
 31
0.0
  0
LINE
  5
D4
  8
0
  6
CONTINUOUS
 62
     7
 10
1105.666761232
 20
698.915
 30
0.0
 11
1105.8424971633
 21
698.915
 31
0.0
  0
LINE
  5
D5
  8
0
  6
CONTINUOUS
 62
     7
 10
1105.666761232
 20
1143.215
 30
0.0
 11
1132.566761232
 21
1143.215
 31
0.0
  0
LINE
  5
D6
  8
0
  6
CONTINUOUS
 62
     7
 10
1252.566761232
 20
695.215
 30
0.0
 11
1252.566761232
 21
698.315
 31
0.0
  0
LINE
  5
D7
  8
0
  6
CONTINUOUS
 62
     7
 10
1106.266761232
 20
695.215
 30
0.0
 11
1252.566761232
 21
695.215
 31
0.0
  0
LINE
  5
D8
  8
0
  6
CONTINUOUS
 62
     7
 10
1106.266761232
 20
698.315
 30
0.0
 11
1106.266761232
 21
695.215
 31
0.0
  0
LINE
  5
D9
  8
0
  6
CONTINUOUS
 62
     7
 10
1105.566761232
 20
698.915
 30
0.0
 11
1105.566761232
 21
698.315
 31
0.0
  0
LINE
  5
DA
  8
0
  6
CONTINUOUS
 62
     7
 10
1102.566761232
 20
698.915
 30
0.0
 11
1102.566761232
 21
698.315
 31
0.0
  0
ARC
  5
DB
  8
0
  6
CONTINUOUS
 62
     7
 10
1105.666761232
 20
698.315
 30
0.0
 40
0.1000000000001364
 50
180.0
 51
270.0
  0
ARC
  5
DC
  8
0
  6
CONTINUOUS
 62
     7
 10
1105.666761232
 20
698.315
 30
0.0
 40
3.100000000000136
 50
180.0
 51
270.0
  0
LINE
  5
DD
  8
0
  6
CONTINUOUS
 62
     7
 10
1105.666761232
 20
698.215
 30
0.0
 11
1106.266761232
 21
698.215
 31
0.0
  0
LINE
  5
DE
  8
0
  6
CONTINUOUS
 62
     7
 10
1105.666761232
 20
695.215
 30
0.0
 11
1106.266761232
 21
695.215
 31
0.0
  0
LINE
  5
DF
  8
0
  6
CENTERX2
 62
     7
 10
1092.566761232
 20
1058.715
 30
0.0
 11
1115.566761232
 21
1058.715
 31
0.0
  0
LINE
  5
E0
  8
0
  6
CENTERX2
 62
     7
 10
1092.566761232
 20
1113.715
 30
0.0
 11
1115.566761232
 21
1113.715
 31
0.0
  0
LINE
  5
E1
  8
0
  6
CENTERX2
 62
     7
 10
1232.566761232
 20
708.215
 30
0.0
 11
1232.566761232
 21
685.215
 31
0.0
  0
LINE
  5
E2
  8
0
  6
CENTERX2
 62
     7
 10
1132.566761232
 20
708.215
 30
0.0
 11
1132.566761232
 21
685.215
 31
0.0
  0
ENDSEC
  0
EOF
