  0
SECTION
  2
HEADER
  9
$ACADVER
  1
AC1009
  9
$DWGCODEPAGE
  3
ansi_1252
  9
$INSBASE
 10
0.0
 20
0.0
 30
0.0
  9
$EXTMIN
 10
0.0
 20
0.0
 30
0.0
  9
$EXTMAX
 10
2100.0
 20
1485.0
 30
0.0
  9
$LIMMIN
 10
0.0
 20
0.0
  9
$LIMMAX
 10
2100.0
 20
1485.0
  9
$ORTHOMODE
 70
     0
  9
$REGENMODE
 70
     1
  9
$FILLMODE
 70
     1
  9
$QTEXTMODE
 70
     0
  9
$MIRRTEXT
 70
     1
  9
$DRAGMODE
 70
     2
  9
$LTSCALE
 40
5.0
  9
$OSMODE
 70
    37
  9
$ATTMODE
 70
     1
  9
$TEXTSIZE
 40
17.5
  9
$TRACEWID
 40
1.0
  9
$TEXTSTYLE
  7
STANDARD
  9
$CLAYER
  8
0
  9
$CELTYPE
  6
BYLAYER
  9
$CECOLOR
 62
   256
  9
$DIMSCALE
 40
1.0
  9
$DIMASZ
 40
20.0
  9
$DIMEXO
 40
0.0
  9
$DIMDLI
 40
3.75
  9
$DIMRND
 40
0.0
  9
$DIMDLE
 40
0.0
  9
$DIMEXE
 40
10.0
  9
$DIMTP
 40
0.0
  9
$DIMTM
 40
0.0
  9
$DIMTXT
 40
17.5
  9
$DIMCEN
 40
2.5
  9
$DIMTSZ
 40
0.0
  9
$DIMTOL
 70
     0
  9
$DIMLIM
 70
     0
  9
$DIMTIH
 70
     1
  9
$DIMTOH
 70
     1
  9
$DIMSE1
 70
     0
  9
$DIMSE2
 70
     0
  9
$DIMTAD
 70
     1
  9
$DIMZIN
 70
     0
  9
$DIMBLK
  1

  9
$DIMASO
 70
     1
  9
$DIMSHO
 70
     1
  9
$DIMPOST
  1

  9
$DIMAPOST
  1

  9
$DIMALT
 70
     0
  9
$DIMALTD
 70
     3
  9
$DIMALTF
 40
0.0393700787
  9
$DIMLFAC
 40
1.0
  9
$DIMTOFL
 70
     1
  9
$DIMTVP
 40
0.0
  9
$DIMTIX
 70
     0
  9
$DIMSOXD
 70
     0
  9
$DIMSAH
 70
     0
  9
$DIMBLK1
  1

  9
$DIMBLK2
  1

  9
$DIMSTYLE
  2
ISO-25
  9
$DIMCLRD
 70
     0
  9
$DIMCLRE
 70
     0
  9
$DIMCLRT
 70
     0
  9
$DIMTFAC
 40
1.0
  9
$DIMGAP
 40
7.62
  9
$LUNITS
 70
     2
  9
$LUPREC
 70
     2
  9
$SKETCHINC
 40
1.0
  9
$FILLETRAD
 40
10.0
  9
$AUNITS
 70
     0
  9
$AUPREC
 70
     2
  9
$MENU
  1
.
  9
$ELEVATION
 40
0.0
  9
$PELEVATION
 40
0.0
  9
$THICKNESS
 40
0.0
  9
$LIMCHECK
 70
     0
  9
$CHAMFERA
 40
10.0
  9
$CHAMFERB
 40
10.0
  9
$SKPOLY
 70
     0
  9
$TDCREATE
 40
2457029.589149965
  9
$TDUPDATE
 40
2457029.589150139
  9
$TDINDWG
 40
0.0000000116
  9
$TDUSRTIMER
 40
0.0000000116
  9
$USRTIMER
 70
     1
  9
$ANGBASE
 50
0.0
  9
$ANGDIR
 70
     0
  9
$PDMODE
 70
     0
  9
$PDSIZE
 40
-1.0
  9
$PLINEWID
 40
0.0
  9
$COORDS
 70
     1
  9
$SPLFRAME
 70
     0
  9
$SPLINETYPE
 70
     6
  9
$SPLINESEGS
 70
     8
  9
$ATTDIA
 70
     0
  9
$ATTREQ
 70
     1
  9
$HANDLING
 70
     1
  9
$HANDSEED
  5
14E
  9
$SURFTAB1
 70
     6
  9
$SURFTAB2
 70
     6
  9
$SURFTYPE
 70
     6
  9
$SURFU
 70
     6
  9
$SURFV
 70
     6
  9
$UCSNAME
  2

  9
$UCSORG
 10
0.0
 20
0.0
 30
0.0
  9
$UCSXDIR
 10
1.0
 20
0.0
 30
0.0
  9
$UCSYDIR
 10
0.0
 20
1.0
 30
0.0
  9
$PUCSNAME
  2

  9
$PUCSORG
 10
0.0
 20
0.0
 30
0.0
  9
$PUCSXDIR
 10
1.0
 20
0.0
 30
0.0
  9
$PUCSYDIR
 10
0.0
 20
1.0
 30
0.0
  9
$USERI1
 70
     0
  9
$USERI2
 70
     0
  9
$USERI3
 70
     0
  9
$USERI4
 70
     0
  9
$USERI5
 70
     0
  9
$USERR1
 40
0.0
  9
$USERR2
 40
0.0
  9
$USERR3
 40
0.0
  9
$USERR4
 40
0.0
  9
$USERR5
 40
0.0
  9
$WORLDVIEW
 70
     1
  9
$SHADEDGE
 70
     3
  9
$SHADEDIF
 70
    70
  9
$TILEMODE
 70
     1
  9
$MAXACTVP
 70
    64
  9
$PLIMCHECK
 70
     0
  9
$PEXTMIN
 10
1.0000000000E+20
 20
1.0000000000E+20
 30
1.0000000000E+20
  9
$PEXTMAX
 10
-1.0000000000E+20
 20
-1.0000000000E+20
 30
-1.0000000000E+20
  9
$PLIMMIN
 10
0.0
 20
0.0
  9
$PLIMMAX
 10
420.0
 20
297.0
  9
$UNITMODE
 70
     0
  9
$VISRETAIN
 70
     1
  9
$PLINEGEN
 70
     0
  9
$PSLTSCALE
 70
     1
  0
ENDSEC
  0
SECTION
  2
TABLES
  0
TABLE
  2
VPORT
 70
     1
  0
VPORT
  2
*ACTIVE
 70
     0
 10
0.0
 20
0.0
 11
1.0
 21
1.0
 12
1050.0
 22
742.5
 13
0.0
 23
0.0
 14
10.0
 24
10.0
 15
10.0
 25
10.0
 16
0.0
 26
0.0
 36
1.0
 17
0.0
 27
0.0
 37
0.0
 40
1485.0
 41
1.4141414141
 42
50.0
 43
0.0
 44
0.0
 50
0.0
 51
0.0
 71
     0
 72
  2000
 73
     1
 74
     3
 75
     0
 76
     0
 77
     0
 78
     0
  0
ENDTAB
  0
TABLE
  2
LTYPE
 70
     6
  0
LTYPE
  2
CONTINUOUS
 70
     0
  3
Solid line
 72
    65
 73
     0
 40
0.0
  0
LTYPE
  2
HIDDEN
 70
     0
  3
Hidden __ __ __ __ __ __ __ __ __ __ __ __ __ __
 72
    65
 73
     2
 40
1.905
 49
1.27
 49
-0.635
  0
LTYPE
  2
PHANTOM
 70
     0
  3
Phantom ______  __  __  ______  __  __  ______
 72
    65
 73
     6
 40
12.7
 49
6.35
 49
-1.27
 49
1.27
 49
-1.27
 49
1.27
 49
-1.27
  0
LTYPE
  2
CENTER
 70
     0
  3
Center ____ _ ____ _ ____ _ ____ _ ____ _ ____
 72
    65
 73
     4
 40
10.16
 49
6.35
 49
-1.27
 49
1.27
 49
-1.27
  0
LTYPE
  2
CENTERX2
 70
     0
  3
Center (2x) ________  __  ________  __  _____
 72
    65
 73
     4
 40
20.32
 49
12.7
 49
-2.54
 49
2.54
 49
-2.54
  0
LTYPE
  2
DOT2
 70
     0
  3
Dot (.5x) ........................................
 72
    65
 73
     2
 40
0.635
 49
0.0
 49
-0.635
  0
ENDTAB
  0
TABLE
  2
LAYER
 70
     2
  0
LAYER
  2
0
 70
     0
 62
     7
  6
CONTINUOUS
  0
LAYER
  2
FORMAT
 70
     0
 62
     7
  6
CONTINUOUS
  0
ENDTAB
  0
TABLE
  2
STYLE
 70
     1
  0
STYLE
  2
STANDARD
 70
     0
 40
0.0
 41
1.0
 50
0.0
 71
     0
 42
17.5
  3
txt
  4

  0
ENDTAB
  0
TABLE
  2
VIEW
 70
     0
  0
ENDTAB
  0
TABLE
  2
UCS
 70
     0
  0
ENDTAB
  0
TABLE
  2
APPID
 70
     1
  0
APPID
  2
ACAD
 70
     0
  0
ENDTAB
  0
TABLE
  2
DIMSTYLE
 70
     1
  0
DIMSTYLE
  2
ISO-25
 70
     0
  3

  4

  5

  6

  7

 40
1.0
 41
2.5
 42
0.625
 43
3.75
 44
1.25
 45
0.0
 46
0.0
 47
0.0
 48
0.0
140
2.5
141
2.5
142
0.0
143
0.0393700787
144
1.0
145
0.0
146
1.0
147
0.625
 71
     0
 72
     0
 73
     0
 74
     0
 75
     0
 76
     0
 77
     1
 78
     8
170
     0
171
     3
172
     1
173
     0
174
     0
175
     0
176
     0
177
     0
178
     0
  0
ENDTAB
  0
ENDSEC
  0
SECTION
  2
BLOCKS
  0
BLOCK
  8
0
  2
$MODEL_SPACE
 70
     0
 10
0.0
 20
0.0
 30
0.0
  3
$MODEL_SPACE
  1

  0
ENDBLK
  5
21
  8
0
  0
BLOCK
 67
     1
  8
0
  2
$PAPER_SPACE
 70
     0
 10
0.0
 20
0.0
 30
0.0
  3
$PAPER_SPACE
  1

  0
ENDBLK
  5
1D
 67
     1
  8
0
  0
ENDSEC
  0
SECTION
  2
ENTITIES
  0
LINE
  5
45
  8
0
  6
CONTINUOUS
 62
     7
 10
2074.25
 20
25.75
 30
0.0
 11
25.75
 21
25.75
 31
0.0
  0
LINE
  5
46
  8
0
  6
CONTINUOUS
 62
     7
 10
2075.0
 20
25.0
 30
0.0
 11
2075.0
 21
1385.0
 31
0.0
  0
LINE
  5
47
  8
0
  6
CONTINUOUS
 62
     7
 10
2075.0
 20
1385.0
 30
0.0
 11
25.0
 21
1385.0
 31
0.0
  0
LINE
  5
48
  8
0
  6
CONTINUOUS
 62
     7
 10
25.75
 20
1384.25
 30
0.0
 11
25.75
 21
25.75
 31
0.0
  0
LINE
  5
49
  8
0
  6
CONTINUOUS
 62
     7
 10
693.8345073892
 20
1048.8014285832
 30
0.0
 11
681.8345073892
 21
1048.8014285832
 31
0.0
  0
LINE
  5
4A
  8
0
  6
CONTINUOUS
 62
     7
 10
365.8345073892
 20
1048.8014285832
 30
0.0
 11
353.8345073892
 21
1048.8014285832
 31
0.0
  0
LINE
  5
4B
  8
0
  6
CONTINUOUS
 62
     7
 10
353.8345073892
 20
1028.8014285832
 30
0.0
 11
365.8345073892
 21
1028.8014285832
 31
0.0
  0
LINE
  5
4C
  8
0
  6
CONTINUOUS
 62
     7
 10
681.8345073892
 20
1028.8014285832
 30
0.0
 11
693.8345073892
 21
1028.8014285832
 31
0.0
  0
LINE
  5
4D
  8
0
  6
CONTINUOUS
 62
     7
 10
682.3345073892
 20
1055.8014285832
 30
0.0
 11
365.3345073892
 21
1055.8014285832
 31
0.0
  0
LINE
  5
4E
  8
0
  6
CONTINUOUS
 62
     7
 10
365.3345073892
 20
1077.8014285832
 30
0.0
 11
365.3345073892
 21
1055.8014285832
 31
0.0
  0
LINE
  5
4F
  8
0
  6
CONTINUOUS
 62
     7
 10
682.3345073892
 20
1077.8014285832
 30
0.0
 11
682.3345073892
 21
1055.8014285832
 31
0.0
  0
LINE
  5
50
  8
0
  6
CONTINUOUS
 62
     7
 10
373.3345073892
 20
1085.8014285832
 30
0.0
 11
674.3345073892
 21
1085.8014285832
 31
0.0
  0
ARC
  5
51
  8
0
  6
CONTINUOUS
 62
     7
 10
674.3345073892
 20
1077.8014285832
 30
0.0
 40
8.0
 50
0.0
 51
90.0
  0
ARC
  5
52
  8
0
  6
CONTINUOUS
 62
     7
 10
373.3345073892
 20
1077.8014285832
 30
0.0
 40
8.000000000000057
 50
90.0
 51
180.0
  0
LINE
  5
53
  8
0
  6
CONTINUOUS
 62
     7
 10
365.8345073892
 20
1050.8014285832
 30
0.0
 11
365.8345073892
 21
1055.8014285832
 31
0.0
  0
LINE
  5
54
  8
0
  6
CONTINUOUS
 62
     7
 10
681.8345073892
 20
1055.8014285832
 30
0.0
 11
681.8345073892
 21
1050.8014285832
 31
0.0
  0
LINE
  5
55
  8
0
  6
CONTINUOUS
 62
     7
 10
365.8345073892
 20
1020.8014285832
 30
0.0
 11
365.8345073892
 21
1050.8014285832
 31
0.0
  0
LINE
  5
56
  8
0
  6
CONTINUOUS
 62
     7
 10
681.8345073892
 20
1050.8014285832
 30
0.0
 11
681.8345073892
 21
1020.8014285832
 31
0.0
  0
LINE
  5
57
  8
0
  6
CONTINUOUS
 62
     7
 10
370.8345073892
 20
1015.8014285832
 30
0.0
 11
676.8345073892
 21
1015.8014285832
 31
0.0
  0
ARC
  5
58
  8
0
  6
CONTINUOUS
 62
     7
 10
676.8345073892
 20
1020.8014285832
 30
0.0
 40
5.0
 50
270.0
 51
0.0
  0
ARC
  5
59
  8
0
  6
CONTINUOUS
 62
     7
 10
370.8345073892
 20
1020.8014285832
 30
0.0
 40
5.0
 50
180.0
 51
270.0
  0
LINE
  5
5A
  8
0
  6
CONTINUOUS
 62
     7
 10
693.8345073892
 20
966.7829028238
 30
0.0
 11
693.8345073892
 21
979.5064285832
 31
0.0
  0
LINE
  5
5B
  8
0
  6
CONTINUOUS
 62
     7
 10
697.8345073892
 20
979.5064285832
 30
0.0
 11
697.8345073892
 21
966.7829028238
 31
0.0
  0
LINE
  5
5C
  8
0
  6
CONTINUOUS
 62
     7
 10
349.8345073892
 20
979.5064285832
 30
0.0
 11
349.8345073892
 21
966.7829028238
 31
0.0
  0
LINE
  5
5D
  8
0
  6
CONTINUOUS
 62
     7
 10
353.8345073892
 20
979.5064285832
 30
0.0
 11
353.8345073892
 21
966.7829028238
 31
0.0
  0
LINE
  5
5E
  8
0
  6
CONTINUOUS
 62
     7
 10
693.8345073892
 20
979.5064285832
 30
0.0
 11
693.8345073892
 21
1048.8856617733
 31
0.0
  0
LINE
  5
5F
  8
0
  6
CONTINUOUS
 62
     7
 10
697.8345073892
 20
1048.8856617733
 30
0.0
 11
697.8345073892
 21
979.5064285832
 31
0.0
  0
LINE
  5
60
  8
0
  6
CONTINUOUS
 62
     7
 10
353.8345073892
 20
1048.8856617733
 30
0.0
 11
353.8345073892
 21
979.5064285832
 31
0.0
  0
LINE
  5
61
  8
0
  6
CONTINUOUS
 62
     7
 10
349.8345073892
 20
1048.8856617733
 30
0.0
 11
349.8345073892
 21
979.5064285832
 31
0.0
  0
LINE
  5
62
  8
0
  6
CONTINUOUS
 62
     7
 10
349.8345073892
 20
961.8014285832
 30
0.0
 11
353.8345073892
 21
961.8014285597
 31
0.0
  0
LINE
  5
63
  8
0
  6
CONTINUOUS
 62
     7
 10
353.8345073892
 20
966.7829028238
 30
0.0
 11
353.8345073892
 21
961.8014285597
 31
0.0
  0
LINE
  5
64
  8
0
  6
CONTINUOUS
 62
     7
 10
349.8345073892
 20
966.7829028238
 30
0.0
 11
349.8345073892
 21
961.8014285832
 31
0.0
  0
LINE
  5
65
  8
0
  6
CONTINUOUS
 62
     7
 10
693.8345073892
 20
961.8014285597
 30
0.0
 11
697.8345073892
 21
961.8014285832
 31
0.0
  0
LINE
  5
66
  8
0
  6
CONTINUOUS
 62
     7
 10
693.8345073892
 20
961.8014285597
 30
0.0
 11
693.8345073892
 21
966.7829028238
 31
0.0
  0
LINE
  5
67
  8
0
  6
CONTINUOUS
 62
     7
 10
697.8345073892
 20
966.7829028238
 30
0.0
 11
697.8345073892
 21
961.8014285832
 31
0.0
  0
LINE
  5
68
  8
0
  6
CONTINUOUS
 62
     7
 10
693.8345073892
 20
1048.8856617733
 30
0.0
 11
693.8345073892
 21
1070.1622771781
 31
0.0
  0
LINE
  5
69
  8
0
  6
CONTINUOUS
 62
     7
 10
697.8345073892
 20
1070.1622771781
 30
0.0
 11
697.8345073892
 21
1048.8856617733
 31
0.0
  0
LINE
  5
6A
  8
0
  6
CONTINUOUS
 62
     7
 10
353.8345073892
 20
1070.1622771781
 30
0.0
 11
353.8345073892
 21
1048.8856617733
 31
0.0
  0
LINE
  5
6B
  8
0
  6
CONTINUOUS
 62
     7
 10
349.8345073892
 20
1070.1622771781
 30
0.0
 11
349.8345073892
 21
1048.8856617733
 31
0.0
  0
LINE
  5
6C
  8
0
  6
CONTINUOUS
 62
     7
 10
349.8345073892
 20
1080.8014285832
 30
0.0
 11
353.8345073892
 21
1080.8014285832
 31
0.0
  0
LINE
  5
6D
  8
0
  6
CONTINUOUS
 62
     7
 10
353.8345073892
 20
1080.8014285832
 30
0.0
 11
353.8345073892
 21
1070.1622771781
 31
0.0
  0
LINE
  5
6E
  8
0
  6
CONTINUOUS
 62
     7
 10
349.8345073892
 20
1080.8014285832
 30
0.0
 11
349.8345073892
 21
1070.1622771781
 31
0.0
  0
LINE
  5
6F
  8
0
  6
CONTINUOUS
 62
     7
 10
693.8345073892
 20
1080.8014285832
 30
0.0
 11
697.8345073892
 21
1080.8014285832
 31
0.0
  0
LINE
  5
70
  8
0
  6
CONTINUOUS
 62
     7
 10
693.8345073892
 20
1070.1622771781
 30
0.0
 11
693.8345073892
 21
1080.8014285832
 31
0.0
  0
LINE
  5
71
  8
0
  6
CONTINUOUS
 62
     7
 10
697.8345073892
 20
1080.8014285832
 30
0.0
 11
697.8345073892
 21
1070.1622771781
 31
0.0
  0
LINE
  5
72
  8
0
  6
CONTINUOUS
 62
     7
 10
353.8345073892
 20
1080.8014285832
 30
0.0
 11
355.8345073892
 21
1080.8014285832
 31
0.0
  0
POLYLINE
  5
73
  8
0
  6
CONTINUOUS
 62
     7
 66
     1
 10
0.0
 20
0.0
 30
0.0
  0
VERTEX
  5
122
  8
0
  6
CONTINUOUS
 62
     7
 10
355.8345073892
 20
961.8014285597
 30
0.0
  0
VERTEX
  5
123
  8
0
  6
CONTINUOUS
 62
     7
 10
355.4443267451
 20
961.8014285601
 30
0.0
  0
VERTEX
  5
124
  8
0
  6
CONTINUOUS
 62
     7
 10
355.0691405244
 20
961.8014285615
 30
0.0
  0
VERTEX
  5
125
  8
0
  6
CONTINUOUS
 62
     7
 10
354.7233669231
 20
961.8014285636
 30
0.0
  0
VERTEX
  5
126
  8
0
  6
CONTINUOUS
 62
     7
 10
354.4202938268
 20
961.8014285666
 30
0.0
  0
VERTEX
  5
127
  8
0
  6
CONTINUOUS
 62
     7
 10
354.1715681646
 20
961.8014285701
 30
0.0
  0
VERTEX
  5
128
  8
0
  6
CONTINUOUS
 62
     7
 10
353.9867483241
 20
961.8014285742
 30
0.0
  0
VERTEX
  5
129
  8
0
  6
CONTINUOUS
 62
     7
 10
353.8729368284
 20
961.8014285786
 30
0.0
  0
VERTEX
  5
12A
  8
0
  6
CONTINUOUS
 62
     7
 10
353.8345073892
 20
961.8014285597
 30
0.0
  0
SEQEND
  5
14D
  8
0
  6
CONTINUOUS
 62
     7
  0
LINE
  5
74
  8
0
  6
CONTINUOUS
 62
     7
 10
691.8345073892
 20
1080.8014285832
 30
0.0
 11
693.8345073892
 21
1080.8014285832
 31
0.0
  0
POLYLINE
  5
75
  8
0
  6
CONTINUOUS
 62
     7
 66
     1
 10
0.0
 20
0.0
 30
0.0
  0
VERTEX
  5
12B
  8
0
  6
CONTINUOUS
 62
     7
 10
693.8345073892
 20
961.8014285597
 30
0.0
  0
VERTEX
  5
12C
  8
0
  6
CONTINUOUS
 62
     7
 10
693.79607795
 20
961.8014285601
 30
0.0
  0
VERTEX
  5
12D
  8
0
  6
CONTINUOUS
 62
     7
 10
693.6822664542
 20
961.8014285615
 30
0.0
  0
VERTEX
  5
12E
  8
0
  6
CONTINUOUS
 62
     7
 10
693.4974466138
 20
961.8014285636
 30
0.0
  0
VERTEX
  5
12F
  8
0
  6
CONTINUOUS
 62
     7
 10
693.2487209515
 20
961.8014285666
 30
0.0
  0
VERTEX
  5
130
  8
0
  6
CONTINUOUS
 62
     7
 10
692.9456478552
 20
961.8014285701
 30
0.0
  0
VERTEX
  5
131
  8
0
  6
CONTINUOUS
 62
     7
 10
692.5998742539
 20
961.8014285742
 30
0.0
  0
VERTEX
  5
132
  8
0
  6
CONTINUOUS
 62
     7
 10
692.2246880332
 20
961.8014285786
 30
0.0
  0
VERTEX
  5
133
  8
0
  6
CONTINUOUS
 62
     7
 10
691.8345073892
 20
961.8014285597
 30
0.0
  0
SEQEND
  5
14C
  8
0
  6
CONTINUOUS
 62
     7
  0
ARC
  5
76
  8
0
  6
CONTINUOUS
 62
     7
 10
387.8345073892
 20
971.8014285832
 30
0.0
 40
10.00000002347872
 50
270.0
 51
0.0
  0
ARC
  5
77
  8
0
  6
CONTINUOUS
 62
     7
 10
376.3345073892
 20
1001.3014285832
 30
0.0
 40
5.500000000000114
 50
270.0
 51
90.0
  0
LINE
  5
78
  8
0
  6
CONTINUOUS
 62
     7
 10
376.3345073892
 20
1006.8014285832
 30
0.0
 11
373.8345073892
 21
1006.8014285832
 31
0.0
  0
ARC
  5
79
  8
0
  6
CONTINUOUS
 62
     7
 10
373.8345073892
 20
1001.3014285832
 30
0.0
 40
5.500000000000114
 50
90.0
 51
270.0
  0
LINE
  5
7A
  8
0
  6
CONTINUOUS
 62
     7
 10
373.8345073892
 20
995.8014285832
 30
0.0
 11
376.3345073892
 21
995.8014285832
 31
0.0
  0
LINE
  5
7B
  8
0
  6
CONTINUOUS
 62
     7
 10
397.8345073892
 20
1015.8014285832
 30
0.0
 11
397.8345073892
 21
971.8014285832
 31
0.0
  0
LINE
  5
7C
  8
0
  6
CONTINUOUS
 62
     7
 10
365.9183089021
 20
1080.8014285832
 30
0.0
 11
355.8345073892
 21
1080.8014285832
 31
0.0
  0
LINE
  5
7D
  8
0
  6
CONTINUOUS
 62
     7
 10
387.8345073892
 20
961.8014285597
 30
0.0
 11
355.8345073892
 21
961.8014285597
 31
0.0
  0
ARC
  5
7E
  8
0
  6
CONTINUOUS
 62
     7
 10
659.8345073892
 20
971.8014285832
 30
0.0
 40
10.00000002347872
 50
180.0
 51
270.0
  0
ARC
  5
7F
  8
0
  6
CONTINUOUS
 62
     7
 10
673.8345073892
 20
1001.3014285832
 30
0.0
 40
5.500000000000114
 50
270.0
 51
90.0
  0
LINE
  5
80
  8
0
  6
CONTINUOUS
 62
     7
 10
673.8345073892
 20
1006.8014285832
 30
0.0
 11
671.3345073892
 21
1006.8014285832
 31
0.0
  0
ARC
  5
81
  8
0
  6
CONTINUOUS
 62
     7
 10
671.3345073892
 20
1001.3014285832
 30
0.0
 40
5.500000000000114
 50
90.0
 51
270.0
  0
LINE
  5
82
  8
0
  6
CONTINUOUS
 62
     7
 10
671.3345073892
 20
995.8014285832
 30
0.0
 11
673.8345073892
 21
995.8014285832
 31
0.0
  0
LINE
  5
83
  8
0
  6
CONTINUOUS
 62
     7
 10
649.8345073892
 20
971.8014285832
 30
0.0
 11
649.8345073892
 21
1015.8014285832
 31
0.0
  0
LINE
  5
84
  8
0
  6
CONTINUOUS
 62
     7
 10
691.8345073892
 20
1080.8014285832
 30
0.0
 11
681.7507058763
 21
1080.8014285832
 31
0.0
  0
LINE
  5
85
  8
0
  6
CONTINUOUS
 62
     7
 10
691.8345073892
 20
961.8014285597
 30
0.0
 11
659.8345073892
 21
961.8014285597
 31
0.0
  0
LINE
  5
86
  8
0
  6
CONTINUOUS
 62
     7
 10
373.8345073892
 20
1050.8014285832
 30
0.0
 11
376.3345073892
 21
1050.8014285832
 31
0.0
  0
LINE
  5
87
  8
0
  6
CONTINUOUS
 62
     7
 10
376.3345073892
 20
1061.8014285832
 30
0.0
 11
373.8345073892
 21
1061.8014285832
 31
0.0
  0
LINE
  5
88
  8
0
  6
CONTINUOUS
 62
     7
 10
671.3345073892
 20
1050.8014285832
 30
0.0
 11
673.8345073892
 21
1050.8014285832
 31
0.0
  0
LINE
  5
89
  8
0
  6
CONTINUOUS
 62
     7
 10
673.8345073892
 20
1061.8014285832
 30
0.0
 11
671.3345073892
 21
1061.8014285832
 31
0.0
  0
ARC
  5
8A
  8
0
  6
CONTINUOUS
 62
     7
 10
376.3345073892
 20
1056.3014285832
 30
0.0
 40
5.5
 50
270.0
 51
90.0
  0
ARC
  5
8B
  8
0
  6
CONTINUOUS
 62
     7
 10
373.8345073892
 20
1056.3014285832
 30
0.0
 40
5.5
 50
90.0
 51
270.0
  0
ARC
  5
8C
  8
0
  6
CONTINUOUS
 62
     7
 10
671.3345073892
 20
1056.3014285832
 30
0.0
 40
5.5
 50
90.0
 51
270.0
  0
ARC
  5
8D
  8
0
  6
CONTINUOUS
 62
     7
 10
673.8345073892
 20
1056.3014285832
 30
0.0
 40
5.5
 50
270.0
 51
90.0
  0
LINE
  5
8E
  8
0
  6
CENTERX2
 62
     7
 10
523.8345073892
 20
951.3723214286
 30
0.0
 11
523.8345073892
 21
1115.2564994586
 31
0.0
  0
LINE
  5
8F
  8
0
  6
CONTINUOUS
 62
     7
 10
693.8345073892
 20
755.6366586954
 30
0.0
 11
682.3345073892
 21
755.6366586954
 31
0.0
  0
LINE
  5
90
  8
0
  6
CONTINUOUS
 62
     7
 10
365.3345073892
 20
755.6366586954
 30
0.0
 11
353.8345073892
 21
755.6366586954
 31
0.0
  0
LINE
  5
91
  8
0
  6
CONTINUOUS
 62
     7
 10
353.8345073892
 20
735.6366586954
 30
0.0
 11
365.3345073892
 21
735.6366586954
 31
0.0
  0
LINE
  5
92
  8
0
  6
CONTINUOUS
 62
     7
 10
682.3345073892
 20
735.6366586954
 30
0.0
 11
693.8345073892
 21
735.6366586954
 31
0.0
  0
LINE
  5
93
  8
0
  6
CONTINUOUS
 62
     7
 10
693.8345073892
 20
710.0141886424
 30
0.0
 11
697.8345073892
 21
710.0141886424
 31
0.0
  0
LINE
  5
94
  8
0
  6
CONTINUOUS
 62
     7
 10
349.8345073892
 20
710.0141886424
 30
0.0
 11
353.8345073892
 21
710.0141886424
 31
0.0
  0
LINE
  5
95
  8
0
  6
CONTINUOUS
 62
     7
 10
682.3345073892
 20
817.1366586954
 30
0.0
 11
682.3345073892
 21
436.7969127332
 31
0.0
  0
LINE
  5
96
  8
0
  6
CONTINUOUS
 62
     7
 10
674.3345073892
 20
444.7969127332
 30
0.0
 11
682.3345073892
 21
436.7969127332
 31
0.0
  0
LINE
  5
97
  8
0
  6
CONTINUOUS
 62
     7
 10
682.3345073892
 20
817.1366586954
 30
0.0
 11
674.3345073892
 21
809.1366586954
 31
0.0
  0
LINE
  5
98
  8
0
  6
CONTINUOUS
 62
     7
 10
365.3345073892
 20
817.1366586954
 30
0.0
 11
682.3345073892
 21
817.1366586954
 31
0.0
  0
LINE
  5
99
  8
0
  6
CONTINUOUS
 62
     7
 10
365.3345073892
 20
817.1366586954
 30
0.0
 11
373.3345073892
 21
809.1366586954
 31
0.0
  0
LINE
  5
9A
  8
0
  6
CONTINUOUS
 62
     7
 10
365.3345073892
 20
436.7969127332
 30
0.0
 11
365.3345073892
 21
817.1366586954
 31
0.0
  0
LINE
  5
9B
  8
0
  6
CONTINUOUS
 62
     7
 10
373.3345073892
 20
444.7969127332
 30
0.0
 11
365.3345073892
 21
436.7969127332
 31
0.0
  0
LINE
  5
9C
  8
0
  6
CONTINUOUS
 62
     7
 10
682.3345073892
 20
436.7969127332
 30
0.0
 11
365.3345073892
 21
436.7969127332
 31
0.0
  0
LINE
  5
9D
  8
0
  6
CONTINUOUS
 62
     7
 10
693.8345073892
 20
796.6366586954
 30
0.0
 11
693.8345073892
 21
836.6366586954
 31
0.0
  0
ARC
  5
9E
  8
0
  6
CONTINUOUS
 62
     7
 10
691.8345073892
 20
836.6366586954
 30
0.0
 40
2.0
 50
0.0
 51
90.0
  0
LINE
  5
9F
  8
0
  6
CONTINUOUS
 62
     7
 10
691.8345073892
 20
838.6366586954
 30
0.0
 11
659.8345073892
 21
838.6366586954
 31
0.0
  0
LINE
  5
A0
  8
0
  6
CONTINUOUS
 62
     7
 10
659.8345073892
 20
842.6366586954
 30
0.0
 11
691.8345073892
 21
842.6366586954
 31
0.0
  0
LINE
  5
A1
  8
0
  6
CONTINUOUS
 62
     7
 10
697.8345073892
 20
836.6366586954
 30
0.0
 11
697.8345073892
 21
796.6366586954
 31
0.0
  0
ARC
  5
A2
  8
0
  6
CONTINUOUS
 62
     7
 10
691.8345073892
 20
836.6366586954
 30
0.0
 40
6.0
 50
0.0
 51
90.0
  0
LINE
  5
A3
  8
0
  6
CONTINUOUS
 62
     7
 10
387.8345073892
 20
838.6366586954
 30
0.0
 11
355.8345073892
 21
838.6366586954
 31
0.0
  0
ARC
  5
A4
  8
0
  6
CONTINUOUS
 62
     7
 10
355.8345073892
 20
836.6366586954
 30
0.0
 40
2.0
 50
90.0
 51
180.0
  0
LINE
  5
A5
  8
0
  6
CONTINUOUS
 62
     7
 10
353.8345073892
 20
836.6366586954
 30
0.0
 11
353.8345073892
 21
796.6366586954
 31
0.0
  0
LINE
  5
A6
  8
0
  6
CONTINUOUS
 62
     7
 10
349.8345073892
 20
836.6366586954
 30
0.0
 11
349.8345073892
 21
796.6366586954
 31
0.0
  0
ARC
  5
A7
  8
0
  6
CONTINUOUS
 62
     7
 10
355.8345073892
 20
836.6366586954
 30
0.0
 40
6.000000000000057
 50
90.0
 51
180.0
  0
LINE
  5
A8
  8
0
  6
CONTINUOUS
 62
     7
 10
355.8345073892
 20
842.6366586954
 30
0.0
 11
387.8345073892
 21
842.6366586954
 31
0.0
  0
LINE
  5
A9
  8
0
  6
CONTINUOUS
 62
     7
 10
387.8345073892
 20
842.6366586954
 30
0.0
 11
397.8345073892
 21
842.6366586954
 31
0.0
  0
LINE
  5
AA
  8
0
  6
CONTINUOUS
 62
     7
 10
397.8345073892
 20
842.6366586954
 30
0.0
 11
397.8345073892
 21
838.6366586954
 31
0.0
  0
LINE
  5
AB
  8
0
  6
CONTINUOUS
 62
     7
 10
397.8345073892
 20
838.6366586954
 30
0.0
 11
387.8345073892
 21
838.6366586954
 31
0.0
  0
LINE
  5
AC
  8
0
  6
CONTINUOUS
 62
     7
 10
649.8345073892
 20
838.6366586954
 30
0.0
 11
649.8345073892
 21
842.6366586954
 31
0.0
  0
LINE
  5
AD
  8
0
  6
CONTINUOUS
 62
     7
 10
649.8345073892
 20
842.6366586954
 30
0.0
 11
659.8345073892
 21
842.6366586954
 31
0.0
  0
LINE
  5
AE
  8
0
  6
CONTINUOUS
 62
     7
 10
659.8345073892
 20
838.6366586954
 30
0.0
 11
649.8345073892
 21
838.6366586954
 31
0.0
  0
LINE
  5
AF
  8
0
  6
CONTINUOUS
 62
     7
 10
693.8345073892
 20
735.6702502134
 30
0.0
 11
693.8345073892
 21
796.6366586954
 31
0.0
  0
LINE
  5
B0
  8
0
  6
CONTINUOUS
 62
     7
 10
697.8345073892
 20
796.6366586954
 30
0.0
 11
697.8345073892
 21
735.6702502134
 31
0.0
  0
LINE
  5
B1
  8
0
  6
CONTINUOUS
 62
     7
 10
353.8345073892
 20
796.6366586954
 30
0.0
 11
353.8345073892
 21
735.6702502134
 31
0.0
  0
LINE
  5
B2
  8
0
  6
CONTINUOUS
 62
     7
 10
349.8345073892
 20
796.6366586954
 30
0.0
 11
349.8345073892
 21
735.6702502134
 31
0.0
  0
LINE
  5
B3
  8
0
  6
CONTINUOUS
 62
     7
 10
693.8345073892
 20
718.6725276644
 30
0.0
 11
693.8345073892
 21
735.6702502134
 31
0.0
  0
LINE
  5
B4
  8
0
  6
CONTINUOUS
 62
     7
 10
697.8345073892
 20
735.6702502134
 30
0.0
 11
697.8345073892
 21
718.6725276644
 31
0.0
  0
LINE
  5
B5
  8
0
  6
CONTINUOUS
 62
     7
 10
353.8345073892
 20
735.6702502134
 30
0.0
 11
353.8345073892
 21
718.6725276644
 31
0.0
  0
LINE
  5
B6
  8
0
  6
CONTINUOUS
 62
     7
 10
349.8345073892
 20
735.6702502134
 30
0.0
 11
349.8345073892
 21
718.6725276644
 31
0.0
  0
LINE
  5
B7
  8
0
  6
CONTINUOUS
 62
     7
 10
353.8345073892
 20
718.6725276644
 30
0.0
 11
353.8345073892
 21
710.1046586954
 31
0.0
  0
LINE
  5
B8
  8
0
  6
CONTINUOUS
 62
     7
 10
349.8345073892
 20
718.6725276644
 30
0.0
 11
349.8345073892
 21
710.1046586954
 31
0.0
  0
LINE
  5
B9
  8
0
  6
CONTINUOUS
 62
     7
 10
693.8345073892
 20
710.1046586954
 30
0.0
 11
693.8345073892
 21
718.6725276644
 31
0.0
  0
LINE
  5
BA
  8
0
  6
CONTINUOUS
 62
     7
 10
697.8345073892
 20
718.6725276644
 30
0.0
 11
697.8345073892
 21
710.1046586954
 31
0.0
  0
LINE
  5
BB
  8
0
  6
CONTINUOUS
 62
     7
 10
693.8345073892
 20
710.0141886424
 30
0.0
 11
693.8345073892
 21
710.1046586954
 31
0.0
  0
LINE
  5
BC
  8
0
  6
CONTINUOUS
 62
     7
 10
697.8345073892
 20
710.1046586954
 30
0.0
 11
697.8345073892
 21
710.0141886424
 31
0.0
  0
LINE
  5
BD
  8
0
  6
CONTINUOUS
 62
     7
 10
353.8345073892
 20
710.1046586954
 30
0.0
 11
353.8345073892
 21
710.0141886424
 31
0.0
  0
LINE
  5
BE
  8
0
  6
CONTINUOUS
 62
     7
 10
349.8345073892
 20
710.1046586954
 30
0.0
 11
349.8345073892
 21
710.0141886424
 31
0.0
  0
LINE
  5
BF
  8
0
  6
CENTERX2
 62
     7
 10
523.8345073892
 20
846.6366586954
 30
0.0
 11
523.8345073892
 21
408.8444869633
 31
0.0
  0
ARC
  5
C0
  8
0
  6
CONTINUOUS
 62
     7
 10
920.6239201224
 20
1077.8014285832
 30
0.0
 40
7.999999999999773
 50
90.0
 51
157.975687163
  0
LINE
  5
C1
  8
0
  6
CONTINUOUS
 62
     7
 10
920.6239201224
 20
1085.8014285832
 30
0.0
 11
1284.9636660845
 21
1085.8014285832
 31
0.0
  0
ARC
  5
C2
  8
0
  6
CONTINUOUS
 62
     7
 10
1284.9636660845
 20
1077.8014285832
 30
0.0
 40
8.000000000000682
 50
0.0
 51
90.0
  0
LINE
  5
C3
  8
0
  6
CONTINUOUS
 62
     7
 10
1292.9636660845
 20
1055.8014285832
 30
0.0
 11
1009.2411523845
 21
1055.8014285832
 31
0.0
  0
LINE
  5
C4
  8
0
  6
CONTINUOUS
 62
     7
 10
1292.9636660845
 20
1077.8014285832
 30
0.0
 11
1292.9636660845
 21
1055.8014285832
 31
0.0
  0
LINE
  5
C5
  8
0
  6
CONTINUOUS
 62
     7
 10
1270.1431580088
 20
1015.8014285832
 30
0.0
 11
1015.1737315779
 21
1015.8014285832
 31
0.0
  0
LINE
  5
C6
  8
0
  6
CONTINUOUS
 62
     7
 10
1291.7937931034
 20
1048.3014285832
 30
0.0
 11
1274.4732850278
 21
1018.3014285832
 31
0.0
  0
ARC
  5
C7
  8
0
  6
CONTINUOUS
 62
     7
 10
1270.1431580088
 20
1020.8014285832
 30
0.0
 40
5.000000000000016
 50
270.0
 51
330.0
  0
ARC
  5
C8
  8
0
  6
CONTINUOUS
 62
     7
 10
1287.4636660845
 20
1050.8014285832
 30
0.0
 40
5.0
 50
330.0
 51
0.0
  0
LINE
  5
C9
  8
0
  6
CONTINUOUS
 62
     7
 10
1292.4636660845
 20
1055.8014285832
 30
0.0
 11
1292.4636660845
 21
1050.8014285832
 31
0.0
  0
LINE
  5
CA
  8
0
  6
CONTINUOUS
 62
     7
 10
887.1239201224
 20
961.8014285832
 30
0.0
 11
887.1239201224
 21
1080.8014285832
 31
0.0
  0
LINE
  5
CB
  8
0
  6
CONTINUOUS
 62
     7
 10
887.1239201224
 20
1080.8014285832
 30
0.0
 11
893.1239201224
 21
1080.8014285832
 31
0.0
  0
LINE
  5
CC
  8
0
  6
CONTINUOUS
 62
     7
 10
893.1239201224
 20
961.8014285832
 30
0.0
 11
887.1239201224
 21
961.8014285832
 31
0.0
  0
ARC
  5
CD
  8
0
  6
CONTINUOUS
 62
     7
 10
933.1239201224
 20
900.8014285832
 30
0.0
 40
180.0
 50
70.2021709788
 51
90.0
  0
ARC
  5
CE
  8
0
  6
CONTINUOUS
 62
     7
 10
985.2840696014
 20
1045.6990434922
 30
0.0
 40
25.99999999999999
 50
7.04
 51
70.2021709788
  0
LINE
  5
CF
  8
0
  6
CONTINUOUS
 62
     7
 10
1011.0880511533
 20
1048.8856617733
 30
0.0
 11
1019.6559201224
 21
979.5064285832
 31
0.0
  0
ARC
  5
D0
  8
0
  6
CONTINUOUS
 62
     7
 10
1007.7463901753
 20
978.0356816842
 30
0.0
 40
12.00000000000003
 50
290.3259722805
 51
7.04
  0
ARC
  5
D1
  8
0
  6
CONTINUOUS
 62
     7
 10
984.1258583141
 20
1041.8014285597
 30
0.0
 40
80.00000000000009
 50
269.9986118724
 51
290.3259722805
  0
LINE
  5
D2
  8
0
  6
CONTINUOUS
 62
     7
 10
893.1239201224
 20
1080.8014285832
 30
0.0
 11
933.1239201224
 21
1080.8014285832
 31
0.0
  0
LINE
  5
D3
  8
0
  6
CONTINUOUS
 62
     7
 10
984.1239201224
 20
961.8014285832
 30
0.0
 11
893.1239201224
 21
961.8014285832
 31
0.0
  0
POLYLINE
  5
D4
  8
0
  6
CONTINUOUS
 62
     7
 66
     1
 10
0.0
 20
0.0
 30
0.0
  0
VERTEX
  5
134
  8
0
  6
CONTINUOUS
 62
     7
 10
1493.2483844614
 20
961.7644526333
 30
0.0
  0
VERTEX
  5
135
  8
0
  6
CONTINUOUS
 62
     7
 10
1491.6840249097
 20
961.653712842
 30
0.0
  0
VERTEX
  5
136
  8
0
  6
CONTINUOUS
 62
     7
 10
1490.3583410397
 20
961.8014285832
 30
0.0
  0
SEQEND
  5
14B
  8
0
  6
CONTINUOUS
 62
     7
  0
LINE
  5
D5
  8
0
  6
CONTINUOUS
 62
     7
 10
1464.8408451619
 20
1080.8014285832
 30
0.0
 11
1422.7923283372
 21
1327.464918286
 31
0.0
  0
ARC
  5
D6
  8
0
  6
CONTINUOUS
 62
     7
 10
1430.6785629795
 20
1328.8092780469
 30
0.0
 40
8.000000000000473
 50
99.6741688991
 51
189.6741688991
  0
LINE
  5
D7
  8
0
  6
CONTINUOUS
 62
     7
 10
1451.0213484849
 20
1340.3925020317
 30
0.0
 11
1495.6192512889
 21
1078.7738964354
 31
0.0
  0
LINE
  5
D8
  8
0
  6
CONTINUOUS
 62
     7
 10
1493.4652914421
 20
961.8014285832
 30
0.0
 11
1493.2483844614
 21
961.7644526333
 31
0.0
  0
LINE
  5
D9
  8
0
  6
CONTINUOUS
 62
     7
 10
1429.3342032186
 20
1336.6955126892
 30
0.0
 11
1451.0213484849
 21
1340.3925020317
 31
0.0
  0
LINE
  5
DA
  8
0
  6
CONTINUOUS
 62
     7
 10
1458.6112847322
 20
1340.4996027037
 30
0.0
 11
1491.0952889027
 21
1328.466752956
 31
0.0
  0
LINE
  5
DB
  8
0
  6
CONTINUOUS
 62
     7
 10
1451.10537097
 20
1339.8996123665
 30
0.0
 11
1456.0342676214
 21
1340.7398372171
 31
0.0
  0
ARC
  5
DC
  8
0
  6
CONTINUOUS
 62
     7
 10
1456.874492472
 20
1335.8109405656
 30
0.0
 40
4.999999999999792
 50
69.6741688991
 51
99.6741688991
  0
ARC
  5
DD
  8
0
  6
CONTINUOUS
 62
     7
 10
1489.3584966425
 20
1323.7780908179
 30
0.0
 40
5.0
 50
9.6741688991
 51
69.6741688991
  0
LINE
  5
DE
  8
0
  6
CONTINUOUS
 62
     7
 10
1494.2873932939
 20
1324.6183156685
 30
0.0
 11
1538.5972534765
 21
1064.6894152872
 31
0.0
  0
LINE
  5
DF
  8
0
  6
CONTINUOUS
 62
     7
 10
1554.2182265623
 20
973.0542275358
 30
0.0
 11
1554.2826804541
 21
972.6761304454
 31
0.0
  0
LINE
  5
E0
  8
0
  6
CONTINUOUS
 62
     7
 10
1554.2826804541
 20
972.6761304454
 30
0.0
 11
1554.0147403074
 21
972.6304549148
 31
0.0
  0
LINE
  5
E1
  8
0
  6
CONTINUOUS
 62
     7
 10
1422.6785629795
 20
961.8014285832
 30
0.0
 11
1422.6785629795
 21
1080.8014285832
 31
0.0
  0
LINE
  5
E2
  8
0
  6
CONTINUOUS
 62
     7
 10
1422.6785629795
 20
1080.8014285832
 30
0.0
 11
1428.6785629795
 21
1080.8014285832
 31
0.0
  0
LINE
  5
E3
  8
0
  6
CONTINUOUS
 62
     7
 10
1428.6785629795
 20
961.8014285832
 30
0.0
 11
1422.6785629795
 21
961.8014285832
 31
0.0
  0
ARC
  5
E4
  8
0
  6
CONTINUOUS
 62
     7
 10
1468.6785629795
 20
900.8014285832
 30
0.0
 40
180.0
 50
70.2021709788
 51
90.0
  0
ARC
  5
E5
  8
0
  6
CONTINUOUS
 62
     7
 10
1520.8387124586
 20
1045.6990434922
 30
0.0
 40
25.99999999999999
 50
7.04
 51
70.2021709788
  0
LINE
  5
E6
  8
0
  6
CONTINUOUS
 62
     7
 10
1546.6426940105
 20
1048.8856617733
 30
0.0
 11
1555.2105629795
 21
979.5064285832
 31
0.0
  0
ARC
  5
E7
  8
0
  6
CONTINUOUS
 62
     7
 10
1543.3010330325
 20
978.0356816842
 30
0.0
 40
12.00000000000014
 50
290.3259722805
 51
7.04
  0
ARC
  5
E8
  8
0
  6
CONTINUOUS
 62
     7
 10
1519.6805011713
 20
1041.8014285597
 30
0.0
 40
80.00000000000011
 50
269.9986118724
 51
290.3259722805
  0
LINE
  5
E9
  8
0
  6
CONTINUOUS
 62
     7
 10
1428.6785629795
 20
1080.8014285832
 30
0.0
 11
1468.6785629795
 21
1080.8014285832
 31
0.0
  0
LINE
  5
EA
  8
0
  6
CONTINUOUS
 62
     7
 10
1519.6785629795
 20
961.8014285832
 30
0.0
 11
1428.6785629795
 21
961.8014285832
 31
0.0
  0
LINE
  5
EB
  8
0
  6
CONTINUOUS
 62
     7
 10
675.6788671501
 20
337.7366586954
 30
0.0
 11
371.9901476283
 21
337.7366586954
 31
0.0
  0
LINE
  5
EC
  8
0
  6
CONTINUOUS
 62
     7
 10
693.8345073892
 20
250.7366586954
 30
0.0
 11
681.8345073892
 21
250.7366586954
 31
0.0
  0
LINE
  5
ED
  8
0
  6
CONTINUOUS
 62
     7
 10
365.8345073892
 20
250.7366586954
 30
0.0
 11
353.8345073892
 21
250.7366586954
 31
0.0
  0
LINE
  5
EE
  8
0
  6
CONTINUOUS
 62
     7
 10
353.8345073892
 20
230.7366586954
 30
0.0
 11
365.8345073892
 21
230.7366586954
 31
0.0
  0
LINE
  5
EF
  8
0
  6
CONTINUOUS
 62
     7
 10
681.8345073892
 20
230.7366586954
 30
0.0
 11
693.8345073892
 21
230.7366586954
 31
0.0
  0
LINE
  5
F0
  8
0
  6
CONTINUOUS
 62
     7
 10
693.8345073892
 20
205.1141886424
 30
0.0
 11
697.8345073892
 21
205.1141886424
 31
0.0
  0
LINE
  5
F1
  8
0
  6
CONTINUOUS
 62
     7
 10
349.8345073892
 20
205.1141886424
 30
0.0
 11
353.8345073892
 21
205.1141886424
 31
0.0
  0
LINE
  5
F2
  8
0
  6
CONTINUOUS
 62
     7
 10
365.8345073892
 20
271.0567250324
 30
0.0
 11
365.8345073892
 21
303.5407292029
 31
0.0
  0
LINE
  5
F3
  8
0
  6
CONTINUOUS
 62
     7
 10
681.8345073892
 20
303.5407292029
 30
0.0
 11
681.8345073892
 21
271.0567250324
 31
0.0
  0
POLYLINE
  5
F4
  8
0
  6
CONTINUOUS
 62
     7
 66
     1
 10
0.0
 20
0.0
 30
0.0
  0
VERTEX
  5
137
  8
0
  6
CONTINUOUS
 62
     7
 10
365.8345073892
 20
308.4696258543
 30
0.0
  0
VERTEX
  5
138
  8
0
  6
CONTINUOUS
 62
     7
 10
365.9305809871
 20
308.633545591
 30
0.0
  0
VERTEX
  5
139
  8
0
  6
CONTINUOUS
 62
     7
 10
366.2151097266
 20
308.7911659841
 30
0.0
  0
VERTEX
  5
13A
  8
0
  6
CONTINUOUS
 62
     7
 10
366.6771593276
 20
308.9364297704
 30
0.0
  0
VERTEX
  5
13B
  8
0
  6
CONTINUOUS
 62
     7
 10
367.2989734832
 20
309.0637545439
 30
0.0
  0
VERTEX
  5
13C
  8
0
  6
CONTINUOUS
 62
     7
 10
368.0566562241
 20
309.1682472851
 30
0.0
  0
VERTEX
  5
13D
  8
0
  6
CONTINUOUS
 62
     7
 10
368.9210902273
 20
309.2458923965
 30
0.0
  0
VERTEX
  5
13E
  8
0
  6
CONTINUOUS
 62
     7
 10
369.8590557791
 20
309.29370602
 30
0.0
  0
VERTEX
  5
13F
  8
0
  6
CONTINUOUS
 62
     7
 10
370.8345073892
 20
309.3098507049
 30
0.0
  0
SEQEND
  5
14A
  8
0
  6
CONTINUOUS
 62
     7
  0
LINE
  5
F5
  8
0
  6
CONTINUOUS
 62
     7
 10
365.8345073892
 20
303.5407292029
 30
0.0
 11
365.8345073892
 21
308.4696258543
 31
0.0
  0
POLYLINE
  5
F6
  8
0
  6
CONTINUOUS
 62
     7
 66
     1
 10
0.0
 20
0.0
 30
0.0
  0
VERTEX
  5
140
  8
0
  6
CONTINUOUS
 62
     7
 10
676.8345073892
 20
309.3098507049
 30
0.0
  0
VERTEX
  5
141
  8
0
  6
CONTINUOUS
 62
     7
 10
677.8099589992
 20
309.29370602
 30
0.0
  0
VERTEX
  5
142
  8
0
  6
CONTINUOUS
 62
     7
 10
678.747924551
 20
309.2458923965
 30
0.0
  0
VERTEX
  5
143
  8
0
  6
CONTINUOUS
 62
     7
 10
679.6123585543
 20
309.1682472851
 30
0.0
  0
VERTEX
  5
144
  8
0
  6
CONTINUOUS
 62
     7
 10
680.3700412951
 20
309.0637545439
 30
0.0
  0
VERTEX
  5
145
  8
0
  6
CONTINUOUS
 62
     7
 10
680.9918554507
 20
308.9364297704
 30
0.0
  0
VERTEX
  5
146
  8
0
  6
CONTINUOUS
 62
     7
 10
681.4539050517
 20
308.7911659841
 30
0.0
  0
VERTEX
  5
147
  8
0
  6
CONTINUOUS
 62
     7
 10
681.7384337912
 20
308.633545591
 30
0.0
  0
VERTEX
  5
148
  8
0
  6
CONTINUOUS
 62
     7
 10
681.8345073892
 20
308.4696258543
 30
0.0
  0
SEQEND
  5
149
  8
0
  6
CONTINUOUS
 62
     7
  0
LINE
  5
F7
  8
0
  6
CONTINUOUS
 62
     7
 10
681.8345073892
 20
308.4696258543
 30
0.0
 11
681.8345073892
 21
303.5407292029
 31
0.0
  0
LINE
  5
F8
  8
0
  6
CONTINUOUS
 62
     7
 10
370.8345073892
 20
309.3098507049
 30
0.0
 11
676.8345073892
 21
309.3098507049
 31
0.0
  0
LINE
  5
F9
  8
0
  6
CONTINUOUS
 62
     7
 10
682.3345073892
 20
309.39387319
 30
0.0
 11
365.3345073892
 21
309.39387319
 31
0.0
  0
LINE
  5
FA
  8
0
  6
CONTINUOUS
 62
     7
 10
682.3345073892
 20
309.39387319
 30
0.0
 11
682.3345073892
 21
250.7366586954
 31
0.0
  0
LINE
  5
FB
  8
0
  6
CONTINUOUS
 62
     7
 10
365.3345073892
 20
309.39387319
 30
0.0
 11
365.3345073892
 21
250.7366586954
 31
0.0
  0
LINE
  5
FC
  8
0
  6
CONTINUOUS
 62
     7
 10
682.3345073892
 20
331.0810184563
 30
0.0
 11
682.3345073892
 21
309.39387319
 31
0.0
  0
LINE
  5
FD
  8
0
  6
CONTINUOUS
 62
     7
 10
365.3345073892
 20
331.0810184563
 30
0.0
 11
365.3345073892
 21
309.39387319
 31
0.0
  0
ARC
  5
FE
  8
0
  6
CONTINUOUS
 62
     7
 10
675.8386487299
 20
331.2408000361
 30
0.0
 40
6.497823472102572
 50
358.590953869
 51
91.409046131
  0
ARC
  5
FF
  8
0
  6
CONTINUOUS
 62
     7
 10
371.8303660484
 20
331.2408000361
 30
0.0
 40
6.497823472102629
 50
88.590953869
 51
181.409046131
  0
ARC
  5
100
  8
0
  6
CONTINUOUS
 62
     7
 10
370.7992084992
 20
211.0972459774
 30
0.0
 40
4.964830242040561
 50
180.4132409344
 51
270.4073642719
  0
LINE
  5
101
  8
0
  6
CONTINUOUS
 62
     7
 10
365.8345073892
 20
211.0614378722
 30
0.0
 11
365.8345073892
 21
271.0567250324
 31
0.0
  0
ARC
  5
102
  8
0
  6
CONTINUOUS
 62
     7
 10
676.8698062791
 20
211.0972459774
 30
0.0
 40
4.96483024204042
 50
269.5926357281
 51
359.5867590656
  0
LINE
  5
103
  8
0
  6
CONTINUOUS
 62
     7
 10
681.8345073892
 20
271.0567250324
 30
0.0
 11
681.8345073892
 21
211.0614378722
 31
0.0
  0
LINE
  5
104
  8
0
  6
CONTINUOUS
 62
     7
 10
370.8345073892
 20
206.1325412208
 30
0.0
 11
676.8345073892
 21
206.1325412208
 31
0.0
  0
LINE
  5
105
  8
0
  6
CONTINUOUS
 62
     7
 10
693.8345073892
 20
291.7366586954
 30
0.0
 11
693.8345073892
 21
331.7366586954
 31
0.0
  0
ARC
  5
106
  8
0
  6
CONTINUOUS
 62
     7
 10
691.8345073892
 20
331.7366586954
 30
0.0
 40
2.000000000000057
 50
0.0
 51
90.0
  0
LINE
  5
107
  8
0
  6
CONTINUOUS
 62
     7
 10
691.8345073892
 20
333.7366586954
 30
0.0
 11
681.83636681
 21
333.7366586954
 31
0.0
  0
LINE
  5
108
  8
0
  6
CONTINUOUS
 62
     7
 10
675.6788671501
 20
337.7366586954
 30
0.0
 11
691.8345073892
 21
337.7366586954
 31
0.0
  0
ARC
  5
109
  8
0
  6
CONTINUOUS
 62
     7
 10
691.8345073892
 20
331.7366586954
 30
0.0
 40
6.000000000000057
 50
0.0
 51
90.0
  0
LINE
  5
10A
  8
0
  6
CONTINUOUS
 62
     7
 10
697.8345073892
 20
331.7366586954
 30
0.0
 11
697.8345073892
 21
291.7366586954
 31
0.0
  0
LINE
  5
10B
  8
0
  6
CONTINUOUS
 62
     7
 10
365.8326479683
 20
333.7366586954
 30
0.0
 11
355.8345073892
 21
333.7366586954
 31
0.0
  0
ARC
  5
10C
  8
0
  6
CONTINUOUS
 62
     7
 10
355.8345073892
 20
331.7366586954
 30
0.0
 40
2.0
 50
90.0
 51
180.0
  0
LINE
  5
10D
  8
0
  6
CONTINUOUS
 62
     7
 10
353.8345073892
 20
331.7366586954
 30
0.0
 11
353.8345073892
 21
291.7366586954
 31
0.0
  0
LINE
  5
10E
  8
0
  6
CONTINUOUS
 62
     7
 10
349.8345073892
 20
331.7366586954
 30
0.0
 11
349.8345073892
 21
291.7366586954
 31
0.0
  0
ARC
  5
10F
  8
0
  6
CONTINUOUS
 62
     7
 10
355.8345073892
 20
331.7366586954
 30
0.0
 40
6.000000000000057
 50
90.0
 51
180.0
  0
LINE
  5
110
  8
0
  6
CONTINUOUS
 62
     7
 10
355.8345073892
 20
337.7366586954
 30
0.0
 11
371.9901476283
 21
337.7366586954
 31
0.0
  0
LINE
  5
111
  8
0
  6
CONTINUOUS
 62
     7
 10
693.8345073892
 20
230.7702502134
 30
0.0
 11
693.8345073892
 21
291.7366586954
 31
0.0
  0
LINE
  5
112
  8
0
  6
CONTINUOUS
 62
     7
 10
697.8345073892
 20
291.7366586954
 30
0.0
 11
697.8345073892
 21
230.7702502134
 31
0.0
  0
LINE
  5
113
  8
0
  6
CONTINUOUS
 62
     7
 10
353.8345073892
 20
291.7366586954
 30
0.0
 11
353.8345073892
 21
230.7702502134
 31
0.0
  0
LINE
  5
114
  8
0
  6
CONTINUOUS
 62
     7
 10
349.8345073892
 20
291.7366586954
 30
0.0
 11
349.8345073892
 21
230.7702502134
 31
0.0
  0
LINE
  5
115
  8
0
  6
CONTINUOUS
 62
     7
 10
693.8345073892
 20
213.7725276644
 30
0.0
 11
693.8345073892
 21
230.7702502134
 31
0.0
  0
LINE
  5
116
  8
0
  6
CONTINUOUS
 62
     7
 10
697.8345073892
 20
230.7702502134
 30
0.0
 11
697.8345073892
 21
213.7725276644
 31
0.0
  0
LINE
  5
117
  8
0
  6
CONTINUOUS
 62
     7
 10
353.8345073892
 20
230.7702502134
 30
0.0
 11
353.8345073892
 21
213.7725276644
 31
0.0
  0
LINE
  5
118
  8
0
  6
CONTINUOUS
 62
     7
 10
349.8345073892
 20
230.7702502134
 30
0.0
 11
349.8345073892
 21
213.7725276644
 31
0.0
  0
LINE
  5
119
  8
0
  6
CONTINUOUS
 62
     7
 10
353.8345073892
 20
213.7725276644
 30
0.0
 11
353.8345073892
 21
205.2046586954
 31
0.0
  0
LINE
  5
11A
  8
0
  6
CONTINUOUS
 62
     7
 10
349.8345073892
 20
213.7725276644
 30
0.0
 11
349.8345073892
 21
205.2046586954
 31
0.0
  0
LINE
  5
11B
  8
0
  6
CONTINUOUS
 62
     7
 10
693.8345073892
 20
205.2046586954
 30
0.0
 11
693.8345073892
 21
213.7725276644
 31
0.0
  0
LINE
  5
11C
  8
0
  6
CONTINUOUS
 62
     7
 10
697.8345073892
 20
213.7725276644
 30
0.0
 11
697.8345073892
 21
205.2046586954
 31
0.0
  0
LINE
  5
11D
  8
0
  6
CONTINUOUS
 62
     7
 10
693.8345073892
 20
205.1141886424
 30
0.0
 11
693.8345073892
 21
205.2046586954
 31
0.0
  0
LINE
  5
11E
  8
0
  6
CONTINUOUS
 62
     7
 10
697.8345073892
 20
205.2046586954
 30
0.0
 11
697.8345073892
 21
205.1141886424
 31
0.0
  0
LINE
  5
11F
  8
0
  6
CONTINUOUS
 62
     7
 10
353.8345073892
 20
205.2046586954
 30
0.0
 11
353.8345073892
 21
205.1141886424
 31
0.0
  0
LINE
  5
120
  8
0
  6
CONTINUOUS
 62
     7
 10
349.8345073892
 20
205.2046586954
 30
0.0
 11
349.8345073892
 21
205.1141886424
 31
0.0
  0
LINE
  5
121
  8
0
  6
CENTERX2
 62
     7
 10
523.8345073892
 20
341.7366586954
 30
0.0
 11
523.8345073892
 21
195.2046586954
 31
0.0
  0
ENDSEC
  0
EOF
