  0
SECTION
  2
HEADER
  9
$ACADVER
  1
AC1009
  9
$DWGCODEPAGE
  3
ansi_1252
  9
$INSBASE
 10
0.0
 20
0.0
 30
0.0
  9
$EXTMIN
 10
0.0
 20
0.0
 30
0.0
  9
$EXTMAX
 10
2100.0
 20
1485.0
 30
0.0
  9
$LIMMIN
 10
0.0
 20
0.0
  9
$LIMMAX
 10
2100.0
 20
1485.0
  9
$ORTHOMODE
 70
     0
  9
$REGENMODE
 70
     1
  9
$FILLMODE
 70
     1
  9
$QTEXTMODE
 70
     0
  9
$MIRRTEXT
 70
     1
  9
$DRAGMODE
 70
     2
  9
$LTSCALE
 40
5.0
  9
$OSMODE
 70
    37
  9
$ATTMODE
 70
     1
  9
$TEXTSIZE
 40
17.5
  9
$TRACEWID
 40
1.0
  9
$TEXTSTYLE
  7
STANDARD
  9
$CLAYER
  8
0
  9
$CELTYPE
  6
BYLAYER
  9
$CECOLOR
 62
   256
  9
$DIMSCALE
 40
1.0
  9
$DIMASZ
 40
20.0
  9
$DIMEXO
 40
0.0
  9
$DIMDLI
 40
3.75
  9
$DIMRND
 40
0.0
  9
$DIMDLE
 40
0.0
  9
$DIMEXE
 40
10.0
  9
$DIMTP
 40
0.0
  9
$DIMTM
 40
0.0
  9
$DIMTXT
 40
17.5
  9
$DIMCEN
 40
2.5
  9
$DIMTSZ
 40
0.0
  9
$DIMTOL
 70
     0
  9
$DIMLIM
 70
     0
  9
$DIMTIH
 70
     1
  9
$DIMTOH
 70
     1
  9
$DIMSE1
 70
     0
  9
$DIMSE2
 70
     0
  9
$DIMTAD
 70
     1
  9
$DIMZIN
 70
     0
  9
$DIMBLK
  1

  9
$DIMASO
 70
     1
  9
$DIMSHO
 70
     1
  9
$DIMPOST
  1

  9
$DIMAPOST
  1

  9
$DIMALT
 70
     0
  9
$DIMALTD
 70
     3
  9
$DIMALTF
 40
0.0393700787
  9
$DIMLFAC
 40
1.0
  9
$DIMTOFL
 70
     1
  9
$DIMTVP
 40
0.0
  9
$DIMTIX
 70
     0
  9
$DIMSOXD
 70
     0
  9
$DIMSAH
 70
     0
  9
$DIMBLK1
  1

  9
$DIMBLK2
  1

  9
$DIMSTYLE
  2
ISO-25
  9
$DIMCLRD
 70
     0
  9
$DIMCLRE
 70
     0
  9
$DIMCLRT
 70
     0
  9
$DIMTFAC
 40
1.0
  9
$DIMGAP
 40
7.62
  9
$LUNITS
 70
     2
  9
$LUPREC
 70
     2
  9
$SKETCHINC
 40
1.0
  9
$FILLETRAD
 40
10.0
  9
$AUNITS
 70
     0
  9
$AUPREC
 70
     2
  9
$MENU
  1
.
  9
$ELEVATION
 40
0.0
  9
$PELEVATION
 40
0.0
  9
$THICKNESS
 40
0.0
  9
$LIMCHECK
 70
     0
  9
$CHAMFERA
 40
10.0
  9
$CHAMFERB
 40
10.0
  9
$SKPOLY
 70
     0
  9
$TDCREATE
 40
2457029.52549765
  9
$TDUPDATE
 40
2457029.525498195
  9
$TDINDWG
 40
0.0000000116
  9
$TDUSRTIMER
 40
0.0000000116
  9
$USRTIMER
 70
     1
  9
$ANGBASE
 50
0.0
  9
$ANGDIR
 70
     0
  9
$PDMODE
 70
     0
  9
$PDSIZE
 40
-1.0
  9
$PLINEWID
 40
0.0
  9
$COORDS
 70
     1
  9
$SPLFRAME
 70
     0
  9
$SPLINETYPE
 70
     6
  9
$SPLINESEGS
 70
     8
  9
$ATTDIA
 70
     0
  9
$ATTREQ
 70
     1
  9
$HANDLING
 70
     1
  9
$HANDSEED
  5
103
  9
$SURFTAB1
 70
     6
  9
$SURFTAB2
 70
     6
  9
$SURFTYPE
 70
     6
  9
$SURFU
 70
     6
  9
$SURFV
 70
     6
  9
$UCSNAME
  2

  9
$UCSORG
 10
0.0
 20
0.0
 30
0.0
  9
$UCSXDIR
 10
1.0
 20
0.0
 30
0.0
  9
$UCSYDIR
 10
0.0
 20
1.0
 30
0.0
  9
$PUCSNAME
  2

  9
$PUCSORG
 10
0.0
 20
0.0
 30
0.0
  9
$PUCSXDIR
 10
1.0
 20
0.0
 30
0.0
  9
$PUCSYDIR
 10
0.0
 20
1.0
 30
0.0
  9
$USERI1
 70
     0
  9
$USERI2
 70
     0
  9
$USERI3
 70
     0
  9
$USERI4
 70
     0
  9
$USERI5
 70
     0
  9
$USERR1
 40
0.0
  9
$USERR2
 40
0.0
  9
$USERR3
 40
0.0
  9
$USERR4
 40
0.0
  9
$USERR5
 40
0.0
  9
$WORLDVIEW
 70
     1
  9
$SHADEDGE
 70
     3
  9
$SHADEDIF
 70
    70
  9
$TILEMODE
 70
     1
  9
$MAXACTVP
 70
    64
  9
$PLIMCHECK
 70
     0
  9
$PEXTMIN
 10
1.0000000000E+20
 20
1.0000000000E+20
 30
1.0000000000E+20
  9
$PEXTMAX
 10
-1.0000000000E+20
 20
-1.0000000000E+20
 30
-1.0000000000E+20
  9
$PLIMMIN
 10
0.0
 20
0.0
  9
$PLIMMAX
 10
420.0
 20
297.0
  9
$UNITMODE
 70
     0
  9
$VISRETAIN
 70
     1
  9
$PLINEGEN
 70
     0
  9
$PSLTSCALE
 70
     1
  0
ENDSEC
  0
SECTION
  2
TABLES
  0
TABLE
  2
VPORT
 70
     1
  0
VPORT
  2
*ACTIVE
 70
     0
 10
0.0
 20
0.0
 11
1.0
 21
1.0
 12
1050.0
 22
742.5
 13
0.0
 23
0.0
 14
10.0
 24
10.0
 15
10.0
 25
10.0
 16
0.0
 26
0.0
 36
1.0
 17
0.0
 27
0.0
 37
0.0
 40
1485.0
 41
1.4141414141
 42
50.0
 43
0.0
 44
0.0
 50
0.0
 51
0.0
 71
     0
 72
  2000
 73
     1
 74
     3
 75
     0
 76
     0
 77
     0
 78
     0
  0
ENDTAB
  0
TABLE
  2
LTYPE
 70
     6
  0
LTYPE
  2
CONTINUOUS
 70
     0
  3
Solid line
 72
    65
 73
     0
 40
0.0
  0
LTYPE
  2
HIDDEN
 70
     0
  3
Hidden __ __ __ __ __ __ __ __ __ __ __ __ __ __
 72
    65
 73
     2
 40
1.905
 49
1.27
 49
-0.635
  0
LTYPE
  2
PHANTOM
 70
     0
  3
Phantom ______  __  __  ______  __  __  ______
 72
    65
 73
     6
 40
12.7
 49
6.35
 49
-1.27
 49
1.27
 49
-1.27
 49
1.27
 49
-1.27
  0
LTYPE
  2
CENTER
 70
     0
  3
Center ____ _ ____ _ ____ _ ____ _ ____ _ ____
 72
    65
 73
     4
 40
10.16
 49
6.35
 49
-1.27
 49
1.27
 49
-1.27
  0
LTYPE
  2
CENTERX2
 70
     0
  3
Center (2x) ________  __  ________  __  _____
 72
    65
 73
     4
 40
20.32
 49
12.7
 49
-2.54
 49
2.54
 49
-2.54
  0
LTYPE
  2
DOT2
 70
     0
  3
Dot (.5x) ........................................
 72
    65
 73
     2
 40
0.635
 49
0.0
 49
-0.635
  0
ENDTAB
  0
TABLE
  2
LAYER
 70
     2
  0
LAYER
  2
0
 70
     0
 62
     7
  6
CONTINUOUS
  0
LAYER
  2
FORMAT
 70
     0
 62
     7
  6
CONTINUOUS
  0
ENDTAB
  0
TABLE
  2
STYLE
 70
     1
  0
STYLE
  2
STANDARD
 70
     0
 40
0.0
 41
1.0
 50
0.0
 71
     0
 42
17.5
  3
txt
  4

  0
ENDTAB
  0
TABLE
  2
VIEW
 70
     0
  0
ENDTAB
  0
TABLE
  2
UCS
 70
     0
  0
ENDTAB
  0
TABLE
  2
APPID
 70
     1
  0
APPID
  2
ACAD
 70
     0
  0
ENDTAB
  0
TABLE
  2
DIMSTYLE
 70
     1
  0
DIMSTYLE
  2
ISO-25
 70
     0
  3

  4

  5

  6

  7

 40
1.0
 41
2.5
 42
0.625
 43
3.75
 44
1.25
 45
0.0
 46
0.0
 47
0.0
 48
0.0
140
2.5
141
2.5
142
0.0
143
0.0393700787
144
1.0
145
0.0
146
1.0
147
0.625
 71
     0
 72
     0
 73
     0
 74
     0
 75
     0
 76
     0
 77
     1
 78
     8
170
     0
171
     3
172
     1
173
     0
174
     0
175
     0
176
     0
177
     0
178
     0
  0
ENDTAB
  0
ENDSEC
  0
SECTION
  2
BLOCKS
  0
BLOCK
  8
0
  2
$MODEL_SPACE
 70
     0
 10
0.0
 20
0.0
 30
0.0
  3
$MODEL_SPACE
  1

  0
ENDBLK
  5
21
  8
0
  0
BLOCK
 67
     1
  8
0
  2
$PAPER_SPACE
 70
     0
 10
0.0
 20
0.0
 30
0.0
  3
$PAPER_SPACE
  1

  0
ENDBLK
  5
1D
 67
     1
  8
0
  0
ENDSEC
  0
SECTION
  2
ENTITIES
  0
LINE
  5
45
  8
0
  6
CONTINUOUS
 62
     7
 10
2074.25
 20
25.75
 30
0.0
 11
25.75
 21
25.75
 31
0.0
  0
LINE
  5
46
  8
0
  6
CONTINUOUS
 62
     7
 10
2075.0
 20
25.0
 30
0.0
 11
2075.0
 21
1385.0
 31
0.0
  0
LINE
  5
47
  8
0
  6
CONTINUOUS
 62
     7
 10
2075.0
 20
1385.0
 30
0.0
 11
25.0
 21
1385.0
 31
0.0
  0
LINE
  5
48
  8
0
  6
CONTINUOUS
 62
     7
 10
25.75
 20
1384.25
 30
0.0
 11
25.75
 21
25.75
 31
0.0
  0
LINE
  5
49
  8
0
  6
CONTINUOUS
 62
     7
 10
714.9830788177
 20
946.0182142975
 30
0.0
 11
702.9830788177
 21
946.0182142975
 31
0.0
  0
LINE
  5
4A
  8
0
  6
CONTINUOUS
 62
     7
 10
286.9830788177
 20
946.0182142975
 30
0.0
 11
274.9830788177
 21
946.0182142975
 31
0.0
  0
LINE
  5
4B
  8
0
  6
CONTINUOUS
 62
     7
 10
274.9830788177
 20
926.0182142975
 30
0.0
 11
286.9830788177
 21
926.0182142975
 31
0.0
  0
LINE
  5
4C
  8
0
  6
CONTINUOUS
 62
     7
 10
702.9830788177
 20
926.0182142975
 30
0.0
 11
714.9830788177
 21
926.0182142975
 31
0.0
  0
LINE
  5
4D
  8
0
  6
CONTINUOUS
 62
     7
 10
270.9830788177
 20
876.7232142975
 30
0.0
 11
270.9830788177
 21
863.9996885381
 31
0.0
  0
LINE
  5
4E
  8
0
  6
CONTINUOUS
 62
     7
 10
274.9830788177
 20
876.7232142975
 30
0.0
 11
274.9830788177
 21
863.9996885381
 31
0.0
  0
LINE
  5
4F
  8
0
  6
CONTINUOUS
 62
     7
 10
714.9830788177
 20
863.9996885381
 30
0.0
 11
714.9830788177
 21
876.7232142975
 31
0.0
  0
LINE
  5
50
  8
0
  6
CONTINUOUS
 62
     7
 10
718.9830788177
 20
876.7232142975
 30
0.0
 11
718.9830788177
 21
863.9996885381
 31
0.0
  0
LINE
  5
51
  8
0
  6
CONTINUOUS
 62
     7
 10
274.9830788177
 20
946.1024474876
 30
0.0
 11
274.9830788177
 21
876.7232142975
 31
0.0
  0
LINE
  5
52
  8
0
  6
CONTINUOUS
 62
     7
 10
270.9830788177
 20
946.1024474876
 30
0.0
 11
270.9830788177
 21
876.7232142975
 31
0.0
  0
LINE
  5
53
  8
0
  6
CONTINUOUS
 62
     7
 10
714.9830788177
 20
876.7232142975
 30
0.0
 11
714.9830788177
 21
946.1024474876
 31
0.0
  0
LINE
  5
54
  8
0
  6
CONTINUOUS
 62
     7
 10
718.9830788177
 20
946.1024474876
 30
0.0
 11
718.9830788177
 21
876.7232142975
 31
0.0
  0
LINE
  5
55
  8
0
  6
CONTINUOUS
 62
     7
 10
270.9830788177
 20
859.0182142975
 30
0.0
 11
274.9830788177
 21
859.018214274
 31
0.0
  0
LINE
  5
56
  8
0
  6
CONTINUOUS
 62
     7
 10
274.9830788177
 20
863.9996885381
 30
0.0
 11
274.9830788177
 21
859.018214274
 31
0.0
  0
LINE
  5
57
  8
0
  6
CONTINUOUS
 62
     7
 10
270.9830788177
 20
863.9996885381
 30
0.0
 11
270.9830788177
 21
859.0182142975
 31
0.0
  0
LINE
  5
58
  8
0
  6
CONTINUOUS
 62
     7
 10
714.9830788177
 20
859.018214274
 30
0.0
 11
718.9830788177
 21
859.0182142975
 31
0.0
  0
LINE
  5
59
  8
0
  6
CONTINUOUS
 62
     7
 10
714.9830788177
 20
859.018214274
 30
0.0
 11
714.9830788177
 21
863.9996885381
 31
0.0
  0
LINE
  5
5A
  8
0
  6
CONTINUOUS
 62
     7
 10
718.9830788177
 20
863.9996885381
 30
0.0
 11
718.9830788177
 21
859.0182142975
 31
0.0
  0
LINE
  5
5B
  8
0
  6
CONTINUOUS
 62
     7
 10
274.9830788177
 20
967.3790628924
 30
0.0
 11
274.9830788177
 21
946.1024474876
 31
0.0
  0
LINE
  5
5C
  8
0
  6
CONTINUOUS
 62
     7
 10
270.9830788177
 20
967.3790628924
 30
0.0
 11
270.9830788177
 21
946.1024474876
 31
0.0
  0
LINE
  5
5D
  8
0
  6
CONTINUOUS
 62
     7
 10
714.9830788177
 20
946.1024474876
 30
0.0
 11
714.9830788177
 21
967.3790628924
 31
0.0
  0
LINE
  5
5E
  8
0
  6
CONTINUOUS
 62
     7
 10
718.9830788177
 20
967.3790628924
 30
0.0
 11
718.9830788177
 21
946.1024474876
 31
0.0
  0
LINE
  5
5F
  8
0
  6
CONTINUOUS
 62
     7
 10
270.9830788177
 20
978.0182142975
 30
0.0
 11
274.9830788177
 21
978.0182142975
 31
0.0
  0
LINE
  5
60
  8
0
  6
CONTINUOUS
 62
     7
 10
274.9830788177
 20
978.0182142975
 30
0.0
 11
274.9830788177
 21
967.3790628924
 31
0.0
  0
LINE
  5
61
  8
0
  6
CONTINUOUS
 62
     7
 10
270.9830788177
 20
978.0182142975
 30
0.0
 11
270.9830788177
 21
967.3790628924
 31
0.0
  0
LINE
  5
62
  8
0
  6
CONTINUOUS
 62
     7
 10
714.9830788177
 20
978.0182142975
 30
0.0
 11
718.9830788177
 21
978.0182142975
 31
0.0
  0
LINE
  5
63
  8
0
  6
CONTINUOUS
 62
     7
 10
714.9830788177
 20
967.3790628924
 30
0.0
 11
714.9830788177
 21
978.0182142975
 31
0.0
  0
LINE
  5
64
  8
0
  6
CONTINUOUS
 62
     7
 10
718.9830788177
 20
978.0182142975
 30
0.0
 11
718.9830788177
 21
967.3790628924
 31
0.0
  0
LINE
  5
65
  8
0
  6
CONTINUOUS
 62
     7
 10
274.9830788177
 20
978.0182142975
 30
0.0
 11
277.9830788177
 21
978.0182142975
 31
0.0
  0
POLYLINE
  5
66
  8
0
  6
CONTINUOUS
 62
     7
 66
     1
 10
0.0
 20
0.0
 30
0.0
  0
VERTEX
  5
EB
  8
0
  6
CONTINUOUS
 62
     7
 10
277.9830788177
 20
859.018214274
 30
0.0
  0
VERTEX
  5
EC
  8
0
  6
CONTINUOUS
 62
     7
 10
277.3978078517
 20
859.0182142744
 30
0.0
  0
VERTEX
  5
ED
  8
0
  6
CONTINUOUS
 62
     7
 10
276.8350285206
 20
859.0182142758
 30
0.0
  0
VERTEX
  5
EE
  8
0
  6
CONTINUOUS
 62
     7
 10
276.3163681187
 20
859.0182142779
 30
0.0
  0
VERTEX
  5
EF
  8
0
  6
CONTINUOUS
 62
     7
 10
275.8617584742
 20
859.0182142809
 30
0.0
  0
VERTEX
  5
F0
  8
0
  6
CONTINUOUS
 62
     7
 10
275.4886699808
 20
859.0182142844
 30
0.0
  0
VERTEX
  5
F1
  8
0
  6
CONTINUOUS
 62
     7
 10
275.2114402202
 20
859.0182142885
 30
0.0
  0
VERTEX
  5
F2
  8
0
  6
CONTINUOUS
 62
     7
 10
275.0407229765
 20
859.0182142929
 30
0.0
  0
VERTEX
  5
F3
  8
0
  6
CONTINUOUS
 62
     7
 10
274.9830788177
 20
859.018214274
 30
0.0
  0
SEQEND
  5
102
  8
0
  6
CONTINUOUS
 62
     7
  0
LINE
  5
67
  8
0
  6
CONTINUOUS
 62
     7
 10
711.9830788177
 20
978.0182142975
 30
0.0
 11
714.9830788177
 21
978.0182142975
 31
0.0
  0
POLYLINE
  5
68
  8
0
  6
CONTINUOUS
 62
     7
 66
     1
 10
0.0
 20
0.0
 30
0.0
  0
VERTEX
  5
F4
  8
0
  6
CONTINUOUS
 62
     7
 10
714.9830788177
 20
859.018214274
 30
0.0
  0
VERTEX
  5
F5
  8
0
  6
CONTINUOUS
 62
     7
 10
714.9254346589
 20
859.0182142744
 30
0.0
  0
VERTEX
  5
F6
  8
0
  6
CONTINUOUS
 62
     7
 10
714.7547174153
 20
859.0182142758
 30
0.0
  0
VERTEX
  5
F7
  8
0
  6
CONTINUOUS
 62
     7
 10
714.4774876546
 20
859.0182142779
 30
0.0
  0
VERTEX
  5
F8
  8
0
  6
CONTINUOUS
 62
     7
 10
714.1043991613
 20
859.0182142809
 30
0.0
  0
VERTEX
  5
F9
  8
0
  6
CONTINUOUS
 62
     7
 10
713.6497895168
 20
859.0182142844
 30
0.0
  0
VERTEX
  5
FA
  8
0
  6
CONTINUOUS
 62
     7
 10
713.1311291148
 20
859.0182142885
 30
0.0
  0
VERTEX
  5
FB
  8
0
  6
CONTINUOUS
 62
     7
 10
712.5683497838
 20
859.0182142929
 30
0.0
  0
VERTEX
  5
FC
  8
0
  6
CONTINUOUS
 62
     7
 10
711.9830788177
 20
859.018214274
 30
0.0
  0
SEQEND
  5
101
  8
0
  6
CONTINUOUS
 62
     7
  0
LINE
  5
69
  8
0
  6
CONTINUOUS
 62
     7
 10
318.9830788177
 20
913.0182142975
 30
0.0
 11
318.9830788177
 21
869.0182142975
 31
0.0
  0
ARC
  5
6A
  8
0
  6
CONTINUOUS
 62
     7
 10
308.9830788177
 20
869.0182142975
 30
0.0
 40
10.00000002347872
 50
270.0
 51
0.0
  0
ARC
  5
6B
  8
0
  6
CONTINUOUS
 62
     7
 10
298.7330788177
 20
898.5182142975
 30
0.0
 40
5.500000000000114
 50
270.0
 51
90.0
  0
LINE
  5
6C
  8
0
  6
CONTINUOUS
 62
     7
 10
298.7330788177
 20
904.0182142975
 30
0.0
 11
294.7330788177
 21
904.0182142975
 31
0.0
  0
ARC
  5
6D
  8
0
  6
CONTINUOUS
 62
     7
 10
294.7330788177
 20
898.5182142975
 30
0.0
 40
5.500000000000114
 50
90.0
 51
270.0
  0
LINE
  5
6E
  8
0
  6
CONTINUOUS
 62
     7
 10
294.7330788177
 20
893.0182142975
 30
0.0
 11
298.7330788177
 21
893.0182142975
 31
0.0
  0
LINE
  5
6F
  8
0
  6
CONTINUOUS
 62
     7
 10
287.0668803306
 20
978.0182142975
 30
0.0
 11
277.9830788177
 21
978.0182142975
 31
0.0
  0
LINE
  5
70
  8
0
  6
CONTINUOUS
 62
     7
 10
308.9830788177
 20
859.018214274
 30
0.0
 11
277.9830788177
 21
859.018214274
 31
0.0
  0
ARC
  5
71
  8
0
  6
CONTINUOUS
 62
     7
 10
680.9830788177
 20
869.0182142975
 30
0.0
 40
10.00000002347872
 50
180.0
 51
270.0
  0
ARC
  5
72
  8
0
  6
CONTINUOUS
 62
     7
 10
695.2330788177
 20
898.5182142975
 30
0.0
 40
5.500000000000114
 50
270.0
 51
90.0
  0
LINE
  5
73
  8
0
  6
CONTINUOUS
 62
     7
 10
695.2330788177
 20
904.0182142975
 30
0.0
 11
691.2330788177
 21
904.0182142975
 31
0.0
  0
ARC
  5
74
  8
0
  6
CONTINUOUS
 62
     7
 10
691.2330788177
 20
898.5182142975
 30
0.0
 40
5.500000000000114
 50
90.0
 51
270.0
  0
LINE
  5
75
  8
0
  6
CONTINUOUS
 62
     7
 10
691.2330788177
 20
893.0182142975
 30
0.0
 11
695.2330788177
 21
893.0182142975
 31
0.0
  0
LINE
  5
76
  8
0
  6
CONTINUOUS
 62
     7
 10
670.9830788177
 20
869.0182142975
 30
0.0
 11
670.9830788177
 21
913.0182142975
 31
0.0
  0
LINE
  5
77
  8
0
  6
CONTINUOUS
 62
     7
 10
711.9830788177
 20
978.0182142975
 30
0.0
 11
702.8992773048
 21
978.0182142975
 31
0.0
  0
LINE
  5
78
  8
0
  6
CONTINUOUS
 62
     7
 10
711.9830788177
 20
859.018214274
 30
0.0
 11
680.9830788177
 21
859.018214274
 31
0.0
  0
LINE
  5
79
  8
0
  6
CONTINUOUS
 62
     7
 10
294.4830788177
 20
983.0182142975
 30
0.0
 11
695.4830788177
 21
983.0182142975
 31
0.0
  0
ARC
  5
7A
  8
0
  6
CONTINUOUS
 62
     7
 10
294.4830788177
 20
975.0182142975
 30
0.0
 40
8.000000000000227
 50
90.0
 51
180.0
  0
ARC
  5
7B
  8
0
  6
CONTINUOUS
 62
     7
 10
695.4830788177
 20
975.0182142975
 30
0.0
 40
8.000000000000341
 50
0.0
 51
90.0
  0
LINE
  5
7C
  8
0
  6
CONTINUOUS
 62
     7
 10
703.4830788177
 20
953.0182142975
 30
0.0
 11
286.4830788177
 21
953.0182142975
 31
0.0
  0
LINE
  5
7D
  8
0
  6
CONTINUOUS
 62
     7
 10
703.4830788177
 20
975.0182142975
 30
0.0
 11
703.4830788177
 21
953.0182142975
 31
0.0
  0
LINE
  5
7E
  8
0
  6
CONTINUOUS
 62
     7
 10
286.4830788177
 20
975.0182142975
 30
0.0
 11
286.4830788177
 21
953.0182142975
 31
0.0
  0
LINE
  5
7F
  8
0
  6
CONTINUOUS
 62
     7
 10
286.9830788177
 20
948.0182142975
 30
0.0
 11
286.9830788177
 21
953.0182142975
 31
0.0
  0
LINE
  5
80
  8
0
  6
CONTINUOUS
 62
     7
 10
702.9830788177
 20
953.0182142975
 30
0.0
 11
702.9830788177
 21
948.0182142975
 31
0.0
  0
LINE
  5
81
  8
0
  6
CONTINUOUS
 62
     7
 10
702.9830788177
 20
948.0182142975
 30
0.0
 11
702.9830788177
 21
918.0182142975
 31
0.0
  0
LINE
  5
82
  8
0
  6
CONTINUOUS
 62
     7
 10
286.9830788177
 20
918.0182142975
 30
0.0
 11
286.9830788177
 21
948.0182142975
 31
0.0
  0
LINE
  5
83
  8
0
  6
CONTINUOUS
 62
     7
 10
291.9830788177
 20
913.0182142975
 30
0.0
 11
697.9830788177
 21
913.0182142975
 31
0.0
  0
ARC
  5
84
  8
0
  6
CONTINUOUS
 62
     7
 10
697.9830788177
 20
918.0182142975
 30
0.0
 40
5.0
 50
270.0
 51
0.0
  0
ARC
  5
85
  8
0
  6
CONTINUOUS
 62
     7
 10
291.9830788177
 20
918.0182142975
 30
0.0
 40
5.000000000000057
 50
180.0
 51
270.0
  0
LINE
  5
86
  8
0
  6
CONTINUOUS
 62
     7
 10
294.7330788177
 20
948.0182142975
 30
0.0
 11
298.7330788177
 21
948.0182142975
 31
0.0
  0
LINE
  5
87
  8
0
  6
CONTINUOUS
 62
     7
 10
298.7330788177
 20
959.0182142975
 30
0.0
 11
294.7330788177
 21
959.0182142975
 31
0.0
  0
LINE
  5
88
  8
0
  6
CONTINUOUS
 62
     7
 10
691.2330788177
 20
948.0182142975
 30
0.0
 11
695.2330788177
 21
948.0182142975
 31
0.0
  0
LINE
  5
89
  8
0
  6
CONTINUOUS
 62
     7
 10
695.2330788177
 20
959.0182142975
 30
0.0
 11
691.2330788177
 21
959.0182142975
 31
0.0
  0
ARC
  5
8A
  8
0
  6
CONTINUOUS
 62
     7
 10
294.7330788177
 20
953.5182142975
 30
0.0
 40
5.500000000000114
 50
90.0
 51
270.0
  0
ARC
  5
8B
  8
0
  6
CONTINUOUS
 62
     7
 10
298.7330788177
 20
953.5182142975
 30
0.0
 40
5.500000000000114
 50
270.0
 51
90.0
  0
ARC
  5
8C
  8
0
  6
CONTINUOUS
 62
     7
 10
691.2330788177
 20
953.5182142975
 30
0.0
 40
5.500000000000114
 50
90.0
 51
270.0
  0
ARC
  5
8D
  8
0
  6
CONTINUOUS
 62
     7
 10
695.2330788177
 20
953.5182142975
 30
0.0
 40
5.500000000000114
 50
270.0
 51
90.0
  0
LINE
  5
8E
  8
0
  6
CENTERX2
 62
     7
 10
494.9830788177
 20
1017.9498545766
 30
0.0
 11
494.9830788177
 21
866.7232142975
 31
0.0
  0
LINE
  5
8F
  8
0
  6
CONTINUOUS
 62
     7
 10
714.9830788177
 20
589.2409444096
 30
0.0
 11
703.4830788177
 21
589.2409444096
 31
0.0
  0
LINE
  5
90
  8
0
  6
CONTINUOUS
 62
     7
 10
286.4830788177
 20
589.2409444096
 30
0.0
 11
274.9830788177
 21
589.2409444096
 31
0.0
  0
LINE
  5
91
  8
0
  6
CONTINUOUS
 62
     7
 10
274.9830788177
 20
569.2409444096
 30
0.0
 11
286.4830788177
 21
569.2409444096
 31
0.0
  0
LINE
  5
92
  8
0
  6
CONTINUOUS
 62
     7
 10
703.4830788177
 20
569.2409444096
 30
0.0
 11
714.9830788177
 21
569.2409444096
 31
0.0
  0
LINE
  5
93
  8
0
  6
CONTINUOUS
 62
     7
 10
714.9830788177
 20
543.6184743567
 30
0.0
 11
718.9830788177
 21
543.6184743567
 31
0.0
  0
LINE
  5
94
  8
0
  6
CONTINUOUS
 62
     7
 10
270.9830788177
 20
543.6184743567
 30
0.0
 11
274.9830788177
 21
543.6184743567
 31
0.0
  0
LINE
  5
95
  8
0
  6
CONTINUOUS
 62
     7
 10
714.9830788177
 20
630.2409444096
 30
0.0
 11
714.9830788177
 21
669.2409444096
 31
0.0
  0
ARC
  5
96
  8
0
  6
CONTINUOUS
 62
     7
 10
711.9830788177
 20
669.2409444096
 30
0.0
 40
2.999999999999886
 50
0.0
 51
90.0
  0
LINE
  5
97
  8
0
  6
CONTINUOUS
 62
     7
 10
711.9830788177
 20
672.2409444096
 30
0.0
 11
680.9830788177
 21
672.2409444096
 31
0.0
  0
LINE
  5
98
  8
0
  6
CONTINUOUS
 62
     7
 10
680.9830788177
 20
676.2409444096
 30
0.0
 11
711.9830788177
 21
676.2409444096
 31
0.0
  0
ARC
  5
99
  8
0
  6
CONTINUOUS
 62
     7
 10
711.9830788177
 20
669.2409444096
 30
0.0
 40
7.000000000000114
 50
0.0
 51
90.0
  0
LINE
  5
9A
  8
0
  6
CONTINUOUS
 62
     7
 10
718.9830788177
 20
669.2409444096
 30
0.0
 11
718.9830788177
 21
630.2409444096
 31
0.0
  0
LINE
  5
9B
  8
0
  6
CONTINUOUS
 62
     7
 10
670.9830788177
 20
672.2409444096
 30
0.0
 11
670.9830788177
 21
676.2409444096
 31
0.0
  0
LINE
  5
9C
  8
0
  6
CONTINUOUS
 62
     7
 10
680.9830788177
 20
672.2409444096
 30
0.0
 11
670.9830788177
 21
672.2409444096
 31
0.0
  0
LINE
  5
9D
  8
0
  6
CONTINUOUS
 62
     7
 10
670.9830788177
 20
676.2409444096
 30
0.0
 11
680.9830788177
 21
676.2409444096
 31
0.0
  0
LINE
  5
9E
  8
0
  6
CONTINUOUS
 62
     7
 10
318.9830788177
 20
676.2409444096
 30
0.0
 11
318.9830788177
 21
672.2409444096
 31
0.0
  0
LINE
  5
9F
  8
0
  6
CONTINUOUS
 62
     7
 10
318.9830788177
 20
672.2409444096
 30
0.0
 11
308.9830788177
 21
672.2409444096
 31
0.0
  0
LINE
  5
A0
  8
0
  6
CONTINUOUS
 62
     7
 10
308.9830788177
 20
676.2409444096
 30
0.0
 11
318.9830788177
 21
676.2409444096
 31
0.0
  0
LINE
  5
A1
  8
0
  6
CONTINUOUS
 62
     7
 10
308.9830788177
 20
672.2409444096
 30
0.0
 11
277.9830788177
 21
672.2409444096
 31
0.0
  0
ARC
  5
A2
  8
0
  6
CONTINUOUS
 62
     7
 10
277.9830788177
 20
669.2409444096
 30
0.0
 40
3.000000000000114
 50
90.0
 51
180.0
  0
LINE
  5
A3
  8
0
  6
CONTINUOUS
 62
     7
 10
274.9830788177
 20
669.2409444096
 30
0.0
 11
274.9830788177
 21
630.2409444096
 31
0.0
  0
LINE
  5
A4
  8
0
  6
CONTINUOUS
 62
     7
 10
270.9830788177
 20
669.2409444096
 30
0.0
 11
270.9830788177
 21
630.2409444096
 31
0.0
  0
ARC
  5
A5
  8
0
  6
CONTINUOUS
 62
     7
 10
277.9830788177
 20
669.2409444096
 30
0.0
 40
7.000000000000114
 50
90.0
 51
180.0
  0
LINE
  5
A6
  8
0
  6
CONTINUOUS
 62
     7
 10
277.9830788177
 20
676.2409444096
 30
0.0
 11
308.9830788177
 21
676.2409444096
 31
0.0
  0
LINE
  5
A7
  8
0
  6
CONTINUOUS
 62
     7
 10
270.9830788177
 20
630.2409444096
 30
0.0
 11
270.9830788177
 21
569.2745359276
 31
0.0
  0
LINE
  5
A8
  8
0
  6
CONTINUOUS
 62
     7
 10
274.9830788177
 20
630.2409444096
 30
0.0
 11
274.9830788177
 21
569.2745359276
 31
0.0
  0
LINE
  5
A9
  8
0
  6
CONTINUOUS
 62
     7
 10
714.9830788177
 20
569.2745359276
 30
0.0
 11
714.9830788177
 21
630.2409444096
 31
0.0
  0
LINE
  5
AA
  8
0
  6
CONTINUOUS
 62
     7
 10
718.9830788177
 20
630.2409444096
 30
0.0
 11
718.9830788177
 21
569.2745359276
 31
0.0
  0
LINE
  5
AB
  8
0
  6
CONTINUOUS
 62
     7
 10
714.9830788177
 20
552.2768133787
 30
0.0
 11
714.9830788177
 21
569.2745359276
 31
0.0
  0
LINE
  5
AC
  8
0
  6
CONTINUOUS
 62
     7
 10
718.9830788177
 20
569.2745359276
 30
0.0
 11
718.9830788177
 21
552.2768133787
 31
0.0
  0
LINE
  5
AD
  8
0
  6
CONTINUOUS
 62
     7
 10
270.9830788177
 20
569.2745359276
 30
0.0
 11
270.9830788177
 21
552.2768133787
 31
0.0
  0
LINE
  5
AE
  8
0
  6
CONTINUOUS
 62
     7
 10
274.9830788177
 20
569.2745359276
 30
0.0
 11
274.9830788177
 21
552.2768133787
 31
0.0
  0
LINE
  5
AF
  8
0
  6
CONTINUOUS
 62
     7
 10
714.9830788177
 20
543.7089444096
 30
0.0
 11
714.9830788177
 21
552.2768133787
 31
0.0
  0
LINE
  5
B0
  8
0
  6
CONTINUOUS
 62
     7
 10
718.9830788177
 20
552.2768133787
 30
0.0
 11
718.9830788177
 21
543.7089444096
 31
0.0
  0
LINE
  5
B1
  8
0
  6
CONTINUOUS
 62
     7
 10
270.9830788177
 20
552.2768133787
 30
0.0
 11
270.9830788177
 21
543.7089444096
 31
0.0
  0
LINE
  5
B2
  8
0
  6
CONTINUOUS
 62
     7
 10
274.9830788177
 20
552.2768133787
 30
0.0
 11
274.9830788177
 21
543.7089444096
 31
0.0
  0
LINE
  5
B3
  8
0
  6
CONTINUOUS
 62
     7
 10
714.9830788177
 20
543.6184743567
 30
0.0
 11
714.9830788177
 21
543.7089444096
 31
0.0
  0
LINE
  5
B4
  8
0
  6
CONTINUOUS
 62
     7
 10
718.9830788177
 20
543.7089444096
 30
0.0
 11
718.9830788177
 21
543.6184743567
 31
0.0
  0
LINE
  5
B5
  8
0
  6
CONTINUOUS
 62
     7
 10
270.9830788177
 20
543.7089444096
 30
0.0
 11
270.9830788177
 21
543.6184743567
 31
0.0
  0
LINE
  5
B6
  8
0
  6
CONTINUOUS
 62
     7
 10
274.9830788177
 20
543.7089444096
 30
0.0
 11
274.9830788177
 21
543.6184743567
 31
0.0
  0
LINE
  5
B7
  8
0
  6
CONTINUOUS
 62
     7
 10
703.4830788177
 20
650.7409444096
 30
0.0
 11
703.4830788177
 21
271.4011984475
 31
0.0
  0
LINE
  5
B8
  8
0
  6
CONTINUOUS
 62
     7
 10
695.4830788177
 20
279.4011984475
 30
0.0
 11
703.4830788177
 21
271.4011984475
 31
0.0
  0
LINE
  5
B9
  8
0
  6
CONTINUOUS
 62
     7
 10
703.4830788177
 20
650.7409444096
 30
0.0
 11
695.4830788177
 21
642.7409444096
 31
0.0
  0
LINE
  5
BA
  8
0
  6
CONTINUOUS
 62
     7
 10
286.4830788177
 20
271.4011984475
 30
0.0
 11
286.4830788177
 21
650.7409444096
 31
0.0
  0
LINE
  5
BB
  8
0
  6
CONTINUOUS
 62
     7
 10
286.4830788177
 20
650.7409444096
 30
0.0
 11
294.4830788177
 21
642.7409444096
 31
0.0
  0
LINE
  5
BC
  8
0
  6
CONTINUOUS
 62
     7
 10
294.4830788177
 20
279.4011984475
 30
0.0
 11
286.4830788177
 21
271.4011984475
 31
0.0
  0
LINE
  5
BD
  8
0
  6
CONTINUOUS
 62
     7
 10
286.4830788177
 20
650.7409444096
 30
0.0
 11
703.4830788177
 21
650.7409444096
 31
0.0
  0
LINE
  5
BE
  8
0
  6
CONTINUOUS
 62
     7
 10
703.4830788177
 20
271.4011984475
 30
0.0
 11
286.4830788177
 21
271.4011984475
 31
0.0
  0
LINE
  5
BF
  8
0
  6
CENTERX2
 62
     7
 10
494.9830788177
 20
679.2409444096
 30
0.0
 11
494.9830788177
 21
230.8758383261
 31
0.0
  0
LINE
  5
C0
  8
0
  6
CONTINUOUS
 62
     7
 10
882.2142772652
 20
859.0182142975
 30
0.0
 11
882.2142772652
 21
978.0182142975
 31
0.0
  0
LINE
  5
C1
  8
0
  6
CONTINUOUS
 62
     7
 10
882.2142772652
 20
978.0182142975
 30
0.0
 11
889.2142772652
 21
978.0182142975
 31
0.0
  0
LINE
  5
C2
  8
0
  6
CONTINUOUS
 62
     7
 10
889.2142772652
 20
859.0182142975
 30
0.0
 11
882.2142772652
 21
859.0182142975
 31
0.0
  0
ARC
  5
C3
  8
0
  6
CONTINUOUS
 62
     7
 10
928.2142772652
 20
798.0182142975
 30
0.0
 40
180.0000000000001
 50
70.2021709788
 51
90.0
  0
ARC
  5
C4
  8
0
  6
CONTINUOUS
 62
     7
 10
980.3744267443
 20
942.9158292065
 30
0.0
 40
26.00000000000004
 50
7.04
 51
70.2021709788
  0
LINE
  5
C5
  8
0
  6
CONTINUOUS
 62
     7
 10
1006.1784082962
 20
946.1024474876
 30
0.0
 11
1014.7462772652
 21
876.7232142975
 31
0.0
  0
ARC
  5
C6
  8
0
  6
CONTINUOUS
 62
     7
 10
1002.8367473182
 20
875.2524673985
 30
0.0
 40
12.00000000000001
 50
290.3259722805
 51
7.04
  0
ARC
  5
C7
  8
0
  6
CONTINUOUS
 62
     7
 10
979.216215457
 20
939.018214274
 30
0.0
 40
80.00000000000006
 50
269.9986118724
 51
290.3259722805
  0
LINE
  5
C8
  8
0
  6
CONTINUOUS
 62
     7
 10
979.2142772652
 20
859.0182142975
 30
0.0
 11
889.2142772652
 21
859.0182142975
 31
0.0
  0
LINE
  5
C9
  8
0
  6
CONTINUOUS
 62
     7
 10
889.2142772652
 20
978.0182142975
 30
0.0
 11
928.2142772652
 21
978.0182142975
 31
0.0
  0
LINE
  5
CA
  8
0
  6
CONTINUOUS
 62
     7
 10
1287.0540232274
 20
975.0182142975
 30
0.0
 11
1287.0540232274
 21
953.0182142975
 31
0.0
  0
LINE
  5
CB
  8
0
  6
CONTINUOUS
 62
     7
 10
1287.0540232274
 20
953.0182142975
 30
0.0
 11
1004.3315095273
 21
953.0182142975
 31
0.0
  0
LINE
  5
CC
  8
0
  6
CONTINUOUS
 62
     7
 10
915.7142772652
 20
983.0182142975
 30
0.0
 11
1279.0540232274
 21
983.0182142975
 31
0.0
  0
ARC
  5
CD
  8
0
  6
CONTINUOUS
 62
     7
 10
1279.0540232274
 20
975.0182142975
 30
0.0
 40
8.000000000000682
 50
0.0
 51
90.0
  0
ARC
  5
CE
  8
0
  6
CONTINUOUS
 62
     7
 10
915.7142772652
 20
975.0182142975
 30
0.0
 40
8.000000000000371
 50
90.0
 51
157.975687163
  0
LINE
  5
CF
  8
0
  6
CONTINUOUS
 62
     7
 10
1264.2335151517
 20
913.0182142975
 30
0.0
 11
1010.2640887207
 21
913.0182142975
 31
0.0
  0
LINE
  5
D0
  8
0
  6
CONTINUOUS
 62
     7
 10
1285.8841502463
 20
945.5182142975
 30
0.0
 11
1268.5636421706
 21
915.5182142975
 31
0.0
  0
ARC
  5
D1
  8
0
  6
CONTINUOUS
 62
     7
 10
1264.2335151517
 20
918.0182142975
 30
0.0
 40
5.000000000000016
 50
270.0
 51
330.0
  0
LINE
  5
D2
  8
0
  6
CONTINUOUS
 62
     7
 10
1286.5540232274
 20
953.0182142975
 30
0.0
 11
1286.5540232274
 21
948.0182142975
 31
0.0
  0
ARC
  5
D3
  8
0
  6
CONTINUOUS
 62
     7
 10
1281.5540232274
 20
948.0182142975
 30
0.0
 40
4.99999999999982
 50
330.0
 51
0.0
  0
LINE
  5
D4
  8
0
  6
CONTINUOUS
 62
     7
 10
1457.4396344081
 20
859.0182142975
 30
0.0
 11
1457.4396344081
 21
978.0182142975
 31
0.0
  0
LINE
  5
D5
  8
0
  6
CONTINUOUS
 62
     7
 10
1457.4396344081
 20
978.0182142975
 30
0.0
 11
1464.4396344081
 21
978.0182142975
 31
0.0
  0
LINE
  5
D6
  8
0
  6
CONTINUOUS
 62
     7
 10
1464.4396344081
 20
859.0182142975
 30
0.0
 11
1457.4396344081
 21
859.0182142975
 31
0.0
  0
ARC
  5
D7
  8
0
  6
CONTINUOUS
 62
     7
 10
1503.4396344081
 20
798.0182142975
 30
0.0
 40
180.0000000000001
 50
70.2021709788
 51
90.0
  0
ARC
  5
D8
  8
0
  6
CONTINUOUS
 62
     7
 10
1555.5997838871
 20
942.9158292065
 30
0.0
 40
26.00000000000008
 50
7.04
 51
70.2021709788
  0
LINE
  5
D9
  8
0
  6
CONTINUOUS
 62
     7
 10
1581.403765439
 20
946.1024474876
 30
0.0
 11
1589.9716344081
 21
876.7232142975
 31
0.0
  0
ARC
  5
DA
  8
0
  6
CONTINUOUS
 62
     7
 10
1578.0621044611
 20
875.2524673985
 30
0.0
 40
11.99999999999997
 50
290.3259722805
 51
7.04
  0
ARC
  5
DB
  8
0
  6
CONTINUOUS
 62
     7
 10
1554.4415725998
 20
939.018214274
 30
0.0
 40
80.00000000000006
 50
269.9986118724
 51
290.3259722805
  0
LINE
  5
DC
  8
0
  6
CONTINUOUS
 62
     7
 10
1554.4396344081
 20
859.0182142975
 30
0.0
 11
1464.4396344081
 21
859.0182142975
 31
0.0
  0
LINE
  5
DD
  8
0
  6
CONTINUOUS
 62
     7
 10
1464.4396344081
 20
978.0182142975
 30
0.0
 11
1503.4396344081
 21
978.0182142975
 31
0.0
  0
POLYLINE
  5
DE
  8
0
  6
CONTINUOUS
 62
     7
 66
     1
 10
0.0
 20
0.0
 30
0.0
  0
VERTEX
  5
FD
  8
0
  6
CONTINUOUS
 62
     7
 10
1528.0542556683
 20
858.9658828028
 30
0.0
  0
VERTEX
  5
FE
  8
0
  6
CONTINUOUS
 62
     7
 10
1526.4899607738
 20
858.8542333895
 30
0.0
  0
VERTEX
  5
FF
  8
0
  6
CONTINUOUS
 62
     7
 10
1525.0798169525
 20
859.018214274
 30
0.0
  0
SEQEND
  5
100
  8
0
  6
CONTINUOUS
 62
     7
  0
LINE
  5
DF
  8
0
  6
CONTINUOUS
 62
     7
 10
1499.5720477486
 20
978.0182142975
 30
0.0
 11
1457.5541828147
 21
1223.639636532
 31
0.0
  0
ARC
  5
E0
  8
0
  6
CONTINUOUS
 62
     7
 10
1465.4396344081
 20
1224.9885817379
 30
0.0
 40
7.999999999999906
 50
99.7074851387
 51
189.7074851387
  0
LINE
  5
E1
  8
0
  6
CONTINUOUS
 62
     7
 10
1485.7756810839
 20
1236.5836326475
 30
0.0
 11
1530.3540082014
 21
975.9946635353
 31
0.0
  0
LINE
  5
E2
  8
0
  6
CONTINUOUS
 62
     7
 10
1528.3601668837
 20
859.0182142975
 30
0.0
 11
1528.0542556683
 21
858.9658828028
 31
0.0
  0
LINE
  5
E3
  8
0
  6
CONTINUOUS
 62
     7
 10
1464.0906892022
 20
1232.8740333312
 30
0.0
 11
1485.7756810839
 21
1236.5836326475
 31
0.0
  0
LINE
  5
E4
  8
0
  6
CONTINUOUS
 62
     7
 10
1485.8599901593
 20
1236.0907919229
 30
0.0
 11
1490.7883974052
 21
1236.9338826766
 31
0.0
  0
ARC
  5
E5
  8
0
  6
CONTINUOUS
 62
     7
 10
1491.6314881589
 20
1232.0054754308
 30
0.0
 40
5.000000000000068
 50
69.7074851387
 51
99.7074851387
  0
LINE
  5
E6
  8
0
  6
CONTINUOUS
 62
     7
 10
1493.3655537714
 20
1236.6951466827
 30
0.0
 11
1525.8565492881
 21
1224.6811877045
 31
0.0
  0
ARC
  5
E7
  8
0
  6
CONTINUOUS
 62
     7
 10
1524.1224836756
 20
1219.9915164525
 30
0.0
 40
5.00000000000019
 50
9.7074851387
 51
69.7074851387
  0
LINE
  5
E8
  8
0
  6
CONTINUOUS
 62
     7
 10
1529.0508909215
 20
1220.8346072062
 30
0.0
 11
1573.3426429595
 21
961.9208535931
 31
0.0
  0
LINE
  5
E9
  8
0
  6
CONTINUOUS
 62
     7
 10
1589.0095328022
 20
870.3378145404
 30
0.0
 11
1589.0821964415
 21
869.9130488733
 31
0.0
  0
LINE
  5
EA
  8
0
  6
CONTINUOUS
 62
     7
 10
1589.0821964415
 20
869.9130488733
 30
0.0
 11
1588.783194719
 21
869.861899369
 31
0.0
  0
ENDSEC
  0
EOF
