  0
SECTION
  2
HEADER
  9
$ACADVER
  1
AC1009
  9
$DWGCODEPAGE
  3
ansi_1252
  9
$INSBASE
 10
0.0
 20
0.0
 30
0.0
  9
$EXTMIN
 10
0.0
 20
0.0
 30
0.0
  9
$EXTMAX
 10
420.0
 20
297.0
 30
0.0
  9
$LIMMIN
 10
0.0
 20
0.0
  9
$LIMMAX
 10
420.0
 20
297.0
  9
$ORTHOMODE
 70
     0
  9
$REGENMODE
 70
     1
  9
$FILLMODE
 70
     1
  9
$QTEXTMODE
 70
     0
  9
$MIRRTEXT
 70
     1
  9
$DRAGMODE
 70
     2
  9
$LTSCALE
 40
1.0
  9
$OSMODE
 70
    37
  9
$ATTMODE
 70
     1
  9
$TEXTSIZE
 40
3.5
  9
$TRACEWID
 40
1.0
  9
$TEXTSTYLE
  7
STANDARD
  9
$CLAYER
  8
0
  9
$CELTYPE
  6
BYLAYER
  9
$CECOLOR
 62
   256
  9
$DIMSCALE
 40
1.0
  9
$DIMASZ
 40
4.0
  9
$DIMEXO
 40
0.0
  9
$DIMDLI
 40
3.75
  9
$DIMRND
 40
0.0
  9
$DIMDLE
 40
0.0
  9
$DIMEXE
 40
2.0
  9
$DIMTP
 40
0.0
  9
$DIMTM
 40
0.0
  9
$DIMTXT
 40
3.5
  9
$DIMCEN
 40
2.5
  9
$DIMTSZ
 40
0.0
  9
$DIMTOL
 70
     0
  9
$DIMLIM
 70
     0
  9
$DIMTIH
 70
     1
  9
$DIMTOH
 70
     1
  9
$DIMSE1
 70
     0
  9
$DIMSE2
 70
     0
  9
$DIMTAD
 70
     1
  9
$DIMZIN
 70
     0
  9
$DIMBLK
  1

  9
$DIMASO
 70
     1
  9
$DIMSHO
 70
     1
  9
$DIMPOST
  1

  9
$DIMAPOST
  1

  9
$DIMALT
 70
     0
  9
$DIMALTD
 70
     3
  9
$DIMALTF
 40
0.0393700787
  9
$DIMLFAC
 40
5.0
  9
$DIMTOFL
 70
     1
  9
$DIMTVP
 40
0.0
  9
$DIMTIX
 70
     0
  9
$DIMSOXD
 70
     0
  9
$DIMSAH
 70
     0
  9
$DIMBLK1
  1

  9
$DIMBLK2
  1

  9
$DIMSTYLE
  2
ISO-25
  9
$DIMCLRD
 70
     0
  9
$DIMCLRE
 70
     0
  9
$DIMCLRT
 70
     0
  9
$DIMTFAC
 40
1.0
  9
$DIMGAP
 40
1.524
  9
$LUNITS
 70
     2
  9
$LUPREC
 70
     2
  9
$SKETCHINC
 40
1.0
  9
$FILLETRAD
 40
10.0
  9
$AUNITS
 70
     0
  9
$AUPREC
 70
     2
  9
$MENU
  1
.
  9
$ELEVATION
 40
0.0
  9
$PELEVATION
 40
0.0
  9
$THICKNESS
 40
0.0
  9
$LIMCHECK
 70
     0
  9
$CHAMFERA
 40
10.0
  9
$CHAMFERB
 40
10.0
  9
$SKPOLY
 70
     0
  9
$TDCREATE
 40
2457792.706301829
  9
$TDUPDATE
 40
2457792.70630206
  9
$TDINDWG
 40
0.0000000116
  9
$TDUSRTIMER
 40
0.0000000116
  9
$USRTIMER
 70
     1
  9
$ANGBASE
 50
0.0
  9
$ANGDIR
 70
     0
  9
$PDMODE
 70
     0
  9
$PDSIZE
 40
-1.0
  9
$PLINEWID
 40
0.0
  9
$COORDS
 70
     1
  9
$SPLFRAME
 70
     0
  9
$SPLINETYPE
 70
     6
  9
$SPLINESEGS
 70
     8
  9
$ATTDIA
 70
     0
  9
$ATTREQ
 70
     1
  9
$HANDLING
 70
     1
  9
$HANDSEED
  5
304
  9
$SURFTAB1
 70
     6
  9
$SURFTAB2
 70
     6
  9
$SURFTYPE
 70
     6
  9
$SURFU
 70
     6
  9
$SURFV
 70
     6
  9
$UCSNAME
  2

  9
$UCSORG
 10
0.0
 20
0.0
 30
0.0
  9
$UCSXDIR
 10
1.0
 20
0.0
 30
0.0
  9
$UCSYDIR
 10
0.0
 20
1.0
 30
0.0
  9
$PUCSNAME
  2

  9
$PUCSORG
 10
0.0
 20
0.0
 30
0.0
  9
$PUCSXDIR
 10
1.0
 20
0.0
 30
0.0
  9
$PUCSYDIR
 10
0.0
 20
1.0
 30
0.0
  9
$USERI1
 70
     0
  9
$USERI2
 70
     0
  9
$USERI3
 70
     0
  9
$USERI4
 70
     0
  9
$USERI5
 70
     0
  9
$USERR1
 40
0.0
  9
$USERR2
 40
0.0
  9
$USERR3
 40
0.0
  9
$USERR4
 40
0.0
  9
$USERR5
 40
0.0
  9
$WORLDVIEW
 70
     1
  9
$SHADEDGE
 70
     3
  9
$SHADEDIF
 70
    70
  9
$TILEMODE
 70
     1
  9
$MAXACTVP
 70
    64
  9
$PLIMCHECK
 70
     0
  9
$PEXTMIN
 10
1.0000000000E+20
 20
1.0000000000E+20
 30
1.0000000000E+20
  9
$PEXTMAX
 10
-1.0000000000E+20
 20
-1.0000000000E+20
 30
-1.0000000000E+20
  9
$PLIMMIN
 10
0.0
 20
0.0
  9
$PLIMMAX
 10
420.0
 20
297.0
  9
$UNITMODE
 70
     0
  9
$VISRETAIN
 70
     1
  9
$PLINEGEN
 70
     0
  9
$PSLTSCALE
 70
     1
  0
ENDSEC
  0
SECTION
  2
TABLES
  0
TABLE
  2
VPORT
 70
     1
  0
VPORT
  2
*ACTIVE
 70
     0
 10
0.0
 20
0.0
 11
1.0
 21
1.0
 12
210.0
 22
148.5
 13
0.0
 23
0.0
 14
10.0
 24
10.0
 15
10.0
 25
10.0
 16
0.0
 26
0.0
 36
1.0
 17
0.0
 27
0.0
 37
0.0
 40
297.0
 41
1.4141414141
 42
50.0
 43
0.0
 44
0.0
 50
0.0
 51
0.0
 71
     0
 72
  2000
 73
     1
 74
     3
 75
     0
 76
     0
 77
     0
 78
     0
  0
ENDTAB
  0
TABLE
  2
LTYPE
 70
     6
  0
LTYPE
  2
CONTINUOUS
 70
     0
  3
Solid line
 72
    65
 73
     0
 40
0.0
  0
LTYPE
  2
HIDDEN
 70
     0
  3
Hidden __ __ __ __ __ __ __ __ __ __ __ __ __ __
 72
    65
 73
     2
 40
1.905
 49
1.27
 49
-0.635
  0
LTYPE
  2
PHANTOM
 70
     0
  3
Phantom ______  __  __  ______  __  __  ______
 72
    65
 73
     6
 40
12.7
 49
6.35
 49
-1.27
 49
1.27
 49
-1.27
 49
1.27
 49
-1.27
  0
LTYPE
  2
CENTER
 70
     0
  3
Center ____ _ ____ _ ____ _ ____ _ ____ _ ____
 72
    65
 73
     4
 40
10.16
 49
6.35
 49
-1.27
 49
1.27
 49
-1.27
  0
LTYPE
  2
CENTERX2
 70
     0
  3
Center (2x) ________  __  ________  __  _____
 72
    65
 73
     4
 40
20.32
 49
12.7
 49
-2.54
 49
2.54
 49
-2.54
  0
LTYPE
  2
DOT2
 70
     0
  3
Dot (.5x) ........................................
 72
    65
 73
     2
 40
0.635
 49
0.0
 49
-0.635
  0
ENDTAB
  0
TABLE
  2
LAYER
 70
     2
  0
LAYER
  2
0
 70
     0
 62
     7
  6
CONTINUOUS
  0
LAYER
  2
FORMAT
 70
     0
 62
     7
  6
CONTINUOUS
  0
ENDTAB
  0
TABLE
  2
STYLE
 70
     1
  0
STYLE
  2
STANDARD
 70
     0
 40
0.0
 41
1.0
 50
0.0
 71
     0
 42
3.5
  3
txt
  4

  0
ENDTAB
  0
TABLE
  2
VIEW
 70
     0
  0
ENDTAB
  0
TABLE
  2
UCS
 70
     0
  0
ENDTAB
  0
TABLE
  2
APPID
 70
     1
  0
APPID
  2
ACAD
 70
     0
  0
ENDTAB
  0
TABLE
  2
DIMSTYLE
 70
     1
  0
DIMSTYLE
  2
ISO-25
 70
     0
  3

  4

  5

  6

  7

 40
1.0
 41
2.5
 42
0.625
 43
3.75
 44
1.25
 45
0.0
 46
0.0
 47
0.0
 48
0.0
140
2.5
141
2.5
142
0.0
143
0.0393700787
144
1.0
145
0.0
146
1.0
147
0.625
 71
     0
 72
     0
 73
     0
 74
     0
 75
     0
 76
     0
 77
     1
 78
     8
170
     0
171
     3
172
     1
173
     0
174
     0
175
     0
176
     0
177
     0
178
     0
  0
ENDTAB
  0
ENDSEC
  0
SECTION
  2
BLOCKS
  0
BLOCK
  8
0
  2
$MODEL_SPACE
 70
     0
 10
0.0
 20
0.0
 30
0.0
  3
$MODEL_SPACE
  1

  0
ENDBLK
  5
21
  8
0
  0
BLOCK
 67
     1
  8
0
  2
$PAPER_SPACE
 70
     0
 10
0.0
 20
0.0
 30
0.0
  3
$PAPER_SPACE
  1

  0
ENDBLK
  5
1D
 67
     1
  8
0
  0
ENDSEC
  0
SECTION
  2
ENTITIES
  0
LINE
  5
45
  8
0
  6
CONTINUOUS
 62
     7
 10
414.85
 20
5.15
 30
0.0
 11
5.15
 21
5.15
 31
0.0
  0
LINE
  5
46
  8
0
  6
CONTINUOUS
 62
     7
 10
415.0
 20
5.0
 30
0.0
 11
415.0
 21
277.0
 31
0.0
  0
LINE
  5
47
  8
0
  6
CONTINUOUS
 62
     7
 10
415.0
 20
277.0
 30
0.0
 11
5.0
 21
277.0
 31
0.0
  0
LINE
  5
48
  8
0
  6
CONTINUOUS
 62
     7
 10
5.15
 20
276.85
 30
0.0
 11
5.15
 21
5.15
 31
0.0
  0
ARC
  5
49
  8
0
  6
CONTINUOUS
 62
     7
 10
13.8448972927
 20
194.7297503796
 30
0.0
 40
0.5838283579400614
 50
359.764356172
 51
58.2984241734
  0
ARC
  5
4A
  8
0
  6
CONTINUOUS
 62
     7
 10
25.5901499282
 20
194.7420150685
 30
0.0
 40
0.5616171363379939
 50
120.3860448629
 51
181.4963674532
  0
ARC
  5
4B
  8
0
  6
CONTINUOUS
 62
     7
 10
24.4287229064
 20
186.3162660154
 30
0.0
 40
0.5999999999999979
 50
270.0
 51
0.0
  0
ARC
  5
4C
  8
0
  6
CONTINUOUS
 62
     7
 10
15.0287229064
 20
186.3162660154
 30
0.0
 40
0.6000000000000032
 50
180.0
 51
270.0
  0
LINE
  5
4D
  8
0
  6
CONTINUOUS
 62
     7
 10
15.0287249091
 20
185.7162661438
 30
0.0
 11
24.4287230971
 21
185.7162661438
 31
0.0
  0
ARC
  5
4E
  8
0
  6
CONTINUOUS
 62
     7
 10
24.4967873925
 20
201.2870439199
 30
0.0
 40
1.000000000000005
 50
2.509160584
 51
90.0
  0
LINE
  5
4F
  8
0
  6
CONTINUOUS
 62
     7
 10
24.4967886212
 20
202.2870439624
 30
0.0
 11
14.9606564048
 21
202.2870439624
 31
0.0
  0
ARC
  5
50
  8
0
  6
CONTINUOUS
 62
     7
 10
14.9606584203
 20
201.2870439199
 30
0.0
 40
1.0
 50
90.0
 51
177.490839416
  0
ARC
  5
51
  8
0
  6
CONTINUOUS
 62
     7
 10
130.3901433314
 20
194.7420191712
 30
0.0
 40
0.5616098624891206
 50
120.385606779
 51
181.4968055371
  0
ARC
  5
52
  8
0
  6
CONTINUOUS
 62
     7
 10
118.6448953472
 20
194.7297488631
 30
0.0
 40
0.583831083937844
 50
359.7645060964
 51
58.298274249
  0
ARC
  5
53
  8
0
  6
CONTINUOUS
 62
     7
 10
129.2287229064
 20
186.3162660154
 30
0.0
 40
0.5999999999999943
 50
270.0
 51
0.0
  0
ARC
  5
54
  8
0
  6
CONTINUOUS
 62
     7
 10
119.8287229064
 20
186.3162660154
 30
0.0
 40
0.6000000000000085
 50
180.0
 51
270.0
  0
LINE
  5
55
  8
0
  6
CONTINUOUS
 62
     7
 10
119.8287227157
 20
185.7162661438
 30
0.0
 11
129.2287209037
 21
185.7162661438
 31
0.0
  0
ARC
  5
56
  8
0
  6
CONTINUOUS
 62
     7
 10
129.2967873925
 20
201.2870439199
 30
0.0
 40
1.000000000000008
 50
2.509160584
 51
90.0
  0
LINE
  5
57
  8
0
  6
CONTINUOUS
 62
     7
 10
129.296789408
 20
202.2870439624
 30
0.0
 11
119.7606571916
 21
202.2870439624
 31
0.0
  0
ARC
  5
58
  8
0
  6
CONTINUOUS
 62
     7
 10
119.7606584203
 20
201.2870439199
 30
0.0
 40
1.000000000000008
 50
90.0
 51
177.490839416
  0
LINE
  5
59
  8
0
  6
CONTINUOUS
 62
     7
 10
116.0287239554
 20
145.7074336295
 30
0.0
 11
114.9287232163
 21
145.7074336295
 31
0.0
  0
LINE
  5
5A
  8
0
  6
CONTINUOUS
 62
     7
 10
29.3287225965
 20
145.7074336295
 30
0.0
 11
28.2287218574
 21
145.7074336295
 31
0.0
  0
LINE
  5
5B
  8
0
  6
CONTINUOUS
 62
     7
 10
28.2287218574
 20
143.3074347262
 30
0.0
 11
29.3287225965
 21
143.3074347262
 31
0.0
  0
LINE
  5
5C
  8
0
  6
CONTINUOUS
 62
     7
 10
114.9287232163
 20
143.3074347262
 30
0.0
 11
116.0287239554
 21
143.3074347262
 31
0.0
  0
LINE
  5
5D
  8
0
  6
CONTINUOUS
 62
     7
 10
27.4287232163
 20
194.2074335699
 30
0.0
 11
25.0287243131
 21
194.2074335699
 31
0.0
  0
LINE
  5
5E
  8
0
  6
CONTINUOUS
 62
     7
 10
25.0287243131
 20
191.2074334507
 30
0.0
 11
27.4287232163
 21
191.2074334507
 31
0.0
  0
LINE
  5
5F
  8
0
  6
CONTINUOUS
 62
     7
 10
116.8287225965
 20
191.2074334507
 30
0.0
 11
119.2287214997
 21
191.2074334507
 31
0.0
  0
LINE
  5
60
  8
0
  6
CONTINUOUS
 62
     7
 10
119.2287214997
 20
194.2074335699
 30
0.0
 11
116.8287225965
 21
194.2074335699
 31
0.0
  0
ARC
  5
61
  8
0
  6
CONTINUOUS
 62
     7
 10
24.8789104237
 20
200.0186656214
 30
0.0
 40
4.814882140966818
 50
267.0328310319
 51
278.9590222111
  0
ARC
  5
62
  8
0
  6
CONTINUOUS
 62
     7
 10
14.5785375919
 20
200.0187085392
 30
0.0
 40
4.814925000822787
 50
261.0410221785
 51
272.9671424201
  0
LINE
  5
63
  8
0
  6
CONTINUOUS
 62
     7
 10
24.6296741965
 20
195.2102385049
 30
0.0
 11
14.8277738097
 21
195.2102385049
 31
0.0
  0
LINE
  5
64
  8
0
  6
CONTINUOUS
 62
     7
 10
14.428720713
 20
189.0765957122
 30
0.0
 11
14.428720713
 21
194.7273492401
 31
0.0
  0
LINE
  5
65
  8
0
  6
CONTINUOUS
 62
     7
 10
25.0287243131
 20
194.7273492401
 30
0.0
 11
25.0287243131
 21
189.0765957122
 31
0.0
  0
LINE
  5
66
  8
0
  6
CONTINUOUS
 62
     7
 10
25.6287225488
 20
198.2981100266
 30
0.0
 11
25.4958369735
 21
201.3306036179
 31
0.0
  0
LINE
  5
67
  8
0
  6
CONTINUOUS
 62
     7
 10
25.6287225488
 20
198.2861920779
 30
0.0
 11
25.6287225488
 21
198.2981100266
 31
0.0
  0
LINE
  5
68
  8
0
  6
CONTINUOUS
 62
     7
 10
25.6287225488
 20
195.3265271668
 30
0.0
 11
25.6287225488
 21
198.2861920779
 31
0.0
  0
LINE
  5
69
  8
0
  6
CONTINUOUS
 62
     7
 10
25.6287225488
 20
195.2625251894
 30
0.0
 11
25.6287225488
 21
195.3265271668
 31
0.0
  0
LINE
  5
6A
  8
0
  6
CONTINUOUS
 62
     7
 10
13.8287224773
 20
195.3265271668
 30
0.0
 11
13.8287224773
 21
198.2861920779
 31
0.0
  0
LINE
  5
6B
  8
0
  6
CONTINUOUS
 62
     7
 10
13.8287224773
 20
198.2861920779
 30
0.0
 11
13.8287224773
 21
198.2981100266
 31
0.0
  0
LINE
  5
6C
  8
0
  6
CONTINUOUS
 62
     7
 10
13.9616110328
 20
201.3306036179
 30
0.0
 11
13.8287224773
 21
198.2981100266
 31
0.0
  0
LINE
  5
6D
  8
0
  6
CONTINUOUS
 62
     7
 10
13.8287224773
 20
195.2625251894
 30
0.0
 11
13.8287224773
 21
195.3265271668
 31
0.0
  0
LINE
  5
6E
  8
0
  6
CONTINUOUS
 62
     7
 10
14.428720713
 20
186.3162658696
 30
0.0
 11
14.428720713
 21
189.0765957122
 31
0.0
  0
LINE
  5
6F
  8
0
  6
CONTINUOUS
 62
     7
 10
25.0287243131
 20
189.0765957122
 30
0.0
 11
25.0287243131
 21
186.3162658696
 31
0.0
  0
ARC
  5
70
  8
0
  6
CONTINUOUS
 62
     7
 10
119.3785353891
 20
200.0186656214
 30
0.0
 40
4.814882140966788
 50
261.0409777889
 51
272.9671689681
  0
ARC
  5
71
  8
0
  6
CONTINUOUS
 62
     7
 10
129.6789082209
 20
200.0187085392
 30
0.0
 40
4.814925000822107
 50
267.0328575799
 51
278.9589778215
  0
LINE
  5
72
  8
0
  6
CONTINUOUS
 62
     7
 10
129.4296720031
 20
195.2102385049
 30
0.0
 11
119.6277716163
 21
195.2102385049
 31
0.0
  0
LINE
  5
73
  8
0
  6
CONTINUOUS
 62
     7
 10
129.8287250999
 20
194.7273492401
 30
0.0
 11
129.8287250999
 21
189.0765957122
 31
0.0
  0
LINE
  5
74
  8
0
  6
CONTINUOUS
 62
     7
 10
119.2287214997
 20
189.0765957122
 30
0.0
 11
119.2287214997
 21
194.7273492401
 31
0.0
  0
LINE
  5
75
  8
0
  6
CONTINUOUS
 62
     7
 10
130.4287233356
 20
198.2981100266
 30
0.0
 11
130.29583478
 21
201.3306036179
 31
0.0
  0
LINE
  5
76
  8
0
  6
CONTINUOUS
 62
     7
 10
130.4287233356
 20
198.2861920779
 30
0.0
 11
130.4287233356
 21
198.2981100266
 31
0.0
  0
LINE
  5
77
  8
0
  6
CONTINUOUS
 62
     7
 10
130.4287233356
 20
195.3265271668
 30
0.0
 11
130.4287233356
 21
198.2861920779
 31
0.0
  0
LINE
  5
78
  8
0
  6
CONTINUOUS
 62
     7
 10
130.4287233356
 20
195.2625251894
 30
0.0
 11
130.4287233356
 21
195.3265271668
 31
0.0
  0
LINE
  5
79
  8
0
  6
CONTINUOUS
 62
     7
 10
118.628723264
 20
195.3265271668
 30
0.0
 11
118.628723264
 21
198.2861920779
 31
0.0
  0
LINE
  5
7A
  8
0
  6
CONTINUOUS
 62
     7
 10
118.628723264
 20
198.2861920779
 30
0.0
 11
118.628723264
 21
198.2981100266
 31
0.0
  0
LINE
  5
7B
  8
0
  6
CONTINUOUS
 62
     7
 10
118.7616088393
 20
201.3306036179
 30
0.0
 11
118.628723264
 21
198.2981100266
 31
0.0
  0
LINE
  5
7C
  8
0
  6
CONTINUOUS
 62
     7
 10
118.628723264
 20
195.2625251894
 30
0.0
 11
118.628723264
 21
195.3265271668
 31
0.0
  0
LINE
  5
7D
  8
0
  6
CONTINUOUS
 62
     7
 10
129.8287250999
 20
189.0765957122
 30
0.0
 11
129.8287250999
 21
186.3162658696
 31
0.0
  0
LINE
  5
7E
  8
0
  6
CONTINUOUS
 62
     7
 10
119.2287214997
 20
186.3162658696
 30
0.0
 11
119.2287214997
 21
189.0765957122
 31
0.0
  0
LINE
  5
7F
  8
0
  6
CONTINUOUS
 62
     7
 10
115.1287236217
 20
148.1074325328
 30
0.0
 11
29.1287221911
 21
148.1074325328
 31
0.0
  0
LINE
  5
80
  8
0
  6
CONTINUOUS
 62
     7
 10
29.1287221911
 20
152.3074321036
 30
0.0
 11
29.1287221911
 21
148.1074325328
 31
0.0
  0
LINE
  5
81
  8
0
  6
CONTINUOUS
 62
     7
 10
115.1287236217
 20
152.3074321036
 30
0.0
 11
115.1287236217
 21
148.1074325328
 31
0.0
  0
LINE
  5
82
  8
0
  6
CONTINUOUS
 62
     7
 10
31.5287240747
 20
154.7074310069
 30
0.0
 11
112.7287217382
 21
154.7074310069
 31
0.0
  0
ARC
  5
83
  8
0
  6
CONTINUOUS
 62
     7
 10
112.7287257602
 20
152.3074331454
 30
0.0
 40
2.399997861505567
 50
359.9999751295
 51
90.0000960183
  0
ARC
  5
84
  8
0
  6
CONTINUOUS
 62
     7
 10
31.5287200527
 20
152.3074331454
 30
0.0
 40
2.399997861505556
 50
89.9999039817
 51
180.0000248705
  0
LINE
  5
85
  8
0
  6
CONTINUOUS
 62
     7
 10
29.3287225965
 20
140.7074324374
 30
0.0
 11
29.3287225965
 21
148.1074325328
 31
0.0
  0
LINE
  5
86
  8
0
  6
CONTINUOUS
 62
     7
 10
114.9287232163
 20
148.1074325328
 30
0.0
 11
114.9287232163
 21
140.7074324374
 31
0.0
  0
ARC
  5
87
  8
0
  6
CONTINUOUS
 62
     7
 10
114.3287229064
 20
140.7074334388
 30
0.0
 40
0.6000000000000227
 50
270.0
 51
0.0
  0
LINE
  5
88
  8
0
  6
CONTINUOUS
 62
     7
 10
114.3287220004
 20
140.1074342017
 30
0.0
 11
29.9287238124
 21
140.1074342017
 31
0.0
  0
ARC
  5
89
  8
0
  6
CONTINUOUS
 62
     7
 10
29.9287229064
 20
140.7074334388
 30
0.0
 40
0.6000000000000227
 50
180.0
 51
270.0
  0
LINE
  5
8A
  8
0
  6
CONTINUOUS
 62
     7
 10
116.8287225965
 20
148.0421058421
 30
0.0
 11
116.8287225965
 21
131.70743506
 31
0.0
  0
LINE
  5
8B
  8
0
  6
CONTINUOUS
 62
     7
 10
116.0287239554
 20
148.0421058421
 30
0.0
 11
116.0287239554
 21
131.70743506
 31
0.0
  0
LINE
  5
8C
  8
0
  6
CONTINUOUS
 62
     7
 10
116.0287239554
 20
148.0421058421
 30
0.0
 11
116.0287239554
 21
152.0268849616
 31
0.0
  0
LINE
  5
8D
  8
0
  6
CONTINUOUS
 62
     7
 10
116.8287225965
 20
152.0268849616
 30
0.0
 11
116.8287225965
 21
148.0421058421
 31
0.0
  0
LINE
  5
8E
  8
0
  6
CONTINUOUS
 62
     7
 10
28.2287218574
 20
131.70743506
 30
0.0
 11
28.2287218574
 21
148.0421058421
 31
0.0
  0
LINE
  5
8F
  8
0
  6
CONTINUOUS
 62
     7
 10
27.4287232163
 20
131.70743506
 30
0.0
 11
27.4287232163
 21
148.0421058421
 31
0.0
  0
LINE
  5
90
  8
0
  6
CONTINUOUS
 62
     7
 10
28.2287218574
 20
152.0268849616
 30
0.0
 11
28.2287218574
 21
148.0421058421
 31
0.0
  0
LINE
  5
91
  8
0
  6
CONTINUOUS
 62
     7
 10
27.4287232163
 20
148.0421058421
 30
0.0
 11
27.4287232163
 21
152.0268849616
 31
0.0
  0
LINE
  5
92
  8
0
  6
CONTINUOUS
 62
     7
 10
28.2287218574
 20
127.7074329143
 30
0.0
 11
27.4287232163
 21
127.7074329143
 31
0.0
  0
LINE
  5
93
  8
0
  6
CONTINUOUS
 62
     7
 10
28.2287218574
 20
131.70743506
 30
0.0
 11
28.2287218574
 21
127.7074329143
 31
0.0
  0
LINE
  5
94
  8
0
  6
CONTINUOUS
 62
     7
 10
27.4287232163
 20
127.7074329143
 30
0.0
 11
27.4287232163
 21
131.70743506
 31
0.0
  0
LINE
  5
95
  8
0
  6
CONTINUOUS
 62
     7
 10
116.8287225965
 20
127.7074329143
 30
0.0
 11
116.0287239554
 21
127.7074329143
 31
0.0
  0
LINE
  5
96
  8
0
  6
CONTINUOUS
 62
     7
 10
116.0287239554
 20
127.7074329143
 30
0.0
 11
116.0287239554
 21
131.70743506
 31
0.0
  0
LINE
  5
97
  8
0
  6
CONTINUOUS
 62
     7
 10
116.8287225965
 20
131.70743506
 30
0.0
 11
116.8287225965
 21
127.7074329143
 31
0.0
  0
LINE
  5
98
  8
0
  6
CONTINUOUS
 62
     7
 10
116.0287239554
 20
152.7528039699
 30
0.0
 11
116.0287239554
 21
152.0268849616
 31
0.0
  0
LINE
  5
99
  8
0
  6
CONTINUOUS
 62
     7
 10
116.8287225965
 20
152.7528039699
 30
0.0
 11
116.8287225965
 21
152.0268849616
 31
0.0
  0
LINE
  5
9A
  8
0
  6
CONTINUOUS
 62
     7
 10
28.2287218574
 20
152.0268849616
 30
0.0
 11
28.2287218574
 21
152.7528039699
 31
0.0
  0
LINE
  5
9B
  8
0
  6
CONTINUOUS
 62
     7
 10
27.4287232163
 20
152.0268849616
 30
0.0
 11
27.4287232163
 21
152.7528039699
 31
0.0
  0
LINE
  5
9C
  8
0
  6
CONTINUOUS
 62
     7
 10
28.2287218574
 20
196.7074334209
 30
0.0
 11
27.4287232163
 21
196.7074334209
 31
0.0
  0
LINE
  5
9D
  8
0
  6
CONTINUOUS
 62
     7
 10
28.2287218574
 20
188.7074328546
 30
0.0
 11
28.2287218574
 21
196.7074334209
 31
0.0
  0
LINE
  5
9E
  8
0
  6
CONTINUOUS
 62
     7
 10
28.2287218574
 20
188.7074328546
 30
0.0
 11
27.4287232163
 21
188.7074328546
 31
0.0
  0
LINE
  5
9F
  8
0
  6
CONTINUOUS
 62
     7
 10
27.4287232163
 20
188.7074328546
 30
0.0
 11
27.4287232163
 21
196.7074334209
 31
0.0
  0
LINE
  5
A0
  8
0
  6
CONTINUOUS
 62
     7
 10
116.0287239554
 20
188.7074328546
 30
0.0
 11
116.8287225965
 21
188.7074328546
 31
0.0
  0
LINE
  5
A1
  8
0
  6
CONTINUOUS
 62
     7
 10
116.0287239554
 20
196.7074334209
 30
0.0
 11
116.0287239554
 21
188.7074328546
 31
0.0
  0
LINE
  5
A2
  8
0
  6
CONTINUOUS
 62
     7
 10
116.0287239554
 20
196.7074334209
 30
0.0
 11
116.8287225965
 21
196.7074334209
 31
0.0
  0
LINE
  5
A3
  8
0
  6
CONTINUOUS
 62
     7
 10
116.8287225965
 20
196.7074334209
 30
0.0
 11
116.8287225965
 21
188.7074328546
 31
0.0
  0
LINE
  5
A4
  8
0
  6
CONTINUOUS
 62
     7
 10
28.3287235501
 20
247.9416273122
 30
0.0
 11
56.1555185321
 21
264.0074304824
 31
0.0
  0
POLYLINE
  5
A5
  8
0
  6
CONTINUOUS
 62
     7
 66
     1
 10
0.0
 20
0.0
 30
0.0
  0
VERTEX
  5
246
  8
0
  6
CONTINUOUS
 62
     7
 10
56.1555185321
 20
264.0074304824
 30
0.0
  0
VERTEX
  5
247
  8
0
  6
CONTINUOUS
 62
     7
 10
56.1658152345
 20
263.9690033679
 30
0.0
  0
VERTEX
  5
248
  8
0
  6
CONTINUOUS
 62
     7
 10
56.1963104609
 20
263.8551942592
 30
0.0
  0
VERTEX
  5
249
  8
0
  6
CONTINUOUS
 62
     7
 10
56.24583298
 20
263.6703721766
 30
0.0
  0
VERTEX
  5
24A
  8
0
  6
CONTINUOUS
 62
     7
 10
56.3124784234
 20
263.4216479545
 30
0.0
  0
VERTEX
  5
24B
  8
0
  6
CONTINUOUS
 62
     7
 10
56.3936867717
 20
263.1185762172
 30
0.0
  0
VERTEX
  5
24C
  8
0
  6
CONTINUOUS
 62
     7
 10
56.4863362315
 20
262.7727977519
 30
0.0
  0
VERTEX
  5
24D
  8
0
  6
CONTINUOUS
 62
     7
 10
56.5868669155
 20
262.3976163154
 30
0.0
  0
VERTEX
  5
24E
  8
0
  6
CONTINUOUS
 62
     7
 10
56.6914164427
 20
262.0074323897
 30
0.0
  0
SEQEND
  5
303
  8
0
  6
CONTINUOUS
 62
     7
  0
POLYLINE
  5
A6
  8
0
  6
CONTINUOUS
 62
     7
 66
     1
 10
0.0
 20
0.0
 30
0.0
  0
VERTEX
  5
24F
  8
0
  6
CONTINUOUS
 62
     7
 10
28.3287235501
 20
247.9416273122
 30
0.0
  0
VERTEX
  5
250
  8
0
  6
CONTINUOUS
 62
     7
 10
28.3591070178
 20
247.924082685
 30
0.0
  0
VERTEX
  5
251
  8
0
  6
CONTINUOUS
 62
     7
 10
28.4493365291
 20
247.8719882255
 30
0.0
  0
VERTEX
  5
252
  8
0
  6
CONTINUOUS
 62
     7
 10
28.5966732505
 20
247.7869264369
 30
0.0
  0
VERTEX
  5
253
  8
0
  6
CONTINUOUS
 62
     7
 10
28.7966349128
 20
247.6714782004
 30
0.0
  0
VERTEX
  5
254
  8
0
  6
CONTINUOUS
 62
     7
 10
29.0431478026
 20
247.5291512494
 30
0.0
  0
VERTEX
  5
255
  8
0
  6
CONTINUOUS
 62
     7
 10
29.3287225965
 20
247.3642758613
 30
0.0
  0
VERTEX
  5
256
  8
0
  6
CONTINUOUS
 62
     7
 10
29.6446838382
 20
247.1818558459
 30
0.0
  0
VERTEX
  5
257
  8
0
  6
CONTINUOUS
 62
     7
 10
29.9814262393
 20
246.9874374156
 30
0.0
  0
VERTEX
  5
258
  8
0
  6
CONTINUOUS
 62
     7
 10
30.3287216428
 20
246.7869244103
 30
0.0
  0
SEQEND
  5
302
  8
0
  6
CONTINUOUS
 62
     7
  0
LINE
  5
A7
  8
0
  6
CONTINUOUS
 62
     7
 10
28.3287235501
 20
209.3074336235
 30
0.0
 11
28.3287235501
 21
247.9416273122
 31
0.0
  0
POLYLINE
  5
A8
  8
0
  6
CONTINUOUS
 62
     7
 66
     1
 10
0.0
 20
0.0
 30
0.0
  0
VERTEX
  5
259
  8
0
  6
CONTINUOUS
 62
     7
 10
28.3287235501
 20
209.3074336235
 30
0.0
  0
VERTEX
  5
25A
  8
0
  6
CONTINUOUS
 62
     7
 10
28.3591070178
 20
209.3378178363
 30
0.0
  0
VERTEX
  5
25B
  8
0
  6
CONTINUOUS
 62
     7
 10
28.4493365291
 20
209.4280480926
 30
0.0
  0
VERTEX
  5
25C
  8
0
  6
CONTINUOUS
 62
     7
 10
28.5966732505
 20
209.5753825788
 30
0.0
  0
VERTEX
  5
25D
  8
0
  6
CONTINUOUS
 62
     7
 10
28.7966349128
 20
209.7753446137
 30
0.0
  0
VERTEX
  5
25E
  8
0
  6
CONTINUOUS
 62
     7
 10
29.0431478026
 20
210.0218582486
 30
0.0
  0
VERTEX
  5
25F
  8
0
  6
CONTINUOUS
 62
     7
 10
29.3287225965
 20
210.3074334149
 30
0.0
  0
VERTEX
  5
260
  8
0
  6
CONTINUOUS
 62
     7
 10
29.6446838382
 20
210.6233931665
 30
0.0
  0
VERTEX
  5
261
  8
0
  6
CONTINUOUS
 62
     7
 10
29.9814262393
 20
210.9601370578
 30
0.0
  0
VERTEX
  5
262
  8
0
  6
CONTINUOUS
 62
     7
 10
30.3287216428
 20
211.3074335788
 30
0.0
  0
SEQEND
  5
301
  8
0
  6
CONTINUOUS
 62
     7
  0
POLYLINE
  5
A9
  8
0
  6
CONTINUOUS
 62
     7
 66
     1
 10
0.0
 20
0.0
 30
0.0
  0
VERTEX
  5
263
  8
0
  6
CONTINUOUS
 62
     7
 10
113.92872417
 20
246.7869244103
 30
0.0
  0
VERTEX
  5
264
  8
0
  6
CONTINUOUS
 62
     7
 10
114.2760195735
 20
246.9874374156
 30
0.0
  0
VERTEX
  5
265
  8
0
  6
CONTINUOUS
 62
     7
 10
114.6127619746
 20
247.1818558459
 30
0.0
  0
VERTEX
  5
266
  8
0
  6
CONTINUOUS
 62
     7
 10
114.9287232163
 20
247.3642758613
 30
0.0
  0
VERTEX
  5
267
  8
0
  6
CONTINUOUS
 62
     7
 10
115.2142980102
 20
247.5291512494
 30
0.0
  0
VERTEX
  5
268
  8
0
  6
CONTINUOUS
 62
     7
 10
115.4608109
 20
247.6714782004
 30
0.0
  0
VERTEX
  5
269
  8
0
  6
CONTINUOUS
 62
     7
 10
115.6607725623
 20
247.7869264369
 30
0.0
  0
VERTEX
  5
26A
  8
0
  6
CONTINUOUS
 62
     7
 10
115.8081092837
 20
247.8719882255
 30
0.0
  0
VERTEX
  5
26B
  8
0
  6
CONTINUOUS
 62
     7
 10
115.898338795
 20
247.924082685
 30
0.0
  0
VERTEX
  5
26C
  8
0
  6
CONTINUOUS
 62
     7
 10
115.9287222627
 20
247.9416273122
 30
0.0
  0
SEQEND
  5
300
  8
0
  6
CONTINUOUS
 62
     7
  0
LINE
  5
AA
  8
0
  6
CONTINUOUS
 62
     7
 10
115.9287222627
 20
247.9416273122
 30
0.0
 11
115.9287222627
 21
209.3074336235
 31
0.0
  0
POLYLINE
  5
AB
  8
0
  6
CONTINUOUS
 62
     7
 66
     1
 10
0.0
 20
0.0
 30
0.0
  0
VERTEX
  5
26D
  8
0
  6
CONTINUOUS
 62
     7
 10
113.92872417
 20
211.3074335788
 30
0.0
  0
VERTEX
  5
26E
  8
0
  6
CONTINUOUS
 62
     7
 10
114.2760195735
 20
210.9601370578
 30
0.0
  0
VERTEX
  5
26F
  8
0
  6
CONTINUOUS
 62
     7
 10
114.6127619746
 20
210.6233931665
 30
0.0
  0
VERTEX
  5
270
  8
0
  6
CONTINUOUS
 62
     7
 10
114.9287232163
 20
210.3074334149
 30
0.0
  0
VERTEX
  5
271
  8
0
  6
CONTINUOUS
 62
     7
 10
115.2142980102
 20
210.0218582486
 30
0.0
  0
VERTEX
  5
272
  8
0
  6
CONTINUOUS
 62
     7
 10
115.4608109
 20
209.7753446137
 30
0.0
  0
VERTEX
  5
273
  8
0
  6
CONTINUOUS
 62
     7
 10
115.6607725623
 20
209.5753825788
 30
0.0
  0
VERTEX
  5
274
  8
0
  6
CONTINUOUS
 62
     7
 10
115.8081092837
 20
209.4280480926
 30
0.0
  0
VERTEX
  5
275
  8
0
  6
CONTINUOUS
 62
     7
 10
115.898338795
 20
209.3378178363
 30
0.0
  0
VERTEX
  5
276
  8
0
  6
CONTINUOUS
 62
     7
 10
115.9287222627
 20
209.3074336235
 30
0.0
  0
SEQEND
  5
2FF
  8
0
  6
CONTINUOUS
 62
     7
  0
LINE
  5
AC
  8
0
  6
CONTINUOUS
 62
     7
 10
115.9287222627
 20
209.3074336235
 30
0.0
 11
28.3287235501
 21
209.3074336235
 31
0.0
  0
POLYLINE
  5
AD
  8
0
  6
CONTINUOUS
 62
     7
 66
     1
 10
0.0
 20
0.0
 30
0.0
  0
VERTEX
  5
277
  8
0
  6
CONTINUOUS
 62
     7
 10
87.5660293701
 20
262.0074323897
 30
0.0
  0
VERTEX
  5
278
  8
0
  6
CONTINUOUS
 62
     7
 10
87.6705788973
 20
262.3976163154
 30
0.0
  0
VERTEX
  5
279
  8
0
  6
CONTINUOUS
 62
     7
 10
87.7711095813
 20
262.7727977519
 30
0.0
  0
VERTEX
  5
27A
  8
0
  6
CONTINUOUS
 62
     7
 10
87.8637590411
 20
263.1185762172
 30
0.0
  0
VERTEX
  5
27B
  8
0
  6
CONTINUOUS
 62
     7
 10
87.9449673894
 20
263.4216479545
 30
0.0
  0
VERTEX
  5
27C
  8
0
  6
CONTINUOUS
 62
     7
 10
88.0116128328
 20
263.6703721766
 30
0.0
  0
VERTEX
  5
27D
  8
0
  6
CONTINUOUS
 62
     7
 10
88.0611353519
 20
263.8551942592
 30
0.0
  0
VERTEX
  5
27E
  8
0
  6
CONTINUOUS
 62
     7
 10
88.0916305783
 20
263.9690033679
 30
0.0
  0
VERTEX
  5
27F
  8
0
  6
CONTINUOUS
 62
     7
 10
88.1019272807
 20
264.0074304824
 30
0.0
  0
SEQEND
  5
2FE
  8
0
  6
CONTINUOUS
 62
     7
  0
LINE
  5
AE
  8
0
  6
CONTINUOUS
 62
     7
 10
88.1019272807
 20
264.0074304824
 30
0.0
 11
115.9287222627
 21
247.9416273122
 31
0.0
  0
LINE
  5
AF
  8
0
  6
CONTINUOUS
 62
     7
 10
56.1555185321
 20
264.0074304824
 30
0.0
 11
88.1019272807
 21
264.0074304824
 31
0.0
  0
LINE
  5
B0
  8
0
  6
CONTINUOUS
 62
     7
 10
116.0287239554
 20
152.7528039699
 30
0.0
 11
116.0287239554
 21
156.3300899749
 31
0.0
  0
LINE
  5
B1
  8
0
  6
CONTINUOUS
 62
     7
 10
116.8287225965
 20
156.7375801091
 30
0.0
 11
116.8287225965
 21
152.7528039699
 31
0.0
  0
LINE
  5
B2
  8
0
  6
CONTINUOUS
 62
     7
 10
28.2287218574
 20
156.3300899749
 30
0.0
 11
28.2287218574
 21
152.7528039699
 31
0.0
  0
LINE
  5
B3
  8
0
  6
CONTINUOUS
 62
     7
 10
27.4287232163
 20
152.7528039699
 30
0.0
 11
27.4287232163
 21
156.7375801091
 31
0.0
  0
LINE
  5
B4
  8
0
  6
CONTINUOUS
 62
     7
 10
28.2287218574
 20
156.3300899749
 30
0.0
 11
28.2287218574
 21
158.0010674481
 31
0.0
  0
LINE
  5
B5
  8
0
  6
CONTINUOUS
 62
     7
 10
28.2287218574
 20
158.0010674481
 30
0.0
 11
116.0287239554
 21
158.0010674481
 31
0.0
  0
LINE
  5
B6
  8
0
  6
CONTINUOUS
 62
     7
 10
116.0287239554
 20
156.3300899749
 30
0.0
 11
116.0287239554
 21
158.0010674481
 31
0.0
  0
LINE
  5
B7
  8
0
  6
CONTINUOUS
 62
     7
 10
28.2287218574
 20
147.7074317222
 30
0.0
 11
29.3287225965
 21
147.7074317222
 31
0.0
  0
LINE
  5
B8
  8
0
  6
CONTINUOUS
 62
     7
 10
114.9287232163
 20
147.7074317222
 30
0.0
 11
116.0287239554
 21
147.7074317222
 31
0.0
  0
LINE
  5
B9
  8
0
  6
CONTINUOUS
 62
     7
 10
116.0287239554
 20
158.0010674481
 30
0.0
 11
116.0287239554
 21
188.7074328546
 31
0.0
  0
LINE
  5
BA
  8
0
  6
CONTINUOUS
 62
     7
 10
28.2287218574
 20
188.7074328546
 30
0.0
 11
28.2287218574
 21
158.0010674481
 31
0.0
  0
LINE
  5
BB
  8
0
  6
CONTINUOUS
 62
     7
 10
28.2287218574
 20
247.9993603711
 30
0.0
 11
28.2287218574
 21
196.7074334209
 31
0.0
  0
LINE
  5
BC
  8
0
  6
CONTINUOUS
 62
     7
 10
88.1287225488
 20
264.1074351554
 30
0.0
 11
56.128723264
 21
264.1074351554
 31
0.0
  0
LINE
  5
BD
  8
0
  6
CONTINUOUS
 62
     7
 10
28.2287218574
 20
247.9993603711
 30
0.0
 11
56.128723264
 21
264.1074351554
 31
0.0
  0
LINE
  5
BE
  8
0
  6
CONTINUOUS
 62
     7
 10
88.1287225488
 20
264.1074351554
 30
0.0
 11
116.0287239554
 21
247.9993603711
 31
0.0
  0
LINE
  5
BF
  8
0
  6
CONTINUOUS
 62
     7
 10
116.0287239554
 20
196.7074334209
 30
0.0
 11
116.0287239554
 21
247.9993603711
 31
0.0
  0
LINE
  5
C0
  8
0
  6
CONTINUOUS
 62
     7
 10
116.8287225965
 20
188.7074328546
 30
0.0
 11
116.8287225965
 21
156.7375801091
 31
0.0
  0
LINE
  5
C1
  8
0
  6
CONTINUOUS
 62
     7
 10
27.4287232163
 20
196.7074334209
 30
0.0
 11
27.4287232163
 21
202.7074332868
 31
0.0
  0
LINE
  5
C2
  8
0
  6
CONTINUOUS
 62
     7
 10
27.4287232163
 20
206.7074334768
 30
0.0
 11
28.2287218574
 21
206.7074334768
 31
0.0
  0
LINE
  5
C3
  8
0
  6
CONTINUOUS
 62
     7
 10
27.4287232163
 20
202.7074332868
 30
0.0
 11
27.4287232163
 21
206.7074334768
 31
0.0
  0
LINE
  5
C4
  8
0
  6
CONTINUOUS
 62
     7
 10
116.8287225965
 20
202.7074332868
 30
0.0
 11
116.8287225965
 21
196.7074334209
 31
0.0
  0
LINE
  5
C5
  8
0
  6
CONTINUOUS
 62
     7
 10
116.0287239554
 20
206.7074334768
 30
0.0
 11
116.8287225965
 21
206.7074334768
 31
0.0
  0
LINE
  5
C6
  8
0
  6
CONTINUOUS
 62
     7
 10
116.8287225965
 20
206.7074334768
 30
0.0
 11
116.8287225965
 21
202.7074332868
 31
0.0
  0
LINE
  5
C7
  8
0
  6
CONTINUOUS
 62
     7
 10
27.4287232163
 20
156.7375801091
 30
0.0
 11
27.4287232163
 21
188.7074328546
 31
0.0
  0
ARC
  5
C8
  8
0
  6
CONTINUOUS
 62
     7
 10
14.9606584203
 20
40.3511320223
 30
0.0
 40
1.000000000000004
 50
258.68671043
 51
270.0
  0
ARC
  5
C9
  8
0
  6
CONTINUOUS
 62
     7
 10
24.4967873925
 20
40.3511320223
 30
0.0
 40
1.000000000000005
 50
270.0
 51
281.31328957
  0
LINE
  5
CA
  8
0
  6
CONTINUOUS
 62
     7
 10
24.6929624084
 20
39.3705657463
 30
0.0
 11
24.8261847499
 21
39.3972149829
 31
0.0
  0
LINE
  5
CB
  8
0
  6
CONTINUOUS
 62
     7
 10
14.6312632564
 20
39.3972149829
 30
0.0
 11
14.7644855979
 21
39.3705657463
 31
0.0
  0
ARC
  5
CC
  8
0
  6
CONTINUOUS
 62
     7
 10
119.7606584203
 20
40.3511320223
 30
0.0
 40
1.000000000000006
 50
258.68671043
 51
270.0
  0
ARC
  5
CD
  8
0
  6
CONTINUOUS
 62
     7
 10
129.2967873925
 20
40.3511320223
 30
0.0
 40
1.0
 50
270.0
 51
281.31328957
  0
LINE
  5
CE
  8
0
  6
CONTINUOUS
 62
     7
 10
129.4929602149
 20
39.3705657463
 30
0.0
 11
129.6261825564
 21
39.3972149829
 31
0.0
  0
LINE
  5
CF
  8
0
  6
CONTINUOUS
 62
     7
 10
119.4312610629
 20
39.3972149829
 30
0.0
 11
119.5644834045
 21
39.3705657463
 31
0.0
  0
LINE
  5
D0
  8
0
  6
CONTINUOUS
 62
     7
 10
27.4287232163
 20
86.9794613461
 30
0.0
 11
28.2287218574
 21
86.9794613461
 31
0.0
  0
LINE
  5
D1
  8
0
  6
CONTINUOUS
 62
     7
 10
116.0287239554
 20
86.9794613461
 30
0.0
 11
116.8287225965
 21
86.9794613461
 31
0.0
  0
LINE
  5
D2
  8
0
  6
CONTINUOUS
 62
     7
 10
27.4287232163
 20
92.4794605712
 30
0.0
 11
25.6287225488
 21
92.4794605712
 31
0.0
  0
LINE
  5
D3
  8
0
  6
CONTINUOUS
 62
     7
 10
25.6287225488
 20
89.479460452
 30
0.0
 11
27.4287232163
 21
89.479460452
 31
0.0
  0
LINE
  5
D4
  8
0
  6
CONTINUOUS
 62
     7
 10
116.8287225965
 20
89.479460452
 30
0.0
 11
118.628723264
 21
89.479460452
 31
0.0
  0
LINE
  5
D5
  8
0
  6
CONTINUOUS
 62
     7
 10
118.628723264
 20
92.4794605712
 30
0.0
 11
116.8287225965
 21
92.4794605712
 31
0.0
  0
LINE
  5
D6
  8
0
  6
CONTINUOUS
 62
     7
 10
116.0287239554
 20
84.9794602732
 30
0.0
 11
115.1287236217
 21
84.9794602732
 31
0.0
  0
LINE
  5
D7
  8
0
  6
CONTINUOUS
 62
     7
 10
29.1287221911
 20
84.9794602732
 30
0.0
 11
28.2287218574
 21
84.9794602732
 31
0.0
  0
LINE
  5
D8
  8
0
  6
CONTINUOUS
 62
     7
 10
28.2287218574
 20
82.5794613699
 30
0.0
 11
29.1287221911
 21
82.5794613699
 31
0.0
  0
LINE
  5
D9
  8
0
  6
CONTINUOUS
 62
     7
 10
115.1287236217
 20
82.5794613699
 30
0.0
 11
116.0287239554
 21
82.5794613699
 31
0.0
  0
ARC
  5
DA
  8
0
  6
CONTINUOUS
 62
     7
 10
24.6306832552
 20
98.297488897
 30
0.0
 40
0.9980393584394007
 50
0.0206619963
 51
90.0579283913
  0
ARC
  5
DB
  8
0
  6
CONTINUOUS
 62
     7
 10
14.8267647639
 20
98.2974859027
 30
0.0
 40
0.9980423526603247
 50
89.9420725233
 51
179.9791661721
  0
LINE
  5
DC
  8
0
  6
CONTINUOUS
 62
     7
 10
24.6296741965
 20
99.2955277453
 30
0.0
 11
14.8277738097
 21
99.2955277453
 31
0.0
  0
LINE
  5
DD
  8
0
  6
CONTINUOUS
 62
     7
 10
13.8287224773
 20
40.3754344921
 30
0.0
 11
13.8287224773
 21
41.5966621379
 31
0.0
  0
LINE
  5
DE
  8
0
  6
CONTINUOUS
 62
     7
 10
13.8287224773
 20
41.5966621379
 30
0.0
 11
13.8287224773
 21
98.0704406987
 31
0.0
  0
LINE
  5
DF
  8
0
  6
CONTINUOUS
 62
     7
 10
13.8287224773
 20
98.0704406987
 30
0.0
 11
13.8287224773
 21
98.2978488098
 31
0.0
  0
LINE
  5
E0
  8
0
  6
CONTINUOUS
 62
     7
 10
25.6287225488
 20
98.0704406987
 30
0.0
 11
25.6287225488
 21
98.2978488098
 31
0.0
  0
LINE
  5
E1
  8
0
  6
CONTINUOUS
 62
     7
 10
25.6287225488
 20
41.5966621379
 30
0.0
 11
25.6287225488
 21
98.0704406987
 31
0.0
  0
LINE
  5
E2
  8
0
  6
CONTINUOUS
 62
     7
 10
25.6287225488
 20
40.3754344921
 30
0.0
 11
25.6287225488
 21
41.5966621379
 31
0.0
  0
LINE
  5
E3
  8
0
  6
CONTINUOUS
 62
     7
 10
24.4967886212
 20
39.3511703948
 30
0.0
 11
14.9606564048
 21
39.3511703948
 31
0.0
  0
ARC
  5
E4
  8
0
  6
CONTINUOUS
 62
     7
 10
24.6310149987
 20
40.375646978
 30
0.0
 40
0.9977075727270489
 50
281.2808388859
 51
359.9877974813
  0
ARC
  5
E5
  8
0
  6
CONTINUOUS
 62
     7
 10
14.8262949471
 20
40.3755367514
 30
0.0
 40
0.9975724750950888
 50
180.0058732868
 51
258.7256990123
  0
ARC
  5
E6
  8
0
  6
CONTINUOUS
 62
     7
 10
119.6267625576
 20
98.297488897
 30
0.0
 40
0.9980393584394007
 50
89.9420716087
 51
179.9793380037
  0
ARC
  5
E7
  8
0
  6
CONTINUOUS
 62
     7
 10
129.4306810489
 20
98.2974859027
 30
0.0
 40
0.9980423526602679
 50
0.0208338279
 51
90.0579274767
  0
LINE
  5
E8
  8
0
  6
CONTINUOUS
 62
     7
 10
129.4296720031
 20
99.2955277453
 30
0.0
 11
119.6277716163
 21
99.2955277453
 31
0.0
  0
LINE
  5
E9
  8
0
  6
CONTINUOUS
 62
     7
 10
118.628723264
 20
40.3754344921
 30
0.0
 11
118.628723264
 21
41.5966621379
 31
0.0
  0
LINE
  5
EA
  8
0
  6
CONTINUOUS
 62
     7
 10
118.628723264
 20
41.5966621379
 30
0.0
 11
118.628723264
 21
98.0704406987
 31
0.0
  0
LINE
  5
EB
  8
0
  6
CONTINUOUS
 62
     7
 10
118.628723264
 20
98.0704406987
 30
0.0
 11
118.628723264
 21
98.2978488098
 31
0.0
  0
LINE
  5
EC
  8
0
  6
CONTINUOUS
 62
     7
 10
130.4287233356
 20
98.0704406987
 30
0.0
 11
130.4287233356
 21
98.2978488098
 31
0.0
  0
LINE
  5
ED
  8
0
  6
CONTINUOUS
 62
     7
 10
130.4287233356
 20
41.5966621379
 30
0.0
 11
130.4287233356
 21
98.0704406987
 31
0.0
  0
LINE
  5
EE
  8
0
  6
CONTINUOUS
 62
     7
 10
130.4287233356
 20
40.3754344921
 30
0.0
 11
130.4287233356
 21
41.5966621379
 31
0.0
  0
LINE
  5
EF
  8
0
  6
CONTINUOUS
 62
     7
 10
129.296789408
 20
39.3511703948
 30
0.0
 11
119.7606571916
 21
39.3511703948
 31
0.0
  0
ARC
  5
F0
  8
0
  6
CONTINUOUS
 62
     7
 10
129.4310140463
 20
40.3756489994
 30
0.0
 40
0.9977093123602843
 50
281.280746285
 51
359.9876814158
  0
ARC
  5
F1
  8
0
  6
CONTINUOUS
 62
     7
 10
119.626297086
 20
40.3755372665
 30
0.0
 40
0.9975738272833039
 50
180.0059028645
 51
258.7254607682
  0
LINE
  5
F2
  8
0
  6
CONTINUOUS
 62
     7
 10
29.1287221911
 20
21.379458044
 30
0.0
 11
29.1287221911
 21
87.9794603924
 31
0.0
  0
POLYLINE
  5
F3
  8
0
  6
CONTINUOUS
 62
     7
 66
     1
 10
0.0
 20
0.0
 30
0.0
  0
VERTEX
  5
280
  8
0
  6
CONTINUOUS
 62
     7
 10
31.5287240747
 20
23.7794629077
 30
0.0
  0
VERTEX
  5
281
  8
0
  6
CONTINUOUS
 62
     7
 10
31.1532803777
 20
23.4040192108
 30
0.0
  0
VERTEX
  5
282
  8
0
  6
CONTINUOUS
 62
     7
 10
30.7870813611
 20
23.0378201942
 30
0.0
  0
VERTEX
  5
283
  8
0
  6
CONTINUOUS
 62
     7
 10
30.4391452077
 20
22.6898840408
 30
0.0
  0
VERTEX
  5
284
  8
0
  6
CONTINUOUS
 62
     7
 10
30.1180371049
 20
22.368775938
 30
0.0
  0
VERTEX
  5
285
  8
0
  6
CONTINUOUS
 62
     7
 10
29.8316665891
 20
22.0824054222
 30
0.0
  0
VERTEX
  5
286
  8
0
  6
CONTINUOUS
 62
     7
 10
29.5870819095
 20
21.8378177623
 30
0.0
  0
VERTEX
  5
287
  8
0
  6
CONTINUOUS
 62
     7
 10
29.3903061154
 20
21.6410449485
 30
0.0
  0
VERTEX
  5
288
  8
0
  6
CONTINUOUS
 62
     7
 10
29.2461880448
 20
21.4969268779
 30
0.0
  0
VERTEX
  5
289
  8
0
  6
CONTINUOUS
 62
     7
 10
29.1582711938
 20
21.4090100269
 30
0.0
  0
VERTEX
  5
28A
  8
0
  6
CONTINUOUS
 62
     7
 10
29.1287221911
 20
21.379458044
 30
0.0
  0
SEQEND
  5
2FD
  8
0
  6
CONTINUOUS
 62
     7
  0
LINE
  5
F4
  8
0
  6
CONTINUOUS
 62
     7
 10
115.1287236217
 20
87.9794603924
 30
0.0
 11
115.1287236217
 21
21.379458044
 31
0.0
  0
POLYLINE
  5
F5
  8
0
  6
CONTINUOUS
 62
     7
 66
     1
 10
0.0
 20
0.0
 30
0.0
  0
VERTEX
  5
28B
  8
0
  6
CONTINUOUS
 62
     7
 10
112.7287217382
 20
23.7794629077
 30
0.0
  0
VERTEX
  5
28C
  8
0
  6
CONTINUOUS
 62
     7
 10
113.1041654351
 20
23.4040192108
 30
0.0
  0
VERTEX
  5
28D
  8
0
  6
CONTINUOUS
 62
     7
 10
113.4703644517
 20
23.0378201942
 30
0.0
  0
VERTEX
  5
28E
  8
0
  6
CONTINUOUS
 62
     7
 10
113.8183006051
 20
22.6898840408
 30
0.0
  0
VERTEX
  5
28F
  8
0
  6
CONTINUOUS
 62
     7
 10
114.1394087079
 20
22.368775938
 30
0.0
  0
VERTEX
  5
290
  8
0
  6
CONTINUOUS
 62
     7
 10
114.4257792237
 20
22.0824054222
 30
0.0
  0
VERTEX
  5
291
  8
0
  6
CONTINUOUS
 62
     7
 10
114.6703639033
 20
21.8378177623
 30
0.0
  0
VERTEX
  5
292
  8
0
  6
CONTINUOUS
 62
     7
 10
114.8671396974
 20
21.6410449485
 30
0.0
  0
VERTEX
  5
293
  8
0
  6
CONTINUOUS
 62
     7
 10
115.011257768
 20
21.4969268779
 30
0.0
  0
VERTEX
  5
294
  8
0
  6
CONTINUOUS
 62
     7
 10
115.099174619
 20
21.4090100269
 30
0.0
  0
VERTEX
  5
295
  8
0
  6
CONTINUOUS
 62
     7
 10
115.1287236217
 20
21.379458044
 30
0.0
  0
SEQEND
  5
2FC
  8
0
  6
CONTINUOUS
 62
     7
  0
LINE
  5
F6
  8
0
  6
CONTINUOUS
 62
     7
 10
115.1287236217
 20
21.379458044
 30
0.0
 11
29.1287221911
 21
21.379458044
 31
0.0
  0
LINE
  5
F7
  8
0
  6
CONTINUOUS
 62
     7
 10
56.128723264
 20
103.5794607143
 30
0.0
 11
56.128723264
 21
94.1794610362
 31
0.0
  0
LINE
  5
F8
  8
0
  6
CONTINUOUS
 62
     7
 10
88.1287225488
 20
103.5794607143
 30
0.0
 11
56.128723264
 21
103.5794607143
 31
0.0
  0
LINE
  5
F9
  8
0
  6
CONTINUOUS
 62
     7
 10
88.1287225488
 20
103.5794607143
 30
0.0
 11
88.1287225488
 21
94.1794610362
 31
0.0
  0
LINE
  5
FA
  8
0
  6
CONTINUOUS
 62
     7
 10
88.1287225488
 20
94.1794610362
 30
0.0
 11
56.128723264
 21
94.1794610362
 31
0.0
  0
LINE
  5
FB
  8
0
  6
CONTINUOUS
 62
     7
 10
116.0287239554
 20
103.5794607143
 30
0.0
 11
116.0287239554
 21
94.1794610362
 31
0.0
  0
LINE
  5
FC
  8
0
  6
CONTINUOUS
 62
     7
 10
88.1287225488
 20
94.1794610362
 30
0.0
 11
116.0287239554
 21
94.1794610362
 31
0.0
  0
LINE
  5
FD
  8
0
  6
CONTINUOUS
 62
     7
 10
116.0287239554
 20
103.5794607143
 30
0.0
 11
88.1287225488
 21
103.5794607143
 31
0.0
  0
LINE
  5
FE
  8
0
  6
CONTINUOUS
 62
     7
 10
28.2287218574
 20
94.1794610362
 30
0.0
 11
56.128723264
 21
94.1794610362
 31
0.0
  0
LINE
  5
FF
  8
0
  6
CONTINUOUS
 62
     7
 10
28.2287218574
 20
103.5794607143
 30
0.0
 11
28.2287218574
 21
94.1794610362
 31
0.0
  0
LINE
  5
100
  8
0
  6
CONTINUOUS
 62
     7
 10
56.128723264
 20
103.5794607143
 30
0.0
 11
28.2287218574
 21
103.5794607143
 31
0.0
  0
LINE
  5
101
  8
0
  6
CONTINUOUS
 62
     7
 10
115.9287222627
 20
89.5794606547
 30
0.0
 11
115.9287222627
 21
94.1794610362
 31
0.0
  0
LINE
  5
102
  8
0
  6
CONTINUOUS
 62
     7
 10
88.1019272807
 20
89.5794606547
 30
0.0
 11
88.1019272807
 21
94.1794610362
 31
0.0
  0
LINE
  5
103
  8
0
  6
CONTINUOUS
 62
     7
 10
56.1555185321
 20
89.5794606547
 30
0.0
 11
56.1555185321
 21
94.1794610362
 31
0.0
  0
LINE
  5
104
  8
0
  6
CONTINUOUS
 62
     7
 10
28.3287235501
 20
89.5794606547
 30
0.0
 11
28.3287235501
 21
94.1794610362
 31
0.0
  0
LINE
  5
105
  8
0
  6
CONTINUOUS
 62
     7
 10
113.92872417
 20
87.5794610719
 30
0.0
 11
87.5660293701
 21
87.5794610719
 31
0.0
  0
POLYLINE
  5
106
  8
0
  6
CONTINUOUS
 62
     7
 66
     1
 10
0.0
 20
0.0
 30
0.0
  0
VERTEX
  5
296
  8
0
  6
CONTINUOUS
 62
     7
 10
87.5660293701
 20
87.5794610719
 30
0.0
  0
VERTEX
  5
297
  8
0
  6
CONTINUOUS
 62
     7
 10
87.6705788973
 20
87.6178896765
 30
0.0
  0
VERTEX
  5
298
  8
0
  6
CONTINUOUS
 62
     7
 10
87.7711095813
 20
87.7317017655
 30
0.0
  0
VERTEX
  5
299
  8
0
  6
CONTINUOUS
 62
     7
 10
87.8637590411
 20
87.9165208678
 30
0.0
  0
VERTEX
  5
29A
  8
0
  6
CONTINUOUS
 62
     7
 10
87.9449673894
 20
88.1652465801
 30
0.0
  0
VERTEX
  5
29B
  8
0
  6
CONTINUOUS
 62
     7
 10
88.0116128328
 20
88.4683198075
 30
0.0
  0
VERTEX
  5
29C
  8
0
  6
CONTINUOUS
 62
     7
 10
88.0611353519
 20
88.8140938024
 30
0.0
  0
VERTEX
  5
29D
  8
0
  6
CONTINUOUS
 62
     7
 10
88.0916305783
 20
89.1892797093
 30
0.0
  0
VERTEX
  5
29E
  8
0
  6
CONTINUOUS
 62
     7
 10
88.1019272807
 20
89.5794606547
 30
0.0
  0
SEQEND
  5
2FB
  8
0
  6
CONTINUOUS
 62
     7
  0
ARC
  5
107
  8
0
  6
CONTINUOUS
 62
     7
 10
113.9287248222
 20
89.5794585124
 30
0.0
 40
1.999997440458696
 50
269.999981316
 51
0.0000613727
  0
POLYLINE
  5
108
  8
0
  6
CONTINUOUS
 62
     7
 66
     1
 10
0.0
 20
0.0
 30
0.0
  0
VERTEX
  5
29F
  8
0
  6
CONTINUOUS
 62
     7
 10
56.1555185321
 20
89.5794606547
 30
0.0
  0
VERTEX
  5
2A0
  8
0
  6
CONTINUOUS
 62
     7
 10
56.1658152345
 20
89.1892797093
 30
0.0
  0
VERTEX
  5
2A1
  8
0
  6
CONTINUOUS
 62
     7
 10
56.1963104609
 20
88.8140938024
 30
0.0
  0
VERTEX
  5
2A2
  8
0
  6
CONTINUOUS
 62
     7
 10
56.24583298
 20
88.4683198075
 30
0.0
  0
VERTEX
  5
2A3
  8
0
  6
CONTINUOUS
 62
     7
 10
56.3124784234
 20
88.1652465801
 30
0.0
  0
VERTEX
  5
2A4
  8
0
  6
CONTINUOUS
 62
     7
 10
56.3936867717
 20
87.9165208678
 30
0.0
  0
VERTEX
  5
2A5
  8
0
  6
CONTINUOUS
 62
     7
 10
56.4863362315
 20
87.7317017655
 30
0.0
  0
VERTEX
  5
2A6
  8
0
  6
CONTINUOUS
 62
     7
 10
56.5868669155
 20
87.6178896765
 30
0.0
  0
VERTEX
  5
2A7
  8
0
  6
CONTINUOUS
 62
     7
 10
56.6914164427
 20
87.5794610719
 30
0.0
  0
SEQEND
  5
2FA
  8
0
  6
CONTINUOUS
 62
     7
  0
LINE
  5
109
  8
0
  6
CONTINUOUS
 62
     7
 10
56.6914164427
 20
87.5794610719
 30
0.0
 11
30.3287216428
 21
87.5794610719
 31
0.0
  0
ARC
  5
10A
  8
0
  6
CONTINUOUS
 62
     7
 10
30.3287209906
 20
89.5794585124
 30
0.0
 40
1.999997440458763
 50
179.9999386273
 51
270.000018684
  0
LINE
  5
10B
  8
0
  6
CONTINUOUS
 62
     7
 10
87.5660293701
 20
87.5794610719
 30
0.0
 11
56.6914164427
 21
87.5794610719
 31
0.0
  0
LINE
  5
10C
  8
0
  6
CONTINUOUS
 62
     7
 10
116.8287225965
 20
103.5794607143
 30
0.0
 11
116.8287225965
 21
98.9794607053
 31
0.0
  0
LINE
  5
10D
  8
0
  6
CONTINUOUS
 62
     7
 10
116.8287225965
 20
103.5794607143
 30
0.0
 11
116.0287239554
 21
103.5794607143
 31
0.0
  0
LINE
  5
10E
  8
0
  6
CONTINUOUS
 62
     7
 10
27.4287232163
 20
98.9794607053
 30
0.0
 11
27.4287232163
 21
103.5794607143
 31
0.0
  0
LINE
  5
10F
  8
0
  6
CONTINUOUS
 62
     7
 10
27.4287232163
 20
103.5794607143
 30
0.0
 11
28.2287218574
 21
103.5794607143
 31
0.0
  0
LINE
  5
110
  8
0
  6
CONTINUOUS
 62
     7
 10
28.2287218574
 20
94.9794604222
 30
0.0
 11
27.4287232163
 21
94.9794604222
 31
0.0
  0
LINE
  5
111
  8
0
  6
CONTINUOUS
 62
     7
 10
27.4287232163
 20
94.9794604222
 30
0.0
 11
27.4287232163
 21
98.9794607053
 31
0.0
  0
LINE
  5
112
  8
0
  6
CONTINUOUS
 62
     7
 10
116.8287225965
 20
94.9794604222
 30
0.0
 11
116.0287239554
 21
94.9794604222
 31
0.0
  0
LINE
  5
113
  8
0
  6
CONTINUOUS
 62
     7
 10
116.8287225965
 20
98.9794607053
 30
0.0
 11
116.8287225965
 21
94.9794604222
 31
0.0
  0
LINE
  5
114
  8
0
  6
CONTINUOUS
 62
     7
 10
28.2287218574
 20
90.9794605116
 30
0.0
 11
28.2287218574
 21
94.1794610362
 31
0.0
  0
LINE
  5
115
  8
0
  6
CONTINUOUS
 62
     7
 10
27.4287232163
 20
90.9794605116
 30
0.0
 11
27.4287232163
 21
94.9794604222
 31
0.0
  0
LINE
  5
116
  8
0
  6
CONTINUOUS
 62
     7
 10
116.0287239554
 20
94.1794610362
 30
0.0
 11
116.0287239554
 21
90.9794605116
 31
0.0
  0
LINE
  5
117
  8
0
  6
CONTINUOUS
 62
     7
 10
116.8287225965
 20
94.9794604222
 30
0.0
 11
116.8287225965
 21
90.9794605116
 31
0.0
  0
LINE
  5
118
  8
0
  6
CONTINUOUS
 62
     7
 10
28.2287218574
 20
86.9794613461
 30
0.0
 11
28.2287218574
 21
90.9794605116
 31
0.0
  0
LINE
  5
119
  8
0
  6
CONTINUOUS
 62
     7
 10
27.4287232163
 20
86.9794613461
 30
0.0
 11
27.4287232163
 21
90.9794605116
 31
0.0
  0
LINE
  5
11A
  8
0
  6
CONTINUOUS
 62
     7
 10
116.0287239554
 20
90.9794605116
 30
0.0
 11
116.0287239554
 21
86.9794613461
 31
0.0
  0
LINE
  5
11B
  8
0
  6
CONTINUOUS
 62
     7
 10
116.8287225965
 20
90.9794605116
 30
0.0
 11
116.8287225965
 21
86.9794613461
 31
0.0
  0
LINE
  5
11C
  8
0
  6
CONTINUOUS
 62
     7
 10
116.0287239554
 20
86.9794613461
 30
0.0
 11
116.0287239554
 21
83.0308384041
 31
0.0
  0
LINE
  5
11D
  8
0
  6
CONTINUOUS
 62
     7
 10
116.8287225965
 20
86.9794613461
 30
0.0
 11
116.8287225965
 21
83.0308384041
 31
0.0
  0
LINE
  5
11E
  8
0
  6
CONTINUOUS
 62
     7
 10
28.2287218574
 20
83.0308384041
 30
0.0
 11
28.2287218574
 21
86.9794613461
 31
0.0
  0
LINE
  5
11F
  8
0
  6
CONTINUOUS
 62
     7
 10
27.4287232163
 20
83.0308384041
 30
0.0
 11
27.4287232163
 21
86.9794613461
 31
0.0
  0
LINE
  5
120
  8
0
  6
CONTINUOUS
 62
     7
 10
28.2287218574
 20
79.3794608454
 30
0.0
 11
27.4287232163
 21
79.3794608454
 31
0.0
  0
LINE
  5
121
  8
0
  6
CONTINUOUS
 62
     7
 10
28.2287218574
 20
83.0308384041
 30
0.0
 11
28.2287218574
 21
79.3794608454
 31
0.0
  0
LINE
  5
122
  8
0
  6
CONTINUOUS
 62
     7
 10
27.4287232163
 20
79.3794608454
 30
0.0
 11
27.4287232163
 21
83.0308384041
 31
0.0
  0
LINE
  5
123
  8
0
  6
CONTINUOUS
 62
     7
 10
116.8287225965
 20
79.3794608454
 30
0.0
 11
116.0287239554
 21
79.3794608454
 31
0.0
  0
LINE
  5
124
  8
0
  6
CONTINUOUS
 62
     7
 10
116.0287239554
 20
79.3794608454
 30
0.0
 11
116.0287239554
 21
83.0308384041
 31
0.0
  0
LINE
  5
125
  8
0
  6
CONTINUOUS
 62
     7
 10
116.8287225965
 20
83.0308384041
 30
0.0
 11
116.8287225965
 21
79.3794608454
 31
0.0
  0
ARC
  5
126
  8
0
  6
CONTINUOUS
 62
     7
 10
129.2287229064
 20
-41.7813220889
 30
0.0
 40
0.6000000000000014
 50
270.0
 51
0.0
  0
ARC
  5
127
  8
0
  6
CONTINUOUS
 62
     7
 10
119.8287229064
 20
-41.7813220889
 30
0.0
 40
0.6000000000000085
 50
180.0
 51
270.0
  0
LINE
  5
128
  8
0
  6
CONTINUOUS
 62
     7
 10
119.8287227157
 20
-42.3813219956
 30
0.0
 11
129.2287209037
 21
-42.3813219956
 31
0.0
  0
ARC
  5
129
  8
0
  6
CONTINUOUS
 62
     7
 10
15.0287229064
 20
-41.7813220889
 30
0.0
 40
0.6000000000000032
 50
180.0
 51
270.0
  0
ARC
  5
12A
  8
0
  6
CONTINUOUS
 62
     7
 10
24.4287229064
 20
-41.7813220889
 30
0.0
 40
0.6000000000000014
 50
270.0
 51
0.0
  0
LINE
  5
12B
  8
0
  6
CONTINUOUS
 62
     7
 10
15.0287249091
 20
-42.3813219956
 30
0.0
 11
24.4287230971
 21
-42.3813219956
 31
0.0
  0
LINE
  5
12C
  8
0
  6
CONTINUOUS
 62
     7
 10
116.0287239554
 20
-39.5946409396
 30
0.0
 11
116.8287225965
 21
-39.5946409396
 31
0.0
  0
LINE
  5
12D
  8
0
  6
CONTINUOUS
 62
     7
 10
27.4287232163
 20
-39.5946409396
 30
0.0
 11
28.2287218574
 21
-39.5946409396
 31
0.0
  0
LINE
  5
12E
  8
0
  6
CONTINUOUS
 62
     7
 10
27.4287232163
 20
-34.0946417145
 30
0.0
 11
25.0287243131
 21
-34.0946417145
 31
0.0
  0
LINE
  5
12F
  8
0
  6
CONTINUOUS
 62
     7
 10
25.0287243131
 20
-37.0946418337
 30
0.0
 11
27.4287232163
 21
-37.0946418337
 31
0.0
  0
LINE
  5
130
  8
0
  6
CONTINUOUS
 62
     7
 10
116.8287225965
 20
-37.0946418337
 30
0.0
 11
119.2287214997
 21
-37.0946418337
 31
0.0
  0
LINE
  5
131
  8
0
  6
CONTINUOUS
 62
     7
 10
119.2287214997
 20
-34.0946417145
 30
0.0
 11
116.8287225965
 21
-34.0946417145
 31
0.0
  0
LINE
  5
132
  8
0
  6
CONTINUOUS
 62
     7
 10
116.0287239554
 20
-41.5946420125
 30
0.0
 11
114.9287232163
 21
-41.5946420125
 31
0.0
  0
LINE
  5
133
  8
0
  6
CONTINUOUS
 62
     7
 10
29.3287225965
 20
-41.5946420125
 30
0.0
 11
28.2287218574
 21
-41.5946420125
 31
0.0
  0
LINE
  5
134
  8
0
  6
CONTINUOUS
 62
     7
 10
28.2287218574
 20
-43.9946409158
 30
0.0
 11
29.3287225965
 21
-43.9946409158
 31
0.0
  0
LINE
  5
135
  8
0
  6
CONTINUOUS
 62
     7
 10
114.9287232163
 20
-43.9946409158
 30
0.0
 11
116.0287239554
 21
-43.9946409158
 31
0.0
  0
LINE
  5
136
  8
0
  6
CONTINUOUS
 62
     7
 10
130.29583478
 20
-27.3510221235
 30
0.0
 11
130.4287233356
 21
-30.3946416668
 31
0.0
  0
LINE
  5
137
  8
0
  6
CONTINUOUS
 62
     7
 10
130.4287233356
 20
-30.3946416668
 30
0.0
 11
129.4296720031
 21
-30.3946416668
 31
0.0
  0
LINE
  5
138
  8
0
  6
CONTINUOUS
 62
     7
 10
129.4296720031
 20
-30.3946416668
 30
0.0
 11
119.6277716163
 21
-30.3946416668
 31
0.0
  0
LINE
  5
139
  8
0
  6
CONTINUOUS
 62
     7
 10
119.6277716163
 20
-30.3946416668
 30
0.0
 11
118.628723264
 21
-30.3946416668
 31
0.0
  0
LINE
  5
13A
  8
0
  6
CONTINUOUS
 62
     7
 10
118.628723264
 20
-30.3946416668
 30
0.0
 11
118.7616088393
 21
-27.3510221235
 31
0.0
  0
ARC
  5
13B
  8
0
  6
CONTINUOUS
 62
     7
 10
119.7606584203
 20
-27.3946415714
 30
0.0
 40
1.000000000000004
 50
90.0
 51
177.5
  0
ARC
  5
13C
  8
0
  6
CONTINUOUS
 62
     7
 10
129.2967873925
 20
-27.3946415714
 30
0.0
 40
1.000000000000004
 50
2.5
 51
90.0
  0
LINE
  5
13D
  8
0
  6
CONTINUOUS
 62
     7
 10
119.7606571916
 20
-26.3946417562
 30
0.0
 11
129.296789408
 21
-26.3946417562
 31
0.0
  0
ARC
  5
13E
  8
0
  6
CONTINUOUS
 62
     7
 10
130.4287229064
 20
-30.9946415714
 30
0.0
 40
0.6000000000000227
 50
90.0
 51
180.0
  0
ARC
  5
13F
  8
0
  6
CONTINUOUS
 62
     7
 10
118.6287229064
 20
-30.9946415714
 30
0.0
 40
0.5999999999999979
 50
0.0
 51
90.0
  0
LINE
  5
140
  8
0
  6
CONTINUOUS
 62
     7
 10
129.8287250999
 20
-30.9946413926
 30
0.0
 11
129.8287250999
 21
-37.0216559462
 31
0.0
  0
LINE
  5
141
  8
0
  6
CONTINUOUS
 62
     7
 10
119.2287214997
 20
-37.0216559462
 30
0.0
 11
119.2287214997
 21
-30.9946413926
 31
0.0
  0
LINE
  5
142
  8
0
  6
CONTINUOUS
 62
     7
 10
129.8287250999
 20
-37.0216559462
 30
0.0
 11
129.8287250999
 21
-41.7813222698
 31
0.0
  0
LINE
  5
143
  8
0
  6
CONTINUOUS
 62
     7
 10
119.2287214997
 20
-41.7813222698
 30
0.0
 11
119.2287214997
 21
-37.0216559462
 31
0.0
  0
LINE
  5
144
  8
0
  6
CONTINUOUS
 62
     7
 10
25.4958369735
 20
-27.3510221235
 30
0.0
 11
25.6287225488
 21
-30.3946416668
 31
0.0
  0
LINE
  5
145
  8
0
  6
CONTINUOUS
 62
     7
 10
25.6287225488
 20
-30.3946416668
 30
0.0
 11
24.6296741965
 21
-30.3946416668
 31
0.0
  0
LINE
  5
146
  8
0
  6
CONTINUOUS
 62
     7
 10
24.6296741965
 20
-30.3946416668
 30
0.0
 11
14.8277738097
 21
-30.3946416668
 31
0.0
  0
LINE
  5
147
  8
0
  6
CONTINUOUS
 62
     7
 10
14.8277738097
 20
-30.3946416668
 30
0.0
 11
13.8287224773
 21
-30.3946416668
 31
0.0
  0
LINE
  5
148
  8
0
  6
CONTINUOUS
 62
     7
 10
13.8287224773
 20
-30.3946416668
 30
0.0
 11
13.9616110328
 21
-27.3510221235
 31
0.0
  0
LINE
  5
149
  8
0
  6
CONTINUOUS
 62
     7
 10
14.9606564048
 20
-26.3946417562
 30
0.0
 11
24.4967886212
 21
-26.3946417562
 31
0.0
  0
ARC
  5
14A
  8
0
  6
CONTINUOUS
 62
     7
 10
14.9606584203
 20
-27.3946415714
 30
0.0
 40
1.000000000000004
 50
90.0
 51
177.5
  0
ARC
  5
14B
  8
0
  6
CONTINUOUS
 62
     7
 10
24.4967873925
 20
-27.3946415714
 30
0.0
 40
1.000000000000004
 50
2.5
 51
90.0
  0
ARC
  5
14C
  8
0
  6
CONTINUOUS
 62
     7
 10
13.8287229064
 20
-30.9946415714
 30
0.0
 40
0.600000000000005
 50
0.0
 51
90.0
  0
ARC
  5
14D
  8
0
  6
CONTINUOUS
 62
     7
 10
25.6287229064
 20
-30.9946415714
 30
0.0
 40
0.600000000000005
 50
90.0
 51
180.0
  0
LINE
  5
14E
  8
0
  6
CONTINUOUS
 62
     7
 10
25.0287243131
 20
-30.9946413926
 30
0.0
 11
25.0287243131
 21
-37.0216559462
 31
0.0
  0
LINE
  5
14F
  8
0
  6
CONTINUOUS
 62
     7
 10
14.428720713
 20
-37.0216559462
 30
0.0
 11
14.428720713
 21
-30.9946413926
 31
0.0
  0
LINE
  5
150
  8
0
  6
CONTINUOUS
 62
     7
 10
25.0287243131
 20
-37.0216559462
 30
0.0
 11
25.0287243131
 21
-41.7813222698
 31
0.0
  0
LINE
  5
151
  8
0
  6
CONTINUOUS
 62
     7
 10
14.428720713
 20
-41.7813222698
 30
0.0
 11
14.428720713
 21
-37.0216559462
 31
0.0
  0
LINE
  5
152
  8
0
  6
CONTINUOUS
 62
     7
 10
115.1287236217
 20
-39.1946416191
 30
0.0
 11
29.1287221911
 21
-39.1946416191
 31
0.0
  0
LINE
  5
153
  8
0
  6
CONTINUOUS
 62
     7
 10
29.1287221911
 20
-38.5946418933
 30
0.0
 11
29.1287221911
 21
-39.1946416191
 31
0.0
  0
LINE
  5
154
  8
0
  6
CONTINUOUS
 62
     7
 10
115.1287236217
 20
-38.5946418933
 30
0.0
 11
115.1287236217
 21
-39.1946416191
 31
0.0
  0
LINE
  5
155
  8
0
  6
CONTINUOUS
 62
     7
 10
29.3287225965
 20
-46.5946417145
 30
0.0
 11
29.3287225965
 21
-39.1946416191
 31
0.0
  0
LINE
  5
156
  8
0
  6
CONTINUOUS
 62
     7
 10
114.9287232163
 20
-39.1946416191
 30
0.0
 11
114.9287232163
 21
-46.5946417145
 31
0.0
  0
ARC
  5
157
  8
0
  6
CONTINUOUS
 62
     7
 10
29.9287229064
 20
-46.5946415714
 30
0.0
 40
0.600000000000005
 50
180.0
 51
270.0
  0
ARC
  5
158
  8
0
  6
CONTINUOUS
 62
     7
 10
114.3287229064
 20
-46.5946415714
 30
0.0
 40
0.6000000000000085
 50
270.0
 51
0.0
  0
LINE
  5
159
  8
0
  6
CONTINUOUS
 62
     7
 10
114.3287220004
 20
-47.1946414403
 30
0.0
 11
29.9287238124
 21
-47.1946414403
 31
0.0
  0
LINE
  5
15A
  8
0
  6
CONTINUOUS
 62
     7
 10
56.128723264
 20
-22.9946415714
 30
0.0
 11
56.128723264
 21
-32.3946412496
 31
0.0
  0
LINE
  5
15B
  8
0
  6
CONTINUOUS
 62
     7
 10
88.1287225488
 20
-22.9946415714
 30
0.0
 11
56.128723264
 21
-22.9946415714
 31
0.0
  0
LINE
  5
15C
  8
0
  6
CONTINUOUS
 62
     7
 10
88.1287225488
 20
-22.9946415714
 30
0.0
 11
88.1287225488
 21
-32.3946412496
 31
0.0
  0
LINE
  5
15D
  8
0
  6
CONTINUOUS
 62
     7
 10
88.1287225488
 20
-32.3946412496
 30
0.0
 11
56.128723264
 21
-32.3946412496
 31
0.0
  0
LINE
  5
15E
  8
0
  6
CONTINUOUS
 62
     7
 10
116.0287239554
 20
-22.9946415714
 30
0.0
 11
116.0287239554
 21
-32.3946412496
 31
0.0
  0
LINE
  5
15F
  8
0
  6
CONTINUOUS
 62
     7
 10
88.1287225488
 20
-32.3946412496
 30
0.0
 11
116.0287239554
 21
-32.3946412496
 31
0.0
  0
LINE
  5
160
  8
0
  6
CONTINUOUS
 62
     7
 10
116.0287239554
 20
-22.9946415714
 30
0.0
 11
88.1287225488
 21
-22.9946415714
 31
0.0
  0
LINE
  5
161
  8
0
  6
CONTINUOUS
 62
     7
 10
28.2287218574
 20
-32.3946412496
 30
0.0
 11
56.128723264
 21
-32.3946412496
 31
0.0
  0
LINE
  5
162
  8
0
  6
CONTINUOUS
 62
     7
 10
28.2287218574
 20
-22.9946415714
 30
0.0
 11
28.2287218574
 21
-32.3946412496
 31
0.0
  0
LINE
  5
163
  8
0
  6
CONTINUOUS
 62
     7
 10
56.128723264
 20
-22.9946415714
 30
0.0
 11
28.2287218574
 21
-22.9946415714
 31
0.0
  0
LINE
  5
164
  8
0
  6
CONTINUOUS
 62
     7
 10
115.9287222627
 20
-36.994641631
 30
0.0
 11
115.9287222627
 21
-32.3946412496
 31
0.0
  0
LINE
  5
165
  8
0
  6
CONTINUOUS
 62
     7
 10
88.1019272807
 20
-36.994641631
 30
0.0
 11
88.1019272807
 21
-32.3946412496
 31
0.0
  0
LINE
  5
166
  8
0
  6
CONTINUOUS
 62
     7
 10
56.1555185321
 20
-36.994641631
 30
0.0
 11
56.1555185321
 21
-32.3946412496
 31
0.0
  0
LINE
  5
167
  8
0
  6
CONTINUOUS
 62
     7
 10
28.3287235501
 20
-36.994641631
 30
0.0
 11
28.3287235501
 21
-32.3946412496
 31
0.0
  0
LINE
  5
168
  8
0
  6
CONTINUOUS
 62
     7
 10
113.92872417
 20
-38.9946412138
 30
0.0
 11
87.5660293701
 21
-38.9946412138
 31
0.0
  0
POLYLINE
  5
169
  8
0
  6
CONTINUOUS
 62
     7
 66
     1
 10
0.0
 20
0.0
 30
0.0
  0
VERTEX
  5
2A8
  8
0
  6
CONTINUOUS
 62
     7
 10
87.5660293701
 20
-38.9946412138
 30
0.0
  0
VERTEX
  5
2A9
  8
0
  6
CONTINUOUS
 62
     7
 10
87.6705788973
 20
-38.9562126092
 30
0.0
  0
VERTEX
  5
2AA
  8
0
  6
CONTINUOUS
 62
     7
 10
87.7711095813
 20
-38.8424005202
 30
0.0
  0
VERTEX
  5
2AB
  8
0
  6
CONTINUOUS
 62
     7
 10
87.8637590411
 20
-38.6575814179
 30
0.0
  0
VERTEX
  5
2AC
  8
0
  6
CONTINUOUS
 62
     7
 10
87.9449673894
 20
-38.4088557056
 30
0.0
  0
VERTEX
  5
2AD
  8
0
  6
CONTINUOUS
 62
     7
 10
88.0116128328
 20
-38.1057824782
 30
0.0
  0
VERTEX
  5
2AE
  8
0
  6
CONTINUOUS
 62
     7
 10
88.0611353519
 20
-37.7600084833
 30
0.0
  0
VERTEX
  5
2AF
  8
0
  6
CONTINUOUS
 62
     7
 10
88.0916305783
 20
-37.3848225764
 30
0.0
  0
VERTEX
  5
2B0
  8
0
  6
CONTINUOUS
 62
     7
 10
88.1019272807
 20
-36.994641631
 30
0.0
  0
SEQEND
  5
2F9
  8
0
  6
CONTINUOUS
 62
     7
  0
ARC
  5
16A
  8
0
  6
CONTINUOUS
 62
     7
 10
113.9287248222
 20
-36.9946437733
 30
0.0
 40
1.999997440458706
 50
269.999981316
 51
0.0000613727
  0
POLYLINE
  5
16B
  8
0
  6
CONTINUOUS
 62
     7
 66
     1
 10
0.0
 20
0.0
 30
0.0
  0
VERTEX
  5
2B1
  8
0
  6
CONTINUOUS
 62
     7
 10
56.1555185321
 20
-36.994641631
 30
0.0
  0
VERTEX
  5
2B2
  8
0
  6
CONTINUOUS
 62
     7
 10
56.1658152345
 20
-37.3848225764
 30
0.0
  0
VERTEX
  5
2B3
  8
0
  6
CONTINUOUS
 62
     7
 10
56.1963104609
 20
-37.7600084833
 30
0.0
  0
VERTEX
  5
2B4
  8
0
  6
CONTINUOUS
 62
     7
 10
56.24583298
 20
-38.1057824782
 30
0.0
  0
VERTEX
  5
2B5
  8
0
  6
CONTINUOUS
 62
     7
 10
56.3124784234
 20
-38.4088557056
 30
0.0
  0
VERTEX
  5
2B6
  8
0
  6
CONTINUOUS
 62
     7
 10
56.3936867717
 20
-38.6575814179
 30
0.0
  0
VERTEX
  5
2B7
  8
0
  6
CONTINUOUS
 62
     7
 10
56.4863362315
 20
-38.8424005202
 30
0.0
  0
VERTEX
  5
2B8
  8
0
  6
CONTINUOUS
 62
     7
 10
56.5868669155
 20
-38.9562126092
 30
0.0
  0
VERTEX
  5
2B9
  8
0
  6
CONTINUOUS
 62
     7
 10
56.6914164427
 20
-38.9946412138
 30
0.0
  0
SEQEND
  5
2F8
  8
0
  6
CONTINUOUS
 62
     7
  0
LINE
  5
16C
  8
0
  6
CONTINUOUS
 62
     7
 10
56.6914164427
 20
-38.9946412138
 30
0.0
 11
30.3287216428
 21
-38.9946412138
 31
0.0
  0
ARC
  5
16D
  8
0
  6
CONTINUOUS
 62
     7
 10
30.3287209906
 20
-36.9946437733
 30
0.0
 40
1.999997440458763
 50
179.9999386273
 51
270.000018684
  0
LINE
  5
16E
  8
0
  6
CONTINUOUS
 62
     7
 10
87.5660293701
 20
-38.9946412138
 30
0.0
 11
56.6914164427
 21
-38.9946412138
 31
0.0
  0
LINE
  5
16F
  8
0
  6
CONTINUOUS
 62
     7
 10
27.4287232163
 20
-27.5946415804
 30
0.0
 11
27.4287232163
 21
-22.9946415714
 31
0.0
  0
LINE
  5
170
  8
0
  6
CONTINUOUS
 62
     7
 10
27.4287232163
 20
-22.9946415714
 30
0.0
 11
28.2287218574
 21
-22.9946415714
 31
0.0
  0
LINE
  5
171
  8
0
  6
CONTINUOUS
 62
     7
 10
116.8287225965
 20
-22.9946415714
 30
0.0
 11
116.8287225965
 21
-27.5946415804
 31
0.0
  0
LINE
  5
172
  8
0
  6
CONTINUOUS
 62
     7
 10
116.8287225965
 20
-22.9946415714
 30
0.0
 11
116.0287239554
 21
-22.9946415714
 31
0.0
  0
LINE
  5
173
  8
0
  6
CONTINUOUS
 62
     7
 10
28.2287218574
 20
-31.5946418635
 30
0.0
 11
27.4287232163
 21
-31.5946418635
 31
0.0
  0
LINE
  5
174
  8
0
  6
CONTINUOUS
 62
     7
 10
27.4287232163
 20
-31.5946418635
 30
0.0
 11
27.4287232163
 21
-27.5946415804
 31
0.0
  0
LINE
  5
175
  8
0
  6
CONTINUOUS
 62
     7
 10
116.8287225965
 20
-31.5946418635
 30
0.0
 11
116.0287239554
 21
-31.5946418635
 31
0.0
  0
LINE
  5
176
  8
0
  6
CONTINUOUS
 62
     7
 10
116.8287225965
 20
-27.5946415804
 30
0.0
 11
116.8287225965
 21
-31.5946418635
 31
0.0
  0
LINE
  5
177
  8
0
  6
CONTINUOUS
 62
     7
 10
28.2287218574
 20
-35.5946417741
 30
0.0
 11
28.2287218574
 21
-32.3946412496
 31
0.0
  0
LINE
  5
178
  8
0
  6
CONTINUOUS
 62
     7
 10
27.4287232163
 20
-35.5946417741
 30
0.0
 11
27.4287232163
 21
-31.5946418635
 31
0.0
  0
LINE
  5
179
  8
0
  6
CONTINUOUS
 62
     7
 10
116.0287239554
 20
-32.3946412496
 30
0.0
 11
116.0287239554
 21
-35.5946417741
 31
0.0
  0
LINE
  5
17A
  8
0
  6
CONTINUOUS
 62
     7
 10
116.8287225965
 20
-31.5946418635
 30
0.0
 11
116.8287225965
 21
-35.5946417741
 31
0.0
  0
LINE
  5
17B
  8
0
  6
CONTINUOUS
 62
     7
 10
116.0287239554
 20
-35.5946417741
 30
0.0
 11
116.0287239554
 21
-39.5946409396
 31
0.0
  0
LINE
  5
17C
  8
0
  6
CONTINUOUS
 62
     7
 10
116.8287225965
 20
-35.5946417741
 30
0.0
 11
116.8287225965
 21
-39.5946409396
 31
0.0
  0
LINE
  5
17D
  8
0
  6
CONTINUOUS
 62
     7
 10
28.2287218574
 20
-39.5946409396
 30
0.0
 11
28.2287218574
 21
-35.5946417741
 31
0.0
  0
LINE
  5
17E
  8
0
  6
CONTINUOUS
 62
     7
 10
27.4287232163
 20
-39.5946409396
 30
0.0
 11
27.4287232163
 21
-35.5946417741
 31
0.0
  0
LINE
  5
17F
  8
0
  6
CONTINUOUS
 62
     7
 10
28.2287218574
 20
-43.5432638816
 30
0.0
 11
28.2287218574
 21
-39.5946409396
 31
0.0
  0
LINE
  5
180
  8
0
  6
CONTINUOUS
 62
     7
 10
27.4287232163
 20
-43.5432638816
 30
0.0
 11
27.4287232163
 21
-39.5946409396
 31
0.0
  0
LINE
  5
181
  8
0
  6
CONTINUOUS
 62
     7
 10
116.0287239554
 20
-39.5946409396
 30
0.0
 11
116.0287239554
 21
-43.5432638816
 31
0.0
  0
LINE
  5
182
  8
0
  6
CONTINUOUS
 62
     7
 10
116.8287225965
 20
-39.5946409396
 30
0.0
 11
116.8287225965
 21
-43.5432638816
 31
0.0
  0
LINE
  5
183
  8
0
  6
CONTINUOUS
 62
     7
 10
116.8287225965
 20
-47.1946414403
 30
0.0
 11
116.0287239554
 21
-47.1946414403
 31
0.0
  0
LINE
  5
184
  8
0
  6
CONTINUOUS
 62
     7
 10
116.0287239554
 20
-47.1946414403
 30
0.0
 11
116.0287239554
 21
-43.5432638816
 31
0.0
  0
LINE
  5
185
  8
0
  6
CONTINUOUS
 62
     7
 10
116.8287225965
 20
-43.5432638816
 30
0.0
 11
116.8287225965
 21
-47.1946414403
 31
0.0
  0
LINE
  5
186
  8
0
  6
CONTINUOUS
 62
     7
 10
28.2287218574
 20
-47.1946414403
 30
0.0
 11
27.4287232163
 21
-47.1946414403
 31
0.0
  0
LINE
  5
187
  8
0
  6
CONTINUOUS
 62
     7
 10
28.2287218574
 20
-43.5432638816
 30
0.0
 11
28.2287218574
 21
-47.1946414403
 31
0.0
  0
LINE
  5
188
  8
0
  6
CONTINUOUS
 62
     7
 10
27.4287232163
 20
-47.1946414403
 30
0.0
 11
27.4287232163
 21
-43.5432638816
 31
0.0
  0
LINE
  5
189
  8
0
  6
CONTINUOUS
 62
     7
 10
207.5218920591
 20
198.3503959661
 30
0.0
 11
207.8138881358
 21
201.3828895574
 31
0.0
  0
POLYLINE
  5
18A
  8
0
  6
CONTINUOUS
 62
     7
 66
     1
 10
0.0
 20
0.0
 30
0.0
  0
VERTEX
  5
2BA
  8
0
  6
CONTINUOUS
 62
     7
 10
208.5195709946
 20
198.2981100266
 30
0.0
  0
VERTEX
  5
2BB
  8
0
  6
CONTINUOUS
 62
     7
 10
208.3248325618
 20
198.3083158319
 30
0.0
  0
VERTEX
  5
2BC
  8
0
  6
CONTINUOUS
 62
     7
 10
208.1376326265
 20
198.3181267564
 30
0.0
  0
VERTEX
  5
2BD
  8
0
  6
CONTINUOUS
 62
     7
 10
207.9651475879
 20
198.3271665459
 30
0.0
  0
VERTEX
  5
2BE
  8
0
  6
CONTINUOUS
 62
     7
 10
207.8139905812
 20
198.3350880032
 30
0.0
  0
VERTEX
  5
2BF
  8
0
  6
CONTINUOUS
 62
     7
 10
207.6899559232
 20
198.3415886347
 30
0.0
  0
VERTEX
  5
2C0
  8
0
  6
CONTINUOUS
 62
     7
 10
207.5977989467
 20
198.3464181011
 30
0.0
  0
VERTEX
  5
2C1
  8
0
  6
CONTINUOUS
 62
     7
 10
207.5410523446
 20
198.3493923728
 30
0.0
  0
VERTEX
  5
2C2
  8
0
  6
CONTINUOUS
 62
     7
 10
207.5218920591
 20
198.3503959661
 30
0.0
  0
SEQEND
  5
2F7
  8
0
  6
CONTINUOUS
 62
     7
  0
ARC
  5
18B
  8
0
  6
CONTINUOUS
 62
     7
 10
207.5160803264
 20
197.7498774158
 30
0.0
 40
0.6000000000000205
 50
359.5
 51
87.0
  0
LINE
  5
18C
  8
0
  6
CONTINUOUS
 62
     7
 10
266.4419853123
 20
195.2625251894
 30
0.0
 11
265.2207576664
 21
195.3265271668
 31
0.0
  0
LINE
  5
18D
  8
0
  6
CONTINUOUS
 62
     7
 10
265.2207576664
 20
195.3265271668
 30
0.0
 11
208.7469791057
 21
198.2861920779
 31
0.0
  0
LINE
  5
18E
  8
0
  6
CONTINUOUS
 62
     7
 10
208.7469791057
 20
198.2861920779
 30
0.0
 11
208.5195709946
 21
198.2981100266
 31
0.0
  0
ARC
  5
18F
  8
0
  6
CONTINUOUS
 62
     7
 10
267.0307351192
 20
194.6308465233
 30
0.0
 40
0.6000000000000092
 50
87.0
 51
127.601294645
  0
LINE
  5
190
  8
0
  6
CONTINUOUS
 62
     7
 10
267.4662494095
 20
198.2566415851
 30
0.0
 11
267.439665738
 21
195.2102385049
 31
0.0
  0
POLYLINE
  5
191
  8
0
  6
CONTINUOUS
 62
     7
 66
     1
 10
0.0
 20
0.0
 30
0.0
  0
VERTEX
  5
2C3
  8
0
  6
CONTINUOUS
 62
     7
 10
267.439665738
 20
195.2102385049
 30
0.0
  0
VERTEX
  5
2C4
  8
0
  6
CONTINUOUS
 62
     7
 10
267.4205028447
 20
195.2112428431
 30
0.0
  0
VERTEX
  5
2C5
  8
0
  6
CONTINUOUS
 62
     7
 10
267.3637592228
 20
195.2142171149
 30
0.0
  0
VERTEX
  5
2C6
  8
0
  6
CONTINUOUS
 62
     7
 10
267.2715985211
 20
195.2190465813
 30
0.0
  0
VERTEX
  5
2C7
  8
0
  6
CONTINUOUS
 62
     7
 10
267.1475672158
 20
195.2255472128
 30
0.0
  0
VERTEX
  5
2C8
  8
0
  6
CONTINUOUS
 62
     7
 10
266.9964098366
 20
195.2334686701
 30
0.0
  0
VERTEX
  5
2C9
  8
0
  6
CONTINUOUS
 62
     7
 10
266.8239259156
 20
195.2425084596
 30
0.0
  0
VERTEX
  5
2CA
  8
0
  6
CONTINUOUS
 62
     7
 10
266.6367256077
 20
195.2523193841
 30
0.0
  0
VERTEX
  5
2CB
  8
0
  6
CONTINUOUS
 62
     7
 10
266.4419853123
 20
195.2625251894
 30
0.0
  0
SEQEND
  5
2F6
  8
0
  6
CONTINUOUS
 62
     7
  0
ARC
  5
192
  8
0
  6
CONTINUOUS
 62
     7
 10
208.809284168
 20
201.2870439199
 30
0.0
 40
1.000000000000011
 50
87.0
 51
174.5
  0
LINE
  5
193
  8
0
  6
CONTINUOUS
 62
     7
 10
208.8616200717
 20
202.2856734281
 30
0.0
 11
266.5186249646
 21
199.2639980798
 31
0.0
  0
ARC
  5
194
  8
0
  6
CONTINUOUS
 62
     7
 10
266.466287782
 20
198.2653684004
 30
0.0
 40
1.000000000000021
 50
359.5
 51
87.0
  0
LINE
  5
195
  8
0
  6
CONTINUOUS
 62
     7
 10
208.0568243744
 20
190.9571893101
 30
0.0
 11
208.1160576077
 21
197.7446414118
 31
0.0
  0
CIRCLE
  5
196
  8
0
  6
CONTINUOUS
 62
     7
 10
215.8379590901
 20
192.7074334388
 30
0.0
 40
1.499999999999994
  0
ARC
  5
197
  8
0
  6
CONTINUOUS
 62
     7
 10
208.6568014409
 20
190.9519539214
 30
0.0
 40
0.5999999999999921
 50
179.5
 51
247.0
  0
LINE
  5
198
  8
0
  6
CONTINUOUS
 62
     7
 10
219.3433591159
 20
185.7639632707
 30
0.0
 11
208.422362897
 21
190.3996504431
 31
0.0
  0
ARC
  5
199
  8
0
  6
CONTINUOUS
 62
     7
 10
219.5777977614
 20
186.3162660154
 30
0.0
 40
0.5999999999999911
 50
247.0
 51
274.1250163489
  0
LINE
  5
19A
  8
0
  6
CONTINUOUS
 62
     7
 10
257.8952037724
 20
188.4781501775
 30
0.0
 11
219.6209573182
 21
185.7178203349
 31
0.0
  0
ARC
  5
19B
  8
0
  6
CONTINUOUS
 62
     7
 10
257.8520430794
 20
189.0765956361
 30
0.0
 40
0.599999999999989
 50
274.1250163489
 51
307.601294645
  0
LINE
  5
19C
  8
0
  6
CONTINUOUS
 62
     7
 10
266.6646384629
 20
195.1062120085
 30
0.0
 11
258.2181417378
 21
188.6012307887
 31
0.0
  0
ARC
  5
19D
  8
0
  6
CONTINUOUS
 62
     7
 10
214.6380476118
 20
152.307207544
 30
0.0
 40
2.400223464526063
 50
90.0021129622
 51
135.4083546053
  0
LINE
  5
19E
  8
0
  6
CONTINUOUS
 62
     7
 10
214.637959096
 20
154.7074310069
 30
0.0
 11
283.0379568966
 21
154.7074310069
 31
0.0
  0
ARC
  5
19F
  8
0
  6
CONTINUOUS
 62
     7
 10
283.0379573899
 20
152.3074266364
 30
0.0
 40
2.400004370507051
 50
0.0001305203
 51
90.0000117752
  0
LINE
  5
1A0
  8
0
  6
CONTINUOUS
 62
     7
 10
285.4379617604
 20
148.1074325328
 30
0.0
 11
227.4374254974
 21
148.1074325328
 31
0.0
  0
LINE
  5
1A1
  8
0
  6
CONTINUOUS
 62
     7
 10
285.4379617604
 20
152.3074321036
 30
0.0
 11
285.4379617604
 21
148.1074325328
 31
0.0
  0
LINE
  5
1A2
  8
0
  6
CONTINUOUS
 62
     7
 10
280.394967738
 20
140.1074342017
 30
0.0
 11
227.4379589589
 21
140.1074342017
 31
0.0
  0
LINE
  5
1A3
  8
0
  6
CONTINUOUS
 62
     7
 10
285.272737685
 20
147.8028110747
 30
0.0
 11
280.9118890198
 21
140.4028109794
 31
0.0
  0
ARC
  5
1A4
  8
0
  6
CONTINUOUS
 62
     7
 10
280.3949682863
 20
140.7074334388
 30
0.0
 40
0.6000000000000405
 50
270.0
 51
329.4889731154
  0
ARC
  5
1A5
  8
0
  6
CONTINUOUS
 62
     7
 10
284.7558199457
 20
148.1074334388
 30
0.0
 40
0.6000000000000261
 50
329.4889731154
 51
0.0
  0
LINE
  5
1A6
  8
0
  6
CONTINUOUS
 62
     7
 10
211.8379593821
 20
188.7074328546
 30
0.0
 11
212.4089778396
 21
188.7074328546
 31
0.0
  0
LINE
  5
1A7
  8
0
  6
CONTINUOUS
 62
     7
 10
211.8379593821
 20
156.7375801091
 30
0.0
 11
211.8379593821
 21
188.7074328546
 31
0.0
  0
ARC
  5
1A8
  8
0
  6
CONTINUOUS
 62
     7
 10
215.8379590901
 20
156.7375812858
 30
0.0
 40
3.999999999999981
 50
180.0
 51
265.0
  0
LINE
  5
1A9
  8
0
  6
CONTINUOUS
 62
     7
 10
223.7865814002
 20
152.0268849616
 30
0.0
 11
215.4893361958
 21
152.7528039699
 31
0.0
  0
ARC
  5
1AA
  8
0
  6
CONTINUOUS
 62
     7
 10
223.4379590901
 20
148.0421087427
 30
0.0
 40
4.0
 50
0.0
 51
85.0
  0
LINE
  5
1AB
  8
0
  6
CONTINUOUS
 62
     7
 10
227.4379589589
 20
131.70743506
 30
0.0
 11
227.4379589589
 21
148.0421058421
 31
0.0
  0
ARC
  5
1AC
  8
0
  6
CONTINUOUS
 62
     7
 10
223.4379590901
 20
131.7074334388
 30
0.0
 40
4.0
 50
270.0
 51
0.0
  0
ARC
  5
1AD
  8
0
  6
CONTINUOUS
 62
     7
 10
207.8379590901
 20
202.7074334388
 30
0.0
 40
4.000000000000028
 50
0.0
 51
90.0
  0
LINE
  5
1AE
  8
0
  6
CONTINUOUS
 62
     7
 10
211.8379593821
 20
202.1296903079
 30
0.0
 11
211.8379593821
 21
202.7074332868
 31
0.0
  0
LINE
  5
1AF
  8
0
  6
CONTINUOUS
 62
     7
 10
203.2379590901
 20
127.7074329143
 30
0.0
 11
223.4379597934
 21
127.7074329143
 31
0.0
  0
LINE
  5
1B0
  8
0
  6
CONTINUOUS
 62
     7
 10
207.837959099
 20
206.7074334768
 30
0.0
 11
203.2379590901
 21
206.7074334768
 31
0.0
  0
LINE
  5
1B1
  8
0
  6
CONTINUOUS
 62
     7
 10
203.2379590901
 20
206.7074334768
 30
0.0
 11
203.2379590901
 21
127.7074329143
 31
0.0
  0
LINE
  5
1B2
  8
0
  6
CONTINUOUS
 62
     7
 10
203.2379590901
 20
247.9993603711
 30
0.0
 11
212.6379587682
 21
247.9993603711
 31
0.0
  0
LINE
  5
1B3
  8
0
  6
CONTINUOUS
 62
     7
 10
212.6379587682
 20
247.9993603711
 30
0.0
 11
212.6379587682
 21
202.0877640282
 31
0.0
  0
LINE
  5
1B4
  8
0
  6
CONTINUOUS
 62
     7
 10
203.2379590901
 20
247.9993603711
 30
0.0
 11
203.2379590901
 21
206.7074334768
 31
0.0
  0
LINE
  5
1B5
  8
0
  6
CONTINUOUS
 62
     7
 10
203.2379590901
 20
264.1074351554
 30
0.0
 11
212.6379587682
 21
264.1074351554
 31
0.0
  0
LINE
  5
1B6
  8
0
  6
CONTINUOUS
 62
     7
 10
212.6379587682
 20
247.9993603711
 30
0.0
 11
212.6379587682
 21
264.1074351554
 31
0.0
  0
LINE
  5
1B7
  8
0
  6
CONTINUOUS
 62
     7
 10
203.2379590901
 20
264.1074351554
 30
0.0
 11
203.2379590901
 21
247.9993603711
 31
0.0
  0
LINE
  5
1B8
  8
0
  6
CONTINUOUS
 62
     7
 10
212.6379587682
 20
188.6102370505
 30
0.0
 11
212.6379587682
 21
158.0010674481
 31
0.0
  0
LINE
  5
1B9
  8
0
  6
CONTINUOUS
 62
     7
 10
211.8587695988
 20
156.3300899749
 30
0.0
 11
212.6379587682
 21
158.0010674481
 31
0.0
  0
LINE
  5
1BA
  8
0
  6
CONTINUOUS
 62
     7
 10
217.2379591497
 20
247.9416273122
 30
0.0
 11
212.6379587682
 21
247.9416273122
 31
0.0
  0
LINE
  5
1BB
  8
0
  6
CONTINUOUS
 62
     7
 10
217.2379591497
 20
209.3074336235
 30
0.0
 11
212.6379587682
 21
209.3074336235
 31
0.0
  0
LINE
  5
1BC
  8
0
  6
CONTINUOUS
 62
     7
 10
217.2379591497
 20
264.0074304824
 30
0.0
 11
212.6379587682
 21
264.0074304824
 31
0.0
  0
ARC
  5
1BD
  8
0
  6
CONTINUOUS
 62
     7
 10
217.2379667987
 20
262.0074385486
 30
0.0
 40
1.999991933790132
 50
359.9998235605
 51
90.0002191282
  0
LINE
  5
1BE
  8
0
  6
CONTINUOUS
 62
     7
 10
219.2379587324
 20
262.0074323897
 30
0.0
 11
219.2379587324
 21
246.7869244103
 31
0.0
  0
POLYLINE
  5
1BF
  8
0
  6
CONTINUOUS
 62
     7
 66
     1
 10
0.0
 20
0.0
 30
0.0
  0
VERTEX
  5
2CC
  8
0
  6
CONTINUOUS
 62
     7
 10
217.2379591497
 20
247.9416273122
 30
0.0
  0
VERTEX
  5
2CD
  8
0
  6
CONTINUOUS
 62
     7
 10
217.5852560433
 20
247.924082685
 30
0.0
  0
VERTEX
  5
2CE
  8
0
  6
CONTINUOUS
 62
     7
 10
217.9219999345
 20
247.8719882255
 30
0.0
  0
VERTEX
  5
2CF
  8
0
  6
CONTINUOUS
 62
     7
 10
218.2379596861
 20
247.7869264369
 30
0.0
  0
VERTEX
  5
2D0
  8
0
  6
CONTINUOUS
 62
     7
 10
218.5235344799
 20
247.6714782004
 30
0.0
  0
VERTEX
  5
2D1
  8
0
  6
CONTINUOUS
 62
     7
 10
218.7700473698
 20
247.5291512494
 30
0.0
  0
VERTEX
  5
2D2
  8
0
  6
CONTINUOUS
 62
     7
 10
218.9700105222
 20
247.3642758613
 30
0.0
  0
VERTEX
  5
2D3
  8
0
  6
CONTINUOUS
 62
     7
 10
219.1173442634
 20
247.1818558459
 30
0.0
  0
VERTEX
  5
2D4
  8
0
  6
CONTINUOUS
 62
     7
 10
219.2075752648
 20
246.9874374156
 30
0.0
  0
VERTEX
  5
2D5
  8
0
  6
CONTINUOUS
 62
     7
 10
219.2379587324
 20
246.7869244103
 30
0.0
  0
SEQEND
  5
2F5
  8
0
  6
CONTINUOUS
 62
     7
  0
LINE
  5
1C0
  8
0
  6
CONTINUOUS
 62
     7
 10
219.2379587324
 20
246.7869244103
 30
0.0
 11
219.2379587324
 21
211.3074335788
 31
0.0
  0
ARC
  5
1C1
  8
0
  6
CONTINUOUS
 62
     7
 10
217.2379597414
 20
211.3074326146
 30
0.0
 40
1.999998991000302
 50
269.9999830471
 51
0.0000276251
  0
LINE
  5
1C2
  8
0
  6
CONTINUOUS
 62
     7
 10
364.6926350222
 20
184.1074339633
 30
0.0
 11
361.6490154789
 21
184.2403210287
 31
0.0
  0
LINE
  5
1C3
  8
0
  6
CONTINUOUS
 62
     7
 10
364.6926350222
 20
185.1064823155
 30
0.0
 11
364.6926350222
 21
184.1074339633
 31
0.0
  0
LINE
  5
1C4
  8
0
  6
CONTINUOUS
 62
     7
 10
361.6490154789
 20
243.9745448117
 30
0.0
 11
364.6926350222
 21
244.1074333672
 31
0.0
  0
LINE
  5
1C5
  8
0
  6
CONTINUOUS
 62
     7
 10
364.6926350222
 20
244.1074333672
 30
0.0
 11
364.6926350222
 21
243.108385015
 31
0.0
  0
LINE
  5
1C6
  8
0
  6
CONTINUOUS
 62
     7
 10
364.6926350222
 20
243.108385015
 30
0.0
 11
364.6926350222
 21
241.8854794984
 31
0.0
  0
LINE
  5
1C7
  8
0
  6
CONTINUOUS
 62
     7
 10
364.6926350222
 20
241.8854794984
 30
0.0
 11
364.6926350222
 21
185.3342018609
 31
0.0
  0
LINE
  5
1C8
  8
0
  6
CONTINUOUS
 62
     7
 10
364.6926350222
 20
185.3342018609
 30
0.0
 11
364.6926350222
 21
185.1064823155
 31
0.0
  0
ARC
  5
1C9
  8
0
  6
CONTINUOUS
 62
     7
 10
365.2926349268
 20
184.1330583934
 30
0.0
 40
0.5999999999999933
 50
92.5
 51
180.0
  0
ARC
  5
1CA
  8
0
  6
CONTINUOUS
 62
     7
 10
365.2926349268
 20
243.7293878845
 30
0.0
 40
0.5999999999999784
 50
180.0
 51
220.601294645
  0
ARC
  5
1CB
  8
0
  6
CONTINUOUS
 62
     7
 10
361.6926349268
 20
185.2393689527
 30
0.0
 40
1.000000000000031
 50
180.0
 51
267.5
  0
LINE
  5
1CC
  8
0
  6
CONTINUOUS
 62
     7
 10
360.6926351116
 20
185.2393693809
 30
0.0
 11
360.6926351116
 21
242.9754964595
 31
0.0
  0
ARC
  5
1CD
  8
0
  6
CONTINUOUS
 62
     7
 10
361.6926349268
 20
242.9754979249
 30
0.0
 40
1.0
 50
92.5
 51
180.0
  0
LINE
  5
1CE
  8
0
  6
CONTINUOUS
 62
     7
 10
364.8370809183
 20
243.3389119391
 30
0.0
 11
371.7752031312
 21
235.2444372659
 31
0.0
  0
LINE
  5
1CF
  8
0
  6
CONTINUOUS
 62
     7
 10
372.0477125869
 20
185.0285626535
 30
0.0
 11
365.2664630935
 21
184.7324870114
 31
0.0
  0
CIRCLE
  5
1D0
  8
0
  6
CONTINUOUS
 62
     7
 10
369.8926349268
 20
192.7074334388
 30
0.0
 40
1.5
  0
ARC
  5
1D1
  8
0
  6
CONTINUOUS
 62
     7
 10
371.3196495312
 20
234.8539619546
 30
0.0
 40
0.59999999999996
 50
7.1250163489
 51
40.601294645
  0
LINE
  5
1D2
  8
0
  6
CONTINUOUS
 62
     7
 10
371.9150162563
 20
234.9283836369
 30
0.0
 11
376.67468258
 21
196.8510552828
 31
0.0
  0
LINE
  5
1D3
  8
0
  6
CONTINUOUS
 62
     7
 10
376.6431308613
 20
196.571422327
 30
0.0
 11
372.5853569136
 21
185.4227803235
 31
0.0
  0
ARC
  5
1D4
  8
0
  6
CONTINUOUS
 62
     7
 10
372.0215413731
 20
185.6279920158
 30
0.0
 40
0.60000000000003
 50
272.5
 51
340.0
  0
ARC
  5
1D5
  8
0
  6
CONTINUOUS
 62
     7
 10
376.0793154443
 20
196.7766346498
 30
0.0
 40
0.6
 50
340.0
 51
7.1250163489
  0
LINE
  5
1D6
  8
0
  6
CONTINUOUS
 62
     7
 10
366.8926350103
 20
154.0918282752
 30
0.0
 11
366.8926350103
 21
184.8034880643
 31
0.0
  0
LINE
  5
1D7
  8
0
  6
CONTINUOUS
 62
     7
 10
373.4926349745
 20
187.9155061727
 30
0.0
 11
373.4926349745
 21
152.4073414092
 31
0.0
  0
LINE
  5
1D8
  8
0
  6
CONTINUOUS
 62
     7
 10
375.5687839613
 20
205.6982453267
 30
0.0
 11
381.197258018
 21
202.3813616072
 31
0.0
  0
LINE
  5
1D9
  8
0
  6
CONTINUOUS
 62
     7
 10
380.8926350699
 20
128.1074337249
 30
0.0
 11
379.2361951695
 21
128.1074337249
 31
0.0
  0
ARC
  5
1DA
  8
0
  6
CONTINUOUS
 62
     7
 10
380.8926349268
 20
201.864442635
 30
0.0
 40
0.5999999999999871
 50
0.0
 51
59.4889731154
  0
LINE
  5
1DB
  8
0
  6
CONTINUOUS
 62
     7
 10
381.4926347957
 20
201.8644425606
 30
0.0
 11
381.4926347957
 21
148.0421058421
 31
0.0
  0
LINE
  5
1DC
  8
0
  6
CONTINUOUS
 62
     7
 10
381.4926347957
 20
131.70743506
 30
0.0
 11
381.4926347957
 21
128.7074319606
 31
0.0
  0
ARC
  5
1DD
  8
0
  6
CONTINUOUS
 62
     7
 10
380.8926349268
 20
128.7074334388
 30
0.0
 40
0.5999999999999943
 50
270.0
 51
0.0
  0
LINE
  5
1DE
  8
0
  6
CONTINUOUS
 62
     7
 10
365.8926352189
 20
156.7375801091
 30
0.0
 11
365.8926352189
 21
184.7598261719
 31
0.0
  0
ARC
  5
1DF
  8
0
  6
CONTINUOUS
 62
     7
 10
369.8926349268
 20
156.7375812858
 30
0.0
 40
4.0
 50
180.0
 51
265.0
  0
LINE
  5
1E0
  8
0
  6
CONTINUOUS
 62
     7
 10
377.841257237
 20
152.0268849616
 30
0.0
 11
369.5440120325
 21
152.7528039699
 31
0.0
  0
ARC
  5
1E1
  8
0
  6
CONTINUOUS
 62
     7
 10
377.4926349268
 20
148.0421087427
 30
0.0
 40
4.0
 50
0.0
 51
85.0
  0
LINE
  5
1E2
  8
0
  6
CONTINUOUS
 62
     7
 10
381.4926347957
 20
131.70743506
 30
0.0
 11
381.4926347957
 21
148.0421058421
 31
0.0
  0
ARC
  5
1E3
  8
0
  6
CONTINUOUS
 62
     7
 10
377.4926349268
 20
131.7074334388
 30
0.0
 40
4.0
 50
270.0
 51
0.0
  0
LINE
  5
1E4
  8
0
  6
CONTINUOUS
 62
     7
 10
357.2926349268
 20
127.7074329143
 30
0.0
 11
377.4926356301
 21
127.7074329143
 31
0.0
  0
LINE
  5
1E5
  8
0
  6
CONTINUOUS
 62
     7
 10
360.6926351116
 20
206.7074334768
 30
0.0
 11
357.2926349268
 21
206.7074334768
 31
0.0
  0
LINE
  5
1E6
  8
0
  6
CONTINUOUS
 62
     7
 10
357.2926349268
 20
206.7074334768
 30
0.0
 11
357.2926349268
 21
127.7074329143
 31
0.0
  0
LINE
  5
1E7
  8
0
  6
CONTINUOUS
 62
     7
 10
357.2926349268
 20
247.9993603711
 30
0.0
 11
366.6926346049
 21
247.9993603711
 31
0.0
  0
LINE
  5
1E8
  8
0
  6
CONTINUOUS
 62
     7
 10
366.6926346049
 20
247.9993603711
 30
0.0
 11
366.6926346049
 21
241.1741010432
 31
0.0
  0
LINE
  5
1E9
  8
0
  6
CONTINUOUS
 62
     7
 10
357.2926349268
 20
247.9993603711
 30
0.0
 11
357.2926349268
 21
206.7074334768
 31
0.0
  0
LINE
  5
1EA
  8
0
  6
CONTINUOUS
 62
     7
 10
357.2926349268
 20
264.1074351554
 30
0.0
 11
366.6926346049
 21
264.1074351554
 31
0.0
  0
LINE
  5
1EB
  8
0
  6
CONTINUOUS
 62
     7
 10
366.6926346049
 20
247.9993603711
 30
0.0
 11
366.6926346049
 21
264.1074351554
 31
0.0
  0
LINE
  5
1EC
  8
0
  6
CONTINUOUS
 62
     7
 10
357.2926349268
 20
264.1074351554
 30
0.0
 11
357.2926349268
 21
247.9993603711
 31
0.0
  0
LINE
  5
1ED
  8
0
  6
CONTINUOUS
 62
     7
 10
366.6926346049
 20
184.7947559838
 30
0.0
 11
366.6926346049
 21
158.0010674481
 31
0.0
  0
LINE
  5
1EE
  8
0
  6
CONTINUOUS
 62
     7
 10
365.9134454355
 20
156.3300899749
 30
0.0
 11
366.6926346049
 21
158.0010674481
 31
0.0
  0
LINE
  5
1EF
  8
0
  6
CONTINUOUS
 62
     7
 10
371.2926349864
 20
247.9416273122
 30
0.0
 11
366.6926346049
 21
247.9416273122
 31
0.0
  0
LINE
  5
1F0
  8
0
  6
CONTINUOUS
 62
     7
 10
371.2926349864
 20
264.0074304824
 30
0.0
 11
366.6926346049
 21
264.0074304824
 31
0.0
  0
ARC
  5
1F1
  8
0
  6
CONTINUOUS
 62
     7
 10
371.2926426354
 20
262.0074385486
 30
0.0
 40
1.99999193379016
 50
359.9998235605
 51
90.0002191282
  0
LINE
  5
1F2
  8
0
  6
CONTINUOUS
 62
     7
 10
373.2926345692
 20
262.0074323897
 30
0.0
 11
373.2926345692
 21
246.7869244103
 31
0.0
  0
POLYLINE
  5
1F3
  8
0
  6
CONTINUOUS
 62
     7
 66
     1
 10
0.0
 20
0.0
 30
0.0
  0
VERTEX
  5
2D6
  8
0
  6
CONTINUOUS
 62
     7
 10
371.2926349864
 20
247.9416273122
 30
0.0
  0
VERTEX
  5
2D7
  8
0
  6
CONTINUOUS
 62
     7
 10
371.63993188
 20
247.924082685
 30
0.0
  0
VERTEX
  5
2D8
  8
0
  6
CONTINUOUS
 62
     7
 10
371.9766757713
 20
247.8719882255
 30
0.0
  0
VERTEX
  5
2D9
  8
0
  6
CONTINUOUS
 62
     7
 10
372.2926355229
 20
247.7869264369
 30
0.0
  0
VERTEX
  5
2DA
  8
0
  6
CONTINUOUS
 62
     7
 10
372.5782103167
 20
247.6714782004
 30
0.0
  0
VERTEX
  5
2DB
  8
0
  6
CONTINUOUS
 62
     7
 10
372.8247232065
 20
247.5291512494
 30
0.0
  0
VERTEX
  5
2DC
  8
0
  6
CONTINUOUS
 62
     7
 10
373.0246863589
 20
247.3642758613
 30
0.0
  0
VERTEX
  5
2DD
  8
0
  6
CONTINUOUS
 62
     7
 10
373.1720201001
 20
247.1818558459
 30
0.0
  0
VERTEX
  5
2DE
  8
0
  6
CONTINUOUS
 62
     7
 10
373.2622511015
 20
246.9874374156
 30
0.0
  0
VERTEX
  5
2DF
  8
0
  6
CONTINUOUS
 62
     7
 10
373.2926345692
 20
246.7869244103
 30
0.0
  0
SEQEND
  5
2F4
  8
0
  6
CONTINUOUS
 62
     7
  0
LINE
  5
1F4
  8
0
  6
CONTINUOUS
 62
     7
 10
373.2926345692
 20
246.7869244103
 30
0.0
 11
373.2926345692
 21
223.907434154
 31
0.0
  0
ARC
  5
1F5
  8
0
  6
CONTINUOUS
 62
     7
 10
546.2292863387
 20
201.2870439199
 30
0.0
 40
1.000000000000092
 50
90.0
 51
177.490839416
  0
LINE
  5
1F6
  8
0
  6
CONTINUOUS
 62
     7
 10
555.7654173264
 20
202.2870439624
 30
0.0
 11
546.2292851099
 21
202.2870439624
 31
0.0
  0
ARC
  5
1F7
  8
0
  6
CONTINUOUS
 62
     7
 10
555.7654153109
 20
201.2870439199
 30
0.0
 40
1.0
 50
2.509160584
 51
90.0
  0
ARC
  5
1F8
  8
0
  6
CONTINUOUS
 62
     7
 10
546.2973508248
 20
186.3162660154
 30
0.0
 40
0.6000000000000227
 50
180.0
 51
270.0
  0
LINE
  5
1F9
  8
0
  6
CONTINUOUS
 62
     7
 10
546.297350634
 20
185.7162661438
 30
0.0
 11
555.6973488221
 21
185.7162661438
 31
0.0
  0
ARC
  5
1FA
  8
0
  6
CONTINUOUS
 62
     7
 10
555.6973508248
 20
186.3162660154
 30
0.0
 40
0.6000000000000227
 50
270.0
 51
0.0
  0
ARC
  5
1FB
  8
0
  6
CONTINUOUS
 62
     7
 10
545.1285366132
 20
194.7377520946
 30
0.0
 40
0.568907924402254
 50
358.952250699
 51
72.1336115381
  0
POLYLINE
  5
1FC
  8
0
  6
CONTINUOUS
 62
     7
 66
     1
 10
0.0
 20
0.0
 30
0.0
  0
VERTEX
  5
2E0
  8
0
  6
CONTINUOUS
 62
     7
 10
556.2973530182
 20
194.7273492401
 30
0.0
  0
VERTEX
  5
2E1
  8
0
  6
CONTINUOUS
 62
     7
 10
556.3273937592
 20
194.9135452096
 30
0.0
  0
VERTEX
  5
2E2
  8
0
  6
CONTINUOUS
 62
     7
 10
556.3973874935
 20
195.0564823632
 30
0.0
  0
VERTEX
  5
2E3
  8
0
  6
CONTINUOUS
 62
     7
 10
556.4840109238
 20
195.1581492608
 30
0.0
  0
VERTEX
  5
2E4
  8
0
  6
CONTINUOUS
 62
     7
 10
556.5684349427
 20
195.2231406753
 30
0.0
  0
VERTEX
  5
2E5
  8
0
  6
CONTINUOUS
 62
     7
 10
556.6347987542
 20
195.2585890477
 30
0.0
  0
VERTEX
  5
2E6
  8
0
  6
CONTINUOUS
 62
     7
 10
556.6761405358
 20
195.2745854442
 30
0.0
  0
VERTEX
  5
2E7
  8
0
  6
CONTINUOUS
 62
     7
 10
556.6952855477
 20
195.2801540081
 30
0.0
  0
VERTEX
  5
2E8
  8
0
  6
CONTINUOUS
 62
     7
 10
556.6936225781
 20
195.2798418288
 30
0.0
  0
SEQEND
  5
2F3
  8
0
  6
CONTINUOUS
 62
     7
  0
ARC
  5
1FD
  8
0
  6
CONTINUOUS
 62
     7
 10
441.4292863387
 20
201.2870439199
 30
0.0
 40
1.0
 50
90.0
 51
177.490839416
  0
LINE
  5
1FE
  8
0
  6
CONTINUOUS
 62
     7
 10
450.9654165396
 20
202.2870439624
 30
0.0
 11
441.4292843232
 21
202.2870439624
 31
0.0
  0
ARC
  5
1FF
  8
0
  6
CONTINUOUS
 62
     7
 10
450.9654153109
 20
201.2870439199
 30
0.0
 40
1.000000000000037
 50
2.509160584
 51
90.0
  0
ARC
  5
200
  8
0
  6
CONTINUOUS
 62
     7
 10
441.4973508248
 20
186.3162660154
 30
0.0
 40
0.6000000000000227
 50
180.0
 51
270.0
  0
LINE
  5
201
  8
0
  6
CONTINUOUS
 62
     7
 10
441.4973528275
 20
185.7162661438
 30
0.0
 11
450.8973510155
 21
185.7162661438
 31
0.0
  0
ARC
  5
202
  8
0
  6
CONTINUOUS
 62
     7
 10
450.8973508248
 20
186.3162660154
 30
0.0
 40
0.6000000000000227
 50
270.0
 51
0.0
  0
ARC
  5
203
  8
0
  6
CONTINUOUS
 62
     7
 10
440.3285419913
 20
194.7377564989
 30
0.0
 40
0.5689018410862348
 50
358.9517958443
 51
72.1340663928
  0
POLYLINE
  5
204
  8
0
  6
CONTINUOUS
 62
     7
 66
     1
 10
0.0
 20
0.0
 30
0.0
  0
VERTEX
  5
2E9
  8
0
  6
CONTINUOUS
 62
     7
 10
451.4973522314
 20
194.7273492401
 30
0.0
  0
VERTEX
  5
2EA
  8
0
  6
CONTINUOUS
 62
     7
 10
451.5273929724
 20
194.9135452096
 30
0.0
  0
VERTEX
  5
2EB
  8
0
  6
CONTINUOUS
 62
     7
 10
451.597389687
 20
195.0564823632
 30
0.0
  0
VERTEX
  5
2EC
  8
0
  6
CONTINUOUS
 62
     7
 10
451.6840131173
 20
195.1581492608
 30
0.0
  0
VERTEX
  5
2ED
  8
0
  6
CONTINUOUS
 62
     7
 10
451.7684341559
 20
195.2231406753
 30
0.0
  0
VERTEX
  5
2EE
  8
0
  6
CONTINUOUS
 62
     7
 10
451.8347979674
 20
195.2585890477
 30
0.0
  0
VERTEX
  5
2EF
  8
0
  6
CONTINUOUS
 62
     7
 10
451.876139749
 20
195.2745854442
 30
0.0
  0
VERTEX
  5
2F0
  8
0
  6
CONTINUOUS
 62
     7
 10
451.8952877411
 20
195.2801540081
 30
0.0
  0
VERTEX
  5
2F1
  8
0
  6
CONTINUOUS
 62
     7
 10
451.8936217913
 20
195.2798418288
 30
0.0
  0
SEQEND
  5
2F2
  8
0
  6
CONTINUOUS
 62
     7
  0
LINE
  5
205
  8
0
  6
CONTINUOUS
 62
     7
 10
453.8973511347
 20
194.2074335699
 30
0.0
 11
451.4973522314
 21
194.2074335699
 31
0.0
  0
LINE
  5
206
  8
0
  6
CONTINUOUS
 62
     7
 10
451.4973522314
 20
191.2074334507
 30
0.0
 11
453.8973511347
 21
191.2074334507
 31
0.0
  0
LINE
  5
207
  8
0
  6
CONTINUOUS
 62
     7
 10
543.2973505148
 20
191.2074334507
 30
0.0
 11
545.6973494181
 21
191.2074334507
 31
0.0
  0
LINE
  5
208
  8
0
  6
CONTINUOUS
 62
     7
 10
545.6973494181
 20
194.2074335699
 30
0.0
 11
543.2973505148
 21
194.2074335699
 31
0.0
  0
LINE
  5
209
  8
0
  6
CONTINUOUS
 62
     7
 10
454.6973497757
 20
143.3074347262
 30
0.0
 11
455.7973505148
 21
143.3074347262
 31
0.0
  0
LINE
  5
20A
  8
0
  6
CONTINUOUS
 62
     7
 10
541.3973511347
 20
143.3074347262
 30
0.0
 11
542.4973518738
 21
143.3074347262
 31
0.0
  0
LINE
  5
20B
  8
0
  6
CONTINUOUS
 62
     7
 10
542.4973518738
 20
145.7074336295
 30
0.0
 11
541.3973511347
 21
145.7074336295
 31
0.0
  0
LINE
  5
20C
  8
0
  6
CONTINUOUS
 62
     7
 10
455.7973505148
 20
145.7074336295
 30
0.0
 11
454.6973497757
 21
145.7074336295
 31
0.0
  0
LINE
  5
20D
  8
0
  6
CONTINUOUS
 62
     7
 10
545.0973511824
 20
198.2861920779
 30
0.0
 11
545.0973511824
 21
198.2981100266
 31
0.0
  0
ARC
  5
20E
  8
0
  6
CONTINUOUS
 62
     7
 10
545.8471550463
 20
193.5420589253
 30
0.0
 40
4.8147926136656
 50
87.032677371
 51
98.9590906467
  0
LINE
  5
20F
  8
0
  6
CONTINUOUS
 62
     7
 10
546.0963995346
 20
198.3503959661
 30
0.0
 11
555.8982999215
 21
198.3503959661
 31
0.0
  0
ARC
  5
210
  8
0
  6
CONTINUOUS
 62
     7
 10
556.1475444004
 20
193.5420160071
 30
0.0
 40
4.814835473829964
 50
81.0409537448
 51
92.9672960788
  0
LINE
  5
211
  8
0
  6
CONTINUOUS
 62
     7
 10
556.8973512539
 20
198.2861920779
 30
0.0
 11
556.8973512539
 21
198.2981100266
 31
0.0
  0
LINE
  5
212
  8
0
  6
CONTINUOUS
 62
     7
 10
545.0973511824
 20
198.2981100266
 30
0.0
 11
545.2302367577
 21
201.3306036179
 31
0.0
  0
LINE
  5
213
  8
0
  6
CONTINUOUS
 62
     7
 10
556.7644626984
 20
201.3306036179
 30
0.0
 11
556.8973512539
 21
198.2981100266
 31
0.0
  0
LINE
  5
214
  8
0
  6
CONTINUOUS
 62
     7
 10
545.6973494181
 20
190.9519545321
 30
0.0
 11
545.6973494181
 21
197.6870141511
 31
0.0
  0
LINE
  5
215
  8
0
  6
CONTINUOUS
 62
     7
 10
556.2973530182
 20
197.6870141511
 30
0.0
 11
556.2973530182
 21
190.9519545321
 31
0.0
  0
LINE
  5
216
  8
0
  6
CONTINUOUS
 62
     7
 10
545.6973494181
 20
186.3162658696
 30
0.0
 11
545.6973494181
 21
190.9519545321
 31
0.0
  0
LINE
  5
217
  8
0
  6
CONTINUOUS
 62
     7
 10
556.2973530182
 20
190.9519545321
 30
0.0
 11
556.2973530182
 21
186.3162658696
 31
0.0
  0
LINE
  5
218
  8
0
  6
CONTINUOUS
 62
     7
 10
545.0973511824
 20
195.3265271668
 30
0.0
 11
545.0973511824
 21
198.2861920779
 31
0.0
  0
LINE
  5
219
  8
0
  6
CONTINUOUS
 62
     7
 10
556.8973512539
 20
195.3265271668
 30
0.0
 11
556.8973512539
 21
198.2861920779
 31
0.0
  0
ARC
  5
21A
  8
0
  6
CONTINUOUS
 62
     7
 10
556.6148220239
 20
196.3103861894
 30
0.0
 40
1.085281272796164
 50
269.1464283838
 51
285.0895323238
  0
ARC
  5
21B
  8
0
  6
CONTINUOUS
 62
     7
 10
545.4032759522
 20
196.497239985
 30
0.0
 40
1.272049759714449
 50
256.084095737
 51
269.6890653557
  0
LINE
  5
21C
  8
0
  6
CONTINUOUS
 62
     7
 10
556.8973512539
 20
195.2625251894
 30
0.0
 11
556.8973512539
 21
195.3265271668
 31
0.0
  0
LINE
  5
21D
  8
0
  6
CONTINUOUS
 62
     7
 10
545.0973511824
 20
195.2625251894
 30
0.0
 11
545.0973511824
 21
195.3265271668
 31
0.0
  0
ARC
  5
21E
  8
0
  6
CONTINUOUS
 62
     7
 10
441.0471572492
 20
193.5420160071
 30
0.0
 40
4.814835473828701
 50
87.0327039212
 51
98.9590462552
  0
LINE
  5
21F
  8
0
  6
CONTINUOUS
 62
     7
 10
440.2973503956
 20
198.2981100266
 30
0.0
 11
440.4302389511
 21
201.3306036179
 31
0.0
  0
LINE
  5
220
  8
0
  6
CONTINUOUS
 62
     7
 10
440.2973503956
 20
198.2861920779
 30
0.0
 11
440.2973503956
 21
198.2981100266
 31
0.0
  0
LINE
  5
221
  8
0
  6
CONTINUOUS
 62
     7
 10
441.2964017281
 20
198.3503959661
 30
0.0
 11
451.0983021149
 21
198.3503959661
 31
0.0
  0
ARC
  5
222
  8
0
  6
CONTINUOUS
 62
     7
 10
451.3475466033
 20
193.5420589253
 30
0.0
 40
4.814792613664465
 50
81.0409093533
 51
92.967322629
  0
LINE
  5
223
  8
0
  6
CONTINUOUS
 62
     7
 10
452.0973504671
 20
198.2861920779
 30
0.0
 11
452.0973504671
 21
198.2981100266
 31
0.0
  0
LINE
  5
224
  8
0
  6
CONTINUOUS
 62
     7
 10
451.9644648918
 20
201.3306036179
 30
0.0
 11
452.0973504671
 21
198.2981100266
 31
0.0
  0
LINE
  5
225
  8
0
  6
CONTINUOUS
 62
     7
 10
440.8973486313
 20
190.9519545321
 30
0.0
 11
440.8973486313
 21
197.6870141511
 31
0.0
  0
LINE
  5
226
  8
0
  6
CONTINUOUS
 62
     7
 10
451.4973522314
 20
197.6870141511
 30
0.0
 11
451.4973522314
 21
190.9519545321
 31
0.0
  0
LINE
  5
227
  8
0
  6
CONTINUOUS
 62
     7
 10
440.8973486313
 20
186.3162658696
 30
0.0
 11
440.8973486313
 21
190.9519545321
 31
0.0
  0
LINE
  5
228
  8
0
  6
CONTINUOUS
 62
     7
 10
451.4973522314
 20
190.9519545321
 30
0.0
 11
451.4973522314
 21
186.3162658696
 31
0.0
  0
LINE
  5
229
  8
0
  6
CONTINUOUS
 62
     7
 10
440.2973503956
 20
195.3265271668
 30
0.0
 11
440.2973503956
 21
198.2861920779
 31
0.0
  0
LINE
  5
22A
  8
0
  6
CONTINUOUS
 62
     7
 10
452.0973504671
 20
195.3265271668
 30
0.0
 11
452.0973504671
 21
198.2861920779
 31
0.0
  0
ARC
  5
22B
  8
0
  6
CONTINUOUS
 62
     7
 10
451.8147961241
 20
196.3105885837
 30
0.0
 40
1.085483226635014
 50
269.1480702305
 51
285.0880310601
  0
ARC
  5
22C
  8
0
  6
CONTINUOUS
 62
     7
 10
440.603248948
 20
196.4970304497
 30
0.0
 40
1.271840069351531
 50
256.0829719843
 51
269.6903294478
  0
LINE
  5
22D
  8
0
  6
CONTINUOUS
 62
     7
 10
452.0973504671
 20
195.2625251894
 30
0.0
 11
452.0973504671
 21
195.3265271668
 31
0.0
  0
LINE
  5
22E
  8
0
  6
CONTINUOUS
 62
     7
 10
440.2973503956
 20
195.2625251894
 30
0.0
 11
440.2973503956
 21
195.3265271668
 31
0.0
  0
LINE
  5
22F
  8
0
  6
CONTINUOUS
 62
     7
 10
455.7973505148
 20
140.7074324374
 30
0.0
 11
455.7973505148
 21
147.7074317222
 31
0.0
  0
ARC
  5
230
  8
0
  6
CONTINUOUS
 62
     7
 10
456.3973508248
 20
140.7074334388
 30
0.0
 40
0.6000000000000796
 50
180.0
 51
270.0
  0
LINE
  5
231
  8
0
  6
CONTINUOUS
 62
     7
 10
540.7973499188
 20
140.1074342017
 30
0.0
 11
456.3973517308
 21
140.1074342017
 31
0.0
  0
ARC
  5
232
  8
0
  6
CONTINUOUS
 62
     7
 10
540.7973508248
 20
140.7074334388
 30
0.0
 40
0.6000000000000227
 50
270.0
 51
0.0
  0
LINE
  5
233
  8
0
  6
CONTINUOUS
 62
     7
 10
541.3973511347
 20
147.7074317222
 30
0.0
 11
541.3973511347
 21
140.7074324374
 31
0.0
  0
LINE
  5
234
  8
0
  6
CONTINUOUS
 62
     7
 10
482.5973511824
 20
264.1074351554
 30
0.0
 11
514.5973504671
 21
264.1074351554
 31
0.0
  0
LINE
  5
235
  8
0
  6
CONTINUOUS
 62
     7
 10
514.5973504671
 20
264.1074351554
 30
0.0
 11
542.4973518738
 21
247.9993603711
 31
0.0
  0
LINE
  5
236
  8
0
  6
CONTINUOUS
 62
     7
 10
542.4973518738
 20
247.9993603711
 30
0.0
 11
542.4973518738
 21
206.7074334768
 31
0.0
  0
LINE
  5
237
  8
0
  6
CONTINUOUS
 62
     7
 10
543.2973505148
 20
206.7074334768
 30
0.0
 11
542.4973518738
 21
206.7074334768
 31
0.0
  0
LINE
  5
238
  8
0
  6
CONTINUOUS
 62
     7
 10
543.2973505148
 20
206.7074334768
 30
0.0
 11
543.2973505148
 21
127.7074329143
 31
0.0
  0
LINE
  5
239
  8
0
  6
CONTINUOUS
 62
     7
 10
543.2973505148
 20
127.7074329143
 30
0.0
 11
542.4973518738
 21
127.7074329143
 31
0.0
  0
LINE
  5
23A
  8
0
  6
CONTINUOUS
 62
     7
 10
542.4973518738
 20
147.7074317222
 30
0.0
 11
542.4973518738
 21
127.7074329143
 31
0.0
  0
LINE
  5
23B
  8
0
  6
CONTINUOUS
 62
     7
 10
542.4973518738
 20
147.7074317222
 30
0.0
 11
454.6973497757
 21
147.7074317222
 31
0.0
  0
LINE
  5
23C
  8
0
  6
CONTINUOUS
 62
     7
 10
454.6973497757
 20
127.7074329143
 30
0.0
 11
454.6973497757
 21
147.7074317222
 31
0.0
  0
LINE
  5
23D
  8
0
  6
CONTINUOUS
 62
     7
 10
453.8973511347
 20
127.7074329143
 30
0.0
 11
454.6973497757
 21
127.7074329143
 31
0.0
  0
LINE
  5
23E
  8
0
  6
CONTINUOUS
 62
     7
 10
453.8973511347
 20
127.7074329143
 30
0.0
 11
453.8973511347
 21
206.7074334768
 31
0.0
  0
LINE
  5
23F
  8
0
  6
CONTINUOUS
 62
     7
 10
454.6973497757
 20
206.7074334768
 30
0.0
 11
454.6973497757
 21
247.9993603711
 31
0.0
  0
LINE
  5
240
  8
0
  6
CONTINUOUS
 62
     7
 10
454.6973497757
 20
247.9993603711
 30
0.0
 11
482.5973511824
 21
264.1074351554
 31
0.0
  0
CIRCLE
  5
241
  8
0
  6
CONTINUOUS
 62
     7
 10
462.5973508248
 20
177.1074334388
 30
0.0
 40
0.8500000000000227
  0
CIRCLE
  5
242
  8
0
  6
CONTINUOUS
 62
     7
 10
534.5973508248
 20
177.1074334388
 30
0.0
 40
0.8500000000000227
  0
CIRCLE
  5
243
  8
0
  6
CONTINUOUS
 62
     7
 10
534.5973508248
 20
241.1074334388
 30
0.0
 40
0.8500000000000227
  0
CIRCLE
  5
244
  8
0
  6
CONTINUOUS
 62
     7
 10
462.5973508248
 20
241.1074334388
 30
0.0
 40
0.8500000000000227
  0
LINE
  5
245
  8
0
  6
CONTINUOUS
 62
     7
 10
453.8973511347
 20
206.7074334768
 30
0.0
 11
454.6973497757
 21
206.7074334768
 31
0.0
  0
ENDSEC
  0
EOF
