  0
SECTION
  2
HEADER
  9
$ACADVER
  1
AC1009
  9
$DWGCODEPAGE
  3
ansi_1252
  9
$INSBASE
 10
0.0
 20
0.0
 30
0.0
  9
$EXTMIN
 10
0.0
 20
0.0
 30
0.0
  9
$EXTMAX
 10
420.0
 20
297.0
 30
0.0
  9
$LIMMIN
 10
0.0
 20
0.0
  9
$LIMMAX
 10
420.0
 20
297.0
  9
$ORTHOMODE
 70
     0
  9
$REGENMODE
 70
     1
  9
$FILLMODE
 70
     1
  9
$QTEXTMODE
 70
     0
  9
$MIRRTEXT
 70
     1
  9
$DRAGMODE
 70
     2
  9
$LTSCALE
 40
1.0
  9
$OSMODE
 70
    37
  9
$ATTMODE
 70
     1
  9
$TEXTSIZE
 40
3.5
  9
$TRACEWID
 40
1.0
  9
$TEXTSTYLE
  7
STANDARD
  9
$CLAYER
  8
0
  9
$CELTYPE
  6
BYLAYER
  9
$CECOLOR
 62
   256
  9
$DIMSCALE
 40
1.0
  9
$DIMASZ
 40
4.0
  9
$DIMEXO
 40
0.0
  9
$DIMDLI
 40
3.75
  9
$DIMRND
 40
0.0
  9
$DIMDLE
 40
0.0
  9
$DIMEXE
 40
2.0
  9
$DIMTP
 40
0.0
  9
$DIMTM
 40
0.0
  9
$DIMTXT
 40
3.5
  9
$DIMCEN
 40
2.5
  9
$DIMTSZ
 40
0.0
  9
$DIMTOL
 70
     0
  9
$DIMLIM
 70
     0
  9
$DIMTIH
 70
     1
  9
$DIMTOH
 70
     1
  9
$DIMSE1
 70
     0
  9
$DIMSE2
 70
     0
  9
$DIMTAD
 70
     1
  9
$DIMZIN
 70
     0
  9
$DIMBLK
  1

  9
$DIMASO
 70
     1
  9
$DIMSHO
 70
     1
  9
$DIMPOST
  1

  9
$DIMAPOST
  1

  9
$DIMALT
 70
     0
  9
$DIMALTD
 70
     3
  9
$DIMALTF
 40
0.0393700787
  9
$DIMLFAC
 40
5.0
  9
$DIMTOFL
 70
     1
  9
$DIMTVP
 40
0.0
  9
$DIMTIX
 70
     0
  9
$DIMSOXD
 70
     0
  9
$DIMSAH
 70
     0
  9
$DIMBLK1
  1

  9
$DIMBLK2
  1

  9
$DIMSTYLE
  2
ISO-25
  9
$DIMCLRD
 70
     0
  9
$DIMCLRE
 70
     0
  9
$DIMCLRT
 70
     0
  9
$DIMTFAC
 40
1.0
  9
$DIMGAP
 40
1.524
  9
$LUNITS
 70
     2
  9
$LUPREC
 70
     2
  9
$SKETCHINC
 40
1.0
  9
$FILLETRAD
 40
10.0
  9
$AUNITS
 70
     0
  9
$AUPREC
 70
     2
  9
$MENU
  1
.
  9
$ELEVATION
 40
0.0
  9
$PELEVATION
 40
0.0
  9
$THICKNESS
 40
0.0
  9
$LIMCHECK
 70
     0
  9
$CHAMFERA
 40
10.0
  9
$CHAMFERB
 40
10.0
  9
$SKPOLY
 70
     0
  9
$TDCREATE
 40
2457801.409108032
  9
$TDUPDATE
 40
2457801.409108322
  9
$TDINDWG
 40
0.0000000116
  9
$TDUSRTIMER
 40
0.0000000116
  9
$USRTIMER
 70
     1
  9
$ANGBASE
 50
0.0
  9
$ANGDIR
 70
     0
  9
$PDMODE
 70
     0
  9
$PDSIZE
 40
-1.0
  9
$PLINEWID
 40
0.0
  9
$COORDS
 70
     1
  9
$SPLFRAME
 70
     0
  9
$SPLINETYPE
 70
     6
  9
$SPLINESEGS
 70
     8
  9
$ATTDIA
 70
     0
  9
$ATTREQ
 70
     1
  9
$HANDLING
 70
     1
  9
$HANDSEED
  5
4B6
  9
$SURFTAB1
 70
     6
  9
$SURFTAB2
 70
     6
  9
$SURFTYPE
 70
     6
  9
$SURFU
 70
     6
  9
$SURFV
 70
     6
  9
$UCSNAME
  2

  9
$UCSORG
 10
0.0
 20
0.0
 30
0.0
  9
$UCSXDIR
 10
1.0
 20
0.0
 30
0.0
  9
$UCSYDIR
 10
0.0
 20
1.0
 30
0.0
  9
$PUCSNAME
  2

  9
$PUCSORG
 10
0.0
 20
0.0
 30
0.0
  9
$PUCSXDIR
 10
1.0
 20
0.0
 30
0.0
  9
$PUCSYDIR
 10
0.0
 20
1.0
 30
0.0
  9
$USERI1
 70
     0
  9
$USERI2
 70
     0
  9
$USERI3
 70
     0
  9
$USERI4
 70
     0
  9
$USERI5
 70
     0
  9
$USERR1
 40
0.0
  9
$USERR2
 40
0.0
  9
$USERR3
 40
0.0
  9
$USERR4
 40
0.0
  9
$USERR5
 40
0.0
  9
$WORLDVIEW
 70
     1
  9
$SHADEDGE
 70
     3
  9
$SHADEDIF
 70
    70
  9
$TILEMODE
 70
     1
  9
$MAXACTVP
 70
    64
  9
$PLIMCHECK
 70
     0
  9
$PEXTMIN
 10
1.0000000000E+20
 20
1.0000000000E+20
 30
1.0000000000E+20
  9
$PEXTMAX
 10
-1.0000000000E+20
 20
-1.0000000000E+20
 30
-1.0000000000E+20
  9
$PLIMMIN
 10
0.0
 20
0.0
  9
$PLIMMAX
 10
420.0
 20
297.0
  9
$UNITMODE
 70
     0
  9
$VISRETAIN
 70
     1
  9
$PLINEGEN
 70
     0
  9
$PSLTSCALE
 70
     1
  0
ENDSEC
  0
SECTION
  2
TABLES
  0
TABLE
  2
VPORT
 70
     1
  0
VPORT
  2
*ACTIVE
 70
     0
 10
0.0
 20
0.0
 11
1.0
 21
1.0
 12
210.0
 22
148.5
 13
0.0
 23
0.0
 14
10.0
 24
10.0
 15
10.0
 25
10.0
 16
0.0
 26
0.0
 36
1.0
 17
0.0
 27
0.0
 37
0.0
 40
297.0
 41
1.4141414141
 42
50.0
 43
0.0
 44
0.0
 50
0.0
 51
0.0
 71
     0
 72
  2000
 73
     1
 74
     3
 75
     0
 76
     0
 77
     0
 78
     0
  0
ENDTAB
  0
TABLE
  2
LTYPE
 70
     6
  0
LTYPE
  2
CONTINUOUS
 70
     0
  3
Solid line
 72
    65
 73
     0
 40
0.0
  0
LTYPE
  2
HIDDEN
 70
     0
  3
Hidden __ __ __ __ __ __ __ __ __ __ __ __ __ __
 72
    65
 73
     2
 40
1.905
 49
1.27
 49
-0.635
  0
LTYPE
  2
PHANTOM
 70
     0
  3
Phantom ______  __  __  ______  __  __  ______
 72
    65
 73
     6
 40
12.7
 49
6.35
 49
-1.27
 49
1.27
 49
-1.27
 49
1.27
 49
-1.27
  0
LTYPE
  2
CENTER
 70
     0
  3
Center ____ _ ____ _ ____ _ ____ _ ____ _ ____
 72
    65
 73
     4
 40
10.16
 49
6.35
 49
-1.27
 49
1.27
 49
-1.27
  0
LTYPE
  2
CENTERX2
 70
     0
  3
Center (2x) ________  __  ________  __  _____
 72
    65
 73
     4
 40
20.32
 49
12.7
 49
-2.54
 49
2.54
 49
-2.54
  0
LTYPE
  2
DOT2
 70
     0
  3
Dot (.5x) ........................................
 72
    65
 73
     2
 40
0.635
 49
0.0
 49
-0.635
  0
ENDTAB
  0
TABLE
  2
LAYER
 70
     2
  0
LAYER
  2
0
 70
     0
 62
     7
  6
CONTINUOUS
  0
LAYER
  2
FORMAT
 70
     0
 62
     7
  6
CONTINUOUS
  0
ENDTAB
  0
TABLE
  2
STYLE
 70
     1
  0
STYLE
  2
STANDARD
 70
     0
 40
0.0
 41
1.0
 50
0.0
 71
     0
 42
3.5
  3
txt
  4

  0
ENDTAB
  0
TABLE
  2
VIEW
 70
     0
  0
ENDTAB
  0
TABLE
  2
UCS
 70
     0
  0
ENDTAB
  0
TABLE
  2
APPID
 70
     1
  0
APPID
  2
ACAD
 70
     0
  0
ENDTAB
  0
TABLE
  2
DIMSTYLE
 70
     1
  0
DIMSTYLE
  2
ISO-25
 70
     0
  3

  4

  5

  6

  7

 40
1.0
 41
2.5
 42
0.625
 43
3.75
 44
1.25
 45
0.0
 46
0.0
 47
0.0
 48
0.0
140
2.5
141
2.5
142
0.0
143
0.0393700787
144
1.0
145
0.0
146
1.0
147
0.625
 71
     0
 72
     0
 73
     0
 74
     0
 75
     0
 76
     0
 77
     1
 78
     8
170
     0
171
     3
172
     1
173
     0
174
     0
175
     0
176
     0
177
     0
178
     0
  0
ENDTAB
  0
ENDSEC
  0
SECTION
  2
BLOCKS
  0
BLOCK
  8
0
  2
$MODEL_SPACE
 70
     0
 10
0.0
 20
0.0
 30
0.0
  3
$MODEL_SPACE
  1

  0
ENDBLK
  5
21
  8
0
  0
BLOCK
 67
     1
  8
0
  2
$PAPER_SPACE
 70
     0
 10
0.0
 20
0.0
 30
0.0
  3
$PAPER_SPACE
  1

  0
ENDBLK
  5
1D
 67
     1
  8
0
  0
ENDSEC
  0
SECTION
  2
ENTITIES
  0
ARC
  5
45
  8
0
  6
CONTINUOUS
 62
     7
 10
116.8578352421
 20
224.4023751417
 30
0.0
 40
0.4000000000000057
 50
90.0
 51
180.0
  0
ARC
  5
46
  8
0
  6
CONTINUOUS
 62
     7
 10
138.2578352421
 20
224.4023751417
 30
0.0
 40
0.4000000000000057
 50
0.0
 51
90.0
  0
LINE
  5
47
  8
0
  6
CONTINUOUS
 62
     7
 10
138.2578339308
 20
224.802374576
 30
0.0
 11
116.8578322857
 21
224.802374576
 31
0.0
  0
ARC
  5
48
  8
0
  6
CONTINUOUS
 62
     7
 10
139.1578352421
 20
272.9113758951
 30
0.0
 40
0.4000000000000341
 50
0.0
 51
90.0
  0
LINE
  5
49
  8
0
  6
CONTINUOUS
 62
     7
 10
139.1578342646
 20
273.3113763079
 30
0.0
 11
115.9578379124
 21
273.3113763079
 31
0.0
  0
ARC
  5
4A
  8
0
  6
CONTINUOUS
 62
     7
 10
115.9578352421
 20
272.9113758951
 30
0.0
 40
0.4000000000000341
 50
90.0
 51
180.0
  0
ARC
  5
4B
  8
0
  6
CONTINUOUS
 62
     7
 10
250.2578352421
 20
224.4023751417
 30
0.0
 40
0.4000000000000057
 50
0.0
 51
90.0
  0
ARC
  5
4C
  8
0
  6
CONTINUOUS
 62
     7
 10
228.8578352421
 20
224.4023751417
 30
0.0
 40
0.4000000000000057
 50
90.0
 51
180.0
  0
LINE
  5
4D
  8
0
  6
CONTINUOUS
 62
     7
 10
250.2578373879
 20
224.802374576
 30
0.0
 11
228.8578357428
 21
224.802374576
 31
0.0
  0
LINE
  5
4E
  8
0
  6
CONTINUOUS
 62
     7
 10
251.1578377217
 20
273.3113763079
 30
0.0
 11
227.957835409
 21
273.3113763079
 31
0.0
  0
ARC
  5
4F
  8
0
  6
CONTINUOUS
 62
     7
 10
251.1578352421
 20
272.9113758951
 30
0.0
 40
0.4000000000000341
 50
0.0
 51
90.0
  0
ARC
  5
50
  8
0
  6
CONTINUOUS
 62
     7
 10
227.9578352421
 20
272.9113758951
 30
0.0
 40
0.4000000000000341
 50
90.0
 51
180.0
  0
ARC
  5
51
  8
0
  6
CONTINUOUS
 62
     7
 10
340.8578352421
 20
224.4023751417
 30
0.0
 40
0.4000000000000057
 50
90.0
 51
180.0
  0
ARC
  5
52
  8
0
  6
CONTINUOUS
 62
     7
 10
351.7578352421
 20
224.4023751417
 30
0.0
 40
0.4000000000000341
 50
0.0
 51
90.0
  0
LINE
  5
53
  8
0
  6
CONTINUOUS
 62
     7
 10
351.7578299969
 20
224.802374576
 30
0.0
 11
340.8578332394
 21
224.802374576
 31
0.0
  0
ARC
  5
54
  8
0
  6
CONTINUOUS
 62
     7
 10
26.6578352421
 20
224.4023751417
 30
0.0
 40
0.4000000000000057
 50
0.0
 51
90.0
  0
ARC
  5
55
  8
0
  6
CONTINUOUS
 62
     7
 10
15.7578352421
 20
224.4023751417
 30
0.0
 40
0.4000000000000057
 50
90.0
 51
180.0
  0
LINE
  5
56
  8
0
  6
CONTINUOUS
 62
     7
 10
26.6578372448
 20
224.802374576
 30
0.0
 11
15.7578404873
 21
224.802374576
 31
0.0
  0
LINE
  5
57
  8
0
  6
CONTINUOUS
 62
     7
 10
139.9578358859
 20
153.0062374815
 30
0.0
 11
140.9578349322
 21
153.0062374815
 31
0.0
  0
LINE
  5
58
  8
0
  6
CONTINUOUS
 62
     7
 10
140.9578349322
 20
157.8062412485
 30
0.0
 11
139.9578358859
 21
157.8062412485
 31
0.0
  0
LINE
  5
59
  8
0
  6
CONTINUOUS
 62
     7
 10
226.5578355521
 20
153.0062374815
 30
0.0
 11
227.5578345984
 21
153.0062374815
 31
0.0
  0
LINE
  5
5A
  8
0
  6
CONTINUOUS
 62
     7
 10
227.5578345984
 20
157.8062412485
 30
0.0
 11
226.5578355521
 21
157.8062412485
 31
0.0
  0
ARC
  5
5B
  8
0
  6
CONTINUOUS
 62
     7
 10
141.3578352421
 20
137.7935524547
 30
0.0
 40
0.4000000000000057
 50
180.0
 51
270.0
  0
LINE
  5
5C
  8
0
  6
CONTINUOUS
 62
     7
 10
141.3578357428
 20
137.3935518011
 30
0.0
 11
226.1578347415
 21
137.3935518011
 31
0.0
  0
ARC
  5
5D
  8
0
  6
CONTINUOUS
 62
     7
 10
226.1578352421
 20
137.7935524547
 30
0.0
 40
0.4000000000000057
 50
270.0
 51
0.0
  0
LINE
  5
5E
  8
0
  6
CONTINUOUS
 62
     7
 10
140.8669676512
 20
150.9317514643
 30
0.0
 11
140.9578349322
 21
150.9317514643
 31
0.0
  0
LINE
  5
5F
  8
0
  6
CONTINUOUS
 62
     7
 10
226.5578355521
 20
150.9317514643
 30
0.0
 11
226.648702833
 21
150.9317514643
 31
0.0
  0
ARC
  5
60
  8
0
  6
CONTINUOUS
 62
     7
 10
141.3578352421
 20
224.0299120727
 30
0.0
 40
0.4000000000000057
 50
90.0
 51
180.0
  0
ARC
  5
61
  8
0
  6
CONTINUOUS
 62
     7
 10
226.1578352421
 20
224.0299120727
 30
0.0
 40
0.4000000000000057
 50
0.0
 51
90.0
  0
LINE
  5
62
  8
0
  6
CONTINUOUS
 62
     7
 10
226.1578347415
 20
224.4299170718
 30
0.0
 11
141.3578357428
 21
224.4299170718
 31
0.0
  0
LINE
  5
63
  8
0
  6
CONTINUOUS
 62
     7
 10
338.5578330487
 20
153.0062374815
 30
0.0
 11
339.557832095
 21
153.0062374815
 31
0.0
  0
LINE
  5
64
  8
0
  6
CONTINUOUS
 62
     7
 10
339.557832095
 20
157.8062412485
 30
0.0
 11
338.5578330487
 21
157.8062412485
 31
0.0
  0
LINE
  5
65
  8
0
  6
CONTINUOUS
 62
     7
 10
251.9578333825
 20
153.0062374815
 30
0.0
 11
252.9578324288
 21
153.0062374815
 31
0.0
  0
LINE
  5
66
  8
0
  6
CONTINUOUS
 62
     7
 10
252.9578324288
 20
157.8062412485
 30
0.0
 11
251.9578333825
 21
157.8062412485
 31
0.0
  0
LINE
  5
67
  8
0
  6
CONTINUOUS
 62
     7
 10
27.9578383893
 20
153.0062374815
 30
0.0
 11
28.9578374356
 21
153.0062374815
 31
0.0
  0
LINE
  5
68
  8
0
  6
CONTINUOUS
 62
     7
 10
28.9578374356
 20
157.8062412485
 30
0.0
 11
27.9578383893
 21
157.8062412485
 31
0.0
  0
LINE
  5
69
  8
0
  6
CONTINUOUS
 62
     7
 10
114.5578380555
 20
153.0062374815
 30
0.0
 11
115.5578371018
 21
153.0062374815
 31
0.0
  0
LINE
  5
6A
  8
0
  6
CONTINUOUS
 62
     7
 10
115.5578371018
 20
157.8062412485
 30
0.0
 11
114.5578380555
 21
157.8062412485
 31
0.0
  0
LINE
  5
6B
  8
0
  6
CONTINUOUS
 62
     7
 10
29.3578322857
 20
137.3935518011
 30
0.0
 11
114.1578372448
 21
137.3935518011
 31
0.0
  0
ARC
  5
6C
  8
0
  6
CONTINUOUS
 62
     7
 10
114.1578352421
 20
137.7935524547
 30
0.0
 40
0.4000000000000057
 50
270.0
 51
0.0
  0
ARC
  5
6D
  8
0
  6
CONTINUOUS
 62
     7
 10
29.3578352421
 20
137.7935524547
 30
0.0
 40
0.4000000000000128
 50
180.0
 51
270.0
  0
LINE
  5
6E
  8
0
  6
CONTINUOUS
 62
     7
 10
28.8669641942
 20
150.9317514643
 30
0.0
 11
28.9578374356
 21
150.9317514643
 31
0.0
  0
LINE
  5
6F
  8
0
  6
CONTINUOUS
 62
     7
 10
114.5578380555
 20
150.9317514643
 30
0.0
 11
114.6487053364
 21
150.9317514643
 31
0.0
  0
ARC
  5
70
  8
0
  6
CONTINUOUS
 62
     7
 10
114.1578352421
 20
224.0299120727
 30
0.0
 40
0.3999999999999915
 50
0.0
 51
90.0
  0
ARC
  5
71
  8
0
  6
CONTINUOUS
 62
     7
 10
29.3578352421
 20
224.0299120727
 30
0.0
 40
0.4000000000000128
 50
90.0
 51
180.0
  0
LINE
  5
72
  8
0
  6
CONTINUOUS
 62
     7
 10
114.1578372448
 20
224.4299170718
 30
0.0
 11
29.3578322857
 21
224.4299170718
 31
0.0
  0
LINE
  5
73
  8
0
  6
CONTINUOUS
 62
     7
 10
339.657836768
 20
156.6062388167
 30
0.0
 11
339.557832095
 21
156.6062388167
 31
0.0
  0
LINE
  5
74
  8
0
  6
CONTINUOUS
 62
     7
 10
251.9578333825
 20
156.6062388167
 30
0.0
 11
251.8578346699
 21
156.6062388167
 31
0.0
  0
LINE
  5
75
  8
0
  6
CONTINUOUS
 62
     7
 10
251.8578346699
 20
154.2062399134
 30
0.0
 11
251.9578333825
 21
154.2062399134
 31
0.0
  0
LINE
  5
76
  8
0
  6
CONTINUOUS
 62
     7
 10
339.557832095
 20
154.2062399134
 30
0.0
 11
339.657836768
 21
154.2062399134
 31
0.0
  0
LINE
  5
77
  8
0
  6
CONTINUOUS
 62
     7
 10
251.8578346699
 20
223.9913103327
 30
0.0
 11
251.0578330487
 21
223.9913103327
 31
0.0
  0
LINE
  5
78
  8
0
  6
CONTINUOUS
 62
     7
 10
340.4578383893
 20
223.9913103327
 30
0.0
 11
339.657836768
 21
223.9913103327
 31
0.0
  0
LINE
  5
79
  8
0
  6
CONTINUOUS
 62
     7
 10
339.5502265423
 20
273.1786725268
 30
0.0
 11
251.9654448956
 21
273.1786725268
 31
0.0
  0
LINE
  5
7A
  8
0
  6
CONTINUOUS
 62
     7
 10
115.6578358143
 20
156.6062388167
 30
0.0
 11
115.5578371018
 21
156.6062388167
 31
0.0
  0
LINE
  5
7B
  8
0
  6
CONTINUOUS
 62
     7
 10
27.9578383893
 20
156.6062388167
 30
0.0
 11
27.8578337163
 21
156.6062388167
 31
0.0
  0
LINE
  5
7C
  8
0
  6
CONTINUOUS
 62
     7
 10
27.8578337163
 20
154.2062399134
 30
0.0
 11
27.9578383893
 21
154.2062399134
 31
0.0
  0
LINE
  5
7D
  8
0
  6
CONTINUOUS
 62
     7
 10
115.5578371018
 20
154.2062399134
 30
0.0
 11
115.6578358143
 21
154.2062399134
 31
0.0
  0
LINE
  5
7E
  8
0
  6
CONTINUOUS
 62
     7
 10
27.8578337163
 20
223.9913103327
 30
0.0
 11
27.057832095
 21
223.9913103327
 31
0.0
  0
LINE
  5
7F
  8
0
  6
CONTINUOUS
 62
     7
 10
116.4578374356
 20
223.9913103327
 30
0.0
 11
115.6578358143
 21
223.9913103327
 31
0.0
  0
LINE
  5
80
  8
0
  6
CONTINUOUS
 62
     7
 10
115.5502255887
 20
273.1786725268
 30
0.0
 11
27.9654439419
 21
273.1786725268
 31
0.0
  0
LINE
  5
81
  8
0
  6
CONTINUOUS
 62
     7
 10
227.6578362912
 20
156.6062388167
 30
0.0
 11
227.5578345984
 21
156.6062388167
 31
0.0
  0
LINE
  5
82
  8
0
  6
CONTINUOUS
 62
     7
 10
139.9578358859
 20
156.6062388167
 30
0.0
 11
139.8578341931
 21
156.6062388167
 31
0.0
  0
LINE
  5
83
  8
0
  6
CONTINUOUS
 62
     7
 10
139.8578341931
 20
154.2062399134
 30
0.0
 11
139.9578358859
 21
154.2062399134
 31
0.0
  0
LINE
  5
84
  8
0
  6
CONTINUOUS
 62
     7
 10
227.5578345984
 20
154.2062399134
 30
0.0
 11
227.6578362912
 21
154.2062399134
 31
0.0
  0
LINE
  5
85
  8
0
  6
CONTINUOUS
 62
     7
 10
228.4578349322
 20
223.9913103327
 30
0.0
 11
227.6578362912
 21
223.9913103327
 31
0.0
  0
LINE
  5
86
  8
0
  6
CONTINUOUS
 62
     7
 10
139.8578341931
 20
223.9913103327
 30
0.0
 11
139.0578355521
 21
223.9913103327
 31
0.0
  0
LINE
  5
87
  8
0
  6
CONTINUOUS
 62
     7
 10
227.5502260655
 20
273.1786725268
 30
0.0
 11
139.9654444188
 21
273.1786725268
 31
0.0
  0
LINE
  5
88
  8
0
  6
CONTINUOUS
 62
     7
 10
138.2578339308
 20
137.6062390551
 30
0.0
 11
116.8578322857
 21
137.6062390551
 31
0.0
  0
ARC
  5
89
  8
0
  6
CONTINUOUS
 62
     7
 10
116.8578352421
 20
138.0062385783
 30
0.0
 40
0.4000000000000057
 50
180.0
 51
270.0
  0
ARC
  5
8A
  8
0
  6
CONTINUOUS
 62
     7
 10
138.2578352421
 20
138.0062385783
 30
0.0
 40
0.4000000000000057
 50
270.0
 51
0.0
  0
LINE
  5
8B
  8
0
  6
CONTINUOUS
 62
     7
 10
116.4578374356
 20
138.0062398657
 30
0.0
 11
116.4578374356
 21
220.6411239848
 31
0.0
  0
LINE
  5
8C
  8
0
  6
CONTINUOUS
 62
     7
 10
138.6578347415
 20
220.6411239848
 30
0.0
 11
138.6578347415
 21
138.0062398657
 31
0.0
  0
LINE
  5
8D
  8
0
  6
CONTINUOUS
 62
     7
 10
138.6578347415
 20
224.4023797259
 30
0.0
 11
138.6578347415
 21
220.6411239848
 31
0.0
  0
LINE
  5
8E
  8
0
  6
CONTINUOUS
 62
     7
 10
116.4578374356
 20
220.6411239848
 30
0.0
 11
116.4578374356
 21
224.4023797259
 31
0.0
  0
LINE
  5
8F
  8
0
  6
CONTINUOUS
 62
     7
 10
139.5578350752
 20
272.9113814577
 30
0.0
 11
139.5578350752
 21
224.0779158816
 31
0.0
  0
ARC
  5
90
  8
0
  6
CONTINUOUS
 62
     7
 10
139.2571208747
 20
222.9395983693
 30
0.0
 40
1.177368162071299
 50
75.2019882922
 51
94.8374569991
  0
LINE
  5
91
  8
0
  6
CONTINUOUS
 62
     7
 10
115.5578371018
 20
224.0779158816
 30
0.0
 11
115.5578371018
 21
272.9113814577
 31
0.0
  0
ARC
  5
92
  8
0
  6
CONTINUOUS
 62
     7
 10
115.8585475776
 20
222.9396411123
 30
0.0
 40
1.177325885470995
 50
85.1621869642
 51
104.7983677445
  0
LINE
  5
93
  8
0
  6
CONTINUOUS
 62
     7
 10
116.4578374356
 20
224.0953442797
 30
0.0
 11
115.7578345269
 21
224.0953442797
 31
0.0
  0
LINE
  5
94
  8
0
  6
CONTINUOUS
 62
     7
 10
115.7578345269
 20
224.0953442797
 30
0.0
 11
115.7578345269
 21
223.9913103327
 31
0.0
  0
LINE
  5
95
  8
0
  6
CONTINUOUS
 62
     7
 10
115.6578358143
 20
223.7641570315
 30
0.0
 11
115.5578371018
 21
223.7641570315
 31
0.0
  0
LINE
  5
96
  8
0
  6
CONTINUOUS
 62
     7
 10
115.5578371018
 20
224.0386483416
 30
0.0
 11
115.5578371018
 21
224.0779158816
 31
0.0
  0
LINE
  5
97
  8
0
  6
CONTINUOUS
 62
     7
 10
116.4578374356
 20
224.1127726778
 30
0.0
 11
115.9578379124
 21
224.1127726778
 31
0.0
  0
LINE
  5
98
  8
0
  6
CONTINUOUS
 62
     7
 10
139.3578346699
 20
223.9913103327
 30
0.0
 11
139.3578346699
 21
224.0953442797
 31
0.0
  0
LINE
  5
99
  8
0
  6
CONTINUOUS
 62
     7
 10
139.3578346699
 20
224.0953442797
 30
0.0
 11
138.6578347415
 21
224.0953442797
 31
0.0
  0
LINE
  5
9A
  8
0
  6
CONTINUOUS
 62
     7
 10
139.1578342646
 20
224.1127726778
 30
0.0
 11
138.6578347415
 21
224.1127726778
 31
0.0
  0
LINE
  5
9B
  8
0
  6
CONTINUOUS
 62
     7
 10
139.5578350752
 20
223.9913103327
 30
0.0
 11
139.5578350752
 21
224.0779158816
 31
0.0
  0
ARC
  5
9C
  8
0
  6
CONTINUOUS
 62
     7
 10
250.2578352421
 20
138.0062385783
 30
0.0
 40
0.4000000000000057
 50
270.0
 51
0.0
  0
ARC
  5
9D
  8
0
  6
CONTINUOUS
 62
     7
 10
228.8578352421
 20
138.0062385783
 30
0.0
 40
0.4000000000000057
 50
180.0
 51
270.0
  0
LINE
  5
9E
  8
0
  6
CONTINUOUS
 62
     7
 10
250.2578373879
 20
137.6062390551
 30
0.0
 11
228.8578357428
 21
137.6062390551
 31
0.0
  0
LINE
  5
9F
  8
0
  6
CONTINUOUS
 62
     7
 10
250.6578381985
 20
220.6411239848
 30
0.0
 11
250.6578381985
 21
138.0062398657
 31
0.0
  0
LINE
  5
A0
  8
0
  6
CONTINUOUS
 62
     7
 10
228.4578349322
 20
138.0062398657
 30
0.0
 11
228.4578349322
 21
220.6411239848
 31
0.0
  0
LINE
  5
A1
  8
0
  6
CONTINUOUS
 62
     7
 10
228.4578349322
 20
220.6411239848
 30
0.0
 11
228.4578349322
 21
224.4023797259
 31
0.0
  0
LINE
  5
A2
  8
0
  6
CONTINUOUS
 62
     7
 10
250.6578381985
 20
224.4023797259
 30
0.0
 11
250.6578381985
 21
220.6411239848
 31
0.0
  0
LINE
  5
A3
  8
0
  6
CONTINUOUS
 62
     7
 10
251.1578377217
 20
224.1127726778
 30
0.0
 11
250.6578381985
 21
224.1127726778
 31
0.0
  0
LINE
  5
A4
  8
0
  6
CONTINUOUS
 62
     7
 10
228.4578349322
 20
224.1127726778
 30
0.0
 11
227.957835409
 21
224.1127726778
 31
0.0
  0
LINE
  5
A5
  8
0
  6
CONTINUOUS
 62
     7
 10
227.5578345984
 20
224.0779158816
 30
0.0
 11
227.5578345984
 21
272.9113814577
 31
0.0
  0
ARC
  5
A6
  8
0
  6
CONTINUOUS
 62
     7
 10
227.8585498992
 20
222.9395857435
 30
0.0
 40
1.177380650194493
 50
85.1626481659
 51
104.7979065428
  0
LINE
  5
A7
  8
0
  6
CONTINUOUS
 62
     7
 10
251.3578351468
 20
223.9913103327
 30
0.0
 11
251.3578351468
 21
224.0953442797
 31
0.0
  0
LINE
  5
A8
  8
0
  6
CONTINUOUS
 62
     7
 10
251.3578351468
 20
224.0953442797
 30
0.0
 11
250.6578381985
 21
224.0953442797
 31
0.0
  0
ARC
  5
A9
  8
0
  6
CONTINUOUS
 62
     7
 10
251.2571245688
 20
222.9396525109
 30
0.0
 40
1.177314233388322
 50
75.2016069197
 51
94.8376906923
  0
LINE
  5
AA
  8
0
  6
CONTINUOUS
 62
     7
 10
251.5578325718
 20
223.9913103327
 30
0.0
 11
251.5578325718
 21
224.0779158816
 31
0.0
  0
LINE
  5
AB
  8
0
  6
CONTINUOUS
 62
     7
 10
251.5578325718
 20
272.9113814577
 30
0.0
 11
251.5578325718
 21
224.0779158816
 31
0.0
  0
LINE
  5
AC
  8
0
  6
CONTINUOUS
 62
     7
 10
228.4578349322
 20
224.0953442797
 30
0.0
 11
227.7578350037
 21
224.0953442797
 31
0.0
  0
LINE
  5
AD
  8
0
  6
CONTINUOUS
 62
     7
 10
227.7578350037
 20
224.0953442797
 30
0.0
 11
227.7578350037
 21
223.9913103327
 31
0.0
  0
LINE
  5
AE
  8
0
  6
CONTINUOUS
 62
     7
 10
227.6578362912
 20
223.7641570315
 30
0.0
 11
227.5578345984
 21
223.7641570315
 31
0.0
  0
LINE
  5
AF
  8
0
  6
CONTINUOUS
 62
     7
 10
227.5578345984
 20
224.0386483416
 30
0.0
 11
227.5578345984
 21
224.0779158816
 31
0.0
  0
ARC
  5
B0
  8
0
  6
CONTINUOUS
 62
     7
 10
340.8578352421
 20
138.0062385783
 30
0.0
 40
0.4000000000000057
 50
180.0
 51
270.0
  0
LINE
  5
B1
  8
0
  6
CONTINUOUS
 62
     7
 10
351.7578299969
 20
137.6062390551
 30
0.0
 11
340.8578332394
 21
137.6062390551
 31
0.0
  0
ARC
  5
B2
  8
0
  6
CONTINUOUS
 62
     7
 10
351.7578352421
 20
138.0062385783
 30
0.0
 40
0.4000000000000341
 50
270.0
 51
0.0
  0
LINE
  5
B3
  8
0
  6
CONTINUOUS
 62
     7
 10
340.4578383893
 20
138.0062398657
 30
0.0
 11
340.4578383893
 21
220.6411239848
 31
0.0
  0
LINE
  5
B4
  8
0
  6
CONTINUOUS
 62
     7
 10
352.157836768
 20
220.6411239848
 30
0.0
 11
352.157836768
 21
138.0062398657
 31
0.0
  0
LINE
  5
B5
  8
0
  6
CONTINUOUS
 62
     7
 10
352.157836768
 20
224.4023797259
 30
0.0
 11
352.157836768
 21
220.6411239848
 31
0.0
  0
LINE
  5
B6
  8
0
  6
CONTINUOUS
 62
     7
 10
340.4578383893
 20
220.6411239848
 30
0.0
 11
340.4578383893
 21
224.4023797259
 31
0.0
  0
ARC
  5
B7
  8
0
  6
CONTINUOUS
 62
     7
 10
26.6578352421
 20
138.0062385783
 30
0.0
 40
0.4000000000000057
 50
270.0
 51
0.0
  0
LINE
  5
B8
  8
0
  6
CONTINUOUS
 62
     7
 10
26.6578372448
 20
137.6062390551
 30
0.0
 11
15.7578404873
 21
137.6062390551
 31
0.0
  0
ARC
  5
B9
  8
0
  6
CONTINUOUS
 62
     7
 10
15.7578352421
 20
138.0062385783
 30
0.0
 40
0.4000000000000057
 50
180.0
 51
270.0
  0
LINE
  5
BA
  8
0
  6
CONTINUOUS
 62
     7
 10
15.3578337163
 20
138.0062398657
 30
0.0
 11
15.3578337163
 21
220.6411239848
 31
0.0
  0
LINE
  5
BB
  8
0
  6
CONTINUOUS
 62
     7
 10
27.057832095
 20
220.6411239848
 30
0.0
 11
27.057832095
 21
138.0062398657
 31
0.0
  0
LINE
  5
BC
  8
0
  6
CONTINUOUS
 62
     7
 10
27.057832095
 20
224.4023797259
 30
0.0
 11
27.057832095
 21
220.6411239848
 31
0.0
  0
LINE
  5
BD
  8
0
  6
CONTINUOUS
 62
     7
 10
15.3578337163
 20
220.6411239848
 30
0.0
 11
15.3578337163
 21
224.4023797259
 31
0.0
  0
LINE
  5
BE
  8
0
  6
CONTINUOUS
 62
     7
 10
226.5578355521
 20
220.3511950716
 30
0.0
 11
226.5578355521
 21
138.4210762724
 31
0.0
  0
LINE
  5
BF
  8
0
  6
CONTINUOUS
 62
     7
 10
140.9578349322
 20
138.4210762724
 30
0.0
 11
140.9578349322
 21
220.3511950716
 31
0.0
  0
LINE
  5
C0
  8
0
  6
CONTINUOUS
 62
     7
 10
226.5578355521
 20
138.4210762724
 30
0.0
 11
226.5578355521
 21
137.7935526118
 31
0.0
  0
LINE
  5
C1
  8
0
  6
CONTINUOUS
 62
     7
 10
140.9578349322
 20
137.7935526118
 30
0.0
 11
140.9578349322
 21
138.4210762724
 31
0.0
  0
LINE
  5
C2
  8
0
  6
CONTINUOUS
 62
     7
 10
139.9578358859
 20
153.0153689131
 30
0.0
 11
139.9578358859
 21
153.0062374815
 31
0.0
  0
LINE
  5
C3
  8
0
  6
CONTINUOUS
 62
     7
 10
139.9578358859
 20
157.8062412485
 30
0.0
 11
139.9578358859
 21
153.0153689131
 31
0.0
  0
LINE
  5
C4
  8
0
  6
CONTINUOUS
 62
     7
 10
227.5578345984
 20
153.0153689131
 30
0.0
 11
227.5578345984
 21
153.0062374815
 31
0.0
  0
LINE
  5
C5
  8
0
  6
CONTINUOUS
 62
     7
 10
227.5578345984
 20
157.8062412485
 30
0.0
 11
227.5578345984
 21
153.0153689131
 31
0.0
  0
LINE
  5
C6
  8
0
  6
CONTINUOUS
 62
     7
 10
226.5578355521
 20
224.0111706004
 30
0.0
 11
226.5578355521
 21
220.3511950716
 31
0.0
  0
LINE
  5
C7
  8
0
  6
CONTINUOUS
 62
     7
 10
140.9578349322
 20
220.3511950716
 30
0.0
 11
140.9578349322
 21
224.0111706004
 31
0.0
  0
LINE
  5
C8
  8
0
  6
CONTINUOUS
 62
     7
 10
140.9578349322
 20
151.3069388613
 30
0.0
 11
140.8578362196
 21
151.3069388613
 31
0.0
  0
LINE
  5
C9
  8
0
  6
CONTINUOUS
 62
     7
 10
226.6578342646
 20
151.3069388613
 30
0.0
 11
226.5578355521
 21
151.3069388613
 31
0.0
  0
LINE
  5
CA
  8
0
  6
CONTINUOUS
 62
     7
 10
226.6578342646
 20
151.3069388613
 30
0.0
 11
226.6578342646
 21
150.9408828959
 31
0.0
  0
LINE
  5
CB
  8
0
  6
CONTINUOUS
 62
     7
 10
140.8578362196
 20
151.3069388613
 30
0.0
 11
140.8578362196
 21
150.9408828959
 31
0.0
  0
LINE
  5
CC
  8
0
  6
CONTINUOUS
 62
     7
 10
226.6578342646
 20
224.4276282534
 30
0.0
 11
226.2005116671
 21
224.4276282534
 31
0.0
  0
LINE
  5
CD
  8
0
  6
CONTINUOUS
 62
     7
 10
226.6578342646
 20
224.4276282534
 30
0.0
 11
226.6578342646
 21
157.8062412485
 31
0.0
  0
LINE
  5
CE
  8
0
  6
CONTINUOUS
 62
     7
 10
226.6578342646
 20
153.0062374815
 30
0.0
 11
226.6578342646
 21
151.3069388613
 31
0.0
  0
LINE
  5
CF
  8
0
  6
CONTINUOUS
 62
     7
 10
141.3151588171
 20
224.4276282534
 30
0.0
 11
140.8578362196
 21
224.4276282534
 31
0.0
  0
LINE
  5
D0
  8
0
  6
CONTINUOUS
 62
     7
 10
140.8578362196
 20
224.4276282534
 30
0.0
 11
140.8578362196
 21
157.8062412485
 31
0.0
  0
LINE
  5
D1
  8
0
  6
CONTINUOUS
 62
     7
 10
140.8578362196
 20
153.0062374815
 30
0.0
 11
140.8578362196
 21
151.3069388613
 31
0.0
  0
LINE
  5
D2
  8
0
  6
CONTINUOUS
 62
     7
 10
226.6578342646
 20
150.9408828959
 30
0.0
 11
226.648702833
 21
150.9317514643
 31
0.0
  0
LINE
  5
D3
  8
0
  6
CONTINUOUS
 62
     7
 10
140.8578362196
 20
150.9408828959
 30
0.0
 11
140.8669676512
 21
150.9317514643
 31
0.0
  0
LINE
  5
D4
  8
0
  6
CONTINUOUS
 62
     7
 10
140.9578349322
 20
224.0111706004
 30
0.0
 11
140.9578349322
 21
224.0299103007
 31
0.0
  0
LINE
  5
D5
  8
0
  6
CONTINUOUS
 62
     7
 10
226.5578355521
 20
224.0299103007
 30
0.0
 11
226.5578355521
 21
224.0111706004
 31
0.0
  0
LINE
  5
D6
  8
0
  6
CONTINUOUS
 62
     7
 10
338.5578330487
 20
159.00623772
 30
0.0
 11
338.5578330487
 21
158.9062390074
 31
0.0
  0
LINE
  5
D7
  8
0
  6
CONTINUOUS
 62
     7
 10
255.2578326195
 20
165.6062361941
 30
0.0
 11
336.2578328579
 21
165.6062361941
 31
0.0
  0
ARC
  5
D8
  8
0
  6
CONTINUOUS
 62
     7
 10
336.2578391036
 20
163.206237576
 30
0.0
 40
2.399998618124658
 50
359.9999931923
 51
90.0001491031
  0
ARC
  5
D9
  8
0
  6
CONTINUOUS
 62
     7
 10
255.2578380868
 20
163.2062318236
 30
0.0
 40
2.400004370506739
 50
90.0001305202
 51
179.9998694798
  0
LINE
  5
DA
  8
0
  6
CONTINUOUS
 62
     7
 10
252.9578324288
 20
158.9062390074
 30
0.0
 11
252.9578324288
 21
159.00623772
 31
0.0
  0
LINE
  5
DB
  8
0
  6
CONTINUOUS
 62
     7
 10
338.6578377217
 20
159.00623772
 30
0.0
 11
338.1578381985
 21
159.00623772
 31
0.0
  0
LINE
  5
DC
  8
0
  6
CONTINUOUS
 62
     7
 10
253.3578332394
 20
159.00623772
 30
0.0
 11
252.8578337163
 21
159.00623772
 31
0.0
  0
LINE
  5
DD
  8
0
  6
CONTINUOUS
 62
     7
 10
252.8578337163
 20
163.2062372908
 30
0.0
 11
252.8578337163
 21
159.00623772
 31
0.0
  0
LINE
  5
DE
  8
0
  6
CONTINUOUS
 62
     7
 10
338.6578377217
 20
163.2062372908
 30
0.0
 11
338.6578377217
 21
159.00623772
 31
0.0
  0
LINE
  5
DF
  8
0
  6
CONTINUOUS
 62
     7
 10
252.9578324288
 20
151.4062401995
 30
0.0
 11
252.9578324288
 21
158.9062390074
 31
0.0
  0
LINE
  5
E0
  8
0
  6
CONTINUOUS
 62
     7
 10
338.5578330487
 20
158.9062390074
 30
0.0
 11
338.5578330487
 21
151.4062401995
 31
0.0
  0
ARC
  5
E1
  8
0
  6
CONTINUOUS
 62
     7
 10
253.3578352421
 20
151.4062385783
 30
0.0
 40
0.4000000000000057
 50
180.0
 51
270.0
  0
ARC
  5
E2
  8
0
  6
CONTINUOUS
 62
     7
 10
338.1578352421
 20
151.4062385783
 30
0.0
 40
0.4000000000000057
 50
270.0
 51
0.0
  0
LINE
  5
E3
  8
0
  6
CONTINUOUS
 62
     7
 10
338.1578381985
 20
151.0062393889
 30
0.0
 11
253.3578332394
 21
151.0062393889
 31
0.0
  0
LINE
  5
E4
  8
0
  6
CONTINUOUS
 62
     7
 10
339.557832095
 20
157.8062412485
 30
0.0
 11
339.557832095
 21
153.0062374815
 31
0.0
  0
LINE
  5
E5
  8
0
  6
CONTINUOUS
 62
     7
 10
251.9578333825
 20
157.8062412485
 30
0.0
 11
251.9578333825
 21
153.0062374815
 31
0.0
  0
LINE
  5
E6
  8
0
  6
CONTINUOUS
 62
     7
 10
114.5578380555
 20
220.3511950716
 30
0.0
 11
114.5578380555
 21
138.4210762724
 31
0.0
  0
LINE
  5
E7
  8
0
  6
CONTINUOUS
 62
     7
 10
28.9578374356
 20
138.4210762724
 30
0.0
 11
28.9578374356
 21
220.3511950716
 31
0.0
  0
LINE
  5
E8
  8
0
  6
CONTINUOUS
 62
     7
 10
28.9578374356
 20
137.7935526118
 30
0.0
 11
28.9578374356
 21
138.4210762724
 31
0.0
  0
LINE
  5
E9
  8
0
  6
CONTINUOUS
 62
     7
 10
114.5578380555
 20
138.4210762724
 30
0.0
 11
114.5578380555
 21
137.7935526118
 31
0.0
  0
LINE
  5
EA
  8
0
  6
CONTINUOUS
 62
     7
 10
27.9578383893
 20
153.0153689131
 30
0.0
 11
27.9578383893
 21
153.0062374815
 31
0.0
  0
LINE
  5
EB
  8
0
  6
CONTINUOUS
 62
     7
 10
27.9578383893
 20
157.8062412485
 30
0.0
 11
27.9578383893
 21
153.0153689131
 31
0.0
  0
LINE
  5
EC
  8
0
  6
CONTINUOUS
 62
     7
 10
115.5578371018
 20
153.0153689131
 30
0.0
 11
115.5578371018
 21
153.0062374815
 31
0.0
  0
LINE
  5
ED
  8
0
  6
CONTINUOUS
 62
     7
 10
115.5578371018
 20
157.8062412485
 30
0.0
 11
115.5578371018
 21
153.0153689131
 31
0.0
  0
LINE
  5
EE
  8
0
  6
CONTINUOUS
 62
     7
 10
114.5578380555
 20
224.0111706004
 30
0.0
 11
114.5578380555
 21
220.3511950716
 31
0.0
  0
LINE
  5
EF
  8
0
  6
CONTINUOUS
 62
     7
 10
28.9578374356
 20
220.3511950716
 30
0.0
 11
28.9578374356
 21
224.0111706004
 31
0.0
  0
LINE
  5
F0
  8
0
  6
CONTINUOUS
 62
     7
 10
28.9578374356
 20
151.3069388613
 30
0.0
 11
28.8578327626
 21
151.3069388613
 31
0.0
  0
LINE
  5
F1
  8
0
  6
CONTINUOUS
 62
     7
 10
114.657836768
 20
151.3069388613
 30
0.0
 11
114.5578380555
 21
151.3069388613
 31
0.0
  0
LINE
  5
F2
  8
0
  6
CONTINUOUS
 62
     7
 10
114.657836768
 20
151.3069388613
 30
0.0
 11
114.657836768
 21
150.9408828959
 31
0.0
  0
LINE
  5
F3
  8
0
  6
CONTINUOUS
 62
     7
 10
28.8578327626
 20
151.3069388613
 30
0.0
 11
28.8578327626
 21
150.9408828959
 31
0.0
  0
LINE
  5
F4
  8
0
  6
CONTINUOUS
 62
     7
 10
114.657836768
 20
224.4276282534
 30
0.0
 11
114.2005141705
 21
224.4276282534
 31
0.0
  0
LINE
  5
F5
  8
0
  6
CONTINUOUS
 62
     7
 10
114.657836768
 20
224.4276282534
 30
0.0
 11
114.657836768
 21
157.8062412485
 31
0.0
  0
LINE
  5
F6
  8
0
  6
CONTINUOUS
 62
     7
 10
114.657836768
 20
153.0062374815
 30
0.0
 11
114.657836768
 21
151.3069388613
 31
0.0
  0
LINE
  5
F7
  8
0
  6
CONTINUOUS
 62
     7
 10
28.8578327626
 20
224.4276282534
 30
0.0
 11
28.8578327626
 21
157.8062412485
 31
0.0
  0
LINE
  5
F8
  8
0
  6
CONTINUOUS
 62
     7
 10
28.8578327626
 20
153.0062374815
 30
0.0
 11
28.8578327626
 21
151.3069388613
 31
0.0
  0
LINE
  5
F9
  8
0
  6
CONTINUOUS
 62
     7
 10
29.3151553601
 20
224.4276282534
 30
0.0
 11
28.8578327626
 21
224.4276282534
 31
0.0
  0
LINE
  5
FA
  8
0
  6
CONTINUOUS
 62
     7
 10
114.657836768
 20
150.9408828959
 30
0.0
 11
114.6487053364
 21
150.9317514643
 31
0.0
  0
LINE
  5
FB
  8
0
  6
CONTINUOUS
 62
     7
 10
28.8578327626
 20
150.9408828959
 30
0.0
 11
28.8669641942
 21
150.9317514643
 31
0.0
  0
LINE
  5
FC
  8
0
  6
CONTINUOUS
 62
     7
 10
114.5578380555
 20
224.0299103007
 30
0.0
 11
114.5578380555
 21
224.0111706004
 31
0.0
  0
LINE
  5
FD
  8
0
  6
CONTINUOUS
 62
     7
 10
28.9578374356
 20
224.0111706004
 30
0.0
 11
28.9578374356
 21
224.0299103007
 31
0.0
  0
LINE
  5
FE
  8
0
  6
CONTINUOUS
 62
     7
 10
251.8578346699
 20
138.2062372908
 30
0.0
 11
251.0578330487
 21
138.2062372908
 31
0.0
  0
LINE
  5
FF
  8
0
  6
CONTINUOUS
 62
     7
 10
251.0578330487
 20
138.2062372908
 30
0.0
 11
251.0578330487
 21
139.0759644255
 31
0.0
  0
LINE
  5
100
  8
0
  6
CONTINUOUS
 62
     7
 10
251.8578346699
 20
139.0759644255
 30
0.0
 11
251.8578346699
 21
138.2062372908
 31
0.0
  0
LINE
  5
101
  8
0
  6
CONTINUOUS
 62
     7
 10
340.4578383893
 20
138.2062372908
 30
0.0
 11
339.657836768
 21
138.2062372908
 31
0.0
  0
LINE
  5
102
  8
0
  6
CONTINUOUS
 62
     7
 10
339.657836768
 20
138.2062372908
 30
0.0
 11
339.657836768
 21
139.0759644255
 31
0.0
  0
LINE
  5
103
  8
0
  6
CONTINUOUS
 62
     7
 10
339.657836768
 20
220.0317976221
 30
0.0
 11
339.657836768
 21
139.0759644255
 31
0.0
  0
LINE
  5
104
  8
0
  6
CONTINUOUS
 62
     7
 10
251.0578330487
 20
139.0759644255
 30
0.0
 11
251.0578330487
 21
220.0317976221
 31
0.0
  0
LINE
  5
105
  8
0
  6
CONTINUOUS
 62
     7
 10
251.8578346699
 20
139.0759644255
 30
0.0
 11
251.8578346699
 21
220.0317976221
 31
0.0
  0
LINE
  5
106
  8
0
  6
CONTINUOUS
 62
     7
 10
251.0578330487
 20
220.0317976221
 30
0.0
 11
251.0578330487
 21
220.6871149287
 31
0.0
  0
LINE
  5
107
  8
0
  6
CONTINUOUS
 62
     7
 10
251.8578346699
 20
220.6871149287
 30
0.0
 11
251.8578346699
 21
220.0317976221
 31
0.0
  0
LINE
  5
108
  8
0
  6
CONTINUOUS
 62
     7
 10
339.657836768
 20
220.0317976221
 30
0.0
 11
339.657836768
 21
220.6871149287
 31
0.0
  0
LINE
  5
109
  8
0
  6
CONTINUOUS
 62
     7
 10
251.0578330487
 20
220.6871149287
 30
0.0
 11
251.0578330487
 21
223.9163634524
 31
0.0
  0
LINE
  5
10A
  8
0
  6
CONTINUOUS
 62
     7
 10
251.8578346699
 20
220.6871149287
 30
0.0
 11
251.8578346699
 21
223.9163634524
 31
0.0
  0
LINE
  5
10B
  8
0
  6
CONTINUOUS
 62
     7
 10
339.657836768
 20
223.9163634524
 30
0.0
 11
339.657836768
 21
220.6871149287
 31
0.0
  0
LINE
  5
10C
  8
0
  6
CONTINUOUS
 62
     7
 10
251.0578330487
 20
223.9163634524
 30
0.0
 11
251.0578330487
 21
223.9913103327
 31
0.0
  0
LINE
  5
10D
  8
0
  6
CONTINUOUS
 62
     7
 10
251.8578346699
 20
223.9913103327
 30
0.0
 11
251.8578346699
 21
223.9163634524
 31
0.0
  0
LINE
  5
10E
  8
0
  6
CONTINUOUS
 62
     7
 10
339.657836768
 20
223.9163634524
 30
0.0
 11
339.657836768
 21
223.9913103327
 31
0.0
  0
POLYLINE
  5
10F
  8
0
  6
CONTINUOUS
 62
     7
 66
     1
 10
0.0
 20
0.0
 30
0.0
  0
VERTEX
  5
40A
  8
0
  6
CONTINUOUS
 62
     7
 10
337.5578340024
 20
271.3529941782
 30
0.0
  0
VERTEX
  5
40B
  8
0
  6
CONTINUOUS
 62
     7
 10
337.9051264256
 20
271.6963169321
 30
0.0
  0
VERTEX
  5
40C
  8
0
  6
CONTINUOUS
 62
     7
 10
338.2418807477
 20
272.0239159808
 30
0.0
  0
VERTEX
  5
40D
  8
0
  6
CONTINUOUS
 62
     7
 10
338.5578330487
 20
272.3258254275
 30
0.0
  0
VERTEX
  5
40E
  8
0
  6
CONTINUOUS
 62
     7
 10
338.8434108227
 20
272.5928899989
 30
0.0
  0
VERTEX
  5
40F
  8
0
  6
CONTINUOUS
 62
     7
 10
339.0899237126
 20
272.8169796214
 30
0.0
  0
VERTEX
  5
410
  8
0
  6
CONTINUOUS
 62
     7
 10
339.2898853749
 20
272.9912993655
 30
0.0
  0
VERTEX
  5
411
  8
0
  6
CONTINUOUS
 62
     7
 10
339.4372161358
 20
273.1105324969
 30
0.0
  0
VERTEX
  5
412
  8
0
  6
CONTINUOUS
 62
     7
 10
339.5274456471
 20
273.1710669741
 30
0.0
  0
VERTEX
  5
413
  8
0
  6
CONTINUOUS
 62
     7
 10
339.557832095
 20
273.1710669741
 30
0.0
  0
SEQEND
  5
4B5
  8
0
  6
CONTINUOUS
 62
     7
  0
LINE
  5
110
  8
0
  6
CONTINUOUS
 62
     7
 10
339.557832095
 20
273.1710669741
 30
0.0
 11
339.557832095
 21
160.6010672793
 31
0.0
  0
ARC
  5
111
  8
0
  6
CONTINUOUS
 62
     7
 10
333.4237319795
 20
156.2133932757
 30
0.0
 40
7.541807965566583
 50
35.5758450049
 51
46.0514560166
  0
ARC
  5
112
  8
0
  6
CONTINUOUS
 62
     7
 10
258.0923782813
 20
156.2129792257
 30
0.0
 40
7.542410614834652
 50
133.948761096
 51
144.4235624706
  0
LINE
  5
113
  8
0
  6
CONTINUOUS
 62
     7
 10
251.9578333825
 20
160.6010672793
 30
0.0
 11
251.9578333825
 21
273.1710669741
 31
0.0
  0
POLYLINE
  5
114
  8
0
  6
CONTINUOUS
 62
     7
 66
     1
 10
0.0
 20
0.0
 30
0.0
  0
VERTEX
  5
414
  8
0
  6
CONTINUOUS
 62
     7
 10
251.9578333825
 20
273.1710669741
 30
0.0
  0
VERTEX
  5
415
  8
0
  6
CONTINUOUS
 62
     7
 10
251.9882198304
 20
273.1710669741
 30
0.0
  0
VERTEX
  5
416
  8
0
  6
CONTINUOUS
 62
     7
 10
252.0784493416
 20
273.1105324969
 30
0.0
  0
VERTEX
  5
417
  8
0
  6
CONTINUOUS
 62
     7
 10
252.2257860631
 20
272.9912993655
 30
0.0
  0
VERTEX
  5
418
  8
0
  6
CONTINUOUS
 62
     7
 10
252.4257477253
 20
272.8169796214
 30
0.0
  0
VERTEX
  5
419
  8
0
  6
CONTINUOUS
 62
     7
 10
252.6722606152
 20
272.5928899989
 30
0.0
  0
VERTEX
  5
41A
  8
0
  6
CONTINUOUS
 62
     7
 10
252.9578324288
 20
272.3258254275
 30
0.0
  0
VERTEX
  5
41B
  8
0
  6
CONTINUOUS
 62
     7
 10
253.2737966507
 20
272.0239159808
 30
0.0
  0
VERTEX
  5
41C
  8
0
  6
CONTINUOUS
 62
     7
 10
253.6105390519
 20
271.6963169321
 30
0.0
  0
VERTEX
  5
41D
  8
0
  6
CONTINUOUS
 62
     7
 10
253.9578374356
 20
271.3529941782
 30
0.0
  0
SEQEND
  5
4B4
  8
0
  6
CONTINUOUS
 62
     7
  0
LINE
  5
115
  8
0
  6
CONTINUOUS
 62
     7
 10
251.9578333825
 20
160.2001485571
 30
0.0
 11
252.8578337163
 21
160.2001485571
 31
0.0
  0
LINE
  5
116
  8
0
  6
CONTINUOUS
 62
     7
 10
338.6578377217
 20
160.2001485571
 30
0.0
 11
339.557832095
 21
160.2001485571
 31
0.0
  0
LINE
  5
117
  8
0
  6
CONTINUOUS
 62
     7
 10
339.557832095
 20
160.6010672793
 30
0.0
 11
339.557832095
 21
160.2001485571
 31
0.0
  0
LINE
  5
118
  8
0
  6
CONTINUOUS
 62
     7
 10
251.9578333825
 20
160.6010672793
 30
0.0
 11
251.9578333825
 21
160.2001485571
 31
0.0
  0
LINE
  5
119
  8
0
  6
CONTINUOUS
 62
     7
 10
251.8578346699
 20
272.8697654948
 30
0.0
 11
251.8578346699
 21
223.9913103327
 31
0.0
  0
LINE
  5
11A
  8
0
  6
CONTINUOUS
 62
     7
 10
339.657836768
 20
272.8697654948
 30
0.0
 11
339.557832095
 21
272.8697654948
 31
0.0
  0
LINE
  5
11B
  8
0
  6
CONTINUOUS
 62
     7
 10
251.9578333825
 20
272.8697654948
 30
0.0
 11
251.8578346699
 21
272.8697654948
 31
0.0
  0
LINE
  5
11C
  8
0
  6
CONTINUOUS
 62
     7
 10
339.657836768
 20
272.8697654948
 30
0.0
 11
339.657836768
 21
223.9913103327
 31
0.0
  0
LINE
  5
11D
  8
0
  6
CONTINUOUS
 62
     7
 10
252.9578324288
 20
158.6062369093
 30
0.0
 11
251.8578346699
 21
158.6062369093
 31
0.0
  0
LINE
  5
11E
  8
0
  6
CONTINUOUS
 62
     7
 10
339.657836768
 20
158.6062369093
 30
0.0
 11
338.5578330487
 21
158.6062369093
 31
0.0
  0
LINE
  5
11F
  8
0
  6
CONTINUOUS
 62
     7
 10
251.0578330487
 20
140.2062413439
 30
0.0
 11
250.6578381985
 21
140.2062413439
 31
0.0
  0
LINE
  5
120
  8
0
  6
CONTINUOUS
 62
     7
 10
250.6578381985
 20
220.2062365755
 30
0.0
 11
251.0578330487
 21
220.2062365755
 31
0.0
  0
LINE
  5
121
  8
0
  6
CONTINUOUS
 62
     7
 10
116.4578374356
 20
138.2062372908
 30
0.0
 11
115.6578358143
 21
138.2062372908
 31
0.0
  0
LINE
  5
122
  8
0
  6
CONTINUOUS
 62
     7
 10
115.6578358143
 20
138.2062372908
 30
0.0
 11
115.6578358143
 21
139.0759644255
 31
0.0
  0
LINE
  5
123
  8
0
  6
CONTINUOUS
 62
     7
 10
27.8578337163
 20
138.2062372908
 30
0.0
 11
27.057832095
 21
138.2062372908
 31
0.0
  0
LINE
  5
124
  8
0
  6
CONTINUOUS
 62
     7
 10
27.8578337163
 20
139.0759644255
 30
0.0
 11
27.8578337163
 21
138.2062372908
 31
0.0
  0
LINE
  5
125
  8
0
  6
CONTINUOUS
 62
     7
 10
115.6578358143
 20
220.0317976221
 30
0.0
 11
115.6578358143
 21
139.0759644255
 31
0.0
  0
LINE
  5
126
  8
0
  6
CONTINUOUS
 62
     7
 10
27.8578337163
 20
139.0759644255
 30
0.0
 11
27.8578337163
 21
220.0317976221
 31
0.0
  0
LINE
  5
127
  8
0
  6
CONTINUOUS
 62
     7
 10
27.8578337163
 20
220.6871149287
 30
0.0
 11
27.8578337163
 21
220.0317976221
 31
0.0
  0
LINE
  5
128
  8
0
  6
CONTINUOUS
 62
     7
 10
115.6578358143
 20
220.0317976221
 30
0.0
 11
115.6578358143
 21
220.6871149287
 31
0.0
  0
LINE
  5
129
  8
0
  6
CONTINUOUS
 62
     7
 10
115.6578358143
 20
223.9163634524
 30
0.0
 11
115.6578358143
 21
220.6871149287
 31
0.0
  0
LINE
  5
12A
  8
0
  6
CONTINUOUS
 62
     7
 10
27.8578337163
 20
220.6871149287
 30
0.0
 11
27.8578337163
 21
223.9163634524
 31
0.0
  0
LINE
  5
12B
  8
0
  6
CONTINUOUS
 62
     7
 10
27.8578337163
 20
223.9913103327
 30
0.0
 11
27.8578337163
 21
223.9163634524
 31
0.0
  0
LINE
  5
12C
  8
0
  6
CONTINUOUS
 62
     7
 10
115.6578358143
 20
223.9163634524
 30
0.0
 11
115.6578358143
 21
223.9913103327
 31
0.0
  0
LINE
  5
12D
  8
0
  6
CONTINUOUS
 62
     7
 10
27.9578383893
 20
160.6010672793
 30
0.0
 11
27.9578383893
 21
273.1710669741
 31
0.0
  0
POLYLINE
  5
12E
  8
0
  6
CONTINUOUS
 62
     7
 66
     1
 10
0.0
 20
0.0
 30
0.0
  0
VERTEX
  5
41E
  8
0
  6
CONTINUOUS
 62
     7
 10
27.9578383893
 20
273.1710669741
 30
0.0
  0
VERTEX
  5
41F
  8
0
  6
CONTINUOUS
 62
     7
 10
27.9882248372
 20
273.1710669741
 30
0.0
  0
VERTEX
  5
420
  8
0
  6
CONTINUOUS
 62
     7
 10
28.0784543484
 20
273.1105324969
 30
0.0
  0
VERTEX
  5
421
  8
0
  6
CONTINUOUS
 62
     7
 10
28.2257851094
 20
272.9912993655
 30
0.0
  0
VERTEX
  5
422
  8
0
  6
CONTINUOUS
 62
     7
 10
28.4257467717
 20
272.8169796214
 30
0.0
  0
VERTEX
  5
423
  8
0
  6
CONTINUOUS
 62
     7
 10
28.6722596615
 20
272.5928899989
 30
0.0
  0
VERTEX
  5
424
  8
0
  6
CONTINUOUS
 62
     7
 10
28.9578374356
 20
272.3258254275
 30
0.0
  0
VERTEX
  5
425
  8
0
  6
CONTINUOUS
 62
     7
 10
29.2737897366
 20
272.0239159808
 30
0.0
  0
VERTEX
  5
426
  8
0
  6
CONTINUOUS
 62
     7
 10
29.6105440587
 20
271.6963169321
 30
0.0
  0
VERTEX
  5
427
  8
0
  6
CONTINUOUS
 62
     7
 10
29.9578364819
 20
271.3529941782
 30
0.0
  0
SEQEND
  5
4B3
  8
0
  6
CONTINUOUS
 62
     7
  0
ARC
  5
12F
  8
0
  6
CONTINUOUS
 62
     7
 10
34.0919385048
 20
156.2133932757
 30
0.0
 40
7.54180796557379
 50
133.9485439834
 51
144.4241549951
  0
ARC
  5
130
  8
0
  6
CONTINUOUS
 62
     7
 10
109.4232922029
 20
156.2129792257
 30
0.0
 40
7.542410614839782
 50
35.5764375294
 51
46.051238904
  0
POLYLINE
  5
131
  8
0
  6
CONTINUOUS
 62
     7
 66
     1
 10
0.0
 20
0.0
 30
0.0
  0
VERTEX
  5
428
  8
0
  6
CONTINUOUS
 62
     7
 10
113.5578330487
 20
271.3529941782
 30
0.0
  0
VERTEX
  5
429
  8
0
  6
CONTINUOUS
 62
     7
 10
113.9051314324
 20
271.6963169321
 30
0.0
  0
VERTEX
  5
42A
  8
0
  6
CONTINUOUS
 62
     7
 10
114.2418738335
 20
272.0239159808
 30
0.0
  0
VERTEX
  5
42B
  8
0
  6
CONTINUOUS
 62
     7
 10
114.5578380555
 20
272.3258254275
 30
0.0
  0
VERTEX
  5
42C
  8
0
  6
CONTINUOUS
 62
     7
 10
114.8434098691
 20
272.5928899989
 30
0.0
  0
VERTEX
  5
42D
  8
0
  6
CONTINUOUS
 62
     7
 10
115.0899227589
 20
272.8169796214
 30
0.0
  0
VERTEX
  5
42E
  8
0
  6
CONTINUOUS
 62
     7
 10
115.2898844212
 20
272.9912993655
 30
0.0
  0
VERTEX
  5
42F
  8
0
  6
CONTINUOUS
 62
     7
 10
115.4372211426
 20
273.1105324969
 30
0.0
  0
VERTEX
  5
430
  8
0
  6
CONTINUOUS
 62
     7
 10
115.5274506539
 20
273.1710669741
 30
0.0
  0
VERTEX
  5
431
  8
0
  6
CONTINUOUS
 62
     7
 10
115.5578371018
 20
273.1710669741
 30
0.0
  0
SEQEND
  5
4B2
  8
0
  6
CONTINUOUS
 62
     7
  0
LINE
  5
132
  8
0
  6
CONTINUOUS
 62
     7
 10
115.5578371018
 20
273.1710669741
 30
0.0
 11
115.5578371018
 21
272.9113814577
 31
0.0
  0
LINE
  5
133
  8
0
  6
CONTINUOUS
 62
     7
 10
115.5578371018
 20
224.0386483416
 30
0.0
 11
115.5578371018
 21
160.6010672793
 31
0.0
  0
LINE
  5
134
  8
0
  6
CONTINUOUS
 62
     7
 10
27.9578383893
 20
160.2001485571
 30
0.0
 11
28.8578327626
 21
160.2001485571
 31
0.0
  0
LINE
  5
135
  8
0
  6
CONTINUOUS
 62
     7
 10
114.657836768
 20
160.2001485571
 30
0.0
 11
115.5578371018
 21
160.2001485571
 31
0.0
  0
LINE
  5
136
  8
0
  6
CONTINUOUS
 62
     7
 10
27.9578383893
 20
160.6010672793
 30
0.0
 11
27.9578383893
 21
160.2001485571
 31
0.0
  0
LINE
  5
137
  8
0
  6
CONTINUOUS
 62
     7
 10
115.5578371018
 20
160.6010672793
 30
0.0
 11
115.5578371018
 21
160.2001485571
 31
0.0
  0
LINE
  5
138
  8
0
  6
CONTINUOUS
 62
     7
 10
27.8578337163
 20
272.8697654948
 30
0.0
 11
27.8578337163
 21
223.9913103327
 31
0.0
  0
LINE
  5
139
  8
0
  6
CONTINUOUS
 62
     7
 10
27.9578383893
 20
272.8697654948
 30
0.0
 11
27.8578337163
 21
272.8697654948
 31
0.0
  0
LINE
  5
13A
  8
0
  6
CONTINUOUS
 62
     7
 10
28.8578327626
 20
158.6062369093
 30
0.0
 11
27.8578337163
 21
158.6062369093
 31
0.0
  0
LINE
  5
13B
  8
0
  6
CONTINUOUS
 62
     7
 10
115.6578358143
 20
158.6062369093
 30
0.0
 11
114.657836768
 21
158.6062369093
 31
0.0
  0
LINE
  5
13C
  8
0
  6
CONTINUOUS
 62
     7
 10
139.8578341931
 20
139.0759644255
 30
0.0
 11
139.8578341931
 21
138.2062372908
 31
0.0
  0
LINE
  5
13D
  8
0
  6
CONTINUOUS
 62
     7
 10
139.8578341931
 20
138.2062372908
 30
0.0
 11
139.0578355521
 21
138.2062372908
 31
0.0
  0
LINE
  5
13E
  8
0
  6
CONTINUOUS
 62
     7
 10
139.0578355521
 20
138.2062372908
 30
0.0
 11
139.0578355521
 21
139.0759644255
 31
0.0
  0
LINE
  5
13F
  8
0
  6
CONTINUOUS
 62
     7
 10
228.4578349322
 20
138.2062372908
 30
0.0
 11
227.6578362912
 21
138.2062372908
 31
0.0
  0
LINE
  5
140
  8
0
  6
CONTINUOUS
 62
     7
 10
227.6578362912
 20
138.2062372908
 30
0.0
 11
227.6578362912
 21
139.0759644255
 31
0.0
  0
LINE
  5
141
  8
0
  6
CONTINUOUS
 62
     7
 10
227.6578362912
 20
220.0317976221
 30
0.0
 11
227.6578362912
 21
139.0759644255
 31
0.0
  0
LINE
  5
142
  8
0
  6
CONTINUOUS
 62
     7
 10
139.8578341931
 20
139.0759644255
 30
0.0
 11
139.8578341931
 21
220.0317976221
 31
0.0
  0
LINE
  5
143
  8
0
  6
CONTINUOUS
 62
     7
 10
139.0578355521
 20
139.0759644255
 30
0.0
 11
139.0578355521
 21
220.0317976221
 31
0.0
  0
LINE
  5
144
  8
0
  6
CONTINUOUS
 62
     7
 10
227.6578362912
 20
220.0317976221
 30
0.0
 11
227.6578362912
 21
220.6871149287
 31
0.0
  0
LINE
  5
145
  8
0
  6
CONTINUOUS
 62
     7
 10
139.8578341931
 20
220.6871149287
 30
0.0
 11
139.8578341931
 21
220.0317976221
 31
0.0
  0
LINE
  5
146
  8
0
  6
CONTINUOUS
 62
     7
 10
139.0578355521
 20
220.0317976221
 30
0.0
 11
139.0578355521
 21
220.6871149287
 31
0.0
  0
LINE
  5
147
  8
0
  6
CONTINUOUS
 62
     7
 10
139.8578341931
 20
220.6871149287
 30
0.0
 11
139.8578341931
 21
223.9163634524
 31
0.0
  0
LINE
  5
148
  8
0
  6
CONTINUOUS
 62
     7
 10
139.0578355521
 20
220.6871149287
 30
0.0
 11
139.0578355521
 21
223.9163634524
 31
0.0
  0
LINE
  5
149
  8
0
  6
CONTINUOUS
 62
     7
 10
227.6578362912
 20
223.9163634524
 30
0.0
 11
227.6578362912
 21
220.6871149287
 31
0.0
  0
LINE
  5
14A
  8
0
  6
CONTINUOUS
 62
     7
 10
227.6578362912
 20
223.9163634524
 30
0.0
 11
227.6578362912
 21
223.9913103327
 31
0.0
  0
LINE
  5
14B
  8
0
  6
CONTINUOUS
 62
     7
 10
139.8578341931
 20
223.9913103327
 30
0.0
 11
139.8578341931
 21
223.9163634524
 31
0.0
  0
LINE
  5
14C
  8
0
  6
CONTINUOUS
 62
     7
 10
139.0578355521
 20
223.9163634524
 30
0.0
 11
139.0578355521
 21
223.9913103327
 31
0.0
  0
ARC
  5
14D
  8
0
  6
CONTINUOUS
 62
     7
 10
221.4241455838
 20
156.2137183659
 30
0.0
 40
7.541284467211639
 50
35.5756532369
 51
46.0520231965
  0
ARC
  5
14E
  8
0
  6
CONTINUOUS
 62
     7
 10
146.0915249005
 20
156.2137183659
 30
0.0
 40
7.541284467204099
 50
133.9479768035
 51
144.4243467631
  0
LINE
  5
14F
  8
0
  6
CONTINUOUS
 62
     7
 10
139.9578358859
 20
160.6010672793
 30
0.0
 11
139.9578358859
 21
273.1710669741
 31
0.0
  0
POLYLINE
  5
150
  8
0
  6
CONTINUOUS
 62
     7
 66
     1
 10
0.0
 20
0.0
 30
0.0
  0
VERTEX
  5
432
  8
0
  6
CONTINUOUS
 62
     7
 10
139.9578358859
 20
273.1710669741
 30
0.0
  0
VERTEX
  5
433
  8
0
  6
CONTINUOUS
 62
     7
 10
139.9882193535
 20
273.1710669741
 30
0.0
  0
VERTEX
  5
434
  8
0
  6
CONTINUOUS
 62
     7
 10
140.0784488648
 20
273.1105324969
 30
0.0
  0
VERTEX
  5
435
  8
0
  6
CONTINUOUS
 62
     7
 10
140.2257855862
 20
272.9912993655
 30
0.0
  0
VERTEX
  5
436
  8
0
  6
CONTINUOUS
 62
     7
 10
140.4257472485
 20
272.8169796214
 30
0.0
  0
VERTEX
  5
437
  8
0
  6
CONTINUOUS
 62
     7
 10
140.6722601384
 20
272.5928899989
 30
0.0
  0
VERTEX
  5
438
  8
0
  6
CONTINUOUS
 62
     7
 10
140.9578349322
 20
272.3258254275
 30
0.0
  0
VERTEX
  5
439
  8
0
  6
CONTINUOUS
 62
     7
 10
141.2737961739
 20
272.0239159808
 30
0.0
  0
VERTEX
  5
43A
  8
0
  6
CONTINUOUS
 62
     7
 10
141.610538575
 20
271.6963169321
 30
0.0
  0
VERTEX
  5
43B
  8
0
  6
CONTINUOUS
 62
     7
 10
141.9578339785
 20
271.3529941782
 30
0.0
  0
SEQEND
  5
4B1
  8
0
  6
CONTINUOUS
 62
     7
  0
POLYLINE
  5
151
  8
0
  6
CONTINUOUS
 62
     7
 66
     1
 10
0.0
 20
0.0
 30
0.0
  0
VERTEX
  5
43C
  8
0
  6
CONTINUOUS
 62
     7
 10
225.5578365057
 20
271.3529941782
 30
0.0
  0
VERTEX
  5
43D
  8
0
  6
CONTINUOUS
 62
     7
 10
225.9051319092
 20
271.6963169321
 30
0.0
  0
VERTEX
  5
43E
  8
0
  6
CONTINUOUS
 62
     7
 10
226.2418743104
 20
272.0239159808
 30
0.0
  0
VERTEX
  5
43F
  8
0
  6
CONTINUOUS
 62
     7
 10
226.5578355521
 20
272.3258254275
 30
0.0
  0
VERTEX
  5
440
  8
0
  6
CONTINUOUS
 62
     7
 10
226.8434103459
 20
272.5928899989
 30
0.0
  0
VERTEX
  5
441
  8
0
  6
CONTINUOUS
 62
     7
 10
227.0899232358
 20
272.8169796214
 30
0.0
  0
VERTEX
  5
442
  8
0
  6
CONTINUOUS
 62
     7
 10
227.289884898
 20
272.9912993655
 30
0.0
  0
VERTEX
  5
443
  8
0
  6
CONTINUOUS
 62
     7
 10
227.4372216195
 20
273.1105324969
 30
0.0
  0
VERTEX
  5
444
  8
0
  6
CONTINUOUS
 62
     7
 10
227.5274511307
 20
273.1710669741
 30
0.0
  0
VERTEX
  5
445
  8
0
  6
CONTINUOUS
 62
     7
 10
227.5578345984
 20
273.1710669741
 30
0.0
  0
SEQEND
  5
4B0
  8
0
  6
CONTINUOUS
 62
     7
  0
LINE
  5
152
  8
0
  6
CONTINUOUS
 62
     7
 10
227.5578345984
 20
273.1710669741
 30
0.0
 11
227.5578345984
 21
272.9113814577
 31
0.0
  0
LINE
  5
153
  8
0
  6
CONTINUOUS
 62
     7
 10
227.5578345984
 20
224.0386483416
 30
0.0
 11
227.5578345984
 21
160.6010672793
 31
0.0
  0
LINE
  5
154
  8
0
  6
CONTINUOUS
 62
     7
 10
139.9578358859
 20
160.2001485571
 30
0.0
 11
140.8578362196
 21
160.2001485571
 31
0.0
  0
LINE
  5
155
  8
0
  6
CONTINUOUS
 62
     7
 10
226.6578342646
 20
160.2001485571
 30
0.0
 11
227.5578345984
 21
160.2001485571
 31
0.0
  0
LINE
  5
156
  8
0
  6
CONTINUOUS
 62
     7
 10
227.5578345984
 20
160.6010672793
 30
0.0
 11
227.5578345984
 21
160.2001485571
 31
0.0
  0
LINE
  5
157
  8
0
  6
CONTINUOUS
 62
     7
 10
139.9578358859
 20
160.6010672793
 30
0.0
 11
139.9578358859
 21
160.2001485571
 31
0.0
  0
LINE
  5
158
  8
0
  6
CONTINUOUS
 62
     7
 10
139.8578341931
 20
272.8697654948
 30
0.0
 11
139.8578341931
 21
223.9913103327
 31
0.0
  0
LINE
  5
159
  8
0
  6
CONTINUOUS
 62
     7
 10
139.9578358859
 20
272.8697654948
 30
0.0
 11
139.8578341931
 21
272.8697654948
 31
0.0
  0
LINE
  5
15A
  8
0
  6
CONTINUOUS
 62
     7
 10
140.8578362196
 20
158.6062369093
 30
0.0
 11
139.8578341931
 21
158.6062369093
 31
0.0
  0
LINE
  5
15B
  8
0
  6
CONTINUOUS
 62
     7
 10
227.6578362912
 20
158.6062369093
 30
0.0
 11
226.6578342646
 21
158.6062369093
 31
0.0
  0
LINE
  5
15C
  8
0
  6
CONTINUOUS
 62
     7
 10
139.0578355521
 20
140.2062413439
 30
0.0
 11
138.6578347415
 21
140.2062413439
 31
0.0
  0
LINE
  5
15D
  8
0
  6
CONTINUOUS
 62
     7
 10
138.6578347415
 20
220.2062365755
 30
0.0
 11
139.0578355521
 21
220.2062365755
 31
0.0
  0
LINE
  5
15E
  8
0
  6
CONTINUOUS
 62
     7
 10
433.903310983
 20
272.8696820483
 30
0.0
 11
438.9345420287
 21
273.309850429
 31
0.0
  0
ARC
  5
15F
  8
0
  6
CONTINUOUS
 62
     7
 10
438.9694040114
 20
272.9113758951
 30
0.0
 40
0.3999999999999844
 50
22.24931155
 51
95.0
  0
LINE
  5
160
  8
0
  6
CONTINUOUS
 62
     7
 10
431.280066608
 20
222.6298687205
 30
0.0
 11
431.280066608
 21
138.0062398657
 31
0.0
  0
LINE
  5
161
  8
0
  6
CONTINUOUS
 62
     7
 10
466.8355425583
 20
137.6062390551
 30
0.0
 11
431.280066608
 21
137.6062390551
 31
0.0
  0
LINE
  5
162
  8
0
  6
CONTINUOUS
 62
     7
 10
431.280066608
 20
137.6062390551
 30
0.0
 11
431.280066608
 21
138.0062398657
 31
0.0
  0
LINE
  5
163
  8
0
  6
CONTINUOUS
 62
     7
 10
431.280066608
 20
222.9776022181
 30
0.0
 11
431.28473727
 21
222.9780075297
 31
0.0
  0
POLYLINE
  5
164
  8
0
  6
CONTINUOUS
 62
     7
 66
     1
 10
0.0
 20
0.0
 30
0.0
  0
VERTEX
  5
446
  8
0
  6
CONTINUOUS
 62
     7
 10
431.28473727
 20
222.9780075297
 30
0.0
  0
VERTEX
  5
447
  8
0
  6
CONTINUOUS
 62
     7
 10
431.2836618613
 20
222.9902980074
 30
0.0
  0
VERTEX
  5
448
  8
0
  6
CONTINUOUS
 62
     7
 10
431.2827203424
 20
223.0010626063
 30
0.0
  0
VERTEX
  5
449
  8
0
  6
CONTINUOUS
 62
     7
 10
431.2819167456
 20
223.0102536425
 30
0.0
  0
VERTEX
  5
44A
  8
0
  6
CONTINUOUS
 62
     7
 10
431.281254512
 20
223.0178234324
 30
0.0
  0
VERTEX
  5
44B
  8
0
  6
CONTINUOUS
 62
     7
 10
431.2807364773
 20
223.0237362131
 30
0.0
  0
VERTEX
  5
44C
  8
0
  6
CONTINUOUS
 62
     7
 10
431.2803648598
 20
223.0279919848
 30
0.0
  0
VERTEX
  5
44D
  8
0
  6
CONTINUOUS
 62
     7
 10
431.2801412509
 20
223.0305430636
 30
0.0
  0
VERTEX
  5
44E
  8
0
  6
CONTINUOUS
 62
     7
 10
431.280066608
 20
223.0314013705
 30
0.0
  0
SEQEND
  5
4AF
  8
0
  6
CONTINUOUS
 62
     7
  0
LINE
  5
165
  8
0
  6
CONTINUOUS
 62
     7
 10
431.280066608
 20
223.0314013705
 30
0.0
 11
451.5050342069
 21
224.8008486971
 31
0.0
  0
LINE
  5
166
  8
0
  6
CONTINUOUS
 62
     7
 10
431.280066608
 20
222.6298687205
 30
0.0
 11
431.280066608
 21
222.9776022181
 31
0.0
  0
ARC
  5
167
  8
0
  6
CONTINUOUS
 62
     7
 10
451.5398968455
 20
224.4023751417
 30
0.0
 40
0.4000000000000077
 50
65.0
 51
95.0
  0
LINE
  5
168
  8
0
  6
CONTINUOUS
 62
     7
 10
451.7089446769
 20
224.7648951754
 30
0.0
 11
459.7749760137
 21
221.0036513552
 31
0.0
  0
LINE
  5
169
  8
0
  6
CONTINUOUS
 62
     7
 10
460.0044062124
 20
220.675980781
 30
0.0
 11
467.2340204702
 21
138.0411026225
 31
0.0
  0
ARC
  5
16A
  8
0
  6
CONTINUOUS
 62
     7
 10
459.6059275883
 20
220.6411232354
 30
0.0
 40
0.4000000000000397
 50
5.0
 51
65.0
  0
ARC
  5
16B
  8
0
  6
CONTINUOUS
 62
     7
 10
466.8355432076
 20
138.0062385783
 30
0.0
 40
0.4000000000000057
 50
270.0
 51
5.0
  0
LINE
  5
16C
  8
0
  6
CONTINUOUS
 62
     7
 10
464.82238376
 20
165.6062361941
 30
0.0
 11
528.4800668941
 21
165.6062361941
 31
0.0
  0
ARC
  5
16D
  8
0
  6
CONTINUOUS
 62
     7
 10
528.4800744449
 20
163.2062448415
 30
0.0
 40
2.399991352544701
 50
359.9998197387
 51
90.0001802613
  0
LINE
  5
16E
  8
0
  6
CONTINUOUS
 62
     7
 10
530.8800657974
 20
159.00623772
 30
0.0
 11
465.3998097168
 21
159.00623772
 31
0.0
  0
LINE
  5
16F
  8
0
  6
CONTINUOUS
 62
     7
 10
530.8800657974
 20
163.2062372908
 30
0.0
 11
530.8800657974
 21
159.00623772
 31
0.0
  0
LINE
  5
170
  8
0
  6
CONTINUOUS
 62
     7
 10
526.1231442676
 20
151.0062393889
 30
0.0
 11
466.099717258
 21
151.0062393889
 31
0.0
  0
ARC
  5
171
  8
0
  6
CONTINUOUS
 62
     7
 10
526.1231446699
 20
151.4062385783
 30
0.0
 40
0.4000000000000807
 50
270.0
 51
330.0
  0
LINE
  5
172
  8
0
  6
CONTINUOUS
 62
     7
 10
530.7996829734
 20
158.7062356219
 30
0.0
 11
526.4695545421
 21
151.206236814
 31
0.0
  0
ARC
  5
173
  8
0
  6
CONTINUOUS
 62
     7
 10
530.280066608
 20
159.0062385783
 30
0.0
 40
0.6000000000000227
 50
330.0
 51
0.0
  0
LINE
  5
174
  8
0
  6
CONTINUOUS
 62
     7
 10
462.0572319017
 20
137.6062390551
 30
0.0
 11
459.6436163173
 21
137.3950717196
 31
0.0
  0
ARC
  5
175
  8
0
  6
CONTINUOUS
 62
     7
 10
459.6087534979
 20
137.7935524547
 30
0.0
 40
0.4000000000000077
 50
207.9230096112
 51
275.0
  0
LINE
  5
176
  8
0
  6
CONTINUOUS
 62
     7
 10
431.280066608
 20
272.6402637705
 30
0.0
 11
433.9033029736
 21
272.8697654948
 31
0.0
  0
LINE
  5
177
  8
0
  6
CONTINUOUS
 62
     7
 10
433.9033029736
 20
272.8697654948
 30
0.0
 11
438.2105475054
 21
223.6377355799
 31
0.0
  0
LINE
  5
178
  8
0
  6
CONTINUOUS
 62
     7
 10
431.280066608
 20
222.9776022181
 30
0.0
 11
431.280066608
 21
272.6402637705
 31
0.0
  0
LINE
  5
179
  8
0
  6
CONTINUOUS
 62
     7
 10
438.494514464
 20
273.1710669741
 30
0.0
 11
433.9120184766
 21
272.7701542124
 31
0.0
  0
LINE
  5
17A
  8
0
  6
CONTINUOUS
 62
     7
 10
440.6612148271
 20
271.3529941782
 30
0.0
 11
444.7854330526
 21
224.2129680857
 31
0.0
  0
ARC
  5
17B
  8
0
  6
CONTINUOUS
 62
     7
 10
438.6688293187
 20
271.178681671
 30
0.0
 40
1.999996216115684
 50
5.0000388655
 51
95.0001063734
  0
LINE
  5
17C
  8
0
  6
CONTINUOUS
 62
     7
 10
116.8578322857
 20
70.3250998741
 30
0.0
 11
138.2578339308
 21
70.3250998741
 31
0.0
  0
ARC
  5
17D
  8
0
  6
CONTINUOUS
 62
     7
 10
138.2578352421
 20
70.7251000354
 30
0.0
 40
0.4000000000000057
 50
270.0
 51
0.0
  0
ARC
  5
17E
  8
0
  6
CONTINUOUS
 62
     7
 10
116.8578352421
 20
70.7251000354
 30
0.0
 40
0.4000000000000057
 50
180.0
 51
270.0
  0
LINE
  5
17F
  8
0
  6
CONTINUOUS
 62
     7
 10
228.8578357428
 20
70.3250998741
 30
0.0
 11
250.2578373879
 21
70.3250998741
 31
0.0
  0
ARC
  5
180
  8
0
  6
CONTINUOUS
 62
     7
 10
228.8578352421
 20
70.7251000354
 30
0.0
 40
0.4000000000000057
 50
180.0
 51
270.0
  0
ARC
  5
181
  8
0
  6
CONTINUOUS
 62
     7
 10
250.2578352421
 20
70.7251000354
 30
0.0
 40
0.4000000000000057
 50
270.0
 51
0.0
  0
LINE
  5
182
  8
0
  6
CONTINUOUS
 62
     7
 10
340.8578332394
 20
70.3250998741
 30
0.0
 11
351.7578299969
 21
70.3250998741
 31
0.0
  0
ARC
  5
183
  8
0
  6
CONTINUOUS
 62
     7
 10
351.7578352421
 20
70.7251000354
 30
0.0
 40
0.4000000000000341
 50
270.0
 51
0.0
  0
ARC
  5
184
  8
0
  6
CONTINUOUS
 62
     7
 10
340.8578352421
 20
70.7251000354
 30
0.0
 40
0.4000000000000057
 50
180.0
 51
270.0
  0
ARC
  5
185
  8
0
  6
CONTINUOUS
 62
     7
 10
26.6578352421
 20
70.7251000354
 30
0.0
 40
0.4000000000000057
 50
270.0
 51
0.0
  0
LINE
  5
186
  8
0
  6
CONTINUOUS
 62
     7
 10
15.7578404873
 20
70.3250998741
 30
0.0
 11
26.6578372448
 21
70.3250998741
 31
0.0
  0
ARC
  5
187
  8
0
  6
CONTINUOUS
 62
     7
 10
15.7578352421
 20
70.7251000354
 30
0.0
 40
0.4000000000000057
 50
180.0
 51
270.0
  0
LINE
  5
188
  8
0
  6
CONTINUOUS
 62
     7
 10
224.4670089215
 20
92.3077607638
 30
0.0
 11
143.0486615628
 21
92.3077607638
 31
0.0
  0
LINE
  5
189
  8
0
  6
CONTINUOUS
 62
     7
 10
226.5578355521
 20
73.8805765396
 30
0.0
 11
227.5578345984
 21
73.8805765396
 31
0.0
  0
LINE
  5
18A
  8
0
  6
CONTINUOUS
 62
     7
 10
227.5578345984
 20
78.6805773264
 30
0.0
 11
226.5578355521
 21
78.6805773264
 31
0.0
  0
LINE
  5
18B
  8
0
  6
CONTINUOUS
 62
     7
 10
139.9578358859
 20
73.8805765396
 30
0.0
 11
140.9578349322
 21
73.8805765396
 31
0.0
  0
LINE
  5
18C
  8
0
  6
CONTINUOUS
 62
     7
 10
140.9578349322
 20
78.6805773264
 30
0.0
 11
139.9578358859
 21
78.6805773264
 31
0.0
  0
LINE
  5
18D
  8
0
  6
CONTINUOUS
 62
     7
 10
141.3578357428
 20
70.3792864567
 30
0.0
 11
226.1578347415
 21
70.3792864567
 31
0.0
  0
ARC
  5
18E
  8
0
  6
CONTINUOUS
 62
     7
 10
141.3578352421
 20
70.7792879188
 30
0.0
 40
0.4000000000000057
 50
180.0
 51
270.0
  0
ARC
  5
18F
  8
0
  6
CONTINUOUS
 62
     7
 10
226.1578352421
 20
70.7792879188
 30
0.0
 40
0.4000000000000057
 50
270.0
 51
0.0
  0
LINE
  5
190
  8
0
  6
CONTINUOUS
 62
     7
 10
338.6578377217
 20
73.8805765396
 30
0.0
 11
339.557832095
 21
73.8805765396
 31
0.0
  0
LINE
  5
191
  8
0
  6
CONTINUOUS
 62
     7
 10
339.557832095
 20
78.6805773264
 30
0.0
 11
338.6578377217
 21
78.6805773264
 31
0.0
  0
LINE
  5
192
  8
0
  6
CONTINUOUS
 62
     7
 10
251.9578333825
 20
73.8805765396
 30
0.0
 11
252.8578337163
 21
73.8805765396
 31
0.0
  0
LINE
  5
193
  8
0
  6
CONTINUOUS
 62
     7
 10
252.8578337163
 20
78.6805773264
 30
0.0
 11
251.9578333825
 21
78.6805773264
 31
0.0
  0
LINE
  5
194
  8
0
  6
CONTINUOUS
 62
     7
 10
112.4670084446
 20
92.3077607638
 30
0.0
 11
31.0486610859
 21
92.3077607638
 31
0.0
  0
LINE
  5
195
  8
0
  6
CONTINUOUS
 62
     7
 10
114.5578380555
 20
73.8805765396
 30
0.0
 11
115.5578371018
 21
73.8805765396
 31
0.0
  0
LINE
  5
196
  8
0
  6
CONTINUOUS
 62
     7
 10
115.5578371018
 20
78.6805773264
 30
0.0
 11
114.5578380555
 21
78.6805773264
 31
0.0
  0
LINE
  5
197
  8
0
  6
CONTINUOUS
 62
     7
 10
27.9578383893
 20
73.8805765396
 30
0.0
 11
28.9578374356
 21
73.8805765396
 31
0.0
  0
LINE
  5
198
  8
0
  6
CONTINUOUS
 62
     7
 10
28.9578374356
 20
78.6805773264
 30
0.0
 11
27.9578383893
 21
78.6805773264
 31
0.0
  0
LINE
  5
199
  8
0
  6
CONTINUOUS
 62
     7
 10
29.3578322857
 20
70.3792864567
 30
0.0
 11
114.1578372448
 21
70.3792864567
 31
0.0
  0
ARC
  5
19A
  8
0
  6
CONTINUOUS
 62
     7
 10
29.3578352421
 20
70.7792879188
 30
0.0
 40
0.4000000000000128
 50
180.0
 51
270.0
  0
ARC
  5
19B
  8
0
  6
CONTINUOUS
 62
     7
 10
114.1578352421
 20
70.7792879188
 30
0.0
 40
0.3999999999999915
 50
270.0
 51
0.0
  0
LINE
  5
19C
  8
0
  6
CONTINUOUS
 62
     7
 10
253.7835236519
 20
87.3918423539
 30
0.0
 11
337.7321418255
 21
87.3918423539
 31
0.0
  0
LINE
  5
19D
  8
0
  6
CONTINUOUS
 62
     7
 10
339.657836768
 20
77.4805778748
 30
0.0
 11
339.557832095
 21
77.4805778748
 31
0.0
  0
LINE
  5
19E
  8
0
  6
CONTINUOUS
 62
     7
 10
251.9578333825
 20
77.4805778748
 30
0.0
 11
251.8578346699
 21
77.4805778748
 31
0.0
  0
LINE
  5
19F
  8
0
  6
CONTINUOUS
 62
     7
 10
251.8578346699
 20
75.0805759913
 30
0.0
 11
251.9578333825
 21
75.0805759913
 31
0.0
  0
LINE
  5
1A0
  8
0
  6
CONTINUOUS
 62
     7
 10
339.557832095
 20
75.0805759913
 30
0.0
 11
339.657836768
 21
75.0805759913
 31
0.0
  0
LINE
  5
1A1
  8
0
  6
CONTINUOUS
 62
     7
 10
251.0578330487
 20
71.0343027598
 30
0.0
 11
251.8578346699
 21
71.0343027598
 31
0.0
  0
LINE
  5
1A2
  8
0
  6
CONTINUOUS
 62
     7
 10
339.657836768
 20
71.0343027598
 30
0.0
 11
340.4578383893
 21
71.0343027598
 31
0.0
  0
LINE
  5
1A3
  8
0
  6
CONTINUOUS
 62
     7
 10
115.6578358143
 20
77.4805778748
 30
0.0
 11
115.5578371018
 21
77.4805778748
 31
0.0
  0
LINE
  5
1A4
  8
0
  6
CONTINUOUS
 62
     7
 10
27.9578383893
 20
77.4805778748
 30
0.0
 11
27.8578337163
 21
77.4805778748
 31
0.0
  0
LINE
  5
1A5
  8
0
  6
CONTINUOUS
 62
     7
 10
27.8578337163
 20
75.0805759913
 30
0.0
 11
27.9578383893
 21
75.0805759913
 31
0.0
  0
LINE
  5
1A6
  8
0
  6
CONTINUOUS
 62
     7
 10
115.5578371018
 20
75.0805759913
 30
0.0
 11
115.6578358143
 21
75.0805759913
 31
0.0
  0
LINE
  5
1A7
  8
0
  6
CONTINUOUS
 62
     7
 10
27.057832095
 20
71.0343027598
 30
0.0
 11
27.8578337163
 21
71.0343027598
 31
0.0
  0
LINE
  5
1A8
  8
0
  6
CONTINUOUS
 62
     7
 10
115.6578358143
 20
71.0343027598
 30
0.0
 11
116.4578374356
 21
71.0343027598
 31
0.0
  0
LINE
  5
1A9
  8
0
  6
CONTINUOUS
 62
     7
 10
227.6578362912
 20
77.4805778748
 30
0.0
 11
227.5578345984
 21
77.4805778748
 31
0.0
  0
LINE
  5
1AA
  8
0
  6
CONTINUOUS
 62
     7
 10
139.9578358859
 20
77.4805778748
 30
0.0
 11
139.8578341931
 21
77.4805778748
 31
0.0
  0
LINE
  5
1AB
  8
0
  6
CONTINUOUS
 62
     7
 10
139.8578341931
 20
75.0805759913
 30
0.0
 11
139.9578358859
 21
75.0805759913
 31
0.0
  0
LINE
  5
1AC
  8
0
  6
CONTINUOUS
 62
     7
 10
227.5578345984
 20
75.0805759913
 30
0.0
 11
227.6578362912
 21
75.0805759913
 31
0.0
  0
LINE
  5
1AD
  8
0
  6
CONTINUOUS
 62
     7
 10
139.0578355521
 20
71.0343027598
 30
0.0
 11
139.8578341931
 21
71.0343027598
 31
0.0
  0
LINE
  5
1AE
  8
0
  6
CONTINUOUS
 62
     7
 10
227.6578362912
 20
71.0343027598
 30
0.0
 11
228.4578349322
 21
71.0343027598
 31
0.0
  0
LINE
  5
1AF
  8
0
  6
CONTINUOUS
 62
     7
 10
139.1578342646
 20
105.5197688396
 30
0.0
 11
115.9578379124
 21
105.5197688396
 31
0.0
  0
LINE
  5
1B0
  8
0
  6
CONTINUOUS
 62
     7
 10
115.5578371018
 20
98.5912392026
 30
0.0
 11
115.5578371018
 21
99.0399742609
 31
0.0
  0
ARC
  5
1B1
  8
0
  6
CONTINUOUS
 62
     7
 10
115.9338014438
 20
102.3121885774
 30
0.0
 40
3.207670321314883
 50
89.5706537895
 51
94.9354313316
  0
LINE
  5
1B2
  8
0
  6
CONTINUOUS
 62
     7
 10
139.5578350752
 20
105.4849065019
 30
0.0
 11
139.5578350752
 21
98.5912392026
 31
0.0
  0
ARC
  5
1B3
  8
0
  6
CONTINUOUS
 62
     7
 10
139.2570749971
 20
104.3462490793
 30
0.0
 40
1.177708516865021
 50
75.2040540446
 51
94.8338157304
  0
LINE
  5
1B4
  8
0
  6
CONTINUOUS
 62
     7
 10
139.1578342646
 20
93.9203867799
 30
0.0
 11
138.2578339308
 21
93.9203867799
 31
0.0
  0
LINE
  5
1B5
  8
0
  6
CONTINUOUS
 62
     7
 10
138.2578339308
 20
93.9203867799
 30
0.0
 11
116.8578322857
 21
93.9203867799
 31
0.0
  0
LINE
  5
1B6
  8
0
  6
CONTINUOUS
 62
     7
 10
116.8578322857
 20
93.9203867799
 30
0.0
 11
115.9578379124
 21
93.9203867799
 31
0.0
  0
LINE
  5
1B7
  8
0
  6
CONTINUOUS
 62
     7
 10
115.5578371018
 20
94.3188646919
 30
0.0
 11
115.5578371018
 21
98.5912392026
 31
0.0
  0
ARC
  5
1B8
  8
0
  6
CONTINUOUS
 62
     7
 10
115.9570717638
 20
94.3196214239
 30
0.0
 40
0.3992353791401307
 50
180.1086015449
 51
270.1099529598
  0
LINE
  5
1B9
  8
0
  6
CONTINUOUS
 62
     7
 10
139.5578350752
 20
98.5912392026
 30
0.0
 11
139.5578350752
 21
94.3188646919
 31
0.0
  0
ARC
  5
1BA
  8
0
  6
CONTINUOUS
 62
     7
 10
139.1585945005
 20
94.3196273593
 30
0.0
 40
0.3992413032032634
 50
269.8908972261
 51
359.8905482693
  0
LINE
  5
1BB
  8
0
  6
CONTINUOUS
 62
     7
 10
138.6578347415
 20
86.0207462794
 30
0.0
 11
138.6578347415
 21
77.9547149426
 31
0.0
  0
LINE
  5
1BC
  8
0
  6
CONTINUOUS
 62
     7
 10
116.4578374356
 20
77.9547149426
 30
0.0
 11
116.4578374356
 21
86.0207462794
 31
0.0
  0
LINE
  5
1BD
  8
0
  6
CONTINUOUS
 62
     7
 10
116.4578374356
 20
86.0207462794
 30
0.0
 11
116.4578374356
 21
93.9203867799
 31
0.0
  0
LINE
  5
1BE
  8
0
  6
CONTINUOUS
 62
     7
 10
138.6578347415
 20
93.9203867799
 30
0.0
 11
138.6578347415
 21
86.0207462794
 31
0.0
  0
LINE
  5
1BF
  8
0
  6
CONTINUOUS
 62
     7
 10
116.4578374356
 20
70.7251006848
 30
0.0
 11
116.4578374356
 21
77.9547149426
 31
0.0
  0
LINE
  5
1C0
  8
0
  6
CONTINUOUS
 62
     7
 10
138.6578347415
 20
77.9547149426
 30
0.0
 11
138.6578347415
 21
70.7251006848
 31
0.0
  0
LINE
  5
1C1
  8
0
  6
CONTINUOUS
 62
     7
 10
251.1578377217
 20
105.5197688396
 30
0.0
 11
227.957835409
 21
105.5197688396
 31
0.0
  0
LINE
  5
1C2
  8
0
  6
CONTINUOUS
 62
     7
 10
251.5578325718
 20
105.4849065019
 30
0.0
 11
251.5578325718
 21
98.5912392026
 31
0.0
  0
ARC
  5
1C3
  8
0
  6
CONTINUOUS
 62
     7
 10
251.2570786919
 20
104.3463032275
 30
0.0
 40
1.177654581311811
 50
75.2036728248
 51
94.8340492478
  0
LINE
  5
1C4
  8
0
  6
CONTINUOUS
 62
     7
 10
227.5578345984
 20
98.5912392026
 30
0.0
 11
227.5578345984
 21
99.0399742609
 31
0.0
  0
ARC
  5
1C5
  8
0
  6
CONTINUOUS
 62
     7
 10
227.9338114802
 20
102.3119395324
 30
0.0
 40
3.207919265373202
 50
89.5709110851
 51
94.9352187538
  0
LINE
  5
1C6
  8
0
  6
CONTINUOUS
 62
     7
 10
251.1578377217
 20
93.9203867799
 30
0.0
 11
250.2578373879
 21
93.9203867799
 31
0.0
  0
LINE
  5
1C7
  8
0
  6
CONTINUOUS
 62
     7
 10
250.2578373879
 20
93.9203867799
 30
0.0
 11
228.8578357428
 21
93.9203867799
 31
0.0
  0
LINE
  5
1C8
  8
0
  6
CONTINUOUS
 62
     7
 10
228.8578357428
 20
93.9203867799
 30
0.0
 11
227.957835409
 21
93.9203867799
 31
0.0
  0
LINE
  5
1C9
  8
0
  6
CONTINUOUS
 62
     7
 10
227.5578345984
 20
94.3188646919
 30
0.0
 11
227.5578345984
 21
98.5912392026
 31
0.0
  0
ARC
  5
1CA
  8
0
  6
CONTINUOUS
 62
     7
 10
227.9570768645
 20
94.3196290571
 30
0.0
 40
0.3992429977542933
 50
180.1096949155
 51
270.1088595891
  0
LINE
  5
1CB
  8
0
  6
CONTINUOUS
 62
     7
 10
251.5578325718
 20
98.5912392026
 30
0.0
 11
251.5578325718
 21
94.3188646919
 31
0.0
  0
ARC
  5
1CC
  8
0
  6
CONTINUOUS
 62
     7
 10
251.1585979289
 20
94.3196214162
 30
0.0
 40
0.3992353601173679
 50
269.8908997175
 51
359.89139955
  0
LINE
  5
1CD
  8
0
  6
CONTINUOUS
 62
     7
 10
228.4578349322
 20
77.9547149426
 30
0.0
 11
228.4578349322
 21
86.0207462794
 31
0.0
  0
LINE
  5
1CE
  8
0
  6
CONTINUOUS
 62
     7
 10
250.6578381985
 20
86.0207462794
 30
0.0
 11
250.6578381985
 21
77.9547149426
 31
0.0
  0
LINE
  5
1CF
  8
0
  6
CONTINUOUS
 62
     7
 10
250.6578381985
 20
93.9203867799
 30
0.0
 11
250.6578381985
 21
86.0207462794
 31
0.0
  0
LINE
  5
1D0
  8
0
  6
CONTINUOUS
 62
     7
 10
228.4578349322
 20
86.0207462794
 30
0.0
 11
228.4578349322
 21
93.9203867799
 31
0.0
  0
LINE
  5
1D1
  8
0
  6
CONTINUOUS
 62
     7
 10
228.4578349322
 20
70.7251006848
 30
0.0
 11
228.4578349322
 21
77.9547149426
 31
0.0
  0
LINE
  5
1D2
  8
0
  6
CONTINUOUS
 62
     7
 10
250.6578381985
 20
77.9547149426
 30
0.0
 11
250.6578381985
 21
70.7251006848
 31
0.0
  0
LINE
  5
1D3
  8
0
  6
CONTINUOUS
 62
     7
 10
340.4578383893
 20
77.9547149426
 30
0.0
 11
340.4578383893
 21
86.0207462794
 31
0.0
  0
LINE
  5
1D4
  8
0
  6
CONTINUOUS
 62
     7
 10
352.157836768
 20
86.0207462794
 30
0.0
 11
352.157836768
 21
77.9547149426
 31
0.0
  0
ARC
  5
1D5
  8
0
  6
CONTINUOUS
 62
     7
 10
340.7585927387
 20
105.1071043056
 30
0.0
 40
1.177661235146884
 50
85.1660010513
 51
104.7962652893
  0
LINE
  5
1D6
  8
0
  6
CONTINUOUS
 62
     7
 10
340.4578383893
 20
86.0207462794
 30
0.0
 11
340.4578383893
 21
106.2457143381
 31
0.0
  0
LINE
  5
1D7
  8
0
  6
CONTINUOUS
 62
     7
 10
351.9578393429
 20
106.280576635
 30
0.0
 11
352.157836768
 21
106.280576635
 31
0.0
  0
ARC
  5
1D8
  8
0
  6
CONTINUOUS
 62
     7
 10
351.7632120269
 20
102.2262647546
 30
0.0
 40
4.054315452655327
 50
87.2484599781
 51
90.0760591271
  0
LINE
  5
1D9
  8
0
  6
CONTINUOUS
 62
     7
 10
352.157836768
 20
106.280576635
 30
0.0
 11
352.157836768
 21
86.0207462794
 31
0.0
  0
LINE
  5
1DA
  8
0
  6
CONTINUOUS
 62
     7
 10
351.9578393429
 20
106.275905973
 30
0.0
 11
351.9578393429
 21
106.280576635
 31
0.0
  0
LINE
  5
1DB
  8
0
  6
CONTINUOUS
 62
     7
 10
351.7578299969
 20
106.280576635
 30
0.0
 11
340.8578332394
 21
106.280576635
 31
0.0
  0
LINE
  5
1DC
  8
0
  6
CONTINUOUS
 62
     7
 10
352.157836768
 20
77.9547149426
 30
0.0
 11
352.157836768
 21
70.7251006848
 31
0.0
  0
LINE
  5
1DD
  8
0
  6
CONTINUOUS
 62
     7
 10
340.4578383893
 20
70.7251006848
 30
0.0
 11
340.4578383893
 21
77.9547149426
 31
0.0
  0
LINE
  5
1DE
  8
0
  6
CONTINUOUS
 62
     7
 10
351.9578393429
 20
106.280576635
 30
0.0
 11
351.7578299969
 21
106.280576635
 31
0.0
  0
LINE
  5
1DF
  8
0
  6
CONTINUOUS
 62
     7
 10
27.057832095
 20
86.0207462794
 30
0.0
 11
27.057832095
 21
77.9547149426
 31
0.0
  0
LINE
  5
1E0
  8
0
  6
CONTINUOUS
 62
     7
 10
15.3578337163
 20
77.9547149426
 30
0.0
 11
15.3578337163
 21
86.0207462794
 31
0.0
  0
ARC
  5
1E1
  8
0
  6
CONTINUOUS
 62
     7
 10
26.7570777456
 20
105.1071043056
 30
0.0
 40
1.177661235146825
 50
75.2037347107
 51
94.8339989487
  0
LINE
  5
1E2
  8
0
  6
CONTINUOUS
 62
     7
 10
27.057832095
 20
106.2457143381
 30
0.0
 11
27.057832095
 21
86.0207462794
 31
0.0
  0
LINE
  5
1E3
  8
0
  6
CONTINUOUS
 62
     7
 10
15.3578337163
 20
106.280576635
 30
0.0
 11
15.5578311413
 21
106.280576635
 31
0.0
  0
ARC
  5
1E4
  8
0
  6
CONTINUOUS
 62
     7
 10
15.7524584573
 20
102.2262647546
 30
0.0
 40
4.054315452658339
 50
89.9239408729
 51
92.7515400219
  0
LINE
  5
1E5
  8
0
  6
CONTINUOUS
 62
     7
 10
15.3578337163
 20
86.0207462794
 30
0.0
 11
15.3578337163
 21
106.280576635
 31
0.0
  0
LINE
  5
1E6
  8
0
  6
CONTINUOUS
 62
     7
 10
15.5578311413
 20
106.280576635
 30
0.0
 11
15.5578311413
 21
106.275905973
 31
0.0
  0
LINE
  5
1E7
  8
0
  6
CONTINUOUS
 62
     7
 10
26.6578372448
 20
106.280576635
 30
0.0
 11
15.7578404873
 21
106.280576635
 31
0.0
  0
LINE
  5
1E8
  8
0
  6
CONTINUOUS
 62
     7
 10
15.3578337163
 20
70.7251006848
 30
0.0
 11
15.3578337163
 21
77.9547149426
 31
0.0
  0
LINE
  5
1E9
  8
0
  6
CONTINUOUS
 62
     7
 10
27.057832095
 20
77.9547149426
 30
0.0
 11
27.057832095
 21
70.7251006848
 31
0.0
  0
LINE
  5
1EA
  8
0
  6
CONTINUOUS
 62
     7
 10
15.7578404873
 20
106.280576635
 30
0.0
 11
15.5578311413
 21
106.280576635
 31
0.0
  0
LINE
  5
1EB
  8
0
  6
CONTINUOUS
 62
     7
 10
226.5578355521
 20
85.7961008436
 30
0.0
 11
226.5578355521
 21
77.9472435004
 31
0.0
  0
LINE
  5
1EC
  8
0
  6
CONTINUOUS
 62
     7
 10
140.9578349322
 20
77.9472435004
 30
0.0
 11
140.9578349322
 21
85.7961008436
 31
0.0
  0
ARC
  5
1ED
  8
0
  6
CONTINUOUS
 62
     7
 10
141.2585989681
 20
84.759365863
 30
0.0
 40
1.177739792437438
 50
85.1665061692
 51
104.7957432124
  0
LINE
  5
1EE
  8
0
  6
CONTINUOUS
 62
     7
 10
140.9578349322
 20
85.7961008436
 30
0.0
 11
140.9578349322
 21
85.8980545884
 31
0.0
  0
ARC
  5
1EF
  8
0
  6
CONTINUOUS
 62
     7
 10
226.2570715161
 20
84.759365863
 30
0.0
 40
1.177739792437752
 50
75.2042567876
 51
94.8334938308
  0
LINE
  5
1F0
  8
0
  6
CONTINUOUS
 62
     7
 10
226.5578355521
 20
85.8980545884
 30
0.0
 11
226.5578355521
 21
85.7961008436
 31
0.0
  0
LINE
  5
1F1
  8
0
  6
CONTINUOUS
 62
     7
 10
140.8578362196
 20
85.9329173452
 30
0.0
 11
140.8578362196
 21
79.535686422
 31
0.0
  0
LINE
  5
1F2
  8
0
  6
CONTINUOUS
 62
     7
 10
141.3578357428
 20
85.9329173452
 30
0.0
 11
140.8578362196
 21
85.9329173452
 31
0.0
  0
LINE
  5
1F3
  8
0
  6
CONTINUOUS
 62
     7
 10
140.9578349322
 20
79.535686422
 30
0.0
 11
140.8578362196
 21
79.535686422
 31
0.0
  0
LINE
  5
1F4
  8
0
  6
CONTINUOUS
 62
     7
 10
226.6578342646
 20
85.9329173452
 30
0.0
 11
226.1578347415
 21
85.9329173452
 31
0.0
  0
LINE
  5
1F5
  8
0
  6
CONTINUOUS
 62
     7
 10
140.8578362196
 20
90.1169354206
 30
0.0
 11
140.8578362196
 21
85.9329173452
 31
0.0
  0
LINE
  5
1F6
  8
0
  6
CONTINUOUS
 62
     7
 10
226.6578342646
 20
90.1169354206
 30
0.0
 11
226.6578342646
 21
85.9329173452
 31
0.0
  0
LINE
  5
1F7
  8
0
  6
CONTINUOUS
 62
     7
 10
226.6578342646
 20
79.535686422
 30
0.0
 11
226.5578355521
 21
79.535686422
 31
0.0
  0
LINE
  5
1F8
  8
0
  6
CONTINUOUS
 62
     7
 10
226.6578342646
 20
85.9329173452
 30
0.0
 11
226.6578342646
 21
79.535686422
 31
0.0
  0
ARC
  5
1F9
  8
0
  6
CONTINUOUS
 62
     7
 10
143.0218238834
 20
90.1437731
 30
0.0
 40
2.164154077183012
 50
89.2894567013
 51
180.7105432987
  0
ARC
  5
1FA
  8
0
  6
CONTINUOUS
 62
     7
 10
224.4938466009
 20
90.1437731
 30
0.0
 40
2.164154077183026
 50
359.2894567013
 51
90.7105432987
  0
LINE
  5
1FB
  8
0
  6
CONTINUOUS
 62
     7
 10
226.5578355521
 20
77.9472435004
 30
0.0
 11
226.5578355521
 21
70.7792872673
 31
0.0
  0
LINE
  5
1FC
  8
0
  6
CONTINUOUS
 62
     7
 10
140.9578349322
 20
70.7792872673
 30
0.0
 11
140.9578349322
 21
77.9472435004
 31
0.0
  0
LINE
  5
1FD
  8
0
  6
CONTINUOUS
 62
     7
 10
227.5578345984
 20
78.6805773264
 30
0.0
 11
227.5578345984
 21
73.8805765396
 31
0.0
  0
LINE
  5
1FE
  8
0
  6
CONTINUOUS
 62
     7
 10
139.9578358859
 20
78.6805773264
 30
0.0
 11
139.9578358859
 21
73.8805765396
 31
0.0
  0
LINE
  5
1FF
  8
0
  6
CONTINUOUS
 62
     7
 10
338.6578377217
 20
80.0805771834
 30
0.0
 11
338.6578377217
 21
6.6805774456
 31
0.0
  0
POLYLINE
  5
200
  8
0
  6
CONTINUOUS
 62
     7
 66
     1
 10
0.0
 20
0.0
 30
0.0
  0
VERTEX
  5
44F
  8
0
  6
CONTINUOUS
 62
     7
 10
336.2578328579
 20
9.0805763489
 30
0.0
  0
VERTEX
  5
450
  8
0
  6
CONTINUOUS
 62
     7
 10
336.6332825154
 20
8.7051326519
 30
0.0
  0
VERTEX
  5
451
  8
0
  6
CONTINUOUS
 62
     7
 10
336.999481532
 20
8.3389336354
 30
0.0
  0
VERTEX
  5
452
  8
0
  6
CONTINUOUS
 62
     7
 10
337.3474176854
 20
7.9909974819
 30
0.0
  0
VERTEX
  5
453
  8
0
  6
CONTINUOUS
 62
     7
 10
337.6685198277
 20
7.6698893791
 30
0.0
  0
VERTEX
  5
454
  8
0
  6
CONTINUOUS
 62
     7
 10
337.954896304
 20
7.3835188633
 30
0.0
  0
VERTEX
  5
455
  8
0
  6
CONTINUOUS
 62
     7
 10
338.1994780034
 20
7.138937164
 30
0.0
  0
VERTEX
  5
456
  8
0
  6
CONTINUOUS
 62
     7
 10
338.3962567776
 20
6.9421583897
 30
0.0
  0
VERTEX
  5
457
  8
0
  6
CONTINUOUS
 62
     7
 10
338.5403688878
 20
6.7980403191
 30
0.0
  0
VERTEX
  5
458
  8
0
  6
CONTINUOUS
 62
     7
 10
338.6282857388
 20
6.710123468
 30
0.0
  0
VERTEX
  5
459
  8
0
  6
CONTINUOUS
 62
     7
 10
338.6578377217
 20
6.6805774456
 30
0.0
  0
SEQEND
  5
4AE
  8
0
  6
CONTINUOUS
 62
     7
  0
POLYLINE
  5
201
  8
0
  6
CONTINUOUS
 62
     7
 66
     1
 10
0.0
 20
0.0
 30
0.0
  0
VERTEX
  5
45A
  8
0
  6
CONTINUOUS
 62
     7
 10
338.6578377217
 20
80.0805771834
 30
0.0
  0
VERTEX
  5
45B
  8
0
  6
CONTINUOUS
 62
     7
 10
338.6282857388
 20
80.0510281807
 30
0.0
  0
VERTEX
  5
45C
  8
0
  6
CONTINUOUS
 62
     7
 10
338.5403688878
 20
79.9631113297
 30
0.0
  0
VERTEX
  5
45D
  8
0
  6
CONTINUOUS
 62
     7
 10
338.3962567776
 20
79.8189932591
 30
0.0
  0
VERTEX
  5
45E
  8
0
  6
CONTINUOUS
 62
     7
 10
338.1994780034
 20
79.622217465
 30
0.0
  0
VERTEX
  5
45F
  8
0
  6
CONTINUOUS
 62
     7
 10
337.954896304
 20
79.3776327854
 30
0.0
  0
VERTEX
  5
460
  8
0
  6
CONTINUOUS
 62
     7
 10
337.6685198277
 20
79.0912622696
 30
0.0
  0
VERTEX
  5
461
  8
0
  6
CONTINUOUS
 62
     7
 10
337.3474176854
 20
78.7701541668
 30
0.0
  0
VERTEX
  5
462
  8
0
  6
CONTINUOUS
 62
     7
 10
336.999481532
 20
78.4222180134
 30
0.0
  0
VERTEX
  5
463
  8
0
  6
CONTINUOUS
 62
     7
 10
336.6332825154
 20
78.0560189968
 30
0.0
  0
VERTEX
  5
464
  8
0
  6
CONTINUOUS
 62
     7
 10
336.2578328579
 20
77.6805752999
 30
0.0
  0
SEQEND
  5
4AD
  8
0
  6
CONTINUOUS
 62
     7
  0
LINE
  5
202
  8
0
  6
CONTINUOUS
 62
     7
 10
252.8578337163
 20
6.6805774456
 30
0.0
 11
252.8578337163
 21
80.0805771834
 31
0.0
  0
POLYLINE
  5
203
  8
0
  6
CONTINUOUS
 62
     7
 66
     1
 10
0.0
 20
0.0
 30
0.0
  0
VERTEX
  5
465
  8
0
  6
CONTINUOUS
 62
     7
 10
252.8578337163
 20
80.0805771834
 30
0.0
  0
VERTEX
  5
466
  8
0
  6
CONTINUOUS
 62
     7
 10
252.8873856991
 20
80.0510281807
 30
0.0
  0
VERTEX
  5
467
  8
0
  6
CONTINUOUS
 62
     7
 10
252.9753025502
 20
79.9631113297
 30
0.0
  0
VERTEX
  5
468
  8
0
  6
CONTINUOUS
 62
     7
 10
253.1194206208
 20
79.8189932591
 30
0.0
  0
VERTEX
  5
469
  8
0
  6
CONTINUOUS
 62
     7
 10
253.3161934346
 20
79.622217465
 30
0.0
  0
VERTEX
  5
46A
  8
0
  6
CONTINUOUS
 62
     7
 10
253.5607810944
 20
79.3776327854
 30
0.0
  0
VERTEX
  5
46B
  8
0
  6
CONTINUOUS
 62
     7
 10
253.8471516102
 20
79.0912622696
 30
0.0
  0
VERTEX
  5
46C
  8
0
  6
CONTINUOUS
 62
     7
 10
254.168259713
 20
78.7701541668
 30
0.0
  0
VERTEX
  5
46D
  8
0
  6
CONTINUOUS
 62
     7
 10
254.5161958664
 20
78.4222180134
 30
0.0
  0
VERTEX
  5
46E
  8
0
  6
CONTINUOUS
 62
     7
 10
254.882394883
 20
78.0560189968
 30
0.0
  0
VERTEX
  5
46F
  8
0
  6
CONTINUOUS
 62
     7
 10
255.2578326195
 20
77.6805752999
 30
0.0
  0
SEQEND
  5
4AC
  8
0
  6
CONTINUOUS
 62
     7
  0
POLYLINE
  5
204
  8
0
  6
CONTINUOUS
 62
     7
 66
     1
 10
0.0
 20
0.0
 30
0.0
  0
VERTEX
  5
470
  8
0
  6
CONTINUOUS
 62
     7
 10
255.2578326195
 20
9.0805763489
 30
0.0
  0
VERTEX
  5
471
  8
0
  6
CONTINUOUS
 62
     7
 10
254.882394883
 20
8.7051326519
 30
0.0
  0
VERTEX
  5
472
  8
0
  6
CONTINUOUS
 62
     7
 10
254.5161958664
 20
8.3389336354
 30
0.0
  0
VERTEX
  5
473
  8
0
  6
CONTINUOUS
 62
     7
 10
254.168259713
 20
7.9909974819
 30
0.0
  0
VERTEX
  5
474
  8
0
  6
CONTINUOUS
 62
     7
 10
253.8471516102
 20
7.6698893791
 30
0.0
  0
VERTEX
  5
475
  8
0
  6
CONTINUOUS
 62
     7
 10
253.5607810944
 20
7.3835188633
 30
0.0
  0
VERTEX
  5
476
  8
0
  6
CONTINUOUS
 62
     7
 10
253.3161934346
 20
7.138937164
 30
0.0
  0
VERTEX
  5
477
  8
0
  6
CONTINUOUS
 62
     7
 10
253.1194206208
 20
6.9421583897
 30
0.0
  0
VERTEX
  5
478
  8
0
  6
CONTINUOUS
 62
     7
 10
252.9753025502
 20
6.7980403191
 30
0.0
  0
VERTEX
  5
479
  8
0
  6
CONTINUOUS
 62
     7
 10
252.8873856991
 20
6.710123468
 30
0.0
  0
VERTEX
  5
47A
  8
0
  6
CONTINUOUS
 62
     7
 10
252.8578337163
 20
6.6805774456
 30
0.0
  0
SEQEND
  5
4AB
  8
0
  6
CONTINUOUS
 62
     7
  0
LINE
  5
205
  8
0
  6
CONTINUOUS
 62
     7
 10
252.8578337163
 20
80.0805771834
 30
0.0
 11
338.6578377217
 21
80.0805771834
 31
0.0
  0
LINE
  5
206
  8
0
  6
CONTINUOUS
 62
     7
 10
338.6578377217
 20
6.6805774456
 30
0.0
 11
252.8578337163
 21
6.6805774456
 31
0.0
  0
LINE
  5
207
  8
0
  6
CONTINUOUS
 62
     7
 10
252.9578324288
 20
80.0805771834
 30
0.0
 11
252.9578324288
 21
87.5792259461
 31
0.0
  0
LINE
  5
208
  8
0
  6
CONTINUOUS
 62
     7
 10
338.5578330487
 20
87.5792259461
 30
0.0
 11
338.5578330487
 21
80.0805771834
 31
0.0
  0
LINE
  5
209
  8
0
  6
CONTINUOUS
 62
     7
 10
339.557832095
 20
78.6805773264
 30
0.0
 11
339.557832095
 21
73.8805765396
 31
0.0
  0
LINE
  5
20A
  8
0
  6
CONTINUOUS
 62
     7
 10
251.9578333825
 20
78.6805773264
 30
0.0
 11
251.9578333825
 21
73.8805765396
 31
0.0
  0
LINE
  5
20B
  8
0
  6
CONTINUOUS
 62
     7
 10
114.5578380555
 20
85.7961008436
 30
0.0
 11
114.5578380555
 21
77.9472435004
 31
0.0
  0
LINE
  5
20C
  8
0
  6
CONTINUOUS
 62
     7
 10
28.9578374356
 20
77.9472435004
 30
0.0
 11
28.9578374356
 21
85.7961008436
 31
0.0
  0
ARC
  5
20D
  8
0
  6
CONTINUOUS
 62
     7
 10
114.2570713934
 20
84.7593357321
 30
0.0
 40
1.177769594995761
 50
75.2045075969
 51
94.8332430216
  0
LINE
  5
20E
  8
0
  6
CONTINUOUS
 62
     7
 10
114.5578380555
 20
85.8980545884
 30
0.0
 11
114.5578380555
 21
85.7961008436
 31
0.0
  0
ARC
  5
20F
  8
0
  6
CONTINUOUS
 62
     7
 10
29.2585981166
 20
84.7593873888
 30
0.0
 40
1.177718123622248
 50
85.1665442406
 51
104.7958528451
  0
LINE
  5
210
  8
0
  6
CONTINUOUS
 62
     7
 10
28.9578374356
 20
85.7961008436
 30
0.0
 11
28.9578374356
 21
85.8980545884
 31
0.0
  0
LINE
  5
211
  8
0
  6
CONTINUOUS
 62
     7
 10
114.657836768
 20
85.9329173452
 30
0.0
 11
114.1578372448
 21
85.9329173452
 31
0.0
  0
LINE
  5
212
  8
0
  6
CONTINUOUS
 62
     7
 10
29.3578322857
 20
85.9329173452
 30
0.0
 11
28.8578327626
 21
85.9329173452
 31
0.0
  0
LINE
  5
213
  8
0
  6
CONTINUOUS
 62
     7
 10
28.8578327626
 20
90.1169354206
 30
0.0
 11
28.8578327626
 21
85.9329173452
 31
0.0
  0
LINE
  5
214
  8
0
  6
CONTINUOUS
 62
     7
 10
114.657836768
 20
90.1169354206
 30
0.0
 11
114.657836768
 21
85.9329173452
 31
0.0
  0
LINE
  5
215
  8
0
  6
CONTINUOUS
 62
     7
 10
28.9578374356
 20
79.535686422
 30
0.0
 11
28.8578327626
 21
79.535686422
 31
0.0
  0
LINE
  5
216
  8
0
  6
CONTINUOUS
 62
     7
 10
28.8578327626
 20
85.9329173452
 30
0.0
 11
28.8578327626
 21
79.535686422
 31
0.0
  0
LINE
  5
217
  8
0
  6
CONTINUOUS
 62
     7
 10
114.657836768
 20
79.535686422
 30
0.0
 11
114.5578380555
 21
79.535686422
 31
0.0
  0
LINE
  5
218
  8
0
  6
CONTINUOUS
 62
     7
 10
114.657836768
 20
85.9329173452
 30
0.0
 11
114.657836768
 21
79.535686422
 31
0.0
  0
ARC
  5
219
  8
0
  6
CONTINUOUS
 62
     7
 10
112.4938381668
 20
90.1437621991
 30
0.0
 40
2.164164878665025
 50
359.2897488711
 51
90.7103290696
  0
ARC
  5
21A
  8
0
  6
CONTINUOUS
 62
     7
 10
31.0218260857
 20
90.1437674772
 30
0.0
 40
2.164159666414579
 50
89.2895294722
 51
180.710392587
  0
LINE
  5
21B
  8
0
  6
CONTINUOUS
 62
     7
 10
28.9578374356
 20
70.7792872673
 30
0.0
 11
28.9578374356
 21
77.9472435004
 31
0.0
  0
LINE
  5
21C
  8
0
  6
CONTINUOUS
 62
     7
 10
114.5578380555
 20
77.9472435004
 30
0.0
 11
114.5578380555
 21
70.7792872673
 31
0.0
  0
LINE
  5
21D
  8
0
  6
CONTINUOUS
 62
     7
 10
115.5578371018
 20
78.6805773264
 30
0.0
 11
115.5578371018
 21
73.8805765396
 31
0.0
  0
LINE
  5
21E
  8
0
  6
CONTINUOUS
 62
     7
 10
27.9578383893
 20
78.6805773264
 30
0.0
 11
27.9578383893
 21
73.8805765396
 31
0.0
  0
ARC
  5
21F
  8
0
  6
CONTINUOUS
 62
     7
 10
254.1706854263
 20
99.1023173171
 30
0.0
 40
2.213147934081711
 50
180.9369201549
 51
264.4810872792
  0
ARC
  5
220
  8
0
  6
CONTINUOUS
 62
     7
 10
337.3456679434
 20
99.1016817646
 30
0.0
 40
2.212449829599008
 50
275.5029175303
 51
359.0792452445
  0
LINE
  5
221
  8
0
  6
CONTINUOUS
 62
     7
 10
339.557832095
 20
99.0661287791
 30
0.0
 11
339.557832095
 21
89.2175296432
 31
0.0
  0
ARC
  5
222
  8
0
  6
CONTINUOUS
 62
     7
 10
337.7505136133
 20
89.1965926111
 30
0.0
 40
1.807439751004453
 50
263.8804344564
 51
0.6637180602
  0
LINE
  5
223
  8
0
  6
CONTINUOUS
 62
     7
 10
251.9578333825
 20
89.2175296432
 30
0.0
 11
251.9578333825
 21
99.0661287791
 31
0.0
  0
ARC
  5
224
  8
0
  6
CONTINUOUS
 62
     7
 10
253.7657285923
 20
89.1972264181
 30
0.0
 40
1.808009212036576
 50
179.3565776392
 51
276.0994398253
  0
LINE
  5
225
  8
0
  6
CONTINUOUS
 62
     7
 10
339.557832095
 20
103.6486247665
 30
0.0
 11
251.9578333825
 21
103.6486247665
 31
0.0
  0
LINE
  5
226
  8
0
  6
CONTINUOUS
 62
     7
 10
339.557832095
 20
99.0661287791
 30
0.0
 11
339.557832095
 21
103.6486247665
 31
0.0
  0
LINE
  5
227
  8
0
  6
CONTINUOUS
 62
     7
 10
251.9578333825
 20
99.0661287791
 30
0.0
 11
251.9578333825
 21
103.6486247665
 31
0.0
  0
LINE
  5
228
  8
0
  6
CONTINUOUS
 62
     7
 10
339.657836768
 20
106.280576635
 30
0.0
 11
251.8578346699
 21
106.280576635
 31
0.0
  0
LINE
  5
229
  8
0
  6
CONTINUOUS
 62
     7
 10
339.657836768
 20
106.280576635
 30
0.0
 11
339.657836768
 21
103.6573402694
 31
0.0
  0
LINE
  5
22A
  8
0
  6
CONTINUOUS
 62
     7
 10
339.657836768
 20
103.6573402694
 30
0.0
 11
251.8578346699
 21
103.6573402694
 31
0.0
  0
LINE
  5
22B
  8
0
  6
CONTINUOUS
 62
     7
 10
251.8578346699
 20
106.280576635
 30
0.0
 11
251.8578346699
 21
103.6573402694
 31
0.0
  0
LINE
  5
22C
  8
0
  6
CONTINUOUS
 62
     7
 10
251.9578333825
 20
93.6605760938
 30
0.0
 11
251.8578346699
 21
93.6605760938
 31
0.0
  0
LINE
  5
22D
  8
0
  6
CONTINUOUS
 62
     7
 10
339.657836768
 20
103.6573402694
 30
0.0
 11
339.657836768
 21
99.2784516996
 31
0.0
  0
LINE
  5
22E
  8
0
  6
CONTINUOUS
 62
     7
 10
339.657836768
 20
93.6605760938
 30
0.0
 11
339.557832095
 21
93.6605760938
 31
0.0
  0
LINE
  5
22F
  8
0
  6
CONTINUOUS
 62
     7
 10
251.8578346699
 20
103.6573402694
 30
0.0
 11
251.8578346699
 21
99.2784516996
 31
0.0
  0
LINE
  5
230
  8
0
  6
CONTINUOUS
 62
     7
 10
251.8578346699
 20
85.9118724352
 30
0.0
 11
251.8578346699
 21
85.5040544754
 31
0.0
  0
LINE
  5
231
  8
0
  6
CONTINUOUS
 62
     7
 10
251.0578330487
 20
85.5040544754
 30
0.0
 11
251.0578330487
 21
85.9118724352
 31
0.0
  0
LINE
  5
232
  8
0
  6
CONTINUOUS
 62
     7
 10
339.657836768
 20
85.5040544754
 30
0.0
 11
339.657836768
 21
85.9118724352
 31
0.0
  0
LINE
  5
233
  8
0
  6
CONTINUOUS
 62
     7
 10
339.657836768
 20
99.2784516996
 30
0.0
 11
339.657836768
 21
85.9118724352
 31
0.0
  0
LINE
  5
234
  8
0
  6
CONTINUOUS
 62
     7
 10
340.4578383893
 20
106.280576635
 30
0.0
 11
340.4578383893
 21
106.2457143381
 31
0.0
  0
LINE
  5
235
  8
0
  6
CONTINUOUS
 62
     7
 10
340.4578383893
 20
106.280576635
 30
0.0
 11
339.657836768
 21
106.280576635
 31
0.0
  0
LINE
  5
236
  8
0
  6
CONTINUOUS
 62
     7
 10
251.8578346699
 20
85.9118724352
 30
0.0
 11
251.8578346699
 21
99.2784516996
 31
0.0
  0
LINE
  5
237
  8
0
  6
CONTINUOUS
 62
     7
 10
251.0578330487
 20
85.9118724352
 30
0.0
 11
251.0578330487
 21
93.9203867799
 31
0.0
  0
LINE
  5
238
  8
0
  6
CONTINUOUS
 62
     7
 10
251.0578330487
 20
105.5197688396
 30
0.0
 11
251.0578330487
 21
106.280576635
 31
0.0
  0
LINE
  5
239
  8
0
  6
CONTINUOUS
 62
     7
 10
251.0578330487
 20
106.280576635
 30
0.0
 11
251.8578346699
 21
106.280576635
 31
0.0
  0
LINE
  5
23A
  8
0
  6
CONTINUOUS
 62
     7
 10
251.8578346699
 20
78.5789275652
 30
0.0
 11
251.8578346699
 21
85.5040544754
 31
0.0
  0
LINE
  5
23B
  8
0
  6
CONTINUOUS
 62
     7
 10
251.0578330487
 20
78.5789275652
 30
0.0
 11
251.0578330487
 21
85.5040544754
 31
0.0
  0
LINE
  5
23C
  8
0
  6
CONTINUOUS
 62
     7
 10
339.657836768
 20
85.5040544754
 30
0.0
 11
339.657836768
 21
78.5789275652
 31
0.0
  0
LINE
  5
23D
  8
0
  6
CONTINUOUS
 62
     7
 10
251.8578346699
 20
78.5789275652
 30
0.0
 11
251.8578346699
 21
78.1200641877
 31
0.0
  0
LINE
  5
23E
  8
0
  6
CONTINUOUS
 62
     7
 10
251.0578330487
 20
78.1200641877
 30
0.0
 11
251.0578330487
 21
78.5789275652
 31
0.0
  0
LINE
  5
23F
  8
0
  6
CONTINUOUS
 62
     7
 10
339.657836768
 20
78.1200641877
 30
0.0
 11
339.657836768
 21
78.5789275652
 31
0.0
  0
LINE
  5
240
  8
0
  6
CONTINUOUS
 62
     7
 10
241.7578335732
 20
105.5197688396
 30
0.0
 11
241.7578335732
 21
106.280576635
 31
0.0
  0
LINE
  5
241
  8
0
  6
CONTINUOUS
 62
     7
 10
241.7578335732
 20
106.280576635
 30
0.0
 11
243.7578376263
 21
106.280576635
 31
0.0
  0
LINE
  5
242
  8
0
  6
CONTINUOUS
 62
     7
 10
340.4578383893
 20
106.280576635
 30
0.0
 11
340.8578332394
 21
106.280576635
 31
0.0
  0
LINE
  5
243
  8
0
  6
CONTINUOUS
 62
     7
 10
243.7578376263
 20
106.280576635
 30
0.0
 11
251.0578330487
 21
106.280576635
 31
0.0
  0
LINE
  5
244
  8
0
  6
CONTINUOUS
 62
     7
 10
339.657836768
 20
78.1200641877
 30
0.0
 11
339.657836768
 21
71.0373485571
 31
0.0
  0
LINE
  5
245
  8
0
  6
CONTINUOUS
 62
     7
 10
251.8578346699
 20
71.0373485571
 30
0.0
 11
251.8578346699
 21
78.1200641877
 31
0.0
  0
LINE
  5
246
  8
0
  6
CONTINUOUS
 62
     7
 10
251.0578330487
 20
71.0373485571
 30
0.0
 11
251.0578330487
 21
78.1200641877
 31
0.0
  0
LINE
  5
247
  8
0
  6
CONTINUOUS
 62
     7
 10
239.7578354805
 20
105.5197688396
 30
0.0
 11
239.7578354805
 21
106.280576635
 31
0.0
  0
LINE
  5
248
  8
0
  6
CONTINUOUS
 62
     7
 10
239.7578354805
 20
106.280576635
 30
0.0
 11
241.7578335732
 21
106.280576635
 31
0.0
  0
LINE
  5
249
  8
0
  6
CONTINUOUS
 62
     7
 10
251.8578346699
 20
71.0373485571
 30
0.0
 11
251.8578346699
 21
71.0343027598
 31
0.0
  0
LINE
  5
24A
  8
0
  6
CONTINUOUS
 62
     7
 10
251.0578330487
 20
71.0343027598
 30
0.0
 11
251.0578330487
 21
71.0373485571
 31
0.0
  0
LINE
  5
24B
  8
0
  6
CONTINUOUS
 62
     7
 10
339.657836768
 20
71.0343027598
 30
0.0
 11
339.657836768
 21
71.0373485571
 31
0.0
  0
ARC
  5
24C
  8
0
  6
CONTINUOUS
 62
     7
 10
30.1706809963
 20
99.1023080209
 30
0.0
 40
2.213138346614844
 50
180.9366835124
 51
264.4811537128
  0
ARC
  5
24D
  8
0
  6
CONTINUOUS
 62
     7
 10
113.345662792
 20
99.1016917249
 30
0.0
 40
2.212460146565477
 50
275.5030010018
 51
359.0789915641
  0
LINE
  5
24E
  8
0
  6
CONTINUOUS
 62
     7
 10
115.5578371018
 20
99.0661287791
 30
0.0
 11
115.5578371018
 21
99.0399742609
 31
0.0
  0
LINE
  5
24F
  8
0
  6
CONTINUOUS
 62
     7
 10
115.5578371018
 20
94.3188646919
 30
0.0
 11
115.5578371018
 21
89.2175296432
 31
0.0
  0
ARC
  5
250
  8
0
  6
CONTINUOUS
 62
     7
 10
113.7562745514
 20
89.1919543814
 30
0.0
 40
1.80174407643329
 50
300.0253463675
 51
0.8133251517
  0
LINE
  5
251
  8
0
  6
CONTINUOUS
 62
     7
 10
27.9578383893
 20
89.2175296432
 30
0.0
 11
27.9578383893
 21
99.0661287791
 31
0.0
  0
ARC
  5
252
  8
0
  6
CONTINUOUS
 62
     7
 10
29.7593922103
 20
89.1919460371
 30
0.0
 40
1.801735466472416
 50
179.1864055849
 51
239.97459709
  0
LINE
  5
253
  8
0
  6
CONTINUOUS
 62
     7
 10
115.5578371018
 20
103.6486247665
 30
0.0
 11
27.9578383893
 21
103.6486247665
 31
0.0
  0
LINE
  5
254
  8
0
  6
CONTINUOUS
 62
     7
 10
115.5578371018
 20
99.0661287791
 30
0.0
 11
115.5578371018
 21
103.6486247665
 31
0.0
  0
LINE
  5
255
  8
0
  6
CONTINUOUS
 62
     7
 10
27.9578383893
 20
99.0661287791
 30
0.0
 11
27.9578383893
 21
103.6486247665
 31
0.0
  0
LINE
  5
256
  8
0
  6
CONTINUOUS
 62
     7
 10
27.9578383893
 20
93.6605760938
 30
0.0
 11
27.8578337163
 21
93.6605760938
 31
0.0
  0
LINE
  5
257
  8
0
  6
CONTINUOUS
 62
     7
 10
27.8578337163
 20
103.6573402694
 30
0.0
 11
27.8578337163
 21
99.2784516996
 31
0.0
  0
LINE
  5
258
  8
0
  6
CONTINUOUS
 62
     7
 10
115.6578358143
 20
103.6573402694
 30
0.0
 11
27.8578337163
 21
103.6573402694
 31
0.0
  0
LINE
  5
259
  8
0
  6
CONTINUOUS
 62
     7
 10
115.6578358143
 20
93.6605760938
 30
0.0
 11
115.5578371018
 21
93.6605760938
 31
0.0
  0
LINE
  5
25A
  8
0
  6
CONTINUOUS
 62
     7
 10
115.6578358143
 20
103.6573402694
 30
0.0
 11
115.6578358143
 21
103.6455292365
 31
0.0
  0
LINE
  5
25B
  8
0
  6
CONTINUOUS
 62
     7
 10
115.6578358143
 20
106.280576635
 30
0.0
 11
27.8578337163
 21
106.280576635
 31
0.0
  0
LINE
  5
25C
  8
0
  6
CONTINUOUS
 62
     7
 10
27.8578337163
 20
106.280576635
 30
0.0
 11
27.8578337163
 21
103.6573402694
 31
0.0
  0
LINE
  5
25D
  8
0
  6
CONTINUOUS
 62
     7
 10
115.6578358143
 20
106.280576635
 30
0.0
 11
115.6578358143
 21
103.6573402694
 31
0.0
  0
LINE
  5
25E
  8
0
  6
CONTINUOUS
 62
     7
 10
115.6578358143
 20
85.5040544754
 30
0.0
 11
115.6578358143
 21
85.9118724352
 31
0.0
  0
LINE
  5
25F
  8
0
  6
CONTINUOUS
 62
     7
 10
27.8578337163
 20
85.9118724352
 30
0.0
 11
27.8578337163
 21
85.5040544754
 31
0.0
  0
LINE
  5
260
  8
0
  6
CONTINUOUS
 62
     7
 10
27.057832095
 20
106.2457143381
 30
0.0
 11
27.057832095
 21
106.280576635
 31
0.0
  0
LINE
  5
261
  8
0
  6
CONTINUOUS
 62
     7
 10
27.8578337163
 20
85.9118724352
 30
0.0
 11
27.8578337163
 21
99.2784516996
 31
0.0
  0
LINE
  5
262
  8
0
  6
CONTINUOUS
 62
     7
 10
27.057832095
 20
106.280576635
 30
0.0
 11
27.8578337163
 21
106.280576635
 31
0.0
  0
LINE
  5
263
  8
0
  6
CONTINUOUS
 62
     7
 10
116.4578374356
 20
106.280576635
 30
0.0
 11
116.4578374356
 21
105.5197688396
 31
0.0
  0
LINE
  5
264
  8
0
  6
CONTINUOUS
 62
     7
 10
115.6578358143
 20
94.055296678
 30
0.0
 11
115.6578358143
 21
85.9118724352
 31
0.0
  0
LINE
  5
265
  8
0
  6
CONTINUOUS
 62
     7
 10
116.4578374356
 20
106.280576635
 30
0.0
 11
115.6578358143
 21
106.280576635
 31
0.0
  0
LINE
  5
266
  8
0
  6
CONTINUOUS
 62
     7
 10
27.8578337163
 20
78.5789275652
 30
0.0
 11
27.8578337163
 21
85.5040544754
 31
0.0
  0
LINE
  5
267
  8
0
  6
CONTINUOUS
 62
     7
 10
115.6578358143
 20
85.5040544754
 30
0.0
 11
115.6578358143
 21
78.5789275652
 31
0.0
  0
LINE
  5
268
  8
0
  6
CONTINUOUS
 62
     7
 10
27.8578337163
 20
78.5789275652
 30
0.0
 11
27.8578337163
 21
78.1200641877
 31
0.0
  0
LINE
  5
269
  8
0
  6
CONTINUOUS
 62
     7
 10
115.6578358143
 20
78.1200641877
 30
0.0
 11
115.6578358143
 21
78.5789275652
 31
0.0
  0
LINE
  5
26A
  8
0
  6
CONTINUOUS
 62
     7
 10
26.6578372448
 20
106.280576635
 30
0.0
 11
27.057832095
 21
106.280576635
 31
0.0
  0
LINE
  5
26B
  8
0
  6
CONTINUOUS
 62
     7
 10
116.4578374356
 20
106.280576635
 30
0.0
 11
123.7578328579
 21
106.280576635
 31
0.0
  0
LINE
  5
26C
  8
0
  6
CONTINUOUS
 62
     7
 10
125.7578369111
 20
106.280576635
 30
0.0
 11
125.7578369111
 21
105.5197688396
 31
0.0
  0
LINE
  5
26D
  8
0
  6
CONTINUOUS
 62
     7
 10
123.7578328579
 20
106.280576635
 30
0.0
 11
125.7578369111
 21
106.280576635
 31
0.0
  0
LINE
  5
26E
  8
0
  6
CONTINUOUS
 62
     7
 10
27.8578337163
 20
71.0373485571
 30
0.0
 11
27.8578337163
 21
78.1200641877
 31
0.0
  0
LINE
  5
26F
  8
0
  6
CONTINUOUS
 62
     7
 10
115.6578358143
 20
78.1200641877
 30
0.0
 11
115.6578358143
 21
71.0373485571
 31
0.0
  0
LINE
  5
270
  8
0
  6
CONTINUOUS
 62
     7
 10
127.7578350037
 20
105.5197688396
 30
0.0
 11
127.7578350037
 21
106.280576635
 31
0.0
  0
LINE
  5
271
  8
0
  6
CONTINUOUS
 62
     7
 10
125.7578369111
 20
106.280576635
 30
0.0
 11
127.7578350037
 21
106.280576635
 31
0.0
  0
LINE
  5
272
  8
0
  6
CONTINUOUS
 62
     7
 10
27.8578337163
 20
71.0373485571
 30
0.0
 11
27.8578337163
 21
71.0343027598
 31
0.0
  0
LINE
  5
273
  8
0
  6
CONTINUOUS
 62
     7
 10
115.6578358143
 20
71.0343027598
 30
0.0
 11
115.6578358143
 21
71.0373485571
 31
0.0
  0
ARC
  5
274
  8
0
  6
CONTINUOUS
 62
     7
 10
142.1706816528
 20
99.1023109376
 30
0.0
 40
2.213141553731771
 50
180.9367576762
 51
264.481079549
  0
ARC
  5
275
  8
0
  6
CONTINUOUS
 62
     7
 10
225.3456669639
 20
99.1016849795
 30
0.0
 40
2.212453363683129
 50
275.5029993263
 51
359.0791634485
  0
LINE
  5
276
  8
0
  6
CONTINUOUS
 62
     7
 10
227.5578345984
 20
99.0661287791
 30
0.0
 11
227.5578345984
 21
99.0399742609
 31
0.0
  0
LINE
  5
277
  8
0
  6
CONTINUOUS
 62
     7
 10
227.5578345984
 20
94.3188646919
 30
0.0
 11
227.5578345984
 21
89.2175296432
 31
0.0
  0
ARC
  5
278
  8
0
  6
CONTINUOUS
 62
     7
 10
225.7562973311
 20
89.1919400299
 30
0.0
 40
1.80171899964906
 50
300.0248786135
 51
0.8137929058
  0
LINE
  5
279
  8
0
  6
CONTINUOUS
 62
     7
 10
139.9578358859
 20
89.2175296432
 30
0.0
 11
139.9578358859
 21
99.0661287791
 31
0.0
  0
ARC
  5
27A
  8
0
  6
CONTINUOUS
 62
     7
 10
141.7593731531
 20
89.1919400299
 30
0.0
 40
1.801718999649004
 50
179.1862070942
 51
239.9751213865
  0
LINE
  5
27B
  8
0
  6
CONTINUOUS
 62
     7
 10
227.5578345984
 20
103.6486247665
 30
0.0
 11
139.9578358859
 21
103.6486247665
 31
0.0
  0
LINE
  5
27C
  8
0
  6
CONTINUOUS
 62
     7
 10
227.5578345984
 20
99.0661287791
 30
0.0
 11
227.5578345984
 21
103.6486247665
 31
0.0
  0
LINE
  5
27D
  8
0
  6
CONTINUOUS
 62
     7
 10
139.9578358859
 20
99.0661287791
 30
0.0
 11
139.9578358859
 21
103.6486247665
 31
0.0
  0
LINE
  5
27E
  8
0
  6
CONTINUOUS
 62
     7
 10
139.9578358859
 20
93.6605760938
 30
0.0
 11
139.8578341931
 21
93.6605760938
 31
0.0
  0
LINE
  5
27F
  8
0
  6
CONTINUOUS
 62
     7
 10
227.6578362912
 20
103.6573402694
 30
0.0
 11
139.8578341931
 21
103.6573402694
 31
0.0
  0
LINE
  5
280
  8
0
  6
CONTINUOUS
 62
     7
 10
227.6578362912
 20
103.6573402694
 30
0.0
 11
227.6578362912
 21
103.6455292365
 31
0.0
  0
LINE
  5
281
  8
0
  6
CONTINUOUS
 62
     7
 10
227.6578362912
 20
93.6605760938
 30
0.0
 11
227.5578345984
 21
93.6605760938
 31
0.0
  0
LINE
  5
282
  8
0
  6
CONTINUOUS
 62
     7
 10
139.8578341931
 20
103.6573402694
 30
0.0
 11
139.8578341931
 21
99.2784516996
 31
0.0
  0
LINE
  5
283
  8
0
  6
CONTINUOUS
 62
     7
 10
227.6578362912
 20
106.280576635
 30
0.0
 11
139.8578341931
 21
106.280576635
 31
0.0
  0
LINE
  5
284
  8
0
  6
CONTINUOUS
 62
     7
 10
227.6578362912
 20
106.280576635
 30
0.0
 11
227.6578362912
 21
103.6573402694
 31
0.0
  0
LINE
  5
285
  8
0
  6
CONTINUOUS
 62
     7
 10
139.8578341931
 20
106.280576635
 30
0.0
 11
139.8578341931
 21
103.6573402694
 31
0.0
  0
LINE
  5
286
  8
0
  6
CONTINUOUS
 62
     7
 10
227.6578362912
 20
85.5040544754
 30
0.0
 11
227.6578362912
 21
85.9118724352
 31
0.0
  0
LINE
  5
287
  8
0
  6
CONTINUOUS
 62
     7
 10
139.8578341931
 20
85.9118724352
 30
0.0
 11
139.8578341931
 21
85.5040544754
 31
0.0
  0
LINE
  5
288
  8
0
  6
CONTINUOUS
 62
     7
 10
139.0578355521
 20
85.5040544754
 30
0.0
 11
139.0578355521
 21
85.9118724352
 31
0.0
  0
LINE
  5
289
  8
0
  6
CONTINUOUS
 62
     7
 10
139.8578341931
 20
85.9118724352
 30
0.0
 11
139.8578341931
 21
99.2784516996
 31
0.0
  0
LINE
  5
28A
  8
0
  6
CONTINUOUS
 62
     7
 10
139.0578355521
 20
85.9118724352
 30
0.0
 11
139.0578355521
 21
93.9203867799
 31
0.0
  0
LINE
  5
28B
  8
0
  6
CONTINUOUS
 62
     7
 10
139.0578355521
 20
105.5197688396
 30
0.0
 11
139.0578355521
 21
106.280576635
 31
0.0
  0
LINE
  5
28C
  8
0
  6
CONTINUOUS
 62
     7
 10
139.0578355521
 20
106.280576635
 30
0.0
 11
139.8578341931
 21
106.280576635
 31
0.0
  0
LINE
  5
28D
  8
0
  6
CONTINUOUS
 62
     7
 10
227.6578362912
 20
94.055296678
 30
0.0
 11
227.6578362912
 21
85.9118724352
 31
0.0
  0
LINE
  5
28E
  8
0
  6
CONTINUOUS
 62
     7
 10
228.4578349322
 20
106.280576635
 30
0.0
 11
228.4578349322
 21
105.5197688396
 31
0.0
  0
LINE
  5
28F
  8
0
  6
CONTINUOUS
 62
     7
 10
228.4578349322
 20
106.280576635
 30
0.0
 11
227.6578362912
 21
106.280576635
 31
0.0
  0
LINE
  5
290
  8
0
  6
CONTINUOUS
 62
     7
 10
227.6578362912
 20
85.5040544754
 30
0.0
 11
227.6578362912
 21
78.5789275652
 31
0.0
  0
LINE
  5
291
  8
0
  6
CONTINUOUS
 62
     7
 10
139.8578341931
 20
78.5789275652
 30
0.0
 11
139.8578341931
 21
85.5040544754
 31
0.0
  0
LINE
  5
292
  8
0
  6
CONTINUOUS
 62
     7
 10
139.0578355521
 20
78.5789275652
 30
0.0
 11
139.0578355521
 21
85.5040544754
 31
0.0
  0
LINE
  5
293
  8
0
  6
CONTINUOUS
 62
     7
 10
139.8578341931
 20
78.5789275652
 30
0.0
 11
139.8578341931
 21
78.1200641877
 31
0.0
  0
LINE
  5
294
  8
0
  6
CONTINUOUS
 62
     7
 10
139.0578355521
 20
78.1200641877
 30
0.0
 11
139.0578355521
 21
78.5789275652
 31
0.0
  0
LINE
  5
295
  8
0
  6
CONTINUOUS
 62
     7
 10
227.6578362912
 20
78.1200641877
 30
0.0
 11
227.6578362912
 21
78.5789275652
 31
0.0
  0
LINE
  5
296
  8
0
  6
CONTINUOUS
 62
     7
 10
237.7578373879
 20
106.280576635
 30
0.0
 11
237.7578373879
 21
105.5197688396
 31
0.0
  0
LINE
  5
297
  8
0
  6
CONTINUOUS
 62
     7
 10
235.7578333348
 20
106.280576635
 30
0.0
 11
237.7578373879
 21
106.280576635
 31
0.0
  0
LINE
  5
298
  8
0
  6
CONTINUOUS
 62
     7
 10
129.7578330964
 20
105.5197688396
 30
0.0
 11
129.7578330964
 21
106.280576635
 31
0.0
  0
LINE
  5
299
  8
0
  6
CONTINUOUS
 62
     7
 10
129.7578330964
 20
106.280576635
 30
0.0
 11
131.7578371495
 21
106.280576635
 31
0.0
  0
LINE
  5
29A
  8
0
  6
CONTINUOUS
 62
     7
 10
131.7578371495
 20
106.280576635
 30
0.0
 11
139.0578355521
 21
106.280576635
 31
0.0
  0
LINE
  5
29B
  8
0
  6
CONTINUOUS
 62
     7
 10
228.4578349322
 20
106.280576635
 30
0.0
 11
235.7578333348
 21
106.280576635
 31
0.0
  0
LINE
  5
29C
  8
0
  6
CONTINUOUS
 62
     7
 10
227.6578362912
 20
78.1200641877
 30
0.0
 11
227.6578362912
 21
71.0373485571
 31
0.0
  0
LINE
  5
29D
  8
0
  6
CONTINUOUS
 62
     7
 10
139.8578341931
 20
71.0373485571
 30
0.0
 11
139.8578341931
 21
78.1200641877
 31
0.0
  0
LINE
  5
29E
  8
0
  6
CONTINUOUS
 62
     7
 10
139.0578355521
 20
71.0373485571
 30
0.0
 11
139.0578355521
 21
78.1200641877
 31
0.0
  0
LINE
  5
29F
  8
0
  6
CONTINUOUS
 62
     7
 10
127.7578350037
 20
106.280576635
 30
0.0
 11
129.7578330964
 21
106.280576635
 31
0.0
  0
LINE
  5
2A0
  8
0
  6
CONTINUOUS
 62
     7
 10
237.7578373879
 20
106.280576635
 30
0.0
 11
239.7578354805
 21
106.280576635
 31
0.0
  0
LINE
  5
2A1
  8
0
  6
CONTINUOUS
 62
     7
 10
139.8578341931
 20
71.0373485571
 30
0.0
 11
139.8578341931
 21
71.0343027598
 31
0.0
  0
LINE
  5
2A2
  8
0
  6
CONTINUOUS
 62
     7
 10
139.0578355521
 20
71.0343027598
 30
0.0
 11
139.0578355521
 21
71.0373485571
 31
0.0
  0
LINE
  5
2A3
  8
0
  6
CONTINUOUS
 62
     7
 10
227.6578362912
 20
71.0343027598
 30
0.0
 11
227.6578362912
 21
71.0373485571
 31
0.0
  0
ARC
  5
2A4
  8
0
  6
CONTINUOUS
 62
     7
 10
783.0322645579
 20
272.9113758951
 30
0.0
 40
0.4000000000000341
 50
90.0
 51
180.0
  0
LINE
  5
2A5
  8
0
  6
CONTINUOUS
 62
     7
 10
806.2322618877
 20
273.3113763079
 30
0.0
 11
783.0322655355
 21
273.3113763079
 31
0.0
  0
ARC
  5
2A6
  8
0
  6
CONTINUOUS
 62
     7
 10
806.2322645579
 20
272.9113758951
 30
0.0
 40
0.4000000000000341
 50
0.0
 51
90.0
  0
ARC
  5
2A7
  8
0
  6
CONTINUOUS
 62
     7
 10
671.0322645579
 20
272.9113758951
 30
0.0
 40
0.4000000000000341
 50
90.0
 51
180.0
  0
LINE
  5
2A8
  8
0
  6
CONTINUOUS
 62
     7
 10
694.2322643911
 20
273.3113763079
 30
0.0
 11
671.0322620784
 21
273.3113763079
 31
0.0
  0
ARC
  5
2A9
  8
0
  6
CONTINUOUS
 62
     7
 10
694.2322645579
 20
272.9113758951
 30
0.0
 40
0.4000000000000341
 50
0.0
 51
90.0
  0
ARC
  5
2AA
  8
0
  6
CONTINUOUS
 62
     7
 10
570.4322645579
 20
224.4023751417
 30
0.0
 40
0.4000000000000057
 50
90.0
 51
180.0
  0
LINE
  5
2AB
  8
0
  6
CONTINUOUS
 62
     7
 10
581.3322665607
 20
224.802374576
 30
0.0
 11
570.4322698032
 21
224.802374576
 31
0.0
  0
ARC
  5
2AC
  8
0
  6
CONTINUOUS
 62
     7
 10
581.3322645579
 20
224.4023751417
 30
0.0
 40
0.4000000000000057
 50
0.0
 51
90.0
  0
ARC
  5
2AD
  8
0
  6
CONTINUOUS
 62
     7
 10
895.5322645579
 20
224.4023751417
 30
0.0
 40
0.4000000000000909
 50
90.0
 51
180.0
  0
LINE
  5
2AE
  8
0
  6
CONTINUOUS
 62
     7
 10
906.4322593127
 20
224.802374576
 30
0.0
 11
895.5322625552
 21
224.802374576
 31
0.0
  0
ARC
  5
2AF
  8
0
  6
CONTINUOUS
 62
     7
 10
906.4322645579
 20
224.4023751417
 30
0.0
 40
0.4000000000000057
 50
0.0
 51
90.0
  0
LINE
  5
2B0
  8
0
  6
CONTINUOUS
 62
     7
 10
695.541396967
 20
150.9317514643
 30
0.0
 11
781.3231321489
 21
150.9317514643
 31
0.0
  0
LINE
  5
2B1
  8
0
  6
CONTINUOUS
 62
     7
 10
695.5322655355
 20
157.8062412485
 30
0.0
 11
694.6322652017
 21
157.8062412485
 31
0.0
  0
LINE
  5
2B2
  8
0
  6
CONTINUOUS
 62
     7
 10
694.6322652017
 20
153.0062374815
 30
0.0
 11
695.5322655355
 21
153.0062374815
 31
0.0
  0
LINE
  5
2B3
  8
0
  6
CONTINUOUS
 62
     7
 10
782.2322639142
 20
157.8062412485
 30
0.0
 11
781.3322635804
 21
157.8062412485
 31
0.0
  0
LINE
  5
2B4
  8
0
  6
CONTINUOUS
 62
     7
 10
781.3322635804
 20
153.0062374815
 30
0.0
 11
782.2322639142
 21
153.0062374815
 31
0.0
  0
ARC
  5
2B5
  8
0
  6
CONTINUOUS
 62
     7
 10
696.0322645579
 20
137.7935524547
 30
0.0
 40
0.4000000000000909
 50
180.0
 51
270.0
  0
LINE
  5
2B6
  8
0
  6
CONTINUOUS
 62
     7
 10
696.0322650586
 20
137.3935518011
 30
0.0
 11
780.8322640573
 21
137.3935518011
 31
0.0
  0
ARC
  5
2B7
  8
0
  6
CONTINUOUS
 62
     7
 10
780.8322645579
 20
137.7935524547
 30
0.0
 40
0.4000000000000057
 50
270.0
 51
0.0
  0
LINE
  5
2B8
  8
0
  6
CONTINUOUS
 62
     7
 10
583.6322667514
 20
157.8062412485
 30
0.0
 11
582.6322677051
 21
157.8062412485
 31
0.0
  0
LINE
  5
2B9
  8
0
  6
CONTINUOUS
 62
     7
 10
582.6322677051
 20
153.0062374815
 30
0.0
 11
583.6322667514
 21
153.0062374815
 31
0.0
  0
LINE
  5
2BA
  8
0
  6
CONTINUOUS
 62
     7
 10
670.2322664176
 20
157.8062412485
 30
0.0
 11
669.2322673713
 21
157.8062412485
 31
0.0
  0
LINE
  5
2BB
  8
0
  6
CONTINUOUS
 62
     7
 10
669.2322673713
 20
153.0062374815
 30
0.0
 11
670.2322664176
 21
153.0062374815
 31
0.0
  0
LINE
  5
2BC
  8
0
  6
CONTINUOUS
 62
     7
 10
807.5413944636
 20
150.9317514643
 30
0.0
 11
893.3231356059
 21
150.9317514643
 31
0.0
  0
LINE
  5
2BD
  8
0
  6
CONTINUOUS
 62
     7
 10
807.5322630321
 20
157.8062412485
 30
0.0
 11
806.6322626983
 21
157.8062412485
 31
0.0
  0
LINE
  5
2BE
  8
0
  6
CONTINUOUS
 62
     7
 10
806.6322626983
 20
153.0062374815
 30
0.0
 11
807.5322630321
 21
153.0062374815
 31
0.0
  0
LINE
  5
2BF
  8
0
  6
CONTINUOUS
 62
     7
 10
894.2322614108
 20
157.8062412485
 30
0.0
 11
893.3322670375
 21
157.8062412485
 31
0.0
  0
LINE
  5
2C0
  8
0
  6
CONTINUOUS
 62
     7
 10
893.3322670375
 20
153.0062374815
 30
0.0
 11
894.2322614108
 21
153.0062374815
 31
0.0
  0
ARC
  5
2C1
  8
0
  6
CONTINUOUS
 62
     7
 10
808.0322645579
 20
137.7935524547
 30
0.0
 40
0.4000000000000057
 50
180.0
 51
270.0
  0
LINE
  5
2C2
  8
0
  6
CONTINUOUS
 62
     7
 10
808.0322625552
 20
137.3935518011
 30
0.0
 11
892.8322675143
 21
137.3935518011
 31
0.0
  0
ARC
  5
2C3
  8
0
  6
CONTINUOUS
 62
     7
 10
892.8322645579
 20
137.7935524547
 30
0.0
 40
0.4000000000000057
 50
270.0
 51
0.0
  0
LINE
  5
2C4
  8
0
  6
CONTINUOUS
 62
     7
 10
670.2246549045
 20
273.1786725268
 30
0.0
 11
582.6398732577
 21
273.1786725268
 31
0.0
  0
LINE
  5
2C5
  8
0
  6
CONTINUOUS
 62
     7
 10
582.5322630321
 20
223.9913103327
 30
0.0
 11
581.7322614108
 21
223.9913103327
 31
0.0
  0
LINE
  5
2C6
  8
0
  6
CONTINUOUS
 62
     7
 10
671.1322667514
 20
223.9913103327
 30
0.0
 11
670.8322646533
 21
223.9913103327
 31
0.0
  0
LINE
  5
2C7
  8
0
  6
CONTINUOUS
 62
     7
 10
670.6322672282
 20
223.9913103327
 30
0.0
 11
670.3322651302
 21
223.9913103327
 31
0.0
  0
LINE
  5
2C8
  8
0
  6
CONTINUOUS
 62
     7
 10
582.5322630321
 20
154.2062399134
 30
0.0
 11
582.6322677051
 21
154.2062399134
 31
0.0
  0
LINE
  5
2C9
  8
0
  6
CONTINUOUS
 62
     7
 10
670.2322664176
 20
154.2062399134
 30
0.0
 11
670.3322651302
 21
154.2062399134
 31
0.0
  0
LINE
  5
2CA
  8
0
  6
CONTINUOUS
 62
     7
 10
670.3322651302
 20
156.6062388167
 30
0.0
 11
670.2322664176
 21
156.6062388167
 31
0.0
  0
LINE
  5
2CB
  8
0
  6
CONTINUOUS
 62
     7
 10
582.6322677051
 20
156.6062388167
 30
0.0
 11
582.5322630321
 21
156.6062388167
 31
0.0
  0
LINE
  5
2CC
  8
0
  6
CONTINUOUS
 62
     7
 10
894.2246558582
 20
273.1786725268
 30
0.0
 11
806.6398742114
 21
273.1786725268
 31
0.0
  0
LINE
  5
2CD
  8
0
  6
CONTINUOUS
 62
     7
 10
806.4322652732
 20
223.9913103327
 30
0.0
 11
805.7322623645
 21
223.9913103327
 31
0.0
  0
LINE
  5
2CE
  8
0
  6
CONTINUOUS
 62
     7
 10
895.1322677051
 20
223.9913103327
 30
0.0
 11
894.3322660838
 21
223.9913103327
 31
0.0
  0
LINE
  5
2CF
  8
0
  6
CONTINUOUS
 62
     7
 10
806.5322639857
 20
154.2062399134
 30
0.0
 11
806.6322626983
 21
154.2062399134
 31
0.0
  0
LINE
  5
2D0
  8
0
  6
CONTINUOUS
 62
     7
 10
894.2322614108
 20
154.2062399134
 30
0.0
 11
894.3322660838
 21
154.2062399134
 31
0.0
  0
LINE
  5
2D1
  8
0
  6
CONTINUOUS
 62
     7
 10
894.3322660838
 20
156.6062388167
 30
0.0
 11
894.2322614108
 21
156.6062388167
 31
0.0
  0
LINE
  5
2D2
  8
0
  6
CONTINUOUS
 62
     7
 10
806.6322626983
 20
156.6062388167
 30
0.0
 11
806.5322639857
 21
156.6062388167
 31
0.0
  0
LINE
  5
2D3
  8
0
  6
CONTINUOUS
 62
     7
 10
782.2246553813
 20
273.1786725268
 30
0.0
 11
694.6398737346
 21
273.1786725268
 31
0.0
  0
LINE
  5
2D4
  8
0
  6
CONTINUOUS
 62
     7
 10
694.4322647964
 20
223.9913103327
 30
0.0
 11
693.7322648679
 21
223.9913103327
 31
0.0
  0
LINE
  5
2D5
  8
0
  6
CONTINUOUS
 62
     7
 10
783.132264248
 20
223.9913103327
 30
0.0
 11
782.8322651302
 21
223.9913103327
 31
0.0
  0
LINE
  5
2D6
  8
0
  6
CONTINUOUS
 62
     7
 10
782.6322647248
 20
223.9913103327
 30
0.0
 11
782.332265607
 21
223.9913103327
 31
0.0
  0
LINE
  5
2D7
  8
0
  6
CONTINUOUS
 62
     7
 10
694.5322635089
 20
154.2062399134
 30
0.0
 11
694.6322652017
 21
154.2062399134
 31
0.0
  0
LINE
  5
2D8
  8
0
  6
CONTINUOUS
 62
     7
 10
782.2322639142
 20
154.2062399134
 30
0.0
 11
782.332265607
 21
154.2062399134
 31
0.0
  0
LINE
  5
2D9
  8
0
  6
CONTINUOUS
 62
     7
 10
782.332265607
 20
156.6062388167
 30
0.0
 11
782.2322639142
 21
156.6062388167
 31
0.0
  0
LINE
  5
2DA
  8
0
  6
CONTINUOUS
 62
     7
 10
694.6322652017
 20
156.6062388167
 30
0.0
 11
694.5322635089
 21
156.6062388167
 31
0.0
  0
LINE
  5
2DB
  8
0
  6
CONTINUOUS
 62
     7
 10
805.5322649394
 20
137.8062364802
 30
0.0
 11
783.7322654639
 21
137.8062364802
 31
0.0
  0
ARC
  5
2DC
  8
0
  6
CONTINUOUS
 62
     7
 10
805.3322645579
 20
138.0062385783
 30
0.0
 40
0.3999999999999773
 50
270.0
 51
0.0
  0
LINE
  5
2DD
  8
0
  6
CONTINUOUS
 62
     7
 10
783.9322658693
 20
137.6062390551
 30
0.0
 11
805.3322675143
 21
137.6062390551
 31
0.0
  0
ARC
  5
2DE
  8
0
  6
CONTINUOUS
 62
     7
 10
783.9322645579
 20
138.0062385783
 30
0.0
 40
0.4000000000000057
 50
180.0
 51
270.0
  0
LINE
  5
2DF
  8
0
  6
CONTINUOUS
 62
     7
 10
805.7322623645
 20
138.2062372908
 30
0.0
 11
805.7322623645
 21
138.0062398657
 31
0.0
  0
LINE
  5
2E0
  8
0
  6
CONTINUOUS
 62
     7
 10
783.5322650586
 20
140.2062413439
 30
0.0
 11
783.5322650586
 21
138.0062398657
 31
0.0
  0
LINE
  5
2E1
  8
0
  6
CONTINUOUS
 62
     7
 10
805.5322649394
 20
140.2062413439
 30
0.0
 11
805.5322649394
 21
137.8062364802
 31
0.0
  0
LINE
  5
2E2
  8
0
  6
CONTINUOUS
 62
     7
 10
783.7322654639
 20
137.8062364802
 30
0.0
 11
783.7322654639
 21
140.2062413439
 31
0.0
  0
LINE
  5
2E3
  8
0
  6
CONTINUOUS
 62
     7
 10
806.4322652732
 20
268.7219617113
 30
0.0
 11
806.5322639857
 21
268.7219617113
 31
0.0
  0
LINE
  5
2E4
  8
0
  6
CONTINUOUS
 62
     7
 10
806.4322652732
 20
268.7219617113
 30
0.0
 11
806.4322652732
 21
272.5075003847
 31
0.0
  0
LINE
  5
2E5
  8
0
  6
CONTINUOUS
 62
     7
 10
782.8322651302
 20
272.5075003847
 30
0.0
 11
806.4322652732
 21
272.5075003847
 31
0.0
  0
LINE
  5
2E6
  8
0
  6
CONTINUOUS
 62
     7
 10
782.8322651302
 20
272.5075003847
 30
0.0
 11
782.8322651302
 21
268.7219617113
 31
0.0
  0
LINE
  5
2E7
  8
0
  6
CONTINUOUS
 62
     7
 10
782.8322651302
 20
268.7219617113
 30
0.0
 11
782.6322647248
 21
268.7219617113
 31
0.0
  0
LINE
  5
2E8
  8
0
  6
CONTINUOUS
 62
     7
 10
782.6322647248
 20
272.3082539782
 30
0.0
 11
782.6322647248
 21
268.7219617113
 31
0.0
  0
ARC
  5
2E9
  8
0
  6
CONTINUOUS
 62
     7
 10
783.0314972914
 20
272.3075023354
 30
0.0
 40
0.3992332741316751
 50
89.8897457398
 51
179.8921282682
  0
LINE
  5
2EA
  8
0
  6
CONTINUOUS
 62
     7
 10
783.0322655355
 20
272.7067348704
 30
0.0
 11
806.2322618877
 21
272.7067348704
 31
0.0
  0
ARC
  5
2EB
  8
0
  6
CONTINUOUS
 62
     7
 10
806.2324982812
 20
272.3062435067
 30
0.0
 40
0.4004914334010003
 50
41.5398504515
 51
90.033819334
  0
LINE
  5
2EC
  8
0
  6
CONTINUOUS
 62
     7
 10
782.6322647248
 20
272.3082539782
 30
0.0
 11
782.6322647248
 21
272.9113814577
 31
0.0
  0
LINE
  5
2ED
  8
0
  6
CONTINUOUS
 62
     7
 10
782.8322651302
 20
223.7641570315
 30
0.0
 11
782.6322647248
 21
223.7641570315
 31
0.0
  0
LINE
  5
2EE
  8
0
  6
CONTINUOUS
 62
     7
 10
782.6322647248
 20
223.7641570315
 30
0.0
 11
782.6322647248
 21
268.7219617113
 31
0.0
  0
LINE
  5
2EF
  8
0
  6
CONTINUOUS
 62
     7
 10
782.8322651302
 20
223.7641570315
 30
0.0
 11
782.8322651302
 21
268.7219617113
 31
0.0
  0
LINE
  5
2F0
  8
0
  6
CONTINUOUS
 62
     7
 10
806.4322652732
 20
223.7641570315
 30
0.0
 11
806.5322639857
 21
223.7641570315
 31
0.0
  0
LINE
  5
2F1
  8
0
  6
CONTINUOUS
 62
     7
 10
806.4322652732
 20
223.7641570315
 30
0.0
 11
806.4322652732
 21
268.7219617113
 31
0.0
  0
LINE
  5
2F2
  8
0
  6
CONTINUOUS
 62
     7
 10
783.9322658693
 20
224.0953442797
 30
0.0
 11
805.3322675143
 21
224.0953442797
 31
0.0
  0
LINE
  5
2F3
  8
0
  6
CONTINUOUS
 62
     7
 10
782.8322651302
 20
224.0953442797
 30
0.0
 11
783.9322658693
 21
224.0953442797
 31
0.0
  0
LINE
  5
2F4
  8
0
  6
CONTINUOUS
 62
     7
 10
805.3322675143
 20
224.0953442797
 30
0.0
 11
806.4322652732
 21
224.0953442797
 31
0.0
  0
ARC
  5
2F5
  8
0
  6
CONTINUOUS
 62
     7
 10
805.3330169861
 20
223.3649116246
 30
0.0
 40
0.3992461103840814
 50
0.1097155205
 51
90.1075566993
  0
LINE
  5
2F6
  8
0
  6
CONTINUOUS
 62
     7
 10
783.7322654639
 20
223.5649106249
 30
0.0
 11
805.5322649394
 21
223.5649106249
 31
0.0
  0
ARC
  5
2F7
  8
0
  6
CONTINUOUS
 62
     7
 10
783.9315163688
 20
223.3649056814
 30
0.0
 40
0.399252053534347
 50
89.8924407791
 51
179.889433229
  0
LINE
  5
2F8
  8
0
  6
CONTINUOUS
 62
     7
 10
783.9322658693
 20
223.7641570315
 30
0.0
 11
805.3322675143
 21
223.7641570315
 31
0.0
  0
LINE
  5
2F9
  8
0
  6
CONTINUOUS
 62
     7
 10
805.7322623645
 20
223.3656761393
 30
0.0
 11
805.7322623645
 21
222.9452607378
 31
0.0
  0
LINE
  5
2FA
  8
0
  6
CONTINUOUS
 62
     7
 10
783.5322650586
 20
223.3656761393
 30
0.0
 11
783.5322650586
 21
220.2062365755
 31
0.0
  0
LINE
  5
2FB
  8
0
  6
CONTINUOUS
 62
     7
 10
805.5322649394
 20
223.5649106249
 30
0.0
 11
805.5322649394
 21
220.2062365755
 31
0.0
  0
LINE
  5
2FC
  8
0
  6
CONTINUOUS
 62
     7
 10
783.7322654639
 20
223.5649106249
 30
0.0
 11
783.7322654639
 21
220.2062365755
 31
0.0
  0
LINE
  5
2FD
  8
0
  6
CONTINUOUS
 62
     7
 10
783.5322650586
 20
223.3656761393
 30
0.0
 11
783.5322650586
 21
224.0953442797
 31
0.0
  0
LINE
  5
2FE
  8
0
  6
CONTINUOUS
 62
     7
 10
805.7322623645
 20
224.0953442797
 30
0.0
 11
805.7322623645
 21
223.3656761393
 31
0.0
  0
LINE
  5
2FF
  8
0
  6
CONTINUOUS
 62
     7
 10
783.7322654639
 20
220.7735893473
 30
0.0
 11
805.5322649394
 21
220.7735893473
 31
0.0
  0
LINE
  5
300
  8
0
  6
CONTINUOUS
 62
     7
 10
693.5322644626
 20
137.8062364802
 30
0.0
 11
671.7322649871
 21
137.8062364802
 31
0.0
  0
ARC
  5
301
  8
0
  6
CONTINUOUS
 62
     7
 10
693.3322645579
 20
138.0062385783
 30
0.0
 40
0.4000000000000057
 50
270.0
 51
0.0
  0
LINE
  5
302
  8
0
  6
CONTINUOUS
 62
     7
 10
671.9322624122
 20
137.6062390551
 30
0.0
 11
693.3322640573
 21
137.6062390551
 31
0.0
  0
ARC
  5
303
  8
0
  6
CONTINUOUS
 62
     7
 10
671.9322645579
 20
138.0062385783
 30
0.0
 40
0.4000000000000909
 50
180.0
 51
270.0
  0
LINE
  5
304
  8
0
  6
CONTINUOUS
 62
     7
 10
693.7322648679
 20
138.2062372908
 30
0.0
 11
693.7322648679
 21
138.0062398657
 31
0.0
  0
LINE
  5
305
  8
0
  6
CONTINUOUS
 62
     7
 10
671.5322616016
 20
140.2062413439
 30
0.0
 11
671.5322616016
 21
138.0062398657
 31
0.0
  0
LINE
  5
306
  8
0
  6
CONTINUOUS
 62
     7
 10
693.5322644626
 20
140.2062413439
 30
0.0
 11
693.5322644626
 21
137.8062364802
 31
0.0
  0
LINE
  5
307
  8
0
  6
CONTINUOUS
 62
     7
 10
671.7322649871
 20
137.8062364802
 30
0.0
 11
671.7322649871
 21
140.2062413439
 31
0.0
  0
LINE
  5
308
  8
0
  6
CONTINUOUS
 62
     7
 10
670.6322672282
 20
272.3082539782
 30
0.0
 11
670.6322672282
 21
272.9113814577
 31
0.0
  0
ARC
  5
309
  8
0
  6
CONTINUOUS
 62
     7
 10
671.031493863
 20
272.3075082783
 30
0.0
 40
0.3992273312070466
 50
89.8897482138
 51
179.8929795664
  0
LINE
  5
30A
  8
0
  6
CONTINUOUS
 62
     7
 10
694.4322647964
 20
268.7219617113
 30
0.0
 11
694.5322635089
 21
268.7219617113
 31
0.0
  0
LINE
  5
30B
  8
0
  6
CONTINUOUS
 62
     7
 10
694.4322647964
 20
268.7219617113
 30
0.0
 11
694.4322647964
 21
272.5075003847
 31
0.0
  0
LINE
  5
30C
  8
0
  6
CONTINUOUS
 62
     7
 10
670.8322646533
 20
272.5075003847
 30
0.0
 11
694.4322647964
 21
272.5075003847
 31
0.0
  0
LINE
  5
30D
  8
0
  6
CONTINUOUS
 62
     7
 10
670.8322646533
 20
272.5075003847
 30
0.0
 11
670.8322646533
 21
268.7219617113
 31
0.0
  0
LINE
  5
30E
  8
0
  6
CONTINUOUS
 62
     7
 10
670.8322646533
 20
268.7219617113
 30
0.0
 11
670.6322672282
 21
268.7219617113
 31
0.0
  0
LINE
  5
30F
  8
0
  6
CONTINUOUS
 62
     7
 10
670.6322672282
 20
272.3082539782
 30
0.0
 11
670.6322672282
 21
268.7219617113
 31
0.0
  0
LINE
  5
310
  8
0
  6
CONTINUOUS
 62
     7
 10
671.0322620784
 20
272.7067348704
 30
0.0
 11
694.2322643911
 21
272.7067348704
 31
0.0
  0
ARC
  5
311
  8
0
  6
CONTINUOUS
 62
     7
 10
694.2324857809
 20
272.3062167648
 30
0.0
 40
0.4005181667894809
 50
41.5415732459
 51
90.0316707319
  0
LINE
  5
312
  8
0
  6
CONTINUOUS
 62
     7
 10
670.8322646533
 20
223.7641570315
 30
0.0
 11
670.6322672282
 21
223.7641570315
 31
0.0
  0
LINE
  5
313
  8
0
  6
CONTINUOUS
 62
     7
 10
670.6322672282
 20
223.7641570315
 30
0.0
 11
670.6322672282
 21
268.7219617113
 31
0.0
  0
LINE
  5
314
  8
0
  6
CONTINUOUS
 62
     7
 10
670.8322646533
 20
223.7641570315
 30
0.0
 11
670.8322646533
 21
268.7219617113
 31
0.0
  0
LINE
  5
315
  8
0
  6
CONTINUOUS
 62
     7
 10
694.4322647964
 20
223.7641570315
 30
0.0
 11
694.5322635089
 21
223.7641570315
 31
0.0
  0
LINE
  5
316
  8
0
  6
CONTINUOUS
 62
     7
 10
694.4322647964
 20
223.7641570315
 30
0.0
 11
694.4322647964
 21
268.7219617113
 31
0.0
  0
LINE
  5
317
  8
0
  6
CONTINUOUS
 62
     7
 10
671.9322624122
 20
224.0953442797
 30
0.0
 11
693.3322640573
 21
224.0953442797
 31
0.0
  0
LINE
  5
318
  8
0
  6
CONTINUOUS
 62
     7
 10
670.8322646533
 20
224.0953442797
 30
0.0
 11
671.9322624122
 21
224.0953442797
 31
0.0
  0
LINE
  5
319
  8
0
  6
CONTINUOUS
 62
     7
 10
693.3322640573
 20
224.0953442797
 30
0.0
 11
694.4322647964
 21
224.0953442797
 31
0.0
  0
ARC
  5
31A
  8
0
  6
CONTINUOUS
 62
     7
 10
671.931518825
 20
223.3648997456
 30
0.0
 40
0.3992579783504305
 50
89.8932909728
 51
179.8885830353
  0
LINE
  5
31B
  8
0
  6
CONTINUOUS
 62
     7
 10
671.5322616016
 20
223.3656761393
 30
0.0
 11
671.5322616016
 21
224.0953442797
 31
0.0
  0
ARC
  5
31C
  8
0
  6
CONTINUOUS
 62
     7
 10
693.3330118663
 20
223.3649039836
 30
0.0
 40
0.3992537482314516
 50
0.110809959
 51
90.107316033
  0
LINE
  5
31D
  8
0
  6
CONTINUOUS
 62
     7
 10
671.7322649871
 20
223.5649106249
 30
0.0
 11
693.5322644626
 21
223.5649106249
 31
0.0
  0
LINE
  5
31E
  8
0
  6
CONTINUOUS
 62
     7
 10
671.9322624122
 20
223.7641570315
 30
0.0
 11
693.3322640573
 21
223.7641570315
 31
0.0
  0
LINE
  5
31F
  8
0
  6
CONTINUOUS
 62
     7
 10
693.7322648679
 20
223.3656761393
 30
0.0
 11
693.7322648679
 21
222.9452607378
 31
0.0
  0
LINE
  5
320
  8
0
  6
CONTINUOUS
 62
     7
 10
671.5322616016
 20
223.3656761393
 30
0.0
 11
671.5322616016
 21
220.2062365755
 31
0.0
  0
LINE
  5
321
  8
0
  6
CONTINUOUS
 62
     7
 10
693.5322644626
 20
223.5649106249
 30
0.0
 11
693.5322644626
 21
220.2062365755
 31
0.0
  0
LINE
  5
322
  8
0
  6
CONTINUOUS
 62
     7
 10
671.7322649871
 20
223.5649106249
 30
0.0
 11
671.7322649871
 21
220.2062365755
 31
0.0
  0
LINE
  5
323
  8
0
  6
CONTINUOUS
 62
     7
 10
693.7322648679
 20
224.0953442797
 30
0.0
 11
693.7322648679
 21
223.3656761393
 31
0.0
  0
LINE
  5
324
  8
0
  6
CONTINUOUS
 62
     7
 10
671.7322649871
 20
220.7735893473
 30
0.0
 11
693.5322644626
 21
220.7735893473
 31
0.0
  0
LINE
  5
325
  8
0
  6
CONTINUOUS
 62
     7
 10
570.4322698032
 20
137.6062390551
 30
0.0
 11
572.0322611247
 21
137.6062390551
 31
0.0
  0
ARC
  5
326
  8
0
  6
CONTINUOUS
 62
     7
 10
570.4322645579
 20
138.0062385783
 30
0.0
 40
0.3999999999999773
 50
180.0
 51
270.0
  0
LINE
  5
327
  8
0
  6
CONTINUOUS
 62
     7
 10
570.0322630321
 20
222.6298687205
 30
0.0
 11
570.0322630321
 21
138.0062398657
 31
0.0
  0
ARC
  5
328
  8
0
  6
CONTINUOUS
 62
     7
 10
570.4340872154
 20
222.6301418483
 30
0.0
 40
0.4018242761296131
 50
120.1507047656
 51
180.0389450711
  0
LINE
  5
329
  8
0
  6
CONTINUOUS
 62
     7
 10
570.2322604571
 20
137.8062364802
 30
0.0
 11
570.2322604571
 21
222.9776022181
 31
0.0
  0
LINE
  5
32A
  8
0
  6
CONTINUOUS
 62
     7
 10
570.2322604571
 20
137.8062364802
 30
0.0
 11
572.0322611247
 21
137.8062364802
 31
0.0
  0
LINE
  5
32B
  8
0
  6
CONTINUOUS
 62
     7
 10
572.0322611247
 20
137.8062364802
 30
0.0
 11
572.0322611247
 21
137.6062390551
 31
0.0
  0
ARC
  5
32C
  8
0
  6
CONTINUOUS
 62
     7
 10
570.4322347617
 20
222.630225665
 30
0.0
 40
0.4011757070436918
 50
89.9949953947
 51
119.898868702
  0
LINE
  5
32D
  8
0
  6
CONTINUOUS
 62
     7
 10
570.0322630321
 20
222.6298687205
 30
0.0
 11
570.0322630321
 21
224.4023797259
 31
0.0
  0
LINE
  5
32E
  8
0
  6
CONTINUOUS
 62
     7
 10
570.2322604571
 20
222.9780075297
 30
0.0
 11
570.2322604571
 21
222.9776022181
 31
0.0
  0
LINE
  5
32F
  8
0
  6
CONTINUOUS
 62
     7
 10
570.2322604571
 20
222.8321549639
 30
0.0
 11
581.5322639857
 21
222.8321549639
 31
0.0
  0
LINE
  5
330
  8
0
  6
CONTINUOUS
 62
     7
 10
570.4322698032
 20
223.0314013705
 30
0.0
 11
581.3322665607
 21
223.0314013705
 31
0.0
  0
ARC
  5
331
  8
0
  6
CONTINUOUS
 62
     7
 10
581.3330151245
 20
222.6321550521
 30
0.0
 40
0.3992470200992303
 50
0.1098460683
 51
90.1074261515
  0
LINE
  5
332
  8
0
  6
CONTINUOUS
 62
     7
 10
581.7322614108
 20
222.6329204783
 30
0.0
 11
581.7322614108
 21
222.2125050768
 31
0.0
  0
LINE
  5
333
  8
0
  6
CONTINUOUS
 62
     7
 10
581.5322639857
 20
220.2062365755
 30
0.0
 11
581.5322639857
 21
222.8321549639
 31
0.0
  0
LINE
  5
334
  8
0
  6
CONTINUOUS
 62
     7
 10
581.7322614108
 20
224.4023797259
 30
0.0
 11
581.7322614108
 21
222.6329204783
 31
0.0
  0
ARC
  5
335
  8
0
  6
CONTINUOUS
 62
     7
 10
581.3322645579
 20
138.0062385783
 30
0.0
 40
0.3999999999999773
 50
270.0
 51
0.0
  0
LINE
  5
336
  8
0
  6
CONTINUOUS
 62
     7
 10
581.5322639857
 20
137.8062364802
 30
0.0
 11
572.0322611247
 21
137.8062364802
 31
0.0
  0
LINE
  5
337
  8
0
  6
CONTINUOUS
 62
     7
 10
572.0322611247
 20
137.6062390551
 30
0.0
 11
581.3322665607
 21
137.6062390551
 31
0.0
  0
LINE
  5
338
  8
0
  6
CONTINUOUS
 62
     7
 10
581.7322614108
 20
138.2062372908
 30
0.0
 11
581.7322614108
 21
138.0062398657
 31
0.0
  0
LINE
  5
339
  8
0
  6
CONTINUOUS
 62
     7
 10
581.5322639857
 20
140.2062413439
 30
0.0
 11
581.5322639857
 21
137.8062364802
 31
0.0
  0
LINE
  5
33A
  8
0
  6
CONTINUOUS
 62
     7
 10
570.2322604571
 20
220.7735893473
 30
0.0
 11
581.5322639857
 21
220.7735893473
 31
0.0
  0
LINE
  5
33B
  8
0
  6
CONTINUOUS
 62
     7
 10
904.8322679912
 20
137.8062364802
 30
0.0
 11
906.6322686587
 21
137.8062364802
 31
0.0
  0
LINE
  5
33C
  8
0
  6
CONTINUOUS
 62
     7
 10
906.6322686587
 20
222.9776022181
 30
0.0
 11
906.6322686587
 21
137.8062364802
 31
0.0
  0
ARC
  5
33D
  8
0
  6
CONTINUOUS
 62
     7
 10
906.4304359912
 20
222.6301384496
 30
0.0
 40
0.401830183205275
 50
359.9615401193
 51
59.848810044
  0
LINE
  5
33E
  8
0
  6
CONTINUOUS
 62
     7
 10
906.8322660838
 20
222.6298687205
 30
0.0
 11
906.8322660838
 21
138.0062398657
 31
0.0
  0
ARC
  5
33F
  8
0
  6
CONTINUOUS
 62
     7
 10
906.4322645579
 20
138.0062385783
 30
0.0
 40
0.4000000000000057
 50
270.0
 51
360.0
  0
LINE
  5
340
  8
0
  6
CONTINUOUS
 62
     7
 10
904.8322679912
 20
137.6062390551
 30
0.0
 11
906.4322593127
 21
137.6062390551
 31
0.0
  0
LINE
  5
341
  8
0
  6
CONTINUOUS
 62
     7
 10
904.8322679912
 20
137.8062364802
 30
0.0
 11
904.8322679912
 21
137.6062390551
 31
0.0
  0
ARC
  5
342
  8
0
  6
CONTINUOUS
 62
     7
 10
906.4322943542
 20
222.630225665
 30
0.0
 40
0.4011757070425608
 50
60.1011312979
 51
90.0050046053
  0
LINE
  5
343
  8
0
  6
CONTINUOUS
 62
     7
 10
906.8322660838
 20
224.4023797259
 30
0.0
 11
906.8322660838
 21
222.6298687205
 31
0.0
  0
LINE
  5
344
  8
0
  6
CONTINUOUS
 62
     7
 10
906.6322686587
 20
222.9776022181
 30
0.0
 11
906.6322686587
 21
222.9780075297
 31
0.0
  0
LINE
  5
345
  8
0
  6
CONTINUOUS
 62
     7
 10
895.3322651302
 20
222.8321549639
 30
0.0
 11
906.6322686587
 21
222.8321549639
 31
0.0
  0
ARC
  5
346
  8
0
  6
CONTINUOUS
 62
     7
 10
895.5315139914
 20
222.6321550521
 30
0.0
 40
0.3992470200997997
 50
89.8925738485
 51
179.8901539316
  0
LINE
  5
347
  8
0
  6
CONTINUOUS
 62
     7
 10
895.5322625552
 20
223.0314013705
 30
0.0
 11
906.4322593127
 21
223.0314013705
 31
0.0
  0
LINE
  5
348
  8
0
  6
CONTINUOUS
 62
     7
 10
895.1322677051
 20
222.6329204783
 30
0.0
 11
895.1322677051
 21
222.2125050768
 31
0.0
  0
LINE
  5
349
  8
0
  6
CONTINUOUS
 62
     7
 10
895.3322651302
 20
222.8321549639
 30
0.0
 11
895.3322651302
 21
220.2062365755
 31
0.0
  0
LINE
  5
34A
  8
0
  6
CONTINUOUS
 62
     7
 10
895.1322677051
 20
222.6329204783
 30
0.0
 11
895.1322677051
 21
224.4023797259
 31
0.0
  0
ARC
  5
34B
  8
0
  6
CONTINUOUS
 62
     7
 10
895.5322645579
 20
138.0062385783
 30
0.0
 40
0.4000000000000909
 50
180.0
 51
270.0
  0
LINE
  5
34C
  8
0
  6
CONTINUOUS
 62
     7
 10
904.8322679912
 20
137.8062364802
 30
0.0
 11
895.3322651302
 21
137.8062364802
 31
0.0
  0
LINE
  5
34D
  8
0
  6
CONTINUOUS
 62
     7
 10
895.5322625552
 20
137.6062390551
 30
0.0
 11
904.8322679912
 21
137.6062390551
 31
0.0
  0
LINE
  5
34E
  8
0
  6
CONTINUOUS
 62
     7
 10
895.1322677051
 20
138.2062372908
 30
0.0
 11
895.1322677051
 21
138.0062398657
 31
0.0
  0
LINE
  5
34F
  8
0
  6
CONTINUOUS
 62
     7
 10
895.3322651302
 20
137.8062364802
 30
0.0
 11
895.3322651302
 21
140.2062413439
 31
0.0
  0
LINE
  5
350
  8
0
  6
CONTINUOUS
 62
     7
 10
895.3322651302
 20
220.7735893473
 30
0.0
 11
906.6322686587
 21
220.7735893473
 31
0.0
  0
LINE
  5
351
  8
0
  6
CONTINUOUS
 62
     7
 10
695.5322655355
 20
150.9408828959
 30
0.0
 11
695.5322655355
 21
158.6062369093
 31
0.0
  0
POLYLINE
  5
352
  8
0
  6
CONTINUOUS
 62
     7
 66
     1
 10
0.0
 20
0.0
 30
0.0
  0
VERTEX
  5
47B
  8
0
  6
CONTINUOUS
 62
     7
 10
695.5322655355
 20
150.9408828959
 30
0.0
  0
VERTEX
  5
47C
  8
0
  6
CONTINUOUS
 62
     7
 10
695.5618115579
 20
150.93759868
 30
0.0
  0
VERTEX
  5
47D
  8
0
  6
CONTINUOUS
 62
     7
 10
695.6497284089
 20
150.9932634577
 30
0.0
  0
VERTEX
  5
47E
  8
0
  6
CONTINUOUS
 62
     7
 10
695.7938494598
 20
151.1065122828
 30
0.0
  0
VERTEX
  5
47F
  8
0
  6
CONTINUOUS
 62
     7
 10
695.9906252538
 20
151.2745496973
 30
0.0
  0
VERTEX
  5
480
  8
0
  6
CONTINUOUS
 62
     7
 10
696.2352069532
 20
151.4932450995
 30
0.0
  0
VERTEX
  5
481
  8
0
  6
CONTINUOUS
 62
     7
 10
696.5215804492
 20
151.7572102293
 30
0.0
  0
VERTEX
  5
482
  8
0
  6
CONTINUOUS
 62
     7
 10
696.842688552
 20
152.0599422202
 30
0.0
  0
VERTEX
  5
483
  8
0
  6
CONTINUOUS
 62
     7
 10
697.1906247054
 20
152.3939964518
 30
0.0
  0
VERTEX
  5
484
  8
0
  6
CONTINUOUS
 62
     7
 10
697.5568207418
 20
152.7511415228
 30
0.0
  0
VERTEX
  5
485
  8
0
  6
CONTINUOUS
 62
     7
 10
697.9322644387
 20
153.1225797877
 30
0.0
  0
SEQEND
  5
4AA
  8
0
  6
CONTINUOUS
 62
     7
  0
LINE
  5
353
  8
0
  6
CONTINUOUS
 62
     7
 10
781.3322635804
 20
158.6062369093
 30
0.0
 11
781.3322635804
 21
150.9408828959
 31
0.0
  0
POLYLINE
  5
354
  8
0
  6
CONTINUOUS
 62
     7
 66
     1
 10
0.0
 20
0.0
 30
0.0
  0
VERTEX
  5
486
  8
0
  6
CONTINUOUS
 62
     7
 10
781.3322635804
 20
150.9408828959
 30
0.0
  0
VERTEX
  5
487
  8
0
  6
CONTINUOUS
 62
     7
 10
781.302717558
 20
150.93759868
 30
0.0
  0
VERTEX
  5
488
  8
0
  6
CONTINUOUS
 62
     7
 10
781.214800707
 20
150.9932634577
 30
0.0
  0
VERTEX
  5
489
  8
0
  6
CONTINUOUS
 62
     7
 10
781.0706796561
 20
151.1065122828
 30
0.0
  0
VERTEX
  5
48A
  8
0
  6
CONTINUOUS
 62
     7
 10
780.8739038621
 20
151.2745496973
 30
0.0
  0
VERTEX
  5
48B
  8
0
  6
CONTINUOUS
 62
     7
 10
780.6293221627
 20
151.4932450995
 30
0.0
  0
VERTEX
  5
48C
  8
0
  6
CONTINUOUS
 62
     7
 10
780.3429486667
 20
151.7572102293
 30
0.0
  0
VERTEX
  5
48D
  8
0
  6
CONTINUOUS
 62
     7
 10
780.0218405639
 20
152.0599422202
 30
0.0
  0
VERTEX
  5
48E
  8
0
  6
CONTINUOUS
 62
     7
 10
779.6739044105
 20
152.3939964518
 30
0.0
  0
VERTEX
  5
48F
  8
0
  6
CONTINUOUS
 62
     7
 10
779.3077083741
 20
152.7511415228
 30
0.0
  0
VERTEX
  5
490
  8
0
  6
CONTINUOUS
 62
     7
 10
778.9322646772
 20
153.1225797877
 30
0.0
  0
SEQEND
  5
4A9
  8
0
  6
CONTINUOUS
 62
     7
  0
LINE
  5
355
  8
0
  6
CONTINUOUS
 62
     7
 10
695.632264248
 20
137.7935526118
 30
0.0
 11
695.632264248
 21
150.9317514643
 31
0.0
  0
LINE
  5
356
  8
0
  6
CONTINUOUS
 62
     7
 10
781.2322648679
 20
150.9317514643
 30
0.0
 11
781.2322648679
 21
137.7935526118
 31
0.0
  0
LINE
  5
357
  8
0
  6
CONTINUOUS
 62
     7
 10
694.6322652017
 20
153.0062374815
 30
0.0
 11
694.6322652017
 21
157.8062412485
 31
0.0
  0
LINE
  5
358
  8
0
  6
CONTINUOUS
 62
     7
 10
782.2322639142
 20
153.0062374815
 30
0.0
 11
782.2322639142
 21
157.8062412485
 31
0.0
  0
LINE
  5
359
  8
0
  6
CONTINUOUS
 62
     7
 10
583.6322667514
 20
151.4062401995
 30
0.0
 11
583.6322667514
 21
158.6062369093
 31
0.0
  0
ARC
  5
35A
  8
0
  6
CONTINUOUS
 62
     7
 10
584.0322645579
 20
151.4062385783
 30
0.0
 40
0.4000000000000909
 50
180.0
 51
270.0
  0
LINE
  5
35B
  8
0
  6
CONTINUOUS
 62
     7
 10
668.8322665607
 20
151.0062393889
 30
0.0
 11
584.0322616016
 21
151.0062393889
 31
0.0
  0
ARC
  5
35C
  8
0
  6
CONTINUOUS
 62
     7
 10
668.8322645579
 20
151.4062385783
 30
0.0
 40
0.3999999999999773
 50
270.0
 51
0.0
  0
LINE
  5
35D
  8
0
  6
CONTINUOUS
 62
     7
 10
669.2322673713
 20
158.6062369093
 30
0.0
 11
669.2322673713
 21
151.4062401995
 31
0.0
  0
LINE
  5
35E
  8
0
  6
CONTINUOUS
 62
     7
 10
582.6322677051
 20
155.4062363848
 30
0.0
 11
582.6322677051
 21
157.8062412485
 31
0.0
  0
LINE
  5
35F
  8
0
  6
CONTINUOUS
 62
     7
 10
582.6322677051
 20
153.0062374815
 30
0.0
 11
582.6322677051
 21
155.4062363848
 31
0.0
  0
LINE
  5
360
  8
0
  6
CONTINUOUS
 62
     7
 10
670.2322664176
 20
155.4062363848
 30
0.0
 11
670.2322664176
 21
157.8062412485
 31
0.0
  0
LINE
  5
361
  8
0
  6
CONTINUOUS
 62
     7
 10
670.2322664176
 20
153.0062374815
 30
0.0
 11
670.2322664176
 21
155.4062363848
 31
0.0
  0
LINE
  5
362
  8
0
  6
CONTINUOUS
 62
     7
 10
807.5322630321
 20
150.9408828959
 30
0.0
 11
807.5322630321
 21
158.6062369093
 31
0.0
  0
POLYLINE
  5
363
  8
0
  6
CONTINUOUS
 62
     7
 66
     1
 10
0.0
 20
0.0
 30
0.0
  0
VERTEX
  5
491
  8
0
  6
CONTINUOUS
 62
     7
 10
807.5322630321
 20
150.9408828959
 30
0.0
  0
VERTEX
  5
492
  8
0
  6
CONTINUOUS
 62
     7
 10
807.5618150149
 20
150.93759868
 30
0.0
  0
VERTEX
  5
493
  8
0
  6
CONTINUOUS
 62
     7
 10
807.649731866
 20
150.9932634577
 30
0.0
  0
VERTEX
  5
494
  8
0
  6
CONTINUOUS
 62
     7
 10
807.7938499366
 20
151.1065122828
 30
0.0
  0
VERTEX
  5
495
  8
0
  6
CONTINUOUS
 62
     7
 10
807.9906227504
 20
151.2745496973
 30
0.0
  0
VERTEX
  5
496
  8
0
  6
CONTINUOUS
 62
     7
 10
808.2352104102
 20
151.4932450995
 30
0.0
  0
VERTEX
  5
497
  8
0
  6
CONTINUOUS
 62
     7
 10
808.5215809261
 20
151.7572102293
 30
0.0
  0
VERTEX
  5
498
  8
0
  6
CONTINUOUS
 62
     7
 10
808.8426890289
 20
152.0599422202
 30
0.0
  0
VERTEX
  5
499
  8
0
  6
CONTINUOUS
 62
     7
 10
809.1906251823
 20
152.3939964518
 30
0.0
  0
VERTEX
  5
49A
  8
0
  6
CONTINUOUS
 62
     7
 10
809.5568241988
 20
152.7511415228
 30
0.0
  0
VERTEX
  5
49B
  8
0
  6
CONTINUOUS
 62
     7
 10
809.9322619353
 20
153.1225797877
 30
0.0
  0
SEQEND
  5
4A8
  8
0
  6
CONTINUOUS
 62
     7
  0
LINE
  5
364
  8
0
  6
CONTINUOUS
 62
     7
 10
893.3322670375
 20
158.6062369093
 30
0.0
 11
893.3322670375
 21
150.9408828959
 31
0.0
  0
POLYLINE
  5
365
  8
0
  6
CONTINUOUS
 62
     7
 66
     1
 10
0.0
 20
0.0
 30
0.0
  0
VERTEX
  5
49C
  8
0
  6
CONTINUOUS
 62
     7
 10
893.3322670375
 20
150.9408828959
 30
0.0
  0
VERTEX
  5
49D
  8
0
  6
CONTINUOUS
 62
     7
 10
893.3027150546
 20
150.93759868
 30
0.0
  0
VERTEX
  5
49E
  8
0
  6
CONTINUOUS
 62
     7
 10
893.2147982036
 20
150.9932634577
 30
0.0
  0
VERTEX
  5
49F
  8
0
  6
CONTINUOUS
 62
     7
 10
893.0706860934
 20
151.1065122828
 30
0.0
  0
VERTEX
  5
4A0
  8
0
  6
CONTINUOUS
 62
     7
 10
892.8739073192
 20
151.2745496973
 30
0.0
  0
VERTEX
  5
4A1
  8
0
  6
CONTINUOUS
 62
     7
 10
892.6293256198
 20
151.4932450995
 30
0.0
  0
VERTEX
  5
4A2
  8
0
  6
CONTINUOUS
 62
     7
 10
892.3429491435
 20
151.7572102293
 30
0.0
  0
VERTEX
  5
4A3
  8
0
  6
CONTINUOUS
 62
     7
 10
892.0218470012
 20
152.0599422202
 30
0.0
  0
VERTEX
  5
4A4
  8
0
  6
CONTINUOUS
 62
     7
 10
891.6739108478
 20
152.3939964518
 30
0.0
  0
VERTEX
  5
4A5
  8
0
  6
CONTINUOUS
 62
     7
 10
891.3077118312
 20
152.7511415228
 30
0.0
  0
VERTEX
  5
4A6
  8
0
  6
CONTINUOUS
 62
     7
 10
890.9322621738
 20
153.1225797877
 30
0.0
  0
SEQEND
  5
4A7
  8
0
  6
CONTINUOUS
 62
     7
  0
LINE
  5
366
  8
0
  6
CONTINUOUS
 62
     7
 10
807.6322617446
 20
137.7935526118
 30
0.0
 11
807.6322617446
 21
150.9317514643
 31
0.0
  0
LINE
  5
367
  8
0
  6
CONTINUOUS
 62
     7
 10
893.2322623645
 20
150.9317514643
 30
0.0
 11
893.2322623645
 21
137.7935526118
 31
0.0
  0
LINE
  5
368
  8
0
  6
CONTINUOUS
 62
     7
 10
806.6322626983
 20
153.0062374815
 30
0.0
 11
806.6322626983
 21
157.8062412485
 31
0.0
  0
LINE
  5
369
  8
0
  6
CONTINUOUS
 62
     7
 10
894.2322614108
 20
153.0062374815
 30
0.0
 11
894.2322614108
 21
157.8062412485
 31
0.0
  0
CIRCLE
  5
36A
  8
0
  6
CONTINUOUS
 62
     7
 10
676.4322645579
 20
215.6062385783
 30
0.0
 40
1.099999999999909
  0
CIRCLE
  5
36B
  8
0
  6
CONTINUOUS
 62
     7
 10
676.4322645579
 20
143.6062385783
 30
0.0
 40
1.099999999999909
  0
CIRCLE
  5
36C
  8
0
  6
CONTINUOUS
 62
     7
 10
576.4322645579
 20
215.6062385783
 30
0.0
 40
1.100000000000023
  0
CIRCLE
  5
36D
  8
0
  6
CONTINUOUS
 62
     7
 10
576.4322645579
 20
143.6062385783
 30
0.0
 40
1.100000000000023
  0
LINE
  5
36E
  8
0
  6
CONTINUOUS
 62
     7
 10
682.4322643195
 20
214.2062422976
 30
0.0
 11
680.4322662269
 21
214.2062422976
 31
0.0
  0
LINE
  5
36F
  8
0
  6
CONTINUOUS
 62
     7
 10
682.4322643195
 20
212.2062442049
 30
0.0
 11
682.4322643195
 21
214.2062422976
 31
0.0
  0
LINE
  5
370
  8
0
  6
CONTINUOUS
 62
     7
 10
680.4322662269
 20
212.2062442049
 30
0.0
 11
682.4322643195
 21
212.2062442049
 31
0.0
  0
LINE
  5
371
  8
0
  6
CONTINUOUS
 62
     7
 10
680.4322662269
 20
149.0062412962
 30
0.0
 11
680.4322662269
 21
212.2062442049
 31
0.0
  0
LINE
  5
372
  8
0
  6
CONTINUOUS
 62
     7
 10
682.4322643195
 20
149.0062412962
 30
0.0
 11
680.4322662269
 21
149.0062412962
 31
0.0
  0
LINE
  5
373
  8
0
  6
CONTINUOUS
 62
     7
 10
682.4322643195
 20
147.0062372431
 30
0.0
 11
682.4322643195
 21
149.0062412962
 31
0.0
  0
LINE
  5
374
  8
0
  6
CONTINUOUS
 62
     7
 10
680.4322662269
 20
147.0062372431
 30
0.0
 11
682.4322643195
 21
147.0062372431
 31
0.0
  0
LINE
  5
375
  8
0
  6
CONTINUOUS
 62
     7
 10
680.4322662269
 20
142.2062394366
 30
0.0
 11
680.4322662269
 21
147.0062372431
 31
0.0
  0
ARC
  5
376
  8
0
  6
CONTINUOUS
 62
     7
 10
678.4322645579
 20
142.2062385783
 30
0.0
 40
2.0
 50
270.0
 51
0.0
  0
LINE
  5
377
  8
0
  6
CONTINUOUS
 62
     7
 10
671.1322667514
 20
140.2062413439
 30
0.0
 11
678.4322621738
 21
140.2062413439
 31
0.0
  0
LINE
  5
378
  8
0
  6
CONTINUOUS
 62
     7
 10
671.1322667514
 20
140.2062413439
 30
0.0
 11
671.1322667514
 21
138.2062372908
 31
0.0
  0
LINE
  5
379
  8
0
  6
CONTINUOUS
 62
     7
 10
671.1322667514
 20
138.2062372908
 30
0.0
 11
670.3322651302
 21
138.2062372908
 31
0.0
  0
LINE
  5
37A
  8
0
  6
CONTINUOUS
 62
     7
 10
670.3322651302
 20
211.0637900576
 30
0.0
 11
670.3322651302
 21
138.2062372908
 31
0.0
  0
LINE
  5
37B
  8
0
  6
CONTINUOUS
 62
     7
 10
582.5322630321
 20
211.0637900576
 30
0.0
 11
670.3322651302
 21
211.0637900576
 31
0.0
  0
LINE
  5
37C
  8
0
  6
CONTINUOUS
 62
     7
 10
582.5322630321
 20
138.2062372908
 30
0.0
 11
582.5322630321
 21
211.0637900576
 31
0.0
  0
LINE
  5
37D
  8
0
  6
CONTINUOUS
 62
     7
 10
581.7322614108
 20
138.2062372908
 30
0.0
 11
582.5322630321
 21
138.2062372908
 31
0.0
  0
LINE
  5
37E
  8
0
  6
CONTINUOUS
 62
     7
 10
581.7322614108
 20
138.2062372908
 30
0.0
 11
581.7322614108
 21
140.2062413439
 31
0.0
  0
LINE
  5
37F
  8
0
  6
CONTINUOUS
 62
     7
 10
574.4322659885
 20
140.2062413439
 30
0.0
 11
581.7322614108
 21
140.2062413439
 31
0.0
  0
ARC
  5
380
  8
0
  6
CONTINUOUS
 62
     7
 10
574.4322645579
 20
142.2062385783
 30
0.0
 40
2.0
 50
180.0
 51
270.0
  0
LINE
  5
381
  8
0
  6
CONTINUOUS
 62
     7
 10
572.4322678958
 20
147.0062372431
 30
0.0
 11
572.4322678958
 21
142.2062394366
 31
0.0
  0
LINE
  5
382
  8
0
  6
CONTINUOUS
 62
     7
 10
570.4322698032
 20
147.0062372431
 30
0.0
 11
572.4322678958
 21
147.0062372431
 31
0.0
  0
LINE
  5
383
  8
0
  6
CONTINUOUS
 62
     7
 10
570.4322698032
 20
149.0062412962
 30
0.0
 11
570.4322698032
 21
147.0062372431
 31
0.0
  0
LINE
  5
384
  8
0
  6
CONTINUOUS
 62
     7
 10
572.4322678958
 20
149.0062412962
 30
0.0
 11
570.4322698032
 21
149.0062412962
 31
0.0
  0
LINE
  5
385
  8
0
  6
CONTINUOUS
 62
     7
 10
572.4322678958
 20
212.2062442049
 30
0.0
 11
572.4322678958
 21
149.0062412962
 31
0.0
  0
LINE
  5
386
  8
0
  6
CONTINUOUS
 62
     7
 10
570.4322698032
 20
214.2062422976
 30
0.0
 11
570.4322698032
 21
212.2062442049
 31
0.0
  0
LINE
  5
387
  8
0
  6
CONTINUOUS
 62
     7
 10
572.4322678958
 20
214.2062422976
 30
0.0
 11
570.4322698032
 21
214.2062422976
 31
0.0
  0
LINE
  5
388
  8
0
  6
CONTINUOUS
 62
     7
 10
572.4322678958
 20
218.2062384829
 30
0.0
 11
572.4322678958
 21
214.2062422976
 31
0.0
  0
ARC
  5
389
  8
0
  6
CONTINUOUS
 62
     7
 10
574.4322645579
 20
218.2062385783
 30
0.0
 40
2.0
 50
90.0
 51
180.0
  0
LINE
  5
38A
  8
0
  6
CONTINUOUS
 62
     7
 10
581.7322614108
 20
220.2062365755
 30
0.0
 11
574.4322659885
 21
220.2062365755
 31
0.0
  0
LINE
  5
38B
  8
0
  6
CONTINUOUS
 62
     7
 10
581.7322614108
 20
220.2062365755
 30
0.0
 11
581.7322614108
 21
222.2062346682
 31
0.0
  0
LINE
  5
38C
  8
0
  6
CONTINUOUS
 62
     7
 10
581.7322614108
 20
222.2062346682
 30
0.0
 11
582.5322630321
 21
222.2062346682
 31
0.0
  0
LINE
  5
38D
  8
0
  6
CONTINUOUS
 62
     7
 10
582.5322630321
 20
222.2062346682
 30
0.0
 11
582.5322630321
 21
272.6402637705
 31
0.0
  0
LINE
  5
38E
  8
0
  6
CONTINUOUS
 62
     7
 10
582.5322630321
 20
272.6402637705
 30
0.0
 11
670.3322651302
 21
272.6402637705
 31
0.0
  0
LINE
  5
38F
  8
0
  6
CONTINUOUS
 62
     7
 10
670.3322651302
 20
222.2062346682
 30
0.0
 11
670.3322651302
 21
272.6402637705
 31
0.0
  0
LINE
  5
390
  8
0
  6
CONTINUOUS
 62
     7
 10
671.1322667514
 20
222.2062346682
 30
0.0
 11
670.3322651302
 21
222.2062346682
 31
0.0
  0
LINE
  5
391
  8
0
  6
CONTINUOUS
 62
     7
 10
671.1322667514
 20
222.2062346682
 30
0.0
 11
671.1322667514
 21
220.2062365755
 31
0.0
  0
LINE
  5
392
  8
0
  6
CONTINUOUS
 62
     7
 10
678.4322621738
 20
220.2062365755
 30
0.0
 11
671.1322667514
 21
220.2062365755
 31
0.0
  0
ARC
  5
393
  8
0
  6
CONTINUOUS
 62
     7
 10
678.4322645579
 20
218.2062385783
 30
0.0
 40
2.0
 50
0.0
 51
90.0
  0
LINE
  5
394
  8
0
  6
CONTINUOUS
 62
     7
 10
680.4322662269
 20
214.2062422976
 30
0.0
 11
680.4322662269
 21
218.2062384829
 31
0.0
  0
LINE
  5
395
  8
0
  6
CONTINUOUS
 62
     7
 10
570.4322698032
 20
212.2062442049
 30
0.0
 11
572.4322678958
 21
212.2062442049
 31
0.0
  0
LINE
  5
396
  8
0
  6
CONTINUOUS
 62
     7
 10
582.5322630321
 20
158.6062369093
 30
0.0
 11
670.3322651302
 21
158.6062369093
 31
0.0
  0
LINE
  5
397
  8
0
  6
CONTINUOUS
 62
     7
 10
581.7322614108
 20
222.2062346682
 30
0.0
 11
581.7322614108
 21
222.2125050768
 31
0.0
  0
LINE
  5
398
  8
0
  6
CONTINUOUS
 62
     7
 10
582.5322630321
 20
272.8697654948
 30
0.0
 11
670.3322651302
 21
272.8697654948
 31
0.0
  0
LINE
  5
399
  8
0
  6
CONTINUOUS
 62
     7
 10
670.3322651302
 20
272.6402637705
 30
0.0
 11
670.3322651302
 21
272.8697654948
 31
0.0
  0
LINE
  5
39A
  8
0
  6
CONTINUOUS
 62
     7
 10
582.5322630321
 20
272.6402637705
 30
0.0
 11
582.5322630321
 21
272.8697654948
 31
0.0
  0
LINE
  5
39B
  8
0
  6
CONTINUOUS
 62
     7
 10
671.1322667514
 20
223.9882704958
 30
0.0
 11
671.1322667514
 21
222.2062346682
 31
0.0
  0
LINE
  5
39C
  8
0
  6
CONTINUOUS
 62
     7
 10
582.6322677051
 20
273.1710669741
 30
0.0
 11
582.6322677051
 21
272.8697654948
 31
0.0
  0
LINE
  5
39D
  8
0
  6
CONTINUOUS
 62
     7
 10
670.2322664176
 20
273.1710669741
 30
0.0
 11
670.2322664176
 21
272.8697654948
 31
0.0
  0
LINE
  5
39E
  8
0
  6
CONTINUOUS
 62
     7
 10
670.2322664176
 20
273.1710669741
 30
0.0
 11
670.2246549045
 21
273.1786725268
 31
0.0
  0
LINE
  5
39F
  8
0
  6
CONTINUOUS
 62
     7
 10
582.6398732577
 20
273.1786725268
 30
0.0
 11
582.6322677051
 21
273.1710669741
 31
0.0
  0
LINE
  5
3A0
  8
0
  6
CONTINUOUS
 62
     7
 10
671.1322667514
 20
223.9913103327
 30
0.0
 11
671.1322667514
 21
223.9882704958
 31
0.0
  0
CIRCLE
  5
3A1
  8
0
  6
CONTINUOUS
 62
     7
 10
900.4322645579
 20
215.6062385783
 30
0.0
 40
1.100000000000136
  0
CIRCLE
  5
3A2
  8
0
  6
CONTINUOUS
 62
     7
 10
900.4322645579
 20
143.6062385783
 30
0.0
 40
1.100000000000136
  0
CIRCLE
  5
3A3
  8
0
  6
CONTINUOUS
 62
     7
 10
800.4322645579
 20
215.6062385783
 30
0.0
 40
1.100000000000136
  0
CIRCLE
  5
3A4
  8
0
  6
CONTINUOUS
 62
     7
 10
800.4322645579
 20
143.6062385783
 30
0.0
 40
1.100000000000136
  0
LINE
  5
3A5
  8
0
  6
CONTINUOUS
 62
     7
 10
906.4322593127
 20
214.2062422976
 30
0.0
 11
904.4322612201
 21
214.2062422976
 31
0.0
  0
LINE
  5
3A6
  8
0
  6
CONTINUOUS
 62
     7
 10
906.4322593127
 20
212.2062442049
 30
0.0
 11
906.4322593127
 21
214.2062422976
 31
0.0
  0
LINE
  5
3A7
  8
0
  6
CONTINUOUS
 62
     7
 10
904.4322612201
 20
212.2062442049
 30
0.0
 11
906.4322593127
 21
212.2062442049
 31
0.0
  0
LINE
  5
3A8
  8
0
  6
CONTINUOUS
 62
     7
 10
904.4322612201
 20
149.0062412962
 30
0.0
 11
904.4322612201
 21
212.2062442049
 31
0.0
  0
LINE
  5
3A9
  8
0
  6
CONTINUOUS
 62
     7
 10
906.4322593127
 20
149.0062412962
 30
0.0
 11
904.4322612201
 21
149.0062412962
 31
0.0
  0
LINE
  5
3AA
  8
0
  6
CONTINUOUS
 62
     7
 10
906.4322593127
 20
147.0062372431
 30
0.0
 11
906.4322593127
 21
149.0062412962
 31
0.0
  0
LINE
  5
3AB
  8
0
  6
CONTINUOUS
 62
     7
 10
904.4322612201
 20
147.0062372431
 30
0.0
 11
906.4322593127
 21
147.0062372431
 31
0.0
  0
LINE
  5
3AC
  8
0
  6
CONTINUOUS
 62
     7
 10
904.4322612201
 20
142.2062394366
 30
0.0
 11
904.4322612201
 21
147.0062372431
 31
0.0
  0
ARC
  5
3AD
  8
0
  6
CONTINUOUS
 62
     7
 10
902.4322645579
 20
142.2062385783
 30
0.0
 40
2.0
 50
270.0
 51
0.0
  0
LINE
  5
3AE
  8
0
  6
CONTINUOUS
 62
     7
 10
895.1322677051
 20
140.2062413439
 30
0.0
 11
902.4322631274
 21
140.2062413439
 31
0.0
  0
LINE
  5
3AF
  8
0
  6
CONTINUOUS
 62
     7
 10
895.1322677051
 20
140.2062413439
 30
0.0
 11
895.1322677051
 21
138.2062372908
 31
0.0
  0
LINE
  5
3B0
  8
0
  6
CONTINUOUS
 62
     7
 10
895.1322677051
 20
138.2062372908
 30
0.0
 11
894.3322660838
 21
138.2062372908
 31
0.0
  0
LINE
  5
3B1
  8
0
  6
CONTINUOUS
 62
     7
 10
894.3322660838
 20
211.0637900576
 30
0.0
 11
894.3322660838
 21
138.2062372908
 31
0.0
  0
LINE
  5
3B2
  8
0
  6
CONTINUOUS
 62
     7
 10
806.5322639857
 20
211.0637900576
 30
0.0
 11
894.3322660838
 21
211.0637900576
 31
0.0
  0
LINE
  5
3B3
  8
0
  6
CONTINUOUS
 62
     7
 10
806.5322639857
 20
138.2062372908
 30
0.0
 11
806.5322639857
 21
211.0637900576
 31
0.0
  0
LINE
  5
3B4
  8
0
  6
CONTINUOUS
 62
     7
 10
805.7322623645
 20
138.2062372908
 30
0.0
 11
806.5322639857
 21
138.2062372908
 31
0.0
  0
LINE
  5
3B5
  8
0
  6
CONTINUOUS
 62
     7
 10
805.7322623645
 20
138.2062372908
 30
0.0
 11
805.7322623645
 21
140.2062413439
 31
0.0
  0
LINE
  5
3B6
  8
0
  6
CONTINUOUS
 62
     7
 10
798.4322669421
 20
140.2062413439
 30
0.0
 11
805.7322623645
 21
140.2062413439
 31
0.0
  0
ARC
  5
3B7
  8
0
  6
CONTINUOUS
 62
     7
 10
798.4322645579
 20
142.2062385783
 30
0.0
 40
2.0
 50
180.0
 51
270.0
  0
LINE
  5
3B8
  8
0
  6
CONTINUOUS
 62
     7
 10
796.432262889
 20
147.0062372431
 30
0.0
 11
796.432262889
 21
142.2062394366
 31
0.0
  0
LINE
  5
3B9
  8
0
  6
CONTINUOUS
 62
     7
 10
794.4322647964
 20
147.0062372431
 30
0.0
 11
796.432262889
 21
147.0062372431
 31
0.0
  0
LINE
  5
3BA
  8
0
  6
CONTINUOUS
 62
     7
 10
794.4322647964
 20
149.0062412962
 30
0.0
 11
794.4322647964
 21
147.0062372431
 31
0.0
  0
LINE
  5
3BB
  8
0
  6
CONTINUOUS
 62
     7
 10
796.432262889
 20
149.0062412962
 30
0.0
 11
794.4322647964
 21
149.0062412962
 31
0.0
  0
LINE
  5
3BC
  8
0
  6
CONTINUOUS
 62
     7
 10
796.432262889
 20
212.2062442049
 30
0.0
 11
796.432262889
 21
149.0062412962
 31
0.0
  0
LINE
  5
3BD
  8
0
  6
CONTINUOUS
 62
     7
 10
794.4322647964
 20
214.2062422976
 30
0.0
 11
794.4322647964
 21
212.2062442049
 31
0.0
  0
LINE
  5
3BE
  8
0
  6
CONTINUOUS
 62
     7
 10
796.432262889
 20
214.2062422976
 30
0.0
 11
794.4322647964
 21
214.2062422976
 31
0.0
  0
LINE
  5
3BF
  8
0
  6
CONTINUOUS
 62
     7
 10
796.432262889
 20
218.2062384829
 30
0.0
 11
796.432262889
 21
214.2062422976
 31
0.0
  0
ARC
  5
3C0
  8
0
  6
CONTINUOUS
 62
     7
 10
798.4322645579
 20
218.2062385783
 30
0.0
 40
2.0
 50
90.0
 51
180.0
  0
LINE
  5
3C1
  8
0
  6
CONTINUOUS
 62
     7
 10
805.7322623645
 20
220.2062365755
 30
0.0
 11
798.4322669421
 21
220.2062365755
 31
0.0
  0
LINE
  5
3C2
  8
0
  6
CONTINUOUS
 62
     7
 10
805.7322623645
 20
220.2062365755
 30
0.0
 11
805.7322623645
 21
222.2062346682
 31
0.0
  0
LINE
  5
3C3
  8
0
  6
CONTINUOUS
 62
     7
 10
805.7322623645
 20
222.2062346682
 30
0.0
 11
806.5322639857
 21
222.2062346682
 31
0.0
  0
LINE
  5
3C4
  8
0
  6
CONTINUOUS
 62
     7
 10
806.5322639857
 20
222.2062346682
 30
0.0
 11
806.5322639857
 21
272.6402637705
 31
0.0
  0
LINE
  5
3C5
  8
0
  6
CONTINUOUS
 62
     7
 10
806.5322639857
 20
272.6402637705
 30
0.0
 11
894.3322660838
 21
272.6402637705
 31
0.0
  0
LINE
  5
3C6
  8
0
  6
CONTINUOUS
 62
     7
 10
894.3322660838
 20
222.2062346682
 30
0.0
 11
894.3322660838
 21
272.6402637705
 31
0.0
  0
LINE
  5
3C7
  8
0
  6
CONTINUOUS
 62
     7
 10
895.1322677051
 20
222.2062346682
 30
0.0
 11
894.3322660838
 21
222.2062346682
 31
0.0
  0
LINE
  5
3C8
  8
0
  6
CONTINUOUS
 62
     7
 10
895.1322677051
 20
222.2062346682
 30
0.0
 11
895.1322677051
 21
220.2062365755
 31
0.0
  0
LINE
  5
3C9
  8
0
  6
CONTINUOUS
 62
     7
 10
902.4322631274
 20
220.2062365755
 30
0.0
 11
895.1322677051
 21
220.2062365755
 31
0.0
  0
ARC
  5
3CA
  8
0
  6
CONTINUOUS
 62
     7
 10
902.4322645579
 20
218.2062385783
 30
0.0
 40
2.0
 50
0.0
 51
90.0
  0
LINE
  5
3CB
  8
0
  6
CONTINUOUS
 62
     7
 10
904.4322612201
 20
214.2062422976
 30
0.0
 11
904.4322612201
 21
218.2062384829
 31
0.0
  0
LINE
  5
3CC
  8
0
  6
CONTINUOUS
 62
     7
 10
794.4322647964
 20
212.2062442049
 30
0.0
 11
796.432262889
 21
212.2062442049
 31
0.0
  0
LINE
  5
3CD
  8
0
  6
CONTINUOUS
 62
     7
 10
806.5322639857
 20
158.6062369093
 30
0.0
 11
894.3322660838
 21
158.6062369093
 31
0.0
  0
LINE
  5
3CE
  8
0
  6
CONTINUOUS
 62
     7
 10
805.7322623645
 20
222.2062346682
 30
0.0
 11
805.7322623645
 21
222.9452607378
 31
0.0
  0
LINE
  5
3CF
  8
0
  6
CONTINUOUS
 62
     7
 10
806.5322639857
 20
272.8697654948
 30
0.0
 11
894.3322660838
 21
272.8697654948
 31
0.0
  0
LINE
  5
3D0
  8
0
  6
CONTINUOUS
 62
     7
 10
894.3322660838
 20
272.6402637705
 30
0.0
 11
894.3322660838
 21
272.8697654948
 31
0.0
  0
LINE
  5
3D1
  8
0
  6
CONTINUOUS
 62
     7
 10
806.5322639857
 20
272.6402637705
 30
0.0
 11
806.5322639857
 21
272.8697654948
 31
0.0
  0
LINE
  5
3D2
  8
0
  6
CONTINUOUS
 62
     7
 10
895.1322677051
 20
222.2125050768
 30
0.0
 11
895.1322677051
 21
222.2062346682
 31
0.0
  0
LINE
  5
3D3
  8
0
  6
CONTINUOUS
 62
     7
 10
806.6322626983
 20
273.1710669741
 30
0.0
 11
806.6322626983
 21
272.8697654948
 31
0.0
  0
LINE
  5
3D4
  8
0
  6
CONTINUOUS
 62
     7
 10
894.2322614108
 20
273.1710669741
 30
0.0
 11
894.2322614108
 21
272.8697654948
 31
0.0
  0
LINE
  5
3D5
  8
0
  6
CONTINUOUS
 62
     7
 10
894.2322614108
 20
273.1710669741
 30
0.0
 11
894.2246558582
 21
273.1786725268
 31
0.0
  0
LINE
  5
3D6
  8
0
  6
CONTINUOUS
 62
     7
 10
806.6398742114
 20
273.1786725268
 30
0.0
 11
806.6322626983
 21
273.1710669741
 31
0.0
  0
CIRCLE
  5
3D7
  8
0
  6
CONTINUOUS
 62
     7
 10
788.4322645579
 20
215.6062385783
 30
0.0
 40
1.100000000000023
  0
CIRCLE
  5
3D8
  8
0
  6
CONTINUOUS
 62
     7
 10
788.4322645579
 20
143.6062385783
 30
0.0
 40
1.100000000000023
  0
CIRCLE
  5
3D9
  8
0
  6
CONTINUOUS
 62
     7
 10
688.4322645579
 20
215.6062385783
 30
0.0
 40
1.100000000000023
  0
CIRCLE
  5
3DA
  8
0
  6
CONTINUOUS
 62
     7
 10
688.4322645579
 20
143.6062385783
 30
0.0
 40
1.100000000000023
  0
LINE
  5
3DB
  8
0
  6
CONTINUOUS
 62
     7
 10
794.4322647964
 20
214.2062422976
 30
0.0
 11
792.4322667037
 21
214.2062422976
 31
0.0
  0
LINE
  5
3DC
  8
0
  6
CONTINUOUS
 62
     7
 10
792.4322667037
 20
212.2062442049
 30
0.0
 11
794.4322647964
 21
212.2062442049
 31
0.0
  0
LINE
  5
3DD
  8
0
  6
CONTINUOUS
 62
     7
 10
792.4322667037
 20
149.0062412962
 30
0.0
 11
792.4322667037
 21
212.2062442049
 31
0.0
  0
LINE
  5
3DE
  8
0
  6
CONTINUOUS
 62
     7
 10
794.4322647964
 20
149.0062412962
 30
0.0
 11
792.4322667037
 21
149.0062412962
 31
0.0
  0
LINE
  5
3DF
  8
0
  6
CONTINUOUS
 62
     7
 10
792.4322667037
 20
147.0062372431
 30
0.0
 11
794.4322647964
 21
147.0062372431
 31
0.0
  0
LINE
  5
3E0
  8
0
  6
CONTINUOUS
 62
     7
 10
792.4322667037
 20
142.2062394366
 30
0.0
 11
792.4322667037
 21
147.0062372431
 31
0.0
  0
ARC
  5
3E1
  8
0
  6
CONTINUOUS
 62
     7
 10
790.4322645579
 20
142.2062385783
 30
0.0
 40
2.0
 50
270.0
 51
0.0
  0
LINE
  5
3E2
  8
0
  6
CONTINUOUS
 62
     7
 10
783.132264248
 20
140.2062413439
 30
0.0
 11
790.4322626506
 21
140.2062413439
 31
0.0
  0
LINE
  5
3E3
  8
0
  6
CONTINUOUS
 62
     7
 10
783.132264248
 20
140.2062413439
 30
0.0
 11
783.132264248
 21
138.2062372908
 31
0.0
  0
LINE
  5
3E4
  8
0
  6
CONTINUOUS
 62
     7
 10
783.132264248
 20
138.2062372908
 30
0.0
 11
782.332265607
 21
138.2062372908
 31
0.0
  0
LINE
  5
3E5
  8
0
  6
CONTINUOUS
 62
     7
 10
782.332265607
 20
211.0637900576
 30
0.0
 11
782.332265607
 21
138.2062372908
 31
0.0
  0
LINE
  5
3E6
  8
0
  6
CONTINUOUS
 62
     7
 10
694.5322635089
 20
211.0637900576
 30
0.0
 11
782.332265607
 21
211.0637900576
 31
0.0
  0
LINE
  5
3E7
  8
0
  6
CONTINUOUS
 62
     7
 10
694.5322635089
 20
138.2062372908
 30
0.0
 11
694.5322635089
 21
211.0637900576
 31
0.0
  0
LINE
  5
3E8
  8
0
  6
CONTINUOUS
 62
     7
 10
693.7322648679
 20
138.2062372908
 30
0.0
 11
694.5322635089
 21
138.2062372908
 31
0.0
  0
LINE
  5
3E9
  8
0
  6
CONTINUOUS
 62
     7
 10
693.7322648679
 20
138.2062372908
 30
0.0
 11
693.7322648679
 21
140.2062413439
 31
0.0
  0
LINE
  5
3EA
  8
0
  6
CONTINUOUS
 62
     7
 10
686.4322664653
 20
140.2062413439
 30
0.0
 11
693.7322648679
 21
140.2062413439
 31
0.0
  0
ARC
  5
3EB
  8
0
  6
CONTINUOUS
 62
     7
 10
686.4322645579
 20
142.2062385783
 30
0.0
 40
2.0
 50
180.0
 51
270.0
  0
LINE
  5
3EC
  8
0
  6
CONTINUOUS
 62
     7
 10
684.4322624122
 20
147.0062372431
 30
0.0
 11
684.4322624122
 21
142.2062394366
 31
0.0
  0
LINE
  5
3ED
  8
0
  6
CONTINUOUS
 62
     7
 10
682.4322643195
 20
147.0062372431
 30
0.0
 11
684.4322624122
 21
147.0062372431
 31
0.0
  0
LINE
  5
3EE
  8
0
  6
CONTINUOUS
 62
     7
 10
684.4322624122
 20
149.0062412962
 30
0.0
 11
682.4322643195
 21
149.0062412962
 31
0.0
  0
LINE
  5
3EF
  8
0
  6
CONTINUOUS
 62
     7
 10
684.4322624122
 20
212.2062442049
 30
0.0
 11
684.4322624122
 21
149.0062412962
 31
0.0
  0
LINE
  5
3F0
  8
0
  6
CONTINUOUS
 62
     7
 10
682.4322643195
 20
212.2062442049
 30
0.0
 11
684.4322624122
 21
212.2062442049
 31
0.0
  0
LINE
  5
3F1
  8
0
  6
CONTINUOUS
 62
     7
 10
684.4322624122
 20
214.2062422976
 30
0.0
 11
682.4322643195
 21
214.2062422976
 31
0.0
  0
LINE
  5
3F2
  8
0
  6
CONTINUOUS
 62
     7
 10
684.4322624122
 20
218.2062384829
 30
0.0
 11
684.4322624122
 21
214.2062422976
 31
0.0
  0
ARC
  5
3F3
  8
0
  6
CONTINUOUS
 62
     7
 10
686.4322645579
 20
218.2062385783
 30
0.0
 40
2.0
 50
90.0
 51
180.0
  0
LINE
  5
3F4
  8
0
  6
CONTINUOUS
 62
     7
 10
693.7322648679
 20
220.2062365755
 30
0.0
 11
686.4322664653
 21
220.2062365755
 31
0.0
  0
LINE
  5
3F5
  8
0
  6
CONTINUOUS
 62
     7
 10
693.7322648679
 20
220.2062365755
 30
0.0
 11
693.7322648679
 21
222.2062346682
 31
0.0
  0
LINE
  5
3F6
  8
0
  6
CONTINUOUS
 62
     7
 10
693.7322648679
 20
222.2062346682
 30
0.0
 11
694.5322635089
 21
222.2062346682
 31
0.0
  0
LINE
  5
3F7
  8
0
  6
CONTINUOUS
 62
     7
 10
694.5322635089
 20
222.2062346682
 30
0.0
 11
694.5322635089
 21
272.6402637705
 31
0.0
  0
LINE
  5
3F8
  8
0
  6
CONTINUOUS
 62
     7
 10
694.5322635089
 20
272.6402637705
 30
0.0
 11
782.332265607
 21
272.6402637705
 31
0.0
  0
LINE
  5
3F9
  8
0
  6
CONTINUOUS
 62
     7
 10
782.332265607
 20
222.2062346682
 30
0.0
 11
782.332265607
 21
272.6402637705
 31
0.0
  0
LINE
  5
3FA
  8
0
  6
CONTINUOUS
 62
     7
 10
783.132264248
 20
222.2062346682
 30
0.0
 11
782.332265607
 21
222.2062346682
 31
0.0
  0
LINE
  5
3FB
  8
0
  6
CONTINUOUS
 62
     7
 10
783.132264248
 20
222.2062346682
 30
0.0
 11
783.132264248
 21
220.2062365755
 31
0.0
  0
LINE
  5
3FC
  8
0
  6
CONTINUOUS
 62
     7
 10
790.4322626506
 20
220.2062365755
 30
0.0
 11
783.132264248
 21
220.2062365755
 31
0.0
  0
ARC
  5
3FD
  8
0
  6
CONTINUOUS
 62
     7
 10
790.4322645579
 20
218.2062385783
 30
0.0
 40
2.0
 50
0.0
 51
90.0
  0
LINE
  5
3FE
  8
0
  6
CONTINUOUS
 62
     7
 10
792.4322667037
 20
214.2062422976
 30
0.0
 11
792.4322667037
 21
218.2062384829
 31
0.0
  0
LINE
  5
3FF
  8
0
  6
CONTINUOUS
 62
     7
 10
694.5322635089
 20
158.6062369093
 30
0.0
 11
782.332265607
 21
158.6062369093
 31
0.0
  0
LINE
  5
400
  8
0
  6
CONTINUOUS
 62
     7
 10
693.7322648679
 20
222.2062346682
 30
0.0
 11
693.7322648679
 21
222.9452607378
 31
0.0
  0
LINE
  5
401
  8
0
  6
CONTINUOUS
 62
     7
 10
694.5322635089
 20
272.8697654948
 30
0.0
 11
782.332265607
 21
272.8697654948
 31
0.0
  0
LINE
  5
402
  8
0
  6
CONTINUOUS
 62
     7
 10
782.332265607
 20
272.6402637705
 30
0.0
 11
782.332265607
 21
272.8697654948
 31
0.0
  0
LINE
  5
403
  8
0
  6
CONTINUOUS
 62
     7
 10
694.5322635089
 20
272.6402637705
 30
0.0
 11
694.5322635089
 21
272.8697654948
 31
0.0
  0
LINE
  5
404
  8
0
  6
CONTINUOUS
 62
     7
 10
783.132264248
 20
223.9882704958
 30
0.0
 11
783.132264248
 21
222.2062346682
 31
0.0
  0
LINE
  5
405
  8
0
  6
CONTINUOUS
 62
     7
 10
694.6322652017
 20
273.1710669741
 30
0.0
 11
694.6322652017
 21
272.8697654948
 31
0.0
  0
LINE
  5
406
  8
0
  6
CONTINUOUS
 62
     7
 10
782.2322639142
 20
273.1710669741
 30
0.0
 11
782.2322639142
 21
272.8697654948
 31
0.0
  0
LINE
  5
407
  8
0
  6
CONTINUOUS
 62
     7
 10
694.6398737346
 20
273.1786725268
 30
0.0
 11
694.6322652017
 21
273.1710669741
 31
0.0
  0
LINE
  5
408
  8
0
  6
CONTINUOUS
 62
     7
 10
782.2322639142
 20
273.1710669741
 30
0.0
 11
782.2246553813
 21
273.1786725268
 31
0.0
  0
LINE
  5
409
  8
0
  6
CONTINUOUS
 62
     7
 10
783.132264248
 20
223.9913103327
 30
0.0
 11
783.132264248
 21
223.9882704958
 31
0.0
  0
ENDSEC
  0
EOF
