  0
SECTION
  2
HEADER
  9
$ACADVER
  1
AC1009
  9
$DWGCODEPAGE
  3
ansi_1252
  9
$INSBASE
 10
0.0
 20
0.0
 30
0.0
  9
$EXTMIN
 10
0.0
 20
0.0
 30
0.0
  9
$EXTMAX
 10
420.0
 20
297.0
 30
0.0
  9
$LIMMIN
 10
0.0
 20
0.0
  9
$LIMMAX
 10
420.0
 20
297.0
  9
$ORTHOMODE
 70
     0
  9
$REGENMODE
 70
     1
  9
$FILLMODE
 70
     1
  9
$QTEXTMODE
 70
     0
  9
$MIRRTEXT
 70
     1
  9
$DRAGMODE
 70
     2
  9
$LTSCALE
 40
1.0
  9
$OSMODE
 70
    37
  9
$ATTMODE
 70
     1
  9
$TEXTSIZE
 40
3.5
  9
$TRACEWID
 40
1.0
  9
$TEXTSTYLE
  7
STANDARD
  9
$CLAYER
  8
0
  9
$CELTYPE
  6
BYLAYER
  9
$CECOLOR
 62
   256
  9
$DIMSCALE
 40
1.0
  9
$DIMASZ
 40
4.0
  9
$DIMEXO
 40
0.0
  9
$DIMDLI
 40
3.75
  9
$DIMRND
 40
0.0
  9
$DIMDLE
 40
0.0
  9
$DIMEXE
 40
2.0
  9
$DIMTP
 40
0.0
  9
$DIMTM
 40
0.0
  9
$DIMTXT
 40
3.5
  9
$DIMCEN
 40
2.5
  9
$DIMTSZ
 40
0.0
  9
$DIMTOL
 70
     0
  9
$DIMLIM
 70
     0
  9
$DIMTIH
 70
     1
  9
$DIMTOH
 70
     1
  9
$DIMSE1
 70
     0
  9
$DIMSE2
 70
     0
  9
$DIMTAD
 70
     1
  9
$DIMZIN
 70
     0
  9
$DIMBLK
  1

  9
$DIMASO
 70
     1
  9
$DIMSHO
 70
     1
  9
$DIMPOST
  1

  9
$DIMAPOST
  1

  9
$DIMALT
 70
     0
  9
$DIMALTD
 70
     3
  9
$DIMALTF
 40
0.0393700787
  9
$DIMLFAC
 40
5.0
  9
$DIMTOFL
 70
     1
  9
$DIMTVP
 40
0.0
  9
$DIMTIX
 70
     0
  9
$DIMSOXD
 70
     0
  9
$DIMSAH
 70
     0
  9
$DIMBLK1
  1

  9
$DIMBLK2
  1

  9
$DIMSTYLE
  2
ISO-25
  9
$DIMCLRD
 70
     0
  9
$DIMCLRE
 70
     0
  9
$DIMCLRT
 70
     0
  9
$DIMTFAC
 40
1.0
  9
$DIMGAP
 40
1.524
  9
$LUNITS
 70
     2
  9
$LUPREC
 70
     2
  9
$SKETCHINC
 40
1.0
  9
$FILLETRAD
 40
10.0
  9
$AUNITS
 70
     0
  9
$AUPREC
 70
     2
  9
$MENU
  1
.
  9
$ELEVATION
 40
0.0
  9
$PELEVATION
 40
0.0
  9
$THICKNESS
 40
0.0
  9
$LIMCHECK
 70
     0
  9
$CHAMFERA
 40
10.0
  9
$CHAMFERB
 40
10.0
  9
$SKPOLY
 70
     0
  9
$TDCREATE
 40
2457801.386445717
  9
$TDUPDATE
 40
2457801.386445914
  9
$TDINDWG
 40
0.0000000116
  9
$TDUSRTIMER
 40
0.0000000116
  9
$USRTIMER
 70
     1
  9
$ANGBASE
 50
0.0
  9
$ANGDIR
 70
     0
  9
$PDMODE
 70
     0
  9
$PDSIZE
 40
-1.0
  9
$PLINEWID
 40
0.0
  9
$COORDS
 70
     1
  9
$SPLFRAME
 70
     0
  9
$SPLINETYPE
 70
     6
  9
$SPLINESEGS
 70
     8
  9
$ATTDIA
 70
     0
  9
$ATTREQ
 70
     1
  9
$HANDLING
 70
     1
  9
$HANDSEED
  5
1AC
  9
$SURFTAB1
 70
     6
  9
$SURFTAB2
 70
     6
  9
$SURFTYPE
 70
     6
  9
$SURFU
 70
     6
  9
$SURFV
 70
     6
  9
$UCSNAME
  2

  9
$UCSORG
 10
0.0
 20
0.0
 30
0.0
  9
$UCSXDIR
 10
1.0
 20
0.0
 30
0.0
  9
$UCSYDIR
 10
0.0
 20
1.0
 30
0.0
  9
$PUCSNAME
  2

  9
$PUCSORG
 10
0.0
 20
0.0
 30
0.0
  9
$PUCSXDIR
 10
1.0
 20
0.0
 30
0.0
  9
$PUCSYDIR
 10
0.0
 20
1.0
 30
0.0
  9
$USERI1
 70
     0
  9
$USERI2
 70
     0
  9
$USERI3
 70
     0
  9
$USERI4
 70
     0
  9
$USERI5
 70
     0
  9
$USERR1
 40
0.0
  9
$USERR2
 40
0.0
  9
$USERR3
 40
0.0
  9
$USERR4
 40
0.0
  9
$USERR5
 40
0.0
  9
$WORLDVIEW
 70
     1
  9
$SHADEDGE
 70
     3
  9
$SHADEDIF
 70
    70
  9
$TILEMODE
 70
     1
  9
$MAXACTVP
 70
    64
  9
$PLIMCHECK
 70
     0
  9
$PEXTMIN
 10
1.0000000000E+20
 20
1.0000000000E+20
 30
1.0000000000E+20
  9
$PEXTMAX
 10
-1.0000000000E+20
 20
-1.0000000000E+20
 30
-1.0000000000E+20
  9
$PLIMMIN
 10
0.0
 20
0.0
  9
$PLIMMAX
 10
420.0
 20
297.0
  9
$UNITMODE
 70
     0
  9
$VISRETAIN
 70
     1
  9
$PLINEGEN
 70
     0
  9
$PSLTSCALE
 70
     1
  0
ENDSEC
  0
SECTION
  2
TABLES
  0
TABLE
  2
VPORT
 70
     1
  0
VPORT
  2
*ACTIVE
 70
     0
 10
0.0
 20
0.0
 11
1.0
 21
1.0
 12
210.0
 22
148.5
 13
0.0
 23
0.0
 14
10.0
 24
10.0
 15
10.0
 25
10.0
 16
0.0
 26
0.0
 36
1.0
 17
0.0
 27
0.0
 37
0.0
 40
297.0
 41
1.4141414141
 42
50.0
 43
0.0
 44
0.0
 50
0.0
 51
0.0
 71
     0
 72
  2000
 73
     1
 74
     3
 75
     0
 76
     0
 77
     0
 78
     0
  0
ENDTAB
  0
TABLE
  2
LTYPE
 70
     6
  0
LTYPE
  2
CONTINUOUS
 70
     0
  3
Solid line
 72
    65
 73
     0
 40
0.0
  0
LTYPE
  2
HIDDEN
 70
     0
  3
Hidden __ __ __ __ __ __ __ __ __ __ __ __ __ __
 72
    65
 73
     2
 40
1.905
 49
1.27
 49
-0.635
  0
LTYPE
  2
PHANTOM
 70
     0
  3
Phantom ______  __  __  ______  __  __  ______
 72
    65
 73
     6
 40
12.7
 49
6.35
 49
-1.27
 49
1.27
 49
-1.27
 49
1.27
 49
-1.27
  0
LTYPE
  2
CENTER
 70
     0
  3
Center ____ _ ____ _ ____ _ ____ _ ____ _ ____
 72
    65
 73
     4
 40
10.16
 49
6.35
 49
-1.27
 49
1.27
 49
-1.27
  0
LTYPE
  2
CENTERX2
 70
     0
  3
Center (2x) ________  __  ________  __  _____
 72
    65
 73
     4
 40
20.32
 49
12.7
 49
-2.54
 49
2.54
 49
-2.54
  0
LTYPE
  2
DOT2
 70
     0
  3
Dot (.5x) ........................................
 72
    65
 73
     2
 40
0.635
 49
0.0
 49
-0.635
  0
ENDTAB
  0
TABLE
  2
LAYER
 70
     2
  0
LAYER
  2
0
 70
     0
 62
     7
  6
CONTINUOUS
  0
LAYER
  2
FORMAT
 70
     0
 62
     7
  6
CONTINUOUS
  0
ENDTAB
  0
TABLE
  2
STYLE
 70
     1
  0
STYLE
  2
STANDARD
 70
     0
 40
0.0
 41
1.0
 50
0.0
 71
     0
 42
3.5
  3
txt
  4

  0
ENDTAB
  0
TABLE
  2
VIEW
 70
     0
  0
ENDTAB
  0
TABLE
  2
UCS
 70
     0
  0
ENDTAB
  0
TABLE
  2
APPID
 70
     1
  0
APPID
  2
ACAD
 70
     0
  0
ENDTAB
  0
TABLE
  2
DIMSTYLE
 70
     1
  0
DIMSTYLE
  2
ISO-25
 70
     0
  3

  4

  5

  6

  7

 40
1.0
 41
2.5
 42
0.625
 43
3.75
 44
1.25
 45
0.0
 46
0.0
 47
0.0
 48
0.0
140
2.5
141
2.5
142
0.0
143
0.0393700787
144
1.0
145
0.0
146
1.0
147
0.625
 71
     0
 72
     0
 73
     0
 74
     0
 75
     0
 76
     0
 77
     1
 78
     8
170
     0
171
     3
172
     1
173
     0
174
     0
175
     0
176
     0
177
     0
178
     0
  0
ENDTAB
  0
ENDSEC
  0
SECTION
  2
BLOCKS
  0
BLOCK
  8
0
  2
$MODEL_SPACE
 70
     0
 10
0.0
 20
0.0
 30
0.0
  3
$MODEL_SPACE
  1

  0
ENDBLK
  5
21
  8
0
  0
BLOCK
 67
     1
  8
0
  2
$PAPER_SPACE
 70
     0
 10
0.0
 20
0.0
 30
0.0
  3
$PAPER_SPACE
  1

  0
ENDBLK
  5
1D
 67
     1
  8
0
  0
ENDSEC
  0
SECTION
  2
ENTITIES
  0
LINE
  5
45
  8
0
  6
CONTINUOUS
 62
     7
 10
414.85
 20
5.15
 30
0.0
 11
5.15
 21
5.15
 31
0.0
  0
LINE
  5
46
  8
0
  6
CONTINUOUS
 62
     7
 10
415.0
 20
5.0
 30
0.0
 11
415.0
 21
277.0
 31
0.0
  0
LINE
  5
47
  8
0
  6
CONTINUOUS
 62
     7
 10
415.0
 20
277.0
 30
0.0
 11
5.0
 21
277.0
 31
0.0
  0
LINE
  5
48
  8
0
  6
CONTINUOUS
 62
     7
 10
5.15
 20
276.85
 30
0.0
 11
5.15
 21
5.15
 31
0.0
  0
ARC
  5
49
  8
0
  6
CONTINUOUS
 62
     7
 10
119.476361718
 20
221.6857051062
 30
0.0
 40
0.4000000000000057
 50
90.0
 51
180.0
  0
ARC
  5
4A
  8
0
  6
CONTINUOUS
 62
     7
 10
130.376361718
 20
221.6857051062
 30
0.0
 40
0.4000000000000057
 50
0.0
 51
90.0
  0
LINE
  5
4B
  8
0
  6
CONTINUOUS
 62
     7
 10
130.376361718
 20
222.0857051062
 30
0.0
 11
119.476361718
 21
222.0857051062
 31
0.0
  0
ARC
  5
4C
  8
0
  6
CONTINUOUS
 62
     7
 10
29.276361718
 20
221.6857051062
 30
0.0
 40
0.3999999999999986
 50
0.0
 51
90.0
  0
ARC
  5
4D
  8
0
  6
CONTINUOUS
 62
     7
 10
18.376361718
 20
221.6857051062
 30
0.0
 40
0.3999999999999986
 50
90.0
 51
180.0
  0
LINE
  5
4E
  8
0
  6
CONTINUOUS
 62
     7
 10
29.276361718
 20
222.0857051062
 30
0.0
 11
18.376361718
 21
222.0857051062
 31
0.0
  0
LINE
  5
4F
  8
0
  6
CONTINUOUS
 62
     7
 10
117.176361718
 20
150.2895685428
 30
0.0
 11
118.176361718
 21
150.2895685428
 31
0.0
  0
LINE
  5
50
  8
0
  6
CONTINUOUS
 62
     7
 10
118.176361718
 20
155.0895685428
 30
0.0
 11
117.176361718
 21
155.0895685428
 31
0.0
  0
LINE
  5
51
  8
0
  6
CONTINUOUS
 62
     7
 10
30.576361718
 20
150.2895685428
 30
0.0
 11
31.576361718
 21
150.2895685428
 31
0.0
  0
LINE
  5
52
  8
0
  6
CONTINUOUS
 62
     7
 10
31.576361718
 20
155.0895685428
 30
0.0
 11
30.576361718
 21
155.0895685428
 31
0.0
  0
LINE
  5
53
  8
0
  6
CONTINUOUS
 62
     7
 10
118.276361718
 20
153.8895685428
 30
0.0
 11
118.176361718
 21
153.8895685428
 31
0.0
  0
LINE
  5
54
  8
0
  6
CONTINUOUS
 62
     7
 10
30.576361718
 20
153.8895685428
 30
0.0
 11
30.476361718
 21
153.8895685428
 31
0.0
  0
LINE
  5
55
  8
0
  6
CONTINUOUS
 62
     7
 10
30.476361718
 20
151.4895685428
 30
0.0
 11
30.576361718
 21
151.4895685428
 31
0.0
  0
LINE
  5
56
  8
0
  6
CONTINUOUS
 62
     7
 10
118.176361718
 20
151.4895685428
 30
0.0
 11
118.276361718
 21
151.4895685428
 31
0.0
  0
LINE
  5
57
  8
0
  6
CONTINUOUS
 62
     7
 10
30.476361718
 20
221.2746434377
 30
0.0
 11
29.676361718
 21
221.2746434377
 31
0.0
  0
LINE
  5
58
  8
0
  6
CONTINUOUS
 62
     7
 10
119.076361718
 20
221.2746434377
 30
0.0
 11
118.276361718
 21
221.2746434377
 31
0.0
  0
LINE
  5
59
  8
0
  6
CONTINUOUS
 62
     7
 10
118.1687511142
 20
270.4620079646
 30
0.0
 11
30.5839723218
 21
270.4620079646
 31
0.0
  0
ARC
  5
5A
  8
0
  6
CONTINUOUS
 62
     7
 10
119.476361718
 20
135.2895685428
 30
0.0
 40
0.4000000000000057
 50
180.0
 51
270.0
  0
LINE
  5
5B
  8
0
  6
CONTINUOUS
 62
     7
 10
130.376361718
 20
134.8895685428
 30
0.0
 11
119.476361718
 21
134.8895685428
 31
0.0
  0
ARC
  5
5C
  8
0
  6
CONTINUOUS
 62
     7
 10
130.376361718
 20
135.2895685428
 30
0.0
 40
0.4000000000000057
 50
270.0
 51
0.0
  0
LINE
  5
5D
  8
0
  6
CONTINUOUS
 62
     7
 10
119.076361718
 20
135.2895685428
 30
0.0
 11
119.076361718
 21
217.9244531999
 31
0.0
  0
LINE
  5
5E
  8
0
  6
CONTINUOUS
 62
     7
 10
130.776361718
 20
217.9244531999
 30
0.0
 11
130.776361718
 21
135.2895685428
 31
0.0
  0
LINE
  5
5F
  8
0
  6
CONTINUOUS
 62
     7
 10
130.776361718
 20
221.6857051062
 30
0.0
 11
130.776361718
 21
217.9244531999
 31
0.0
  0
LINE
  5
60
  8
0
  6
CONTINUOUS
 62
     7
 10
119.076361718
 20
217.9244531999
 30
0.0
 11
119.076361718
 21
221.6857051062
 31
0.0
  0
LINE
  5
61
  8
0
  6
CONTINUOUS
 62
     7
 10
29.276361718
 20
134.8895685428
 30
0.0
 11
18.376361718
 21
134.8895685428
 31
0.0
  0
ARC
  5
62
  8
0
  6
CONTINUOUS
 62
     7
 10
18.376361718
 20
135.2895685428
 30
0.0
 40
0.3999999999999986
 50
180.0
 51
270.0
  0
ARC
  5
63
  8
0
  6
CONTINUOUS
 62
     7
 10
29.276361718
 20
135.2895685428
 30
0.0
 40
0.3999999999999986
 50
270.0
 51
0.0
  0
LINE
  5
64
  8
0
  6
CONTINUOUS
 62
     7
 10
29.676361718
 20
217.9244531999
 30
0.0
 11
29.676361718
 21
135.2895685428
 31
0.0
  0
LINE
  5
65
  8
0
  6
CONTINUOUS
 62
     7
 10
17.976361718
 20
135.2895685428
 30
0.0
 11
17.976361718
 21
217.9244531999
 31
0.0
  0
LINE
  5
66
  8
0
  6
CONTINUOUS
 62
     7
 10
17.976361718
 20
217.9244531999
 30
0.0
 11
17.976361718
 21
221.6857051062
 31
0.0
  0
LINE
  5
67
  8
0
  6
CONTINUOUS
 62
     7
 10
29.676361718
 20
221.6857051062
 30
0.0
 11
29.676361718
 21
217.9244531999
 31
0.0
  0
LINE
  5
68
  8
0
  6
CONTINUOUS
 62
     7
 10
117.176361718
 20
156.2895685428
 30
0.0
 11
117.176361718
 21
156.1895685428
 31
0.0
  0
LINE
  5
69
  8
0
  6
CONTINUOUS
 62
     7
 10
117.276361718
 20
156.2895685428
 30
0.0
 11
116.776361718
 21
156.2895685428
 31
0.0
  0
LINE
  5
6A
  8
0
  6
CONTINUOUS
 62
     7
 10
31.476361718
 20
160.4895685428
 30
0.0
 11
31.476361718
 21
156.2895685428
 31
0.0
  0
LINE
  5
6B
  8
0
  6
CONTINUOUS
 62
     7
 10
117.276361718
 20
160.4895685428
 30
0.0
 11
117.276361718
 21
156.2895685428
 31
0.0
  0
LINE
  5
6C
  8
0
  6
CONTINUOUS
 62
     7
 10
31.976361718
 20
156.2895685428
 30
0.0
 11
31.476361718
 21
156.2895685428
 31
0.0
  0
LINE
  5
6D
  8
0
  6
CONTINUOUS
 62
     7
 10
33.876361718
 20
162.8895685428
 30
0.0
 11
114.876361718
 21
162.8895685428
 31
0.0
  0
ARC
  5
6E
  8
0
  6
CONTINUOUS
 62
     7
 10
114.876361718
 20
160.4895685428
 30
0.0
 40
2.400000000000006
 50
0.0
 51
90.0
  0
ARC
  5
6F
  8
0
  6
CONTINUOUS
 62
     7
 10
33.876361718
 20
160.4895685428
 30
0.0
 40
2.399999999999995
 50
90.0
 51
180.0
  0
LINE
  5
70
  8
0
  6
CONTINUOUS
 62
     7
 10
31.576361718
 20
156.1895685428
 30
0.0
 11
31.576361718
 21
156.2895685428
 31
0.0
  0
LINE
  5
71
  8
0
  6
CONTINUOUS
 62
     7
 10
31.576361718
 20
148.6895685428
 30
0.0
 11
31.576361718
 21
156.1895685428
 31
0.0
  0
LINE
  5
72
  8
0
  6
CONTINUOUS
 62
     7
 10
117.176361718
 20
156.1895685428
 30
0.0
 11
117.176361718
 21
148.6895685428
 31
0.0
  0
LINE
  5
73
  8
0
  6
CONTINUOUS
 62
     7
 10
116.776361718
 20
148.2895685428
 30
0.0
 11
31.976361718
 21
148.2895685428
 31
0.0
  0
ARC
  5
74
  8
0
  6
CONTINUOUS
 62
     7
 10
116.776361718
 20
148.6895685428
 30
0.0
 40
0.4000000000000057
 50
270.0
 51
0.0
  0
ARC
  5
75
  8
0
  6
CONTINUOUS
 62
     7
 10
31.976361718
 20
148.6895685428
 30
0.0
 40
0.4000000000000057
 50
180.0
 51
270.0
  0
LINE
  5
76
  8
0
  6
CONTINUOUS
 62
     7
 10
118.176361718
 20
155.0895685428
 30
0.0
 11
118.176361718
 21
150.2895685428
 31
0.0
  0
LINE
  5
77
  8
0
  6
CONTINUOUS
 62
     7
 10
30.576361718
 20
155.0895685428
 30
0.0
 11
30.576361718
 21
150.2895685428
 31
0.0
  0
LINE
  5
78
  8
0
  6
CONTINUOUS
 62
     7
 10
30.476361718
 20
136.359293137
 30
0.0
 11
30.476361718
 21
135.4895685428
 31
0.0
  0
LINE
  5
79
  8
0
  6
CONTINUOUS
 62
     7
 10
30.476361718
 20
135.4895685428
 30
0.0
 11
29.676361718
 21
135.4895685428
 31
0.0
  0
LINE
  5
7A
  8
0
  6
CONTINUOUS
 62
     7
 10
119.076361718
 20
135.4895685428
 30
0.0
 11
118.276361718
 21
135.4895685428
 31
0.0
  0
LINE
  5
7B
  8
0
  6
CONTINUOUS
 62
     7
 10
118.276361718
 20
135.4895685428
 30
0.0
 11
118.276361718
 21
136.359293137
 31
0.0
  0
LINE
  5
7C
  8
0
  6
CONTINUOUS
 62
     7
 10
30.476361718
 20
136.359293137
 30
0.0
 11
30.476361718
 21
217.3151279835
 31
0.0
  0
LINE
  5
7D
  8
0
  6
CONTINUOUS
 62
     7
 10
118.276361718
 20
217.3151279835
 30
0.0
 11
118.276361718
 21
136.359293137
 31
0.0
  0
LINE
  5
7E
  8
0
  6
CONTINUOUS
 62
     7
 10
30.476361718
 20
217.9704496189
 30
0.0
 11
30.476361718
 21
217.3151279835
 31
0.0
  0
LINE
  5
7F
  8
0
  6
CONTINUOUS
 62
     7
 10
118.276361718
 20
217.3151279835
 30
0.0
 11
118.276361718
 21
217.9704496189
 31
0.0
  0
LINE
  5
80
  8
0
  6
CONTINUOUS
 62
     7
 10
30.476361718
 20
217.9704496189
 30
0.0
 11
30.476361718
 21
221.1996896674
 31
0.0
  0
LINE
  5
81
  8
0
  6
CONTINUOUS
 62
     7
 10
118.276361718
 20
221.1996896674
 30
0.0
 11
118.276361718
 21
217.9704496189
 31
0.0
  0
LINE
  5
82
  8
0
  6
CONTINUOUS
 62
     7
 10
30.476361718
 20
221.2746434377
 30
0.0
 11
30.476361718
 21
221.1996896674
 31
0.0
  0
LINE
  5
83
  8
0
  6
CONTINUOUS
 62
     7
 10
118.276361718
 20
221.1996896674
 30
0.0
 11
118.276361718
 21
221.2746434377
 31
0.0
  0
LINE
  5
84
  8
0
  6
CONTINUOUS
 62
     7
 10
30.576361718
 20
157.8843964764
 30
0.0
 11
30.576361718
 21
270.4543973608
 31
0.0
  0
POLYLINE
  5
85
  8
0
  6
CONTINUOUS
 62
     7
 66
     1
 10
0.0
 20
0.0
 30
0.0
  0
VERTEX
  5
196
  8
0
  6
CONTINUOUS
 62
     7
 10
30.576361718
 20
270.4543973608
 30
0.0
  0
VERTEX
  5
197
  8
0
  6
CONTINUOUS
 62
     7
 10
30.606746212
 20
270.4543973608
 30
0.0
  0
VERTEX
  5
198
  8
0
  6
CONTINUOUS
 62
     7
 10
30.6969764765
 20
270.3938596172
 30
0.0
  0
VERTEX
  5
199
  8
0
  6
CONTINUOUS
 62
     7
 10
30.8443109105
 20
270.2746235387
 30
0.0
  0
VERTEX
  5
19A
  8
0
  6
CONTINUOUS
 62
     7
 10
31.0442728318
 20
270.1003120532
 30
0.0
  0
VERTEX
  5
19B
  8
0
  6
CONTINUOUS
 62
     7
 10
31.2907864986
 20
269.876221527
 30
0.0
  0
VERTEX
  5
19C
  8
0
  6
CONTINUOUS
 62
     7
 10
31.576361718
 20
269.6091608373
 30
0.0
  0
VERTEX
  5
19D
  8
0
  6
CONTINUOUS
 62
     7
 10
31.8923214314
 20
269.3072444881
 30
0.0
  0
VERTEX
  5
19E
  8
0
  6
CONTINUOUS
 62
     7
 10
32.2290653627
 20
268.9796460548
 30
0.0
  0
VERTEX
  5
19F
  8
0
  6
CONTINUOUS
 62
     7
 10
32.576361718
 20
268.6363194501
 30
0.0
  0
SEQEND
  5
1AB
  8
0
  6
CONTINUOUS
 62
     7
  0
ARC
  5
86
  8
0
  6
CONTINUOUS
 62
     7
 10
36.7105153
 20
153.4966614236
 30
0.0
 40
7.541886969531613
 50
133.9484702259
 51
144.4240140824
  0
POLYLINE
  5
87
  8
0
  6
CONTINUOUS
 62
     7
 66
     1
 10
0.0
 20
0.0
 30
0.0
  0
VERTEX
  5
1A0
  8
0
  6
CONTINUOUS
 62
     7
 10
116.176361718
 20
268.6363194501
 30
0.0
  0
VERTEX
  5
1A1
  8
0
  6
CONTINUOUS
 62
     7
 10
116.5236580734
 20
268.9796460548
 30
0.0
  0
VERTEX
  5
1A2
  8
0
  6
CONTINUOUS
 62
     7
 10
116.8604020047
 20
269.3072444881
 30
0.0
  0
VERTEX
  5
1A3
  8
0
  6
CONTINUOUS
 62
     7
 10
117.176361718
 20
269.6091608373
 30
0.0
  0
VERTEX
  5
1A4
  8
0
  6
CONTINUOUS
 62
     7
 10
117.4619369374
 20
269.876221527
 30
0.0
  0
VERTEX
  5
1A5
  8
0
  6
CONTINUOUS
 62
     7
 10
117.7084506043
 20
270.1003120532
 30
0.0
  0
VERTEX
  5
1A6
  8
0
  6
CONTINUOUS
 62
     7
 10
117.9084125256
 20
270.2746235387
 30
0.0
  0
VERTEX
  5
1A7
  8
0
  6
CONTINUOUS
 62
     7
 10
118.0557469596
 20
270.3938596172
 30
0.0
  0
VERTEX
  5
1A8
  8
0
  6
CONTINUOUS
 62
     7
 10
118.145977224
 20
270.4543973608
 30
0.0
  0
VERTEX
  5
1A9
  8
0
  6
CONTINUOUS
 62
     7
 10
118.176361718
 20
270.4543973608
 30
0.0
  0
SEQEND
  5
1AA
  8
0
  6
CONTINUOUS
 62
     7
  0
LINE
  5
88
  8
0
  6
CONTINUOUS
 62
     7
 10
118.176361718
 20
270.4543973608
 30
0.0
 11
118.176361718
 21
157.8843964764
 31
0.0
  0
ARC
  5
89
  8
0
  6
CONTINUOUS
 62
     7
 10
112.042208136
 20
153.4966614236
 30
0.0
 40
7.541886969532523
 50
35.5759859176
 51
46.0515297741
  0
LINE
  5
8A
  8
0
  6
CONTINUOUS
 62
     7
 10
30.576361718
 20
157.4834800598
 30
0.0
 11
31.476361718
 21
157.4834800598
 31
0.0
  0
LINE
  5
8B
  8
0
  6
CONTINUOUS
 62
     7
 10
117.276361718
 20
157.4834800598
 30
0.0
 11
118.176361718
 21
157.4834800598
 31
0.0
  0
LINE
  5
8C
  8
0
  6
CONTINUOUS
 62
     7
 10
118.176361718
 20
157.8843964764
 30
0.0
 11
118.176361718
 21
157.4834800598
 31
0.0
  0
LINE
  5
8D
  8
0
  6
CONTINUOUS
 62
     7
 10
30.576361718
 20
157.8843964764
 30
0.0
 11
30.576361718
 21
157.4834800598
 31
0.0
  0
LINE
  5
8E
  8
0
  6
CONTINUOUS
 62
     7
 10
30.476361718
 20
270.1531004139
 30
0.0
 11
30.476361718
 21
221.2746434377
 31
0.0
  0
LINE
  5
8F
  8
0
  6
CONTINUOUS
 62
     7
 10
118.276361718
 20
270.1531004139
 30
0.0
 11
118.176361718
 21
270.1531004139
 31
0.0
  0
LINE
  5
90
  8
0
  6
CONTINUOUS
 62
     7
 10
30.576361718
 20
270.1531004139
 30
0.0
 11
30.476361718
 21
270.1531004139
 31
0.0
  0
LINE
  5
91
  8
0
  6
CONTINUOUS
 62
     7
 10
118.276361718
 20
270.1531004139
 30
0.0
 11
118.276361718
 21
221.2746434377
 31
0.0
  0
LINE
  5
92
  8
0
  6
CONTINUOUS
 62
     7
 10
31.576361718
 20
155.8895685428
 30
0.0
 11
30.476361718
 21
155.8895685428
 31
0.0
  0
LINE
  5
93
  8
0
  6
CONTINUOUS
 62
     7
 10
118.276361718
 20
155.8895685428
 30
0.0
 11
117.176361718
 21
155.8895685428
 31
0.0
  0
LINE
  5
94
  8
0
  6
CONTINUOUS
 62
     7
 10
187.4777301163
 20
219.9131996355
 30
0.0
 11
187.4777301163
 21
135.2895685428
 31
0.0
  0
LINE
  5
95
  8
0
  6
CONTINUOUS
 62
     7
 10
187.4777301163
 20
220.2609330275
 30
0.0
 11
187.4824007785
 21
220.2613416575
 31
0.0
  0
LINE
  5
96
  8
0
  6
CONTINUOUS
 62
     7
 10
187.4824007785
 20
220.2613416575
 30
0.0
 11
187.4777301163
 21
220.3147275705
 31
0.0
  0
LINE
  5
97
  8
0
  6
CONTINUOUS
 62
     7
 10
187.4777301163
 20
220.3147275705
 30
0.0
 11
207.7026980566
 21
222.0841829855
 31
0.0
  0
LINE
  5
98
  8
0
  6
CONTINUOUS
 62
     7
 10
187.4777301163
 20
219.9131996355
 30
0.0
 11
187.4777301163
 21
220.2609330275
 31
0.0
  0
LINE
  5
99
  8
0
  6
CONTINUOUS
 62
     7
 10
223.0332067159
 20
134.8895685428
 30
0.0
 11
187.4777301163
 21
134.8895685428
 31
0.0
  0
LINE
  5
9A
  8
0
  6
CONTINUOUS
 62
     7
 10
187.4777301163
 20
134.8895685428
 30
0.0
 11
187.4777301163
 21
135.2895685428
 31
0.0
  0
ARC
  5
9B
  8
0
  6
CONTINUOUS
 62
     7
 10
207.7375603537
 20
221.6857051062
 30
0.0
 40
0.3999999999999794
 50
65.0
 51
95.0
  0
LINE
  5
9C
  8
0
  6
CONTINUOUS
 62
     7
 10
207.9066076584
 20
222.048228221
 30
0.0
 11
215.9726384013
 21
218.2869763147
 31
0.0
  0
LINE
  5
9D
  8
0
  6
CONTINUOUS
 62
     7
 10
216.2020689758
 20
217.959315497
 30
0.0
 11
223.4316845951
 21
135.3244308399
 31
0.0
  0
ARC
  5
9E
  8
0
  6
CONTINUOUS
 62
     7
 10
215.8035910966
 20
217.9244531999
 30
0.0
 40
0.4000000000000277
 50
5.0
 51
65.0
  0
ARC
  5
9F
  8
0
  6
CONTINUOUS
 62
     7
 10
223.0332067159
 20
135.2895685428
 30
0.0
 40
0.3999999999999844
 50
270.0
 51
5.0
  0
LINE
  5
A0
  8
0
  6
CONTINUOUS
 62
     7
 10
287.0777301163
 20
156.2895685428
 30
0.0
 11
221.5974727168
 21
156.2895685428
 31
0.0
  0
LINE
  5
A1
  8
0
  6
CONTINUOUS
 62
     7
 10
287.0777301163
 20
160.4895685428
 30
0.0
 11
287.0777301163
 21
156.2895685428
 31
0.0
  0
LINE
  5
A2
  8
0
  6
CONTINUOUS
 62
     7
 10
221.0200475376
 20
162.8895685428
 30
0.0
 11
284.6777301163
 21
162.8895685428
 31
0.0
  0
ARC
  5
A3
  8
0
  6
CONTINUOUS
 62
     7
 10
284.6777301163
 20
160.4895685428
 30
0.0
 40
2.399999999999977
 50
360.0
 51
90.0
  0
LINE
  5
A4
  8
0
  6
CONTINUOUS
 62
     7
 10
282.3208081781
 20
148.2895685428
 30
0.0
 11
222.2973820251
 21
148.2895685428
 31
0.0
  0
LINE
  5
A5
  8
0
  6
CONTINUOUS
 62
     7
 10
286.9973453586
 20
155.9895685428
 30
0.0
 11
282.6672183396
 21
148.4895685428
 31
0.0
  0
ARC
  5
A6
  8
0
  6
CONTINUOUS
 62
     7
 10
282.3208081781
 20
148.6895685428
 30
0.0
 40
0.4000000000000315
 50
270.0
 51
330.0
  0
ARC
  5
A7
  8
0
  6
CONTINUOUS
 62
     7
 10
286.4777301163
 20
156.2895685428
 30
0.0
 40
0.6000000000000013
 50
330.0
 51
0.0
  0
LINE
  5
A8
  8
0
  6
CONTINUOUS
 62
     7
 10
190.1009664231
 20
270.1531004139
 30
0.0
 11
194.4082113073
 21
220.9210661075
 31
0.0
  0
LINE
  5
A9
  8
0
  6
CONTINUOUS
 62
     7
 10
187.4777301163
 20
269.9235969754
 30
0.0
 11
190.1009664231
 21
270.1531004139
 31
0.0
  0
LINE
  5
AA
  8
0
  6
CONTINUOUS
 62
     7
 10
187.4777301163
 20
220.2609330275
 30
0.0
 11
187.4777301163
 21
269.9235969754
 31
0.0
  0
LINE
  5
AB
  8
0
  6
CONTINUOUS
 62
     7
 10
194.6921776086
 20
270.4543973608
 30
0.0
 11
190.1096819974
 21
270.0534809441
 31
0.0
  0
ARC
  5
AC
  8
0
  6
CONTINUOUS
 62
     7
 10
194.8664890941
 20
268.4620079646
 30
0.0
 40
1.999999999999992
 50
5.0
 51
95.0
  0
LINE
  5
AD
  8
0
  6
CONTINUOUS
 62
     7
 10
196.8588784903
 20
268.6363194501
 30
0.0
 11
200.9830963147
 21
221.4962940096
 31
0.0
  0
LINE
  5
AE
  8
0
  6
CONTINUOUS
 62
     7
 10
342.3316593339
 20
219.9131996355
 30
0.0
 11
342.3316593339
 21
135.2895685428
 31
0.0
  0
LINE
  5
AF
  8
0
  6
CONTINUOUS
 62
     7
 10
342.3316593339
 20
220.2609330275
 30
0.0
 11
342.3363299961
 21
220.2613416575
 31
0.0
  0
LINE
  5
B0
  8
0
  6
CONTINUOUS
 62
     7
 10
342.3363299961
 20
220.2613416575
 30
0.0
 11
342.3316593339
 21
220.3147275705
 31
0.0
  0
LINE
  5
B1
  8
0
  6
CONTINUOUS
 62
     7
 10
342.3316593339
 20
220.3147275705
 30
0.0
 11
362.5566272743
 21
222.0841829855
 31
0.0
  0
LINE
  5
B2
  8
0
  6
CONTINUOUS
 62
     7
 10
342.3316593339
 20
219.9131996355
 30
0.0
 11
342.3316593339
 21
220.2609330275
 31
0.0
  0
LINE
  5
B3
  8
0
  6
CONTINUOUS
 62
     7
 10
377.8871359335
 20
134.8895685428
 30
0.0
 11
342.3316593339
 21
134.8895685428
 31
0.0
  0
LINE
  5
B4
  8
0
  6
CONTINUOUS
 62
     7
 10
342.3316593339
 20
134.8895685428
 30
0.0
 11
342.3316593339
 21
135.2895685428
 31
0.0
  0
ARC
  5
B5
  8
0
  6
CONTINUOUS
 62
     7
 10
362.5914895714
 20
221.6857051062
 30
0.0
 40
0.3999999999999794
 50
65.0
 51
95.0
  0
LINE
  5
B6
  8
0
  6
CONTINUOUS
 62
     7
 10
362.760536876
 20
222.048228221
 30
0.0
 11
370.8265676189
 21
218.2869763147
 31
0.0
  0
LINE
  5
B7
  8
0
  6
CONTINUOUS
 62
     7
 10
371.0559981935
 20
217.959315497
 30
0.0
 11
378.2856138127
 21
135.3244308399
 31
0.0
  0
ARC
  5
B8
  8
0
  6
CONTINUOUS
 62
     7
 10
370.6575203142
 20
217.9244531999
 30
0.0
 40
0.4000000000000654
 50
5.0
 51
65.0
  0
ARC
  5
B9
  8
0
  6
CONTINUOUS
 62
     7
 10
377.8871359335
 20
135.2895685428
 30
0.0
 40
0.4000000000000057
 50
270.0
 51
5.0
  0
LINE
  5
BA
  8
0
  6
CONTINUOUS
 62
     7
 10
373.1088241177
 20
134.8895685428
 30
0.0
 11
370.6952085209
 21
134.67840454
 31
0.0
  0
ARC
  5
BB
  8
0
  6
CONTINUOUS
 62
     7
 10
370.6603462238
 20
135.0768824192
 30
0.0
 40
0.400000000000036
 50
207.9230096112
 51
275.0
  0
LINE
  5
BC
  8
0
  6
CONTINUOUS
 62
     7
 10
344.9548956408
 20
270.1531004139
 30
0.0
 11
349.2621405249
 21
220.9210661075
 31
0.0
  0
LINE
  5
BD
  8
0
  6
CONTINUOUS
 62
     7
 10
342.3316593339
 20
269.9235969754
 30
0.0
 11
344.9548956408
 21
270.1531004139
 31
0.0
  0
LINE
  5
BE
  8
0
  6
CONTINUOUS
 62
     7
 10
342.3316593339
 20
220.2609330275
 30
0.0
 11
342.3316593339
 21
269.9235969754
 31
0.0
  0
LINE
  5
BF
  8
0
  6
CONTINUOUS
 62
     7
 10
349.5461068263
 20
270.4543973608
 30
0.0
 11
344.963611215
 21
270.0534809441
 31
0.0
  0
ARC
  5
C0
  8
0
  6
CONTINUOUS
 62
     7
 10
349.7204183117
 20
268.4620079646
 30
0.0
 40
2.000000000000025
 50
5.0
 51
95.0
  0
LINE
  5
C1
  8
0
  6
CONTINUOUS
 62
     7
 10
351.7128077079
 20
268.6363194501
 30
0.0
 11
355.8370255323
 21
221.4962940096
 31
0.0
  0
ARC
  5
C2
  8
0
  6
CONTINUOUS
 62
     7
 10
119.476361718
 20
77.8556751388
 30
0.0
 40
0.4000000000000057
 50
180.0
 51
270.0
  0
LINE
  5
C3
  8
0
  6
CONTINUOUS
 62
     7
 10
119.476361718
 20
77.4556751388
 30
0.0
 11
130.376361718
 21
77.4556751388
 31
0.0
  0
ARC
  5
C4
  8
0
  6
CONTINUOUS
 62
     7
 10
130.376361718
 20
77.8556751388
 30
0.0
 40
0.4000000000000057
 50
270.0
 51
0.0
  0
ARC
  5
C5
  8
0
  6
CONTINUOUS
 62
     7
 10
18.376361718
 20
77.8556751388
 30
0.0
 40
0.4000000000000057
 50
180.0
 51
270.0
  0
ARC
  5
C6
  8
0
  6
CONTINUOUS
 62
     7
 10
29.276361718
 20
77.8556751388
 30
0.0
 40
0.3999999999999986
 50
270.0
 51
0.0
  0
LINE
  5
C7
  8
0
  6
CONTINUOUS
 62
     7
 10
18.376361718
 20
77.4556751388
 30
0.0
 11
29.276361718
 21
77.4556751388
 31
0.0
  0
LINE
  5
C8
  8
0
  6
CONTINUOUS
 62
     7
 10
30.576361718
 20
81.0111517384
 30
0.0
 11
31.476361718
 21
81.0111517384
 31
0.0
  0
LINE
  5
C9
  8
0
  6
CONTINUOUS
 62
     7
 10
31.476361718
 20
85.8111517384
 30
0.0
 11
30.576361718
 21
85.8111517384
 31
0.0
  0
LINE
  5
CA
  8
0
  6
CONTINUOUS
 62
     7
 10
117.276361718
 20
81.0111517384
 30
0.0
 11
118.176361718
 21
81.0111517384
 31
0.0
  0
LINE
  5
CB
  8
0
  6
CONTINUOUS
 62
     7
 10
118.176361718
 20
85.8111517384
 30
0.0
 11
117.276361718
 21
85.8111517384
 31
0.0
  0
LINE
  5
CC
  8
0
  6
CONTINUOUS
 62
     7
 10
32.4020502325
 20
94.5224168011
 30
0.0
 11
116.3506732035
 21
94.5224168011
 31
0.0
  0
LINE
  5
CD
  8
0
  6
CONTINUOUS
 62
     7
 10
118.276361718
 20
84.6111517384
 30
0.0
 11
118.176361718
 21
84.6111517384
 31
0.0
  0
LINE
  5
CE
  8
0
  6
CONTINUOUS
 62
     7
 10
30.576361718
 20
84.6111517384
 30
0.0
 11
30.476361718
 21
84.6111517384
 31
0.0
  0
LINE
  5
CF
  8
0
  6
CONTINUOUS
 62
     7
 10
30.476361718
 20
82.2111517384
 30
0.0
 11
30.576361718
 21
82.2111517384
 31
0.0
  0
LINE
  5
D0
  8
0
  6
CONTINUOUS
 62
     7
 10
118.176361718
 20
82.2111517384
 30
0.0
 11
118.276361718
 21
82.2111517384
 31
0.0
  0
LINE
  5
D1
  8
0
  6
CONTINUOUS
 62
     7
 10
29.676361718
 20
78.164878144
 30
0.0
 11
30.476361718
 21
78.164878144
 31
0.0
  0
LINE
  5
D2
  8
0
  6
CONTINUOUS
 62
     7
 10
118.276361718
 20
78.164878144
 30
0.0
 11
119.076361718
 21
78.164878144
 31
0.0
  0
LINE
  5
D3
  8
0
  6
CONTINUOUS
 62
     7
 10
130.776361718
 20
93.151321501
 30
0.0
 11
130.776361718
 21
85.0852907581
 31
0.0
  0
LINE
  5
D4
  8
0
  6
CONTINUOUS
 62
     7
 10
119.076361718
 20
85.0852907581
 30
0.0
 11
119.076361718
 21
93.151321501
 31
0.0
  0
ARC
  5
D5
  8
0
  6
CONTINUOUS
 62
     7
 10
119.3771213304
 20
112.237633691
 30
0.0
 40
1.177706781035317
 50
85.1661939642
 51
104.7959448232
  0
LINE
  5
D6
  8
0
  6
CONTINUOUS
 62
     7
 10
119.076361718
 20
93.151321501
 30
0.0
 11
119.076361718
 21
113.3762894413
 31
0.0
  0
LINE
  5
D7
  8
0
  6
CONTINUOUS
 62
     7
 10
130.376361718
 20
113.4111517384
 30
0.0
 11
119.476361718
 21
113.4111517384
 31
0.0
  0
LINE
  5
D8
  8
0
  6
CONTINUOUS
 62
     7
 10
130.576361718
 20
113.4111517384
 30
0.0
 11
130.776361718
 21
113.4111517384
 31
0.0
  0
ARC
  5
D9
  8
0
  6
CONTINUOUS
 62
     7
 10
130.3817473986
 20
109.3573857589
 30
0.0
 40
4.053769557073144
 50
87.2482730651
 51
90.0761209662
  0
LINE
  5
DA
  8
0
  6
CONTINUOUS
 62
     7
 10
130.776361718
 20
113.4111517384
 30
0.0
 11
130.776361718
 21
93.151321501
 31
0.0
  0
LINE
  5
DB
  8
0
  6
CONTINUOUS
 62
     7
 10
130.576361718
 20
113.4064810762
 30
0.0
 11
130.576361718
 21
113.4111517384
 31
0.0
  0
LINE
  5
DC
  8
0
  6
CONTINUOUS
 62
     7
 10
119.076361718
 20
77.8556751388
 30
0.0
 11
119.076361718
 21
85.0852907581
 31
0.0
  0
LINE
  5
DD
  8
0
  6
CONTINUOUS
 62
     7
 10
130.776361718
 20
85.0852907581
 30
0.0
 11
130.776361718
 21
77.8556751388
 31
0.0
  0
LINE
  5
DE
  8
0
  6
CONTINUOUS
 62
     7
 10
130.576361718
 20
113.4111517384
 30
0.0
 11
130.376361718
 21
113.4111517384
 31
0.0
  0
LINE
  5
DF
  8
0
  6
CONTINUOUS
 62
     7
 10
29.676361718
 20
93.151321501
 30
0.0
 11
29.676361718
 21
85.0852907581
 31
0.0
  0
LINE
  5
E0
  8
0
  6
CONTINUOUS
 62
     7
 10
17.976361718
 20
85.0852907581
 30
0.0
 11
17.976361718
 21
93.151321501
 31
0.0
  0
LINE
  5
E1
  8
0
  6
CONTINUOUS
 62
     7
 10
29.276361718
 20
113.4111517384
 30
0.0
 11
18.376361718
 21
113.4111517384
 31
0.0
  0
LINE
  5
E2
  8
0
  6
CONTINUOUS
 62
     7
 10
17.976361718
 20
113.4111517384
 30
0.0
 11
18.176361718
 21
113.4111517384
 31
0.0
  0
ARC
  5
E3
  8
0
  6
CONTINUOUS
 62
     7
 10
18.3709760375
 20
109.3573857589
 30
0.0
 40
4.053769557089727
 50
89.9238790338
 51
92.7517269349
  0
LINE
  5
E4
  8
0
  6
CONTINUOUS
 62
     7
 10
17.976361718
 20
93.151321501
 30
0.0
 11
17.976361718
 21
113.4111517384
 31
0.0
  0
LINE
  5
E5
  8
0
  6
CONTINUOUS
 62
     7
 10
18.176361718
 20
113.4111517384
 30
0.0
 11
18.176361718
 21
113.4064810762
 31
0.0
  0
ARC
  5
E6
  8
0
  6
CONTINUOUS
 62
     7
 10
29.3756021057
 20
112.237633691
 30
0.0
 40
1.177706781033816
 50
75.2040551768
 51
94.8338060358
  0
LINE
  5
E7
  8
0
  6
CONTINUOUS
 62
     7
 10
29.676361718
 20
113.3762894413
 30
0.0
 11
29.676361718
 21
93.151321501
 31
0.0
  0
LINE
  5
E8
  8
0
  6
CONTINUOUS
 62
     7
 10
29.676361718
 20
85.0852907581
 30
0.0
 11
29.676361718
 21
77.8556751388
 31
0.0
  0
LINE
  5
E9
  8
0
  6
CONTINUOUS
 62
     7
 10
17.976361718
 20
77.8556751388
 30
0.0
 11
17.976361718
 21
85.0852907581
 31
0.0
  0
LINE
  5
EA
  8
0
  6
CONTINUOUS
 62
     7
 10
18.376361718
 20
113.4111517384
 30
0.0
 11
18.176361718
 21
113.4111517384
 31
0.0
  0
LINE
  5
EB
  8
0
  6
CONTINUOUS
 62
     7
 10
117.276361718
 20
87.2111517384
 30
0.0
 11
117.276361718
 21
13.8111517384
 31
0.0
  0
LINE
  5
EC
  8
0
  6
CONTINUOUS
 62
     7
 10
114.876361718
 20
16.2111517384
 30
0.0
 11
117.276361718
 21
13.8111517384
 31
0.0
  0
LINE
  5
ED
  8
0
  6
CONTINUOUS
 62
     7
 10
117.276361718
 20
87.2111517384
 30
0.0
 11
114.876361718
 21
84.8111517384
 31
0.0
  0
LINE
  5
EE
  8
0
  6
CONTINUOUS
 62
     7
 10
31.476361718
 20
87.2111517384
 30
0.0
 11
117.276361718
 21
87.2111517384
 31
0.0
  0
LINE
  5
EF
  8
0
  6
CONTINUOUS
 62
     7
 10
31.476361718
 20
87.2111517384
 30
0.0
 11
33.876361718
 21
84.8111517384
 31
0.0
  0
LINE
  5
F0
  8
0
  6
CONTINUOUS
 62
     7
 10
31.476361718
 20
13.8111517384
 30
0.0
 11
31.476361718
 21
87.2111517384
 31
0.0
  0
LINE
  5
F1
  8
0
  6
CONTINUOUS
 62
     7
 10
33.876361718
 20
16.2111517384
 30
0.0
 11
31.476361718
 21
13.8111517384
 31
0.0
  0
LINE
  5
F2
  8
0
  6
CONTINUOUS
 62
     7
 10
117.276361718
 20
13.8111517384
 30
0.0
 11
31.476361718
 21
13.8111517384
 31
0.0
  0
LINE
  5
F3
  8
0
  6
CONTINUOUS
 62
     7
 10
117.176361718
 20
94.709801227
 30
0.0
 11
117.176361718
 21
87.2111517384
 31
0.0
  0
LINE
  5
F4
  8
0
  6
CONTINUOUS
 62
     7
 10
31.576361718
 20
87.2111517384
 30
0.0
 11
31.576361718
 21
94.709801227
 31
0.0
  0
LINE
  5
F5
  8
0
  6
CONTINUOUS
 62
     7
 10
30.576361718
 20
85.8111517384
 30
0.0
 11
30.576361718
 21
81.0111517384
 31
0.0
  0
LINE
  5
F6
  8
0
  6
CONTINUOUS
 62
     7
 10
118.176361718
 20
85.8111517384
 30
0.0
 11
118.176361718
 21
81.0111517384
 31
0.0
  0
ARC
  5
F7
  8
0
  6
CONTINUOUS
 62
     7
 10
115.9641919823
 20
106.2322620459
 30
0.0
 40
2.212455490391806
 50
275.5029990656
 51
359.0791229101
  0
LINE
  5
F8
  8
0
  6
CONTINUOUS
 62
     7
 10
118.176361718
 20
106.1967042461
 30
0.0
 11
118.176361718
 21
96.3481053156
 31
0.0
  0
ARC
  5
F9
  8
0
  6
CONTINUOUS
 62
     7
 10
116.3690397971
 20
96.3271712277
 30
0.0
 40
1.80744315590374
 50
263.8804948675
 51
0.6636234733
  0
ARC
  5
FA
  8
0
  6
CONTINUOUS
 62
     7
 10
32.7892102455
 20
106.2328886129
 30
0.0
 40
2.213144349960992
 50
180.9368136705
 51
264.4810643538
  0
LINE
  5
FB
  8
0
  6
CONTINUOUS
 62
     7
 10
30.576361718
 20
96.3481053156
 30
0.0
 11
30.576361718
 21
106.1967042461
 31
0.0
  0
ARC
  5
FC
  8
0
  6
CONTINUOUS
 62
     7
 10
32.3842532128
 20
96.3277977947
 30
0.0
 40
1.808005545392229
 50
179.3564401893
 51
276.09944147
  0
LINE
  5
FD
  8
0
  6
CONTINUOUS
 62
     7
 10
118.176361718
 20
110.7791998573
 30
0.0
 11
30.576361718
 21
110.7791998573
 31
0.0
  0
LINE
  5
FE
  8
0
  6
CONTINUOUS
 62
     7
 10
118.176361718
 20
106.1967042461
 30
0.0
 11
118.176361718
 21
110.7791998573
 31
0.0
  0
LINE
  5
FF
  8
0
  6
CONTINUOUS
 62
     7
 10
30.576361718
 20
106.1967042461
 30
0.0
 11
30.576361718
 21
110.7791998573
 31
0.0
  0
LINE
  5
100
  8
0
  6
CONTINUOUS
 62
     7
 10
118.276361718
 20
113.4111517384
 30
0.0
 11
30.476361718
 21
113.4111517384
 31
0.0
  0
LINE
  5
101
  8
0
  6
CONTINUOUS
 62
     7
 10
118.276361718
 20
110.7879154316
 30
0.0
 11
30.476361718
 21
110.7879154316
 31
0.0
  0
LINE
  5
102
  8
0
  6
CONTINUOUS
 62
     7
 10
30.476361718
 20
113.4111517384
 30
0.0
 11
30.476361718
 21
110.7879154316
 31
0.0
  0
LINE
  5
103
  8
0
  6
CONTINUOUS
 62
     7
 10
118.276361718
 20
113.4111517384
 30
0.0
 11
118.276361718
 21
110.7879154316
 31
0.0
  0
LINE
  5
104
  8
0
  6
CONTINUOUS
 62
     7
 10
30.576361718
 20
100.7911517384
 30
0.0
 11
30.476361718
 21
100.7911517384
 31
0.0
  0
LINE
  5
105
  8
0
  6
CONTINUOUS
 62
     7
 10
30.476361718
 20
110.7879154316
 30
0.0
 11
30.476361718
 21
106.4090268667
 31
0.0
  0
LINE
  5
106
  8
0
  6
CONTINUOUS
 62
     7
 10
118.276361718
 20
100.7911517384
 30
0.0
 11
118.176361718
 21
100.7911517384
 31
0.0
  0
LINE
  5
107
  8
0
  6
CONTINUOUS
 62
     7
 10
118.276361718
 20
110.7879154316
 30
0.0
 11
118.276361718
 21
106.4090268667
 31
0.0
  0
LINE
  5
108
  8
0
  6
CONTINUOUS
 62
     7
 10
30.476361718
 20
93.0424481653
 30
0.0
 11
30.476361718
 21
92.6346289617
 31
0.0
  0
LINE
  5
109
  8
0
  6
CONTINUOUS
 62
     7
 10
118.276361718
 20
92.6346289617
 30
0.0
 11
118.276361718
 21
93.0424481653
 31
0.0
  0
LINE
  5
10A
  8
0
  6
CONTINUOUS
 62
     7
 10
30.476361718
 20
93.0424481653
 30
0.0
 11
30.476361718
 21
106.4090268667
 31
0.0
  0
LINE
  5
10B
  8
0
  6
CONTINUOUS
 62
     7
 10
29.676361718
 20
113.3762894413
 30
0.0
 11
29.676361718
 21
113.4111517384
 31
0.0
  0
LINE
  5
10C
  8
0
  6
CONTINUOUS
 62
     7
 10
29.676361718
 20
113.4111517384
 30
0.0
 11
30.476361718
 21
113.4111517384
 31
0.0
  0
LINE
  5
10D
  8
0
  6
CONTINUOUS
 62
     7
 10
119.076361718
 20
113.4111517384
 30
0.0
 11
119.076361718
 21
113.3762894413
 31
0.0
  0
LINE
  5
10E
  8
0
  6
CONTINUOUS
 62
     7
 10
118.276361718
 20
106.4090268667
 30
0.0
 11
118.276361718
 21
93.0424481653
 31
0.0
  0
LINE
  5
10F
  8
0
  6
CONTINUOUS
 62
     7
 10
119.076361718
 20
113.4111517384
 30
0.0
 11
118.276361718
 21
113.4111517384
 31
0.0
  0
LINE
  5
110
  8
0
  6
CONTINUOUS
 62
     7
 10
118.276361718
 20
92.6346289617
 30
0.0
 11
118.276361718
 21
85.7095013299
 31
0.0
  0
LINE
  5
111
  8
0
  6
CONTINUOUS
 62
     7
 10
30.476361718
 20
85.7095013299
 30
0.0
 11
30.476361718
 21
92.6346289617
 31
0.0
  0
LINE
  5
112
  8
0
  6
CONTINUOUS
 62
     7
 10
30.476361718
 20
85.7095013299
 30
0.0
 11
30.476361718
 21
85.2506401808
 31
0.0
  0
LINE
  5
113
  8
0
  6
CONTINUOUS
 62
     7
 10
118.276361718
 20
85.2506401808
 30
0.0
 11
118.276361718
 21
85.7095013299
 31
0.0
  0
LINE
  5
114
  8
0
  6
CONTINUOUS
 62
     7
 10
119.076361718
 20
113.4111517384
 30
0.0
 11
119.476361718
 21
113.4111517384
 31
0.0
  0
LINE
  5
115
  8
0
  6
CONTINUOUS
 62
     7
 10
29.276361718
 20
113.4111517384
 30
0.0
 11
29.676361718
 21
113.4111517384
 31
0.0
  0
LINE
  5
116
  8
0
  6
CONTINUOUS
 62
     7
 10
118.276361718
 20
85.2506401808
 30
0.0
 11
118.276361718
 21
78.1679223855
 31
0.0
  0
LINE
  5
117
  8
0
  6
CONTINUOUS
 62
     7
 10
30.476361718
 20
78.1679223855
 30
0.0
 11
30.476361718
 21
85.2506401808
 31
0.0
  0
LINE
  5
118
  8
0
  6
CONTINUOUS
 62
     7
 10
30.476361718
 20
78.1679223855
 30
0.0
 11
30.476361718
 21
78.164878144
 31
0.0
  0
LINE
  5
119
  8
0
  6
CONTINUOUS
 62
     7
 10
118.276361718
 20
78.164878144
 30
0.0
 11
118.276361718
 21
78.1679223855
 31
0.0
  0
ARC
  5
11A
  8
0
  6
CONTINUOUS
 62
     7
 10
456.759084893
 20
221.6857051062
 30
0.0
 40
0.4000000000000057
 50
90.0
 51
180.0
  0
LINE
  5
11B
  8
0
  6
CONTINUOUS
 62
     7
 10
467.659084893
 20
222.0857051062
 30
0.0
 11
456.759084893
 21
222.0857051062
 31
0.0
  0
ARC
  5
11C
  8
0
  6
CONTINUOUS
 62
     7
 10
467.659084893
 20
221.6857051062
 30
0.0
 40
0.4000000000000341
 50
0.0
 51
90.0
  0
ARC
  5
11D
  8
0
  6
CONTINUOUS
 62
     7
 10
557.859084893
 20
221.6857051062
 30
0.0
 40
0.4000000000000909
 50
90.0
 51
180.0
  0
LINE
  5
11E
  8
0
  6
CONTINUOUS
 62
     7
 10
568.759084893
 20
222.0857051062
 30
0.0
 11
557.859084893
 21
222.0857051062
 31
0.0
  0
ARC
  5
11F
  8
0
  6
CONTINUOUS
 62
     7
 10
568.759084893
 20
221.6857051062
 30
0.0
 40
0.3999999999999773
 50
0.0
 51
90.0
  0
LINE
  5
120
  8
0
  6
CONTINUOUS
 62
     7
 10
469.959084893
 20
155.0895685428
 30
0.0
 11
468.959084893
 21
155.0895685428
 31
0.0
  0
LINE
  5
121
  8
0
  6
CONTINUOUS
 62
     7
 10
468.959084893
 20
150.2895685428
 30
0.0
 11
469.959084893
 21
150.2895685428
 31
0.0
  0
LINE
  5
122
  8
0
  6
CONTINUOUS
 62
     7
 10
556.559084893
 20
155.0895685428
 30
0.0
 11
555.559084893
 21
155.0895685428
 31
0.0
  0
LINE
  5
123
  8
0
  6
CONTINUOUS
 62
     7
 10
555.559084893
 20
150.2895685428
 30
0.0
 11
556.559084893
 21
150.2895685428
 31
0.0
  0
LINE
  5
124
  8
0
  6
CONTINUOUS
 62
     7
 10
556.5514742892
 20
270.4620079646
 30
0.0
 11
468.9666954968
 21
270.4620079646
 31
0.0
  0
LINE
  5
125
  8
0
  6
CONTINUOUS
 62
     7
 10
468.859084893
 20
221.2746434377
 30
0.0
 11
468.059084893
 21
221.2746434377
 31
0.0
  0
LINE
  5
126
  8
0
  6
CONTINUOUS
 62
     7
 10
557.459084893
 20
221.2746434377
 30
0.0
 11
556.659084893
 21
221.2746434377
 31
0.0
  0
LINE
  5
127
  8
0
  6
CONTINUOUS
 62
     7
 10
468.859084893
 20
151.4895685428
 30
0.0
 11
468.959084893
 21
151.4895685428
 31
0.0
  0
LINE
  5
128
  8
0
  6
CONTINUOUS
 62
     7
 10
556.559084893
 20
151.4895685428
 30
0.0
 11
556.659084893
 21
151.4895685428
 31
0.0
  0
LINE
  5
129
  8
0
  6
CONTINUOUS
 62
     7
 10
556.659084893
 20
153.8895685428
 30
0.0
 11
556.559084893
 21
153.8895685428
 31
0.0
  0
LINE
  5
12A
  8
0
  6
CONTINUOUS
 62
     7
 10
468.959084893
 20
153.8895685428
 30
0.0
 11
468.859084893
 21
153.8895685428
 31
0.0
  0
LINE
  5
12B
  8
0
  6
CONTINUOUS
 62
     7
 10
456.759084893
 20
134.8895685428
 30
0.0
 11
458.359084893
 21
134.8895685428
 31
0.0
  0
ARC
  5
12C
  8
0
  6
CONTINUOUS
 62
     7
 10
456.759084893
 20
135.2895685428
 30
0.0
 40
0.4000000000000341
 50
180.0
 51
270.0
  0
LINE
  5
12D
  8
0
  6
CONTINUOUS
 62
     7
 10
456.359084893
 20
219.9131996355
 30
0.0
 11
456.359084893
 21
135.2895685428
 31
0.0
  0
ARC
  5
12E
  8
0
  6
CONTINUOUS
 62
     7
 10
456.7608692609
 20
219.9134940634
 30
0.0
 40
0.4017844757236791
 50
120.1470108055
 51
180.0419863819
  0
LINE
  5
12F
  8
0
  6
CONTINUOUS
 62
     7
 10
456.559084893
 20
135.0895685428
 30
0.0
 11
456.559084893
 21
220.2609330275
 31
0.0
  0
LINE
  5
130
  8
0
  6
CONTINUOUS
 62
     7
 10
456.559084893
 20
135.0895685428
 30
0.0
 11
458.359084893
 21
135.0895685428
 31
0.0
  0
LINE
  5
131
  8
0
  6
CONTINUOUS
 62
     7
 10
458.359084893
 20
135.0895685428
 30
0.0
 11
458.359084893
 21
134.8895685428
 31
0.0
  0
ARC
  5
132
  8
0
  6
CONTINUOUS
 62
     7
 10
456.7590436696
 20
219.9135583861
 30
0.0
 40
0.4011691865194201
 50
89.9941123875
 51
119.8968459804
  0
LINE
  5
133
  8
0
  6
CONTINUOUS
 62
     7
 10
456.359084893
 20
219.9131996355
 30
0.0
 11
456.359084893
 21
221.6857051062
 31
0.0
  0
LINE
  5
134
  8
0
  6
CONTINUOUS
 62
     7
 10
456.559084893
 20
220.2613416575
 30
0.0
 11
456.559084893
 21
220.2609330275
 31
0.0
  0
LINE
  5
135
  8
0
  6
CONTINUOUS
 62
     7
 10
456.559084893
 20
220.1154886309
 30
0.0
 11
467.859084893
 21
220.1154886309
 31
0.0
  0
LINE
  5
136
  8
0
  6
CONTINUOUS
 62
     7
 10
456.759084893
 20
220.3147275705
 30
0.0
 11
467.659084893
 21
220.3147275705
 31
0.0
  0
ARC
  5
137
  8
0
  6
CONTINUOUS
 62
     7
 10
467.6598445054
 20
219.9154871773
 30
0.0
 40
0.39924111581718
 50
0.1094297549
 51
90.1090133411
  0
LINE
  5
138
  8
0
  6
CONTINUOUS
 62
     7
 10
468.059084893
 20
219.9162496913
 30
0.0
 11
468.059084893
 21
219.4958365527
 31
0.0
  0
LINE
  5
139
  8
0
  6
CONTINUOUS
 62
     7
 10
467.859084893
 20
217.4895685428
 30
0.0
 11
467.859084893
 21
220.1154886309
 31
0.0
  0
LINE
  5
13A
  8
0
  6
CONTINUOUS
 62
     7
 10
468.059084893
 20
221.6857051062
 30
0.0
 11
468.059084893
 21
219.9162496913
 31
0.0
  0
ARC
  5
13B
  8
0
  6
CONTINUOUS
 62
     7
 10
467.659084893
 20
135.2895685428
 30
0.0
 40
0.4000000000000341
 50
270.0
 51
0.0
  0
LINE
  5
13C
  8
0
  6
CONTINUOUS
 62
     7
 10
467.859084893
 20
135.0895685428
 30
0.0
 11
458.359084893
 21
135.0895685428
 31
0.0
  0
LINE
  5
13D
  8
0
  6
CONTINUOUS
 62
     7
 10
458.359084893
 20
134.8895685428
 30
0.0
 11
467.659084893
 21
134.8895685428
 31
0.0
  0
LINE
  5
13E
  8
0
  6
CONTINUOUS
 62
     7
 10
468.059084893
 20
135.4895685428
 30
0.0
 11
468.059084893
 21
135.2895685428
 31
0.0
  0
LINE
  5
13F
  8
0
  6
CONTINUOUS
 62
     7
 10
467.859084893
 20
137.4895685428
 30
0.0
 11
467.859084893
 21
135.0895685428
 31
0.0
  0
LINE
  5
140
  8
0
  6
CONTINUOUS
 62
     7
 10
456.559084893
 20
218.0569150039
 30
0.0
 11
467.859084893
 21
218.0569150039
 31
0.0
  0
LINE
  5
141
  8
0
  6
CONTINUOUS
 62
     7
 10
567.159084893
 20
135.0895685428
 30
0.0
 11
568.959084893
 21
135.0895685428
 31
0.0
  0
LINE
  5
142
  8
0
  6
CONTINUOUS
 62
     7
 10
568.959084893
 20
220.2609330275
 30
0.0
 11
568.959084893
 21
135.0895685428
 31
0.0
  0
ARC
  5
143
  8
0
  6
CONTINUOUS
 62
     7
 10
568.7573005252
 20
219.9134940634
 30
0.0
 40
0.4017844757241905
 50
359.9580136181
 51
59.8529891945
  0
LINE
  5
144
  8
0
  6
CONTINUOUS
 62
     7
 10
569.159084893
 20
219.9131996355
 30
0.0
 11
569.159084893
 21
135.2895685428
 31
0.0
  0
ARC
  5
145
  8
0
  6
CONTINUOUS
 62
     7
 10
568.759084893
 20
135.2895685428
 30
0.0
 40
0.4000000000000341
 50
270.0
 51
0.0
  0
LINE
  5
146
  8
0
  6
CONTINUOUS
 62
     7
 10
567.159084893
 20
134.8895685428
 30
0.0
 11
568.759084893
 21
134.8895685428
 31
0.0
  0
LINE
  5
147
  8
0
  6
CONTINUOUS
 62
     7
 10
567.159084893
 20
135.0895685428
 30
0.0
 11
567.159084893
 21
134.8895685428
 31
0.0
  0
ARC
  5
148
  8
0
  6
CONTINUOUS
 62
     7
 10
568.7591261165
 20
219.9135583861
 30
0.0
 40
0.4011691865194024
 50
60.1031540196
 51
90.0058876125
  0
LINE
  5
149
  8
0
  6
CONTINUOUS
 62
     7
 10
569.159084893
 20
221.6857051062
 30
0.0
 11
569.159084893
 21
219.9131996355
 31
0.0
  0
LINE
  5
14A
  8
0
  6
CONTINUOUS
 62
     7
 10
568.959084893
 20
220.2609330275
 30
0.0
 11
568.959084893
 21
220.2613416575
 31
0.0
  0
LINE
  5
14B
  8
0
  6
CONTINUOUS
 62
     7
 10
557.659084893
 20
220.1154886309
 30
0.0
 11
568.959084893
 21
220.1154886309
 31
0.0
  0
ARC
  5
14C
  8
0
  6
CONTINUOUS
 62
     7
 10
557.8583252807
 20
219.9154871773
 30
0.0
 40
0.3992411158172506
 50
89.8909866589
 51
179.8905702451
  0
LINE
  5
14D
  8
0
  6
CONTINUOUS
 62
     7
 10
557.859084893
 20
220.3147275705
 30
0.0
 11
568.759084893
 21
220.3147275705
 31
0.0
  0
LINE
  5
14E
  8
0
  6
CONTINUOUS
 62
     7
 10
557.459084893
 20
219.9162496913
 30
0.0
 11
557.459084893
 21
219.4958365527
 31
0.0
  0
LINE
  5
14F
  8
0
  6
CONTINUOUS
 62
     7
 10
557.659084893
 20
220.1154886309
 30
0.0
 11
557.659084893
 21
217.4895685428
 31
0.0
  0
LINE
  5
150
  8
0
  6
CONTINUOUS
 62
     7
 10
557.459084893
 20
219.9162496913
 30
0.0
 11
557.459084893
 21
221.6857051062
 31
0.0
  0
ARC
  5
151
  8
0
  6
CONTINUOUS
 62
     7
 10
557.859084893
 20
135.2895685428
 30
0.0
 40
0.4000000000000909
 50
180.0
 51
270.0
  0
LINE
  5
152
  8
0
  6
CONTINUOUS
 62
     7
 10
567.159084893
 20
135.0895685428
 30
0.0
 11
557.659084893
 21
135.0895685428
 31
0.0
  0
LINE
  5
153
  8
0
  6
CONTINUOUS
 62
     7
 10
557.859084893
 20
134.8895685428
 30
0.0
 11
567.159084893
 21
134.8895685428
 31
0.0
  0
LINE
  5
154
  8
0
  6
CONTINUOUS
 62
     7
 10
557.459084893
 20
135.4895685428
 30
0.0
 11
557.459084893
 21
135.2895685428
 31
0.0
  0
LINE
  5
155
  8
0
  6
CONTINUOUS
 62
     7
 10
557.659084893
 20
135.0895685428
 30
0.0
 11
557.659084893
 21
137.4895685428
 31
0.0
  0
LINE
  5
156
  8
0
  6
CONTINUOUS
 62
     7
 10
557.659084893
 20
218.0569150039
 30
0.0
 11
568.959084893
 21
218.0569150039
 31
0.0
  0
LINE
  5
157
  8
0
  6
CONTINUOUS
 62
     7
 10
469.959084893
 20
148.6895685428
 30
0.0
 11
469.959084893
 21
155.8895685428
 31
0.0
  0
ARC
  5
158
  8
0
  6
CONTINUOUS
 62
     7
 10
470.359084893
 20
148.6895685428
 30
0.0
 40
0.4000000000000341
 50
180.0
 51
270.0
  0
LINE
  5
159
  8
0
  6
CONTINUOUS
 62
     7
 10
555.159084893
 20
148.2895685428
 30
0.0
 11
470.359084893
 21
148.2895685428
 31
0.0
  0
ARC
  5
15A
  8
0
  6
CONTINUOUS
 62
     7
 10
555.159084893
 20
148.6895685428
 30
0.0
 40
0.4000000000000057
 50
270.0
 51
0.0
  0
LINE
  5
15B
  8
0
  6
CONTINUOUS
 62
     7
 10
555.559084893
 20
155.8895685428
 30
0.0
 11
555.559084893
 21
148.6895685428
 31
0.0
  0
LINE
  5
15C
  8
0
  6
CONTINUOUS
 62
     7
 10
468.959084893
 20
152.6895685428
 30
0.0
 11
468.959084893
 21
155.0895685428
 31
0.0
  0
LINE
  5
15D
  8
0
  6
CONTINUOUS
 62
     7
 10
468.959084893
 20
150.2895685428
 30
0.0
 11
468.959084893
 21
152.6895685428
 31
0.0
  0
LINE
  5
15E
  8
0
  6
CONTINUOUS
 62
     7
 10
556.559084893
 20
152.6895685428
 30
0.0
 11
556.559084893
 21
155.0895685428
 31
0.0
  0
LINE
  5
15F
  8
0
  6
CONTINUOUS
 62
     7
 10
556.559084893
 20
150.2895685428
 30
0.0
 11
556.559084893
 21
152.6895685428
 31
0.0
  0
CIRCLE
  5
160
  8
0
  6
CONTINUOUS
 62
     7
 10
562.759084893
 20
212.8895685428
 30
0.0
 40
1.100000000000136
  0
CIRCLE
  5
161
  8
0
  6
CONTINUOUS
 62
     7
 10
562.759084893
 20
140.8895685428
 30
0.0
 40
1.100000000000136
  0
CIRCLE
  5
162
  8
0
  6
CONTINUOUS
 62
     7
 10
462.759084893
 20
212.8895685428
 30
0.0
 40
1.10000000000008
  0
CIRCLE
  5
163
  8
0
  6
CONTINUOUS
 62
     7
 10
462.759084893
 20
140.8895685428
 30
0.0
 40
1.10000000000008
  0
LINE
  5
164
  8
0
  6
CONTINUOUS
 62
     7
 10
568.759084893
 20
211.4895685428
 30
0.0
 11
566.759084893
 21
211.4895685428
 31
0.0
  0
LINE
  5
165
  8
0
  6
CONTINUOUS
 62
     7
 10
568.759084893
 20
209.4895685428
 30
0.0
 11
568.759084893
 21
211.4895685428
 31
0.0
  0
LINE
  5
166
  8
0
  6
CONTINUOUS
 62
     7
 10
566.759084893
 20
209.4895685428
 30
0.0
 11
568.759084893
 21
209.4895685428
 31
0.0
  0
LINE
  5
167
  8
0
  6
CONTINUOUS
 62
     7
 10
566.759084893
 20
146.2895685428
 30
0.0
 11
566.759084893
 21
209.4895685428
 31
0.0
  0
LINE
  5
168
  8
0
  6
CONTINUOUS
 62
     7
 10
568.759084893
 20
146.2895685428
 30
0.0
 11
566.759084893
 21
146.2895685428
 31
0.0
  0
LINE
  5
169
  8
0
  6
CONTINUOUS
 62
     7
 10
568.759084893
 20
144.2895685428
 30
0.0
 11
568.759084893
 21
146.2895685428
 31
0.0
  0
LINE
  5
16A
  8
0
  6
CONTINUOUS
 62
     7
 10
566.759084893
 20
144.2895685428
 30
0.0
 11
568.759084893
 21
144.2895685428
 31
0.0
  0
LINE
  5
16B
  8
0
  6
CONTINUOUS
 62
     7
 10
566.759084893
 20
139.4895685428
 30
0.0
 11
566.759084893
 21
144.2895685428
 31
0.0
  0
ARC
  5
16C
  8
0
  6
CONTINUOUS
 62
     7
 10
564.759084893
 20
139.4895685428
 30
0.0
 40
2.0
 50
270.0
 51
0.0
  0
LINE
  5
16D
  8
0
  6
CONTINUOUS
 62
     7
 10
557.459084893
 20
137.4895685428
 30
0.0
 11
564.759084893
 21
137.4895685428
 31
0.0
  0
LINE
  5
16E
  8
0
  6
CONTINUOUS
 62
     7
 10
557.459084893
 20
137.4895685428
 30
0.0
 11
557.459084893
 21
135.4895685428
 31
0.0
  0
LINE
  5
16F
  8
0
  6
CONTINUOUS
 62
     7
 10
557.459084893
 20
135.4895685428
 30
0.0
 11
556.659084893
 21
135.4895685428
 31
0.0
  0
LINE
  5
170
  8
0
  6
CONTINUOUS
 62
     7
 10
556.659084893
 20
208.3471226383
 30
0.0
 11
556.659084893
 21
135.4895685428
 31
0.0
  0
LINE
  5
171
  8
0
  6
CONTINUOUS
 62
     7
 10
468.859084893
 20
208.3471226383
 30
0.0
 11
556.659084893
 21
208.3471226383
 31
0.0
  0
LINE
  5
172
  8
0
  6
CONTINUOUS
 62
     7
 10
468.859084893
 20
135.4895685428
 30
0.0
 11
468.859084893
 21
208.3471226383
 31
0.0
  0
LINE
  5
173
  8
0
  6
CONTINUOUS
 62
     7
 10
468.059084893
 20
135.4895685428
 30
0.0
 11
468.859084893
 21
135.4895685428
 31
0.0
  0
LINE
  5
174
  8
0
  6
CONTINUOUS
 62
     7
 10
468.059084893
 20
135.4895685428
 30
0.0
 11
468.059084893
 21
137.4895685428
 31
0.0
  0
LINE
  5
175
  8
0
  6
CONTINUOUS
 62
     7
 10
460.759084893
 20
137.4895685428
 30
0.0
 11
468.059084893
 21
137.4895685428
 31
0.0
  0
ARC
  5
176
  8
0
  6
CONTINUOUS
 62
     7
 10
460.759084893
 20
139.4895685428
 30
0.0
 40
2.0
 50
180.0
 51
270.0
  0
LINE
  5
177
  8
0
  6
CONTINUOUS
 62
     7
 10
458.759084893
 20
144.2895685428
 30
0.0
 11
458.759084893
 21
139.4895685428
 31
0.0
  0
LINE
  5
178
  8
0
  6
CONTINUOUS
 62
     7
 10
456.759084893
 20
144.2895685428
 30
0.0
 11
458.759084893
 21
144.2895685428
 31
0.0
  0
LINE
  5
179
  8
0
  6
CONTINUOUS
 62
     7
 10
456.759084893
 20
146.2895685428
 30
0.0
 11
456.759084893
 21
144.2895685428
 31
0.0
  0
LINE
  5
17A
  8
0
  6
CONTINUOUS
 62
     7
 10
458.759084893
 20
146.2895685428
 30
0.0
 11
456.759084893
 21
146.2895685428
 31
0.0
  0
LINE
  5
17B
  8
0
  6
CONTINUOUS
 62
     7
 10
458.759084893
 20
209.4895685428
 30
0.0
 11
458.759084893
 21
146.2895685428
 31
0.0
  0
LINE
  5
17C
  8
0
  6
CONTINUOUS
 62
     7
 10
456.759084893
 20
209.4895685428
 30
0.0
 11
458.759084893
 21
209.4895685428
 31
0.0
  0
LINE
  5
17D
  8
0
  6
CONTINUOUS
 62
     7
 10
456.759084893
 20
211.4895685428
 30
0.0
 11
456.759084893
 21
209.4895685428
 31
0.0
  0
LINE
  5
17E
  8
0
  6
CONTINUOUS
 62
     7
 10
458.759084893
 20
215.4895685428
 30
0.0
 11
458.759084893
 21
211.4895685428
 31
0.0
  0
ARC
  5
17F
  8
0
  6
CONTINUOUS
 62
     7
 10
460.759084893
 20
215.4895685428
 30
0.0
 40
2.000000000000028
 50
90.0
 51
180.0
  0
LINE
  5
180
  8
0
  6
CONTINUOUS
 62
     7
 10
468.059084893
 20
217.4895685428
 30
0.0
 11
460.759084893
 21
217.4895685428
 31
0.0
  0
LINE
  5
181
  8
0
  6
CONTINUOUS
 62
     7
 10
468.059084893
 20
217.4895685428
 30
0.0
 11
468.059084893
 21
219.4895685428
 31
0.0
  0
LINE
  5
182
  8
0
  6
CONTINUOUS
 62
     7
 10
468.059084893
 20
219.4895685428
 30
0.0
 11
468.859084893
 21
219.4895685428
 31
0.0
  0
LINE
  5
183
  8
0
  6
CONTINUOUS
 62
     7
 10
468.859084893
 20
219.4895685428
 30
0.0
 11
468.859084893
 21
269.9235969754
 31
0.0
  0
LINE
  5
184
  8
0
  6
CONTINUOUS
 62
     7
 10
468.859084893
 20
269.9235969754
 30
0.0
 11
556.659084893
 21
269.9235969754
 31
0.0
  0
LINE
  5
185
  8
0
  6
CONTINUOUS
 62
     7
 10
556.659084893
 20
219.4895685428
 30
0.0
 11
556.659084893
 21
269.9235969754
 31
0.0
  0
LINE
  5
186
  8
0
  6
CONTINUOUS
 62
     7
 10
557.459084893
 20
219.4895685428
 30
0.0
 11
556.659084893
 21
219.4895685428
 31
0.0
  0
LINE
  5
187
  8
0
  6
CONTINUOUS
 62
     7
 10
557.459084893
 20
219.4895685428
 30
0.0
 11
557.459084893
 21
217.4895685428
 31
0.0
  0
LINE
  5
188
  8
0
  6
CONTINUOUS
 62
     7
 10
564.759084893
 20
217.4895685428
 30
0.0
 11
557.459084893
 21
217.4895685428
 31
0.0
  0
ARC
  5
189
  8
0
  6
CONTINUOUS
 62
     7
 10
564.759084893
 20
215.4895685428
 30
0.0
 40
2.000000000000028
 50
0.0
 51
90.0
  0
LINE
  5
18A
  8
0
  6
CONTINUOUS
 62
     7
 10
566.759084893
 20
211.4895685428
 30
0.0
 11
566.759084893
 21
215.4895685428
 31
0.0
  0
LINE
  5
18B
  8
0
  6
CONTINUOUS
 62
     7
 10
458.759084893
 20
211.4895685428
 30
0.0
 11
456.759084893
 21
211.4895685428
 31
0.0
  0
LINE
  5
18C
  8
0
  6
CONTINUOUS
 62
     7
 10
468.859084893
 20
155.8895685428
 30
0.0
 11
556.659084893
 21
155.8895685428
 31
0.0
  0
LINE
  5
18D
  8
0
  6
CONTINUOUS
 62
     7
 10
468.059084893
 20
219.4895685428
 30
0.0
 11
468.059084893
 21
219.4958365527
 31
0.0
  0
LINE
  5
18E
  8
0
  6
CONTINUOUS
 62
     7
 10
468.859084893
 20
270.1531004139
 30
0.0
 11
556.659084893
 21
270.1531004139
 31
0.0
  0
LINE
  5
18F
  8
0
  6
CONTINUOUS
 62
     7
 10
556.659084893
 20
269.9235969754
 30
0.0
 11
556.659084893
 21
270.1531004139
 31
0.0
  0
LINE
  5
190
  8
0
  6
CONTINUOUS
 62
     7
 10
468.859084893
 20
269.9235969754
 30
0.0
 11
468.859084893
 21
270.1531004139
 31
0.0
  0
LINE
  5
191
  8
0
  6
CONTINUOUS
 62
     7
 10
557.459084893
 20
219.4958365527
 30
0.0
 11
557.459084893
 21
219.4895685428
 31
0.0
  0
LINE
  5
192
  8
0
  6
CONTINUOUS
 62
     7
 10
468.959084893
 20
270.4543973608
 30
0.0
 11
468.959084893
 21
270.1531004139
 31
0.0
  0
LINE
  5
193
  8
0
  6
CONTINUOUS
 62
     7
 10
556.559084893
 20
270.4543973608
 30
0.0
 11
556.559084893
 21
270.1531004139
 31
0.0
  0
LINE
  5
194
  8
0
  6
CONTINUOUS
 62
     7
 10
556.559084893
 20
270.4543973608
 30
0.0
 11
556.5514742892
 21
270.4620079646
 31
0.0
  0
LINE
  5
195
  8
0
  6
CONTINUOUS
 62
     7
 10
468.9666954968
 20
270.4620079646
 30
0.0
 11
468.959084893
 21
270.4543973608
 31
0.0
  0
ENDSEC
  0
EOF
