  0
SECTION
  2
HEADER
  9
$ACADVER
  1
AC1009
  9
$DWGCODEPAGE
  3
ansi_1252
  9
$INSBASE
 10
0.0
 20
0.0
 30
0.0
  9
$EXTMIN
 10
0.0
 20
0.0
 30
0.0
  9
$EXTMAX
 10
420.0
 20
297.0
 30
0.0
  9
$LIMMIN
 10
0.0
 20
0.0
  9
$LIMMAX
 10
420.0
 20
297.0
  9
$ORTHOMODE
 70
     0
  9
$REGENMODE
 70
     1
  9
$FILLMODE
 70
     1
  9
$QTEXTMODE
 70
     0
  9
$MIRRTEXT
 70
     1
  9
$DRAGMODE
 70
     2
  9
$LTSCALE
 40
1.0
  9
$OSMODE
 70
    37
  9
$ATTMODE
 70
     1
  9
$TEXTSIZE
 40
3.5
  9
$TRACEWID
 40
1.0
  9
$TEXTSTYLE
  7
STANDARD
  9
$CLAYER
  8
0
  9
$CELTYPE
  6
BYLAYER
  9
$CECOLOR
 62
   256
  9
$DIMSCALE
 40
1.0
  9
$DIMASZ
 40
4.0
  9
$DIMEXO
 40
0.0
  9
$DIMDLI
 40
3.75
  9
$DIMRND
 40
0.0
  9
$DIMDLE
 40
0.0
  9
$DIMEXE
 40
2.0
  9
$DIMTP
 40
0.0
  9
$DIMTM
 40
0.0
  9
$DIMTXT
 40
3.5
  9
$DIMCEN
 40
2.5
  9
$DIMTSZ
 40
0.0
  9
$DIMTOL
 70
     0
  9
$DIMLIM
 70
     0
  9
$DIMTIH
 70
     1
  9
$DIMTOH
 70
     1
  9
$DIMSE1
 70
     0
  9
$DIMSE2
 70
     0
  9
$DIMTAD
 70
     1
  9
$DIMZIN
 70
     0
  9
$DIMBLK
  1

  9
$DIMASO
 70
     1
  9
$DIMSHO
 70
     1
  9
$DIMPOST
  1

  9
$DIMAPOST
  1

  9
$DIMALT
 70
     0
  9
$DIMALTD
 70
     3
  9
$DIMALTF
 40
0.0393700787
  9
$DIMLFAC
 40
5.0
  9
$DIMTOFL
 70
     1
  9
$DIMTVP
 40
0.0
  9
$DIMTIX
 70
     0
  9
$DIMSOXD
 70
     0
  9
$DIMSAH
 70
     0
  9
$DIMBLK1
  1

  9
$DIMBLK2
  1

  9
$DIMSTYLE
  2
ISO-25
  9
$DIMCLRD
 70
     0
  9
$DIMCLRE
 70
     0
  9
$DIMCLRT
 70
     0
  9
$DIMTFAC
 40
1.0
  9
$DIMGAP
 40
1.524
  9
$LUNITS
 70
     2
  9
$LUPREC
 70
     2
  9
$SKETCHINC
 40
1.0
  9
$FILLETRAD
 40
10.0
  9
$AUNITS
 70
     0
  9
$AUPREC
 70
     2
  9
$MENU
  1
.
  9
$ELEVATION
 40
0.0
  9
$PELEVATION
 40
0.0
  9
$THICKNESS
 40
0.0
  9
$LIMCHECK
 70
     0
  9
$CHAMFERA
 40
10.0
  9
$CHAMFERB
 40
10.0
  9
$SKPOLY
 70
     0
  9
$TDCREATE
 40
2457801.447762442
  9
$TDUPDATE
 40
2457801.447762674
  9
$TDINDWG
 40
0.0000000116
  9
$TDUSRTIMER
 40
0.0000000116
  9
$USRTIMER
 70
     1
  9
$ANGBASE
 50
0.0
  9
$ANGDIR
 70
     0
  9
$PDMODE
 70
     0
  9
$PDSIZE
 40
-1.0
  9
$PLINEWID
 40
0.0
  9
$COORDS
 70
     1
  9
$SPLFRAME
 70
     0
  9
$SPLINETYPE
 70
     6
  9
$SPLINESEGS
 70
     8
  9
$ATTDIA
 70
     0
  9
$ATTREQ
 70
     1
  9
$HANDLING
 70
     1
  9
$HANDSEED
  5
3E6
  9
$SURFTAB1
 70
     6
  9
$SURFTAB2
 70
     6
  9
$SURFTYPE
 70
     6
  9
$SURFU
 70
     6
  9
$SURFV
 70
     6
  9
$UCSNAME
  2

  9
$UCSORG
 10
0.0
 20
0.0
 30
0.0
  9
$UCSXDIR
 10
1.0
 20
0.0
 30
0.0
  9
$UCSYDIR
 10
0.0
 20
1.0
 30
0.0
  9
$PUCSNAME
  2

  9
$PUCSORG
 10
0.0
 20
0.0
 30
0.0
  9
$PUCSXDIR
 10
1.0
 20
0.0
 30
0.0
  9
$PUCSYDIR
 10
0.0
 20
1.0
 30
0.0
  9
$USERI1
 70
     0
  9
$USERI2
 70
     0
  9
$USERI3
 70
     0
  9
$USERI4
 70
     0
  9
$USERI5
 70
     0
  9
$USERR1
 40
0.0
  9
$USERR2
 40
0.0
  9
$USERR3
 40
0.0
  9
$USERR4
 40
0.0
  9
$USERR5
 40
0.0
  9
$WORLDVIEW
 70
     1
  9
$SHADEDGE
 70
     3
  9
$SHADEDIF
 70
    70
  9
$TILEMODE
 70
     1
  9
$MAXACTVP
 70
    64
  9
$PLIMCHECK
 70
     0
  9
$PEXTMIN
 10
1.0000000000E+20
 20
1.0000000000E+20
 30
1.0000000000E+20
  9
$PEXTMAX
 10
-1.0000000000E+20
 20
-1.0000000000E+20
 30
-1.0000000000E+20
  9
$PLIMMIN
 10
0.0
 20
0.0
  9
$PLIMMAX
 10
420.0
 20
297.0
  9
$UNITMODE
 70
     0
  9
$VISRETAIN
 70
     1
  9
$PLINEGEN
 70
     0
  9
$PSLTSCALE
 70
     1
  0
ENDSEC
  0
SECTION
  2
TABLES
  0
TABLE
  2
VPORT
 70
     1
  0
VPORT
  2
*ACTIVE
 70
     0
 10
0.0
 20
0.0
 11
1.0
 21
1.0
 12
210.0
 22
148.5
 13
0.0
 23
0.0
 14
10.0
 24
10.0
 15
10.0
 25
10.0
 16
0.0
 26
0.0
 36
1.0
 17
0.0
 27
0.0
 37
0.0
 40
297.0
 41
1.4141414141
 42
50.0
 43
0.0
 44
0.0
 50
0.0
 51
0.0
 71
     0
 72
  2000
 73
     1
 74
     3
 75
     0
 76
     0
 77
     0
 78
     0
  0
ENDTAB
  0
TABLE
  2
LTYPE
 70
     6
  0
LTYPE
  2
CONTINUOUS
 70
     0
  3
Solid line
 72
    65
 73
     0
 40
0.0
  0
LTYPE
  2
HIDDEN
 70
     0
  3
Hidden __ __ __ __ __ __ __ __ __ __ __ __ __ __
 72
    65
 73
     2
 40
1.905
 49
1.27
 49
-0.635
  0
LTYPE
  2
PHANTOM
 70
     0
  3
Phantom ______  __  __  ______  __  __  ______
 72
    65
 73
     6
 40
12.7
 49
6.35
 49
-1.27
 49
1.27
 49
-1.27
 49
1.27
 49
-1.27
  0
LTYPE
  2
CENTER
 70
     0
  3
Center ____ _ ____ _ ____ _ ____ _ ____ _ ____
 72
    65
 73
     4
 40
10.16
 49
6.35
 49
-1.27
 49
1.27
 49
-1.27
  0
LTYPE
  2
CENTERX2
 70
     0
  3
Center (2x) ________  __  ________  __  _____
 72
    65
 73
     4
 40
20.32
 49
12.7
 49
-2.54
 49
2.54
 49
-2.54
  0
LTYPE
  2
DOT2
 70
     0
  3
Dot (.5x) ........................................
 72
    65
 73
     2
 40
0.635
 49
0.0
 49
-0.635
  0
ENDTAB
  0
TABLE
  2
LAYER
 70
     2
  0
LAYER
  2
0
 70
     0
 62
     7
  6
CONTINUOUS
  0
LAYER
  2
FORMAT
 70
     0
 62
     7
  6
CONTINUOUS
  0
ENDTAB
  0
TABLE
  2
STYLE
 70
     1
  0
STYLE
  2
STANDARD
 70
     0
 40
0.0
 41
1.0
 50
0.0
 71
     0
 42
3.5
  3
txt
  4

  0
ENDTAB
  0
TABLE
  2
VIEW
 70
     0
  0
ENDTAB
  0
TABLE
  2
UCS
 70
     0
  0
ENDTAB
  0
TABLE
  2
APPID
 70
     1
  0
APPID
  2
ACAD
 70
     0
  0
ENDTAB
  0
TABLE
  2
DIMSTYLE
 70
     1
  0
DIMSTYLE
  2
ISO-25
 70
     0
  3

  4

  5

  6

  7

 40
1.0
 41
2.5
 42
0.625
 43
3.75
 44
1.25
 45
0.0
 46
0.0
 47
0.0
 48
0.0
140
2.5
141
2.5
142
0.0
143
0.0393700787
144
1.0
145
0.0
146
1.0
147
0.625
 71
     0
 72
     0
 73
     0
 74
     0
 75
     0
 76
     0
 77
     1
 78
     8
170
     0
171
     3
172
     1
173
     0
174
     0
175
     0
176
     0
177
     0
178
     0
  0
ENDTAB
  0
ENDSEC
  0
SECTION
  2
BLOCKS
  0
BLOCK
  8
0
  2
$MODEL_SPACE
 70
     0
 10
0.0
 20
0.0
 30
0.0
  3
$MODEL_SPACE
  1

  0
ENDBLK
  5
21
  8
0
  0
BLOCK
 67
     1
  8
0
  2
$PAPER_SPACE
 70
     0
 10
0.0
 20
0.0
 30
0.0
  3
$PAPER_SPACE
  1

  0
ENDBLK
  5
1D
 67
     1
  8
0
  0
ENDSEC
  0
SECTION
  2
ENTITIES
  0
ARC
  5
45
  8
0
  6
CONTINUOUS
 62
     7
 10
112.9388943963
 20
215.1295723899
 30
0.0
 40
0.4000000000000057
 50
90.0
 51
180.0
  0
ARC
  5
46
  8
0
  6
CONTINUOUS
 62
     7
 10
134.3388943963
 20
215.1295723899
 30
0.0
 40
0.4000000000000057
 50
0.0
 51
90.0
  0
LINE
  5
47
  8
0
  6
CONTINUOUS
 62
     7
 10
134.3388944738
 20
215.5295718242
 30
0.0
 11
112.9388943188
 21
215.5295718242
 31
0.0
  0
LINE
  5
48
  8
0
  6
CONTINUOUS
 62
     7
 10
135.2388940625
 20
264.0385735561
 30
0.0
 11
112.0388947301
 21
264.0385735561
 31
0.0
  0
ARC
  5
49
  8
0
  6
CONTINUOUS
 62
     7
 10
112.0388943963
 20
263.6385731433
 30
0.0
 40
0.4000000000000057
 50
90.0
 51
180.0
  0
ARC
  5
4A
  8
0
  6
CONTINUOUS
 62
     7
 10
135.2388943963
 20
263.6385731433
 30
0.0
 40
0.4000000000000341
 50
0.0
 51
90.0
  0
ARC
  5
4B
  8
0
  6
CONTINUOUS
 62
     7
 10
224.7388943963
 20
215.1295723899
 30
0.0
 40
0.4000000000000057
 50
90.0
 51
180.0
  0
ARC
  5
4C
  8
0
  6
CONTINUOUS
 62
     7
 10
235.6388943963
 20
215.1295723899
 30
0.0
 40
0.3999999999999773
 50
0.0
 51
90.0
  0
LINE
  5
4D
  8
0
  6
CONTINUOUS
 62
     7
 10
235.6388948731
 20
215.5295718242
 30
0.0
 11
224.7388981156
 21
215.5295718242
 31
0.0
  0
ARC
  5
4E
  8
0
  6
CONTINUOUS
 62
     7
 10
11.6388943963
 20
215.1295723899
 30
0.0
 40
0.3999999999999968
 50
90.0
 51
180.0
  0
ARC
  5
4F
  8
0
  6
CONTINUOUS
 62
     7
 10
22.5388943963
 20
215.1295723899
 30
0.0
 40
0.4000000000000128
 50
0.0
 51
90.0
  0
LINE
  5
50
  8
0
  6
CONTINUOUS
 62
     7
 10
22.538890677
 20
215.5295718242
 30
0.0
 11
11.6388939194
 21
215.5295718242
 31
0.0
  0
LINE
  5
51
  8
0
  6
CONTINUOUS
 62
     7
 10
23.8388918214
 20
143.7334347297
 30
0.0
 11
24.8388968282
 21
143.7334347297
 31
0.0
  0
LINE
  5
52
  8
0
  6
CONTINUOUS
 62
     7
 10
24.8388968282
 20
148.5334384967
 30
0.0
 11
23.8388918214
 21
148.5334384967
 31
0.0
  0
LINE
  5
53
  8
0
  6
CONTINUOUS
 62
     7
 10
110.4388944678
 20
143.7334347297
 30
0.0
 11
111.4388942592
 21
143.7334347297
 31
0.0
  0
LINE
  5
54
  8
0
  6
CONTINUOUS
 62
     7
 10
111.4388942592
 20
148.5334384967
 30
0.0
 11
110.4388944678
 21
148.5334384967
 31
0.0
  0
ARC
  5
55
  8
0
  6
CONTINUOUS
 62
     7
 10
110.0388943963
 20
128.5207497029
 30
0.0
 40
0.4000000000000057
 50
270.0
 51
0.0
  0
ARC
  5
56
  8
0
  6
CONTINUOUS
 62
     7
 10
25.2388943963
 20
128.5207497029
 30
0.0
 40
0.4000000000000057
 50
180.0
 51
270.0
  0
LINE
  5
57
  8
0
  6
CONTINUOUS
 62
     7
 10
25.2388916783
 20
128.1207490493
 30
0.0
 11
110.0388936572
 21
128.1207490493
 31
0.0
  0
LINE
  5
58
  8
0
  6
CONTINUOUS
 62
     7
 10
24.7480295472
 20
141.6589487125
 30
0.0
 11
24.8388968282
 21
141.6589487125
 31
0.0
  0
LINE
  5
59
  8
0
  6
CONTINUOUS
 62
     7
 10
110.4388944678
 20
141.6589487125
 30
0.0
 11
110.5297617488
 21
141.6589487125
 31
0.0
  0
ARC
  5
5A
  8
0
  6
CONTINUOUS
 62
     7
 10
25.2388943963
 20
214.7571093209
 30
0.0
 40
0.4000000000000057
 50
90.0
 51
180.0
  0
ARC
  5
5B
  8
0
  6
CONTINUOUS
 62
     7
 10
110.0388943963
 20
214.7571093209
 30
0.0
 40
0.4000000000000057
 50
0.0
 51
90.0
  0
LINE
  5
5C
  8
0
  6
CONTINUOUS
 62
     7
 10
110.0388936572
 20
215.15711432
 30
0.0
 11
25.2388916783
 21
215.15711432
 31
0.0
  0
LINE
  5
5D
  8
0
  6
CONTINUOUS
 62
     7
 10
222.4388919644
 20
143.7334347297
 30
0.0
 11
223.4388969712
 21
143.7334347297
 31
0.0
  0
LINE
  5
5E
  8
0
  6
CONTINUOUS
 62
     7
 10
223.4388969712
 20
148.5334384967
 30
0.0
 11
222.4388919644
 21
148.5334384967
 31
0.0
  0
LINE
  5
5F
  8
0
  6
CONTINUOUS
 62
     7
 10
135.8388945334
 20
143.7334347297
 30
0.0
 11
136.8388943248
 21
143.7334347297
 31
0.0
  0
LINE
  5
60
  8
0
  6
CONTINUOUS
 62
     7
 10
136.8388943248
 20
148.5334384967
 30
0.0
 11
135.8388945334
 21
148.5334384967
 31
0.0
  0
LINE
  5
61
  8
0
  6
CONTINUOUS
 62
     7
 10
223.5388956837
 20
147.3334360649
 30
0.0
 11
223.4388969712
 21
147.3334360649
 31
0.0
  0
LINE
  5
62
  8
0
  6
CONTINUOUS
 62
     7
 10
135.8388945334
 20
147.3334360649
 30
0.0
 11
135.7388943307
 21
147.3334360649
 31
0.0
  0
LINE
  5
63
  8
0
  6
CONTINUOUS
 62
     7
 10
135.7388943307
 20
144.9334371616
 30
0.0
 11
135.8388945334
 21
144.9334371616
 31
0.0
  0
LINE
  5
64
  8
0
  6
CONTINUOUS
 62
     7
 10
223.4388969712
 20
144.9334371616
 30
0.0
 11
223.5388956837
 21
144.9334371616
 31
0.0
  0
LINE
  5
65
  8
0
  6
CONTINUOUS
 62
     7
 10
135.7388943307
 20
214.7185075809
 30
0.0
 11
134.9388941996
 21
214.7185075809
 31
0.0
  0
LINE
  5
66
  8
0
  6
CONTINUOUS
 62
     7
 10
224.3388913445
 20
214.7185075809
 30
0.0
 11
223.5388956837
 21
214.7185075809
 31
0.0
  0
LINE
  5
67
  8
0
  6
CONTINUOUS
 62
     7
 10
223.4312854581
 20
263.905869775
 30
0.0
 11
135.8465053015
 21
263.905869775
 31
0.0
  0
LINE
  5
68
  8
0
  6
CONTINUOUS
 62
     7
 10
111.5388944619
 20
147.3334360649
 30
0.0
 11
111.4388942592
 21
147.3334360649
 31
0.0
  0
LINE
  5
69
  8
0
  6
CONTINUOUS
 62
     7
 10
23.8388918214
 20
147.3334360649
 30
0.0
 11
23.7388931088
 21
147.3334360649
 31
0.0
  0
LINE
  5
6A
  8
0
  6
CONTINUOUS
 62
     7
 10
23.7388931088
 20
144.9334371616
 30
0.0
 11
23.8388918214
 21
144.9334371616
 31
0.0
  0
LINE
  5
6B
  8
0
  6
CONTINUOUS
 62
     7
 10
111.4388942592
 20
144.9334371616
 30
0.0
 11
111.5388944619
 21
144.9334371616
 31
0.0
  0
LINE
  5
6C
  8
0
  6
CONTINUOUS
 62
     7
 10
23.7388931088
 20
214.7185075809
 30
0.0
 11
22.938897448
 21
214.7185075809
 31
0.0
  0
LINE
  5
6D
  8
0
  6
CONTINUOUS
 62
     7
 10
112.338894593
 20
214.7185075809
 30
0.0
 11
111.5388944619
 21
214.7185075809
 31
0.0
  0
LINE
  5
6E
  8
0
  6
CONTINUOUS
 62
     7
 10
111.4312834911
 20
263.905869775
 30
0.0
 11
23.8465033345
 21
263.905869775
 31
0.0
  0
LINE
  5
6F
  8
0
  6
CONTINUOUS
 62
     7
 10
123.6388943963
 20
66.3334358265
 30
0.0
 11
123.6388943963
 21
127.533434682
 31
0.0
  0
LINE
  5
70
  8
0
  6
CONTINUOUS
 62
     7
 10
124.0388944153
 20
66.3334358265
 30
0.0
 11
123.6388943963
 21
66.3334358265
 31
0.0
  0
LINE
  5
71
  8
0
  6
CONTINUOUS
 62
     7
 10
235.6388948731
 20
127.533434682
 30
0.0
 11
235.6388948731
 21
66.3334358265
 31
0.0
  0
LINE
  5
72
  8
0
  6
CONTINUOUS
 62
     7
 10
235.6388948731
 20
66.3334358265
 30
0.0
 11
235.238900023
 21
66.3334358265
 31
0.0
  0
LINE
  5
73
  8
0
  6
CONTINUOUS
 62
     7
 10
224.3388913445
 20
124.3334341575
 30
0.0
 11
224.3388913445
 21
127.533434682
 31
0.0
  0
POLYLINE
  5
74
  8
0
  6
CONTINUOUS
 62
     7
 66
     1
 10
0.0
 20
0.0
 30
0.0
  0
VERTEX
  5
33E
  8
0
  6
CONTINUOUS
 62
     7
 10
224.3388913445
 20
124.3334341575
 30
0.0
  0
VERTEX
  5
33F
  8
0
  6
CONTINUOUS
 62
     7
 10
224.3465803437
 20
124.3257511188
 30
0.0
  0
VERTEX
  5
340
  8
0
  6
CONTINUOUS
 62
     7
 10
224.3693373971
 20
124.302988105
 30
0.0
  0
VERTEX
  5
341
  8
0
  6
CONTINUOUS
 62
     7
 10
224.4063041978
 20
124.2660213043
 30
0.0
  0
VERTEX
  5
342
  8
0
  6
CONTINUOUS
 62
     7
 10
224.4560502343
 20
124.2162812282
 30
0.0
  0
VERTEX
  5
343
  8
0
  6
CONTINUOUS
 62
     7
 10
224.516668158
 20
124.1556633045
 30
0.0
  0
VERTEX
  5
344
  8
0
  6
CONTINUOUS
 62
     7
 10
224.5858214669
 20
124.0865099956
 30
0.0
  0
VERTEX
  5
345
  8
0
  6
CONTINUOUS
 62
     7
 10
224.6608637147
 20
124.0114737083
 30
0.0
  0
VERTEX
  5
346
  8
0
  6
CONTINUOUS
 62
     7
 10
224.7388981156
 20
123.9334333469
 30
0.0
  0
SEQEND
  5
3E5
  8
0
  6
CONTINUOUS
 62
     7
  0
LINE
  5
75
  8
0
  6
CONTINUOUS
 62
     7
 10
224.7388981156
 20
127.9334354927
 30
0.0
 11
235.238900023
 21
127.9334354927
 31
0.0
  0
LINE
  5
76
  8
0
  6
CONTINUOUS
 62
     7
 10
134.9388941996
 20
124.3334341575
 30
0.0
 11
224.3388913445
 21
124.3334341575
 31
0.0
  0
POLYLINE
  5
77
  8
0
  6
CONTINUOUS
 62
     7
 66
     1
 10
0.0
 20
0.0
 30
0.0
  0
VERTEX
  5
347
  8
0
  6
CONTINUOUS
 62
     7
 10
134.9388941996
 20
124.3334341575
 30
0.0
  0
VERTEX
  5
348
  8
0
  6
CONTINUOUS
 62
     7
 10
134.9328175061
 20
124.3273604442
 30
0.0
  0
VERTEX
  5
349
  8
0
  6
CONTINUOUS
 62
     7
 10
134.9147714548
 20
124.3093121578
 30
0.0
  0
VERTEX
  5
34A
  8
0
  6
CONTINUOUS
 62
     7
 10
134.8853044085
 20
124.2798436214
 30
0.0
  0
VERTEX
  5
34B
  8
0
  6
CONTINUOUS
 62
     7
 10
134.8453119271
 20
124.2398548652
 30
0.0
  0
VERTEX
  5
34C
  8
0
  6
CONTINUOUS
 62
     7
 10
134.7960092001
 20
124.1905499031
 30
0.0
  0
VERTEX
  5
34D
  8
0
  6
CONTINUOUS
 62
     7
 10
134.7388945393
 20
124.1334367324
 30
0.0
  0
VERTEX
  5
34E
  8
0
  6
CONTINUOUS
 62
     7
 10
134.67570244
 20
124.0702438881
 30
0.0
  0
VERTEX
  5
34F
  8
0
  6
CONTINUOUS
 62
     7
 10
134.6083536618
 20
124.0028965999
 30
0.0
  0
VERTEX
  5
350
  8
0
  6
CONTINUOUS
 62
     7
 10
134.538894134
 20
123.9334333469
 30
0.0
  0
SEQEND
  5
3E4
  8
0
  6
CONTINUOUS
 62
     7
  0
LINE
  5
78
  8
0
  6
CONTINUOUS
 62
     7
 10
124.0388944153
 20
66.3334358265
 30
0.0
 11
235.238900023
 21
66.3334358265
 31
0.0
  0
ARC
  5
79
  8
0
  6
CONTINUOUS
 62
     7
 10
235.2388943963
 20
127.5334358265
 30
0.0
 40
0.3999999999999773
 50
0.0
 51
90.0
  0
LINE
  5
7A
  8
0
  6
CONTINUOUS
 62
     7
 10
124.0388944153
 20
127.9334354927
 30
0.0
 11
134.538894134
 21
127.9334354927
 31
0.0
  0
LINE
  5
7B
  8
0
  6
CONTINUOUS
 62
     7
 10
134.9388941996
 20
127.533434682
 30
0.0
 11
134.9388941996
 21
124.3334341575
 31
0.0
  0
ARC
  5
7C
  8
0
  6
CONTINUOUS
 62
     7
 10
124.0388943963
 20
127.5334358265
 30
0.0
 40
0.3999999999999915
 50
90.0
 51
180.0
  0
ARC
  5
7D
  8
0
  6
CONTINUOUS
 62
     7
 10
134.5388943963
 20
127.5334358265
 30
0.0
 40
0.4000000000000057
 50
0.0
 51
90.0
  0
ARC
  5
7E
  8
0
  6
CONTINUOUS
 62
     7
 10
224.7388943963
 20
127.5334358265
 30
0.0
 40
0.3999999999999773
 50
90.0
 51
180.0
  0
LINE
  5
7F
  8
0
  6
CONTINUOUS
 62
     7
 10
223.5388956837
 20
130.3334343959
 30
0.0
 11
135.7388943307
 21
130.3334343959
 31
0.0
  0
ARC
  5
80
  8
0
  6
CONTINUOUS
 62
     7
 10
22.5388943963
 20
127.5334358265
 30
0.0
 40
0.4000000000000128
 50
0.0
 51
90.0
  0
LINE
  5
81
  8
0
  6
CONTINUOUS
 62
     7
 10
112.338894593
 20
124.3334341575
 30
0.0
 11
112.338894593
 21
127.533434682
 31
0.0
  0
POLYLINE
  5
82
  8
0
  6
CONTINUOUS
 62
     7
 66
     1
 10
0.0
 20
0.0
 30
0.0
  0
VERTEX
  5
351
  8
0
  6
CONTINUOUS
 62
     7
 10
112.338894593
 20
124.3334341575
 30
0.0
  0
VERTEX
  5
352
  8
0
  6
CONTINUOUS
 62
     7
 10
112.3465806119
 20
124.3257511188
 30
0.0
  0
VERTEX
  5
353
  8
0
  6
CONTINUOUS
 62
     7
 10
112.3693428807
 20
124.302988105
 30
0.0
  0
VERTEX
  5
354
  8
0
  6
CONTINUOUS
 62
     7
 10
112.4063067012
 20
124.2660213043
 30
0.0
  0
VERTEX
  5
355
  8
0
  6
CONTINUOUS
 62
     7
 10
112.4560519926
 20
124.2162812282
 30
0.0
  0
VERTEX
  5
356
  8
0
  6
CONTINUOUS
 62
     7
 10
112.5166661911
 20
124.1556633045
 30
0.0
  0
VERTEX
  5
357
  8
0
  6
CONTINUOUS
 62
     7
 10
112.5858209901
 20
124.0865099956
 30
0.0
  0
VERTEX
  5
358
  8
0
  6
CONTINUOUS
 62
     7
 10
112.6608580224
 20
124.0114737083
 30
0.0
  0
VERTEX
  5
359
  8
0
  6
CONTINUOUS
 62
     7
 10
112.7388946585
 20
123.9334333469
 30
0.0
  0
SEQEND
  5
3E3
  8
0
  6
CONTINUOUS
 62
     7
  0
ARC
  5
83
  8
0
  6
CONTINUOUS
 62
     7
 10
123.2388943963
 20
127.5334358265
 30
0.0
 40
0.4000000000000057
 50
0.0
 51
90.0
  0
LINE
  5
84
  8
0
  6
CONTINUOUS
 62
     7
 10
112.7388946585
 20
127.9334354927
 30
0.0
 11
123.2388943773
 21
127.9334354927
 31
0.0
  0
LINE
  5
85
  8
0
  6
CONTINUOUS
 62
     7
 10
12.0388887696
 20
127.9334354927
 30
0.0
 11
22.538890677
 21
127.9334354927
 31
0.0
  0
LINE
  5
86
  8
0
  6
CONTINUOUS
 62
     7
 10
22.938897448
 20
124.3334341575
 30
0.0
 11
112.338894593
 21
124.3334341575
 31
0.0
  0
POLYLINE
  5
87
  8
0
  6
CONTINUOUS
 62
     7
 66
     1
 10
0.0
 20
0.0
 30
0.0
  0
VERTEX
  5
35A
  8
0
  6
CONTINUOUS
 62
     7
 10
22.938897448
 20
124.3334341575
 30
0.0
  0
VERTEX
  5
35B
  8
0
  6
CONTINUOUS
 62
     7
 10
22.9328177743
 20
124.3273604442
 30
0.0
  0
VERTEX
  5
35C
  8
0
  6
CONTINUOUS
 62
     7
 10
22.9147694878
 20
124.3093121578
 30
0.0
  0
VERTEX
  5
35D
  8
0
  6
CONTINUOUS
 62
     7
 10
22.8853009515
 20
124.2798436214
 30
0.0
  0
VERTEX
  5
35E
  8
0
  6
CONTINUOUS
 62
     7
 10
22.8453062348
 20
124.2398548652
 30
0.0
  0
VERTEX
  5
35F
  8
0
  6
CONTINUOUS
 62
     7
 10
22.7960131936
 20
124.1905499031
 30
0.0
  0
VERTEX
  5
360
  8
0
  6
CONTINUOUS
 62
     7
 10
22.738900023
 20
124.1334367324
 30
0.0
  0
VERTEX
  5
361
  8
0
  6
CONTINUOUS
 62
     7
 10
22.6757071786
 20
124.0702438881
 30
0.0
  0
VERTEX
  5
362
  8
0
  6
CONTINUOUS
 62
     7
 10
22.60835393
 20
124.0028965999
 30
0.0
  0
VERTEX
  5
363
  8
0
  6
CONTINUOUS
 62
     7
 10
22.538890677
 20
123.9334333469
 30
0.0
  0
SEQEND
  5
3E2
  8
0
  6
CONTINUOUS
 62
     7
  0
ARC
  5
88
  8
0
  6
CONTINUOUS
 62
     7
 10
12.0388943963
 20
127.5334358265
 30
0.0
 40
0.3999999999999986
 50
90.0
 51
180.0
  0
LINE
  5
89
  8
0
  6
CONTINUOUS
 62
     7
 10
22.938897448
 20
127.533434682
 30
0.0
 11
22.938897448
 21
124.3334341575
 31
0.0
  0
LINE
  5
8A
  8
0
  6
CONTINUOUS
 62
     7
 10
123.6388943963
 20
66.3334358265
 30
0.0
 11
123.2388943773
 21
66.3334358265
 31
0.0
  0
LINE
  5
8B
  8
0
  6
CONTINUOUS
 62
     7
 10
12.0388887696
 20
66.3334358265
 30
0.0
 11
123.2388943773
 21
66.3334358265
 31
0.0
  0
LINE
  5
8C
  8
0
  6
CONTINUOUS
 62
     7
 10
11.6388939194
 20
66.3334358265
 30
0.0
 11
11.6388939194
 21
127.533434682
 31
0.0
  0
LINE
  5
8D
  8
0
  6
CONTINUOUS
 62
     7
 10
12.0388887696
 20
66.3334358265
 30
0.0
 11
11.6388939194
 21
66.3334358265
 31
0.0
  0
ARC
  5
8E
  8
0
  6
CONTINUOUS
 62
     7
 10
112.7388943963
 20
127.5334358265
 30
0.0
 40
0.4000000000000057
 50
90.0
 51
180.0
  0
LINE
  5
8F
  8
0
  6
CONTINUOUS
 62
     7
 10
111.5388944619
 20
130.3334343959
 30
0.0
 11
110.4388944678
 21
130.3334343959
 31
0.0
  0
LINE
  5
90
  8
0
  6
CONTINUOUS
 62
     7
 10
24.8388968282
 20
130.3334343959
 30
0.0
 11
23.7388931088
 21
130.3334343959
 31
0.0
  0
LINE
  5
91
  8
0
  6
CONTINUOUS
 62
     7
 10
134.3388944738
 20
128.3334363033
 30
0.0
 11
112.9388943188
 21
128.3334363033
 31
0.0
  0
ARC
  5
92
  8
0
  6
CONTINUOUS
 62
     7
 10
112.9388943963
 20
128.7334358264
 30
0.0
 40
0.4000000000000057
 50
180.0
 51
270.0
  0
ARC
  5
93
  8
0
  6
CONTINUOUS
 62
     7
 10
134.3388943963
 20
128.7334358264
 30
0.0
 40
0.4000000000000057
 50
270.0
 51
0.0
  0
LINE
  5
94
  8
0
  6
CONTINUOUS
 62
     7
 10
134.7388945393
 20
211.3683212329
 30
0.0
 11
134.7388945393
 21
128.7334371139
 31
0.0
  0
LINE
  5
95
  8
0
  6
CONTINUOUS
 62
     7
 10
112.5388942532
 20
128.7334371139
 30
0.0
 11
112.5388942532
 21
211.3683212329
 31
0.0
  0
LINE
  5
96
  8
0
  6
CONTINUOUS
 62
     7
 10
134.7388945393
 20
215.1295769741
 30
0.0
 11
134.7388945393
 21
211.3683212329
 31
0.0
  0
LINE
  5
97
  8
0
  6
CONTINUOUS
 62
     7
 10
112.5388942532
 20
211.3683212329
 30
0.0
 11
112.5388942532
 21
215.1295769741
 31
0.0
  0
LINE
  5
98
  8
0
  6
CONTINUOUS
 62
     7
 10
135.4388944678
 20
214.7185075809
 30
0.0
 11
135.4388944678
 21
214.8225415279
 31
0.0
  0
LINE
  5
99
  8
0
  6
CONTINUOUS
 62
     7
 10
135.4388944678
 20
214.8225415279
 30
0.0
 11
134.7388945393
 21
214.8225415279
 31
0.0
  0
LINE
  5
9A
  8
0
  6
CONTINUOUS
 62
     7
 10
135.2388940625
 20
214.839969926
 30
0.0
 11
134.7388945393
 21
214.839969926
 31
0.0
  0
ARC
  5
9B
  8
0
  6
CONTINUOUS
 62
     7
 10
135.3381806177
 20
213.6668014154
 30
0.0
 40
1.177362380270643
 50
75.2019487008
 51
94.8374781308
  0
LINE
  5
9C
  8
0
  6
CONTINUOUS
 62
     7
 10
135.6388941281
 20
214.7185075809
 30
0.0
 11
135.6388941281
 21
214.8051131298
 31
0.0
  0
LINE
  5
9D
  8
0
  6
CONTINUOUS
 62
     7
 10
135.6388941281
 20
263.6385787059
 30
0.0
 11
135.6388941281
 21
214.8051131298
 31
0.0
  0
LINE
  5
9E
  8
0
  6
CONTINUOUS
 62
     7
 10
112.5388942532
 20
214.8225415279
 30
0.0
 11
111.8388943248
 21
214.8225415279
 31
0.0
  0
LINE
  5
9F
  8
0
  6
CONTINUOUS
 62
     7
 10
111.8388943248
 20
214.8225415279
 30
0.0
 11
111.8388943248
 21
214.7185075809
 31
0.0
  0
LINE
  5
A0
  8
0
  6
CONTINUOUS
 62
     7
 10
111.6388946645
 20
214.7185075809
 30
0.0
 11
111.6388946645
 21
214.8051131298
 31
0.0
  0
ARC
  5
A1
  8
0
  6
CONTINUOUS
 62
     7
 10
111.9396081749
 20
213.6668014154
 30
0.0
 40
1.177362380270553
 50
85.1625218692
 51
104.7980512992
  0
LINE
  5
A2
  8
0
  6
CONTINUOUS
 62
     7
 10
112.5388942532
 20
214.839969926
 30
0.0
 11
112.0388947301
 21
214.839969926
 31
0.0
  0
LINE
  5
A3
  8
0
  6
CONTINUOUS
 62
     7
 10
111.6388946645
 20
214.8051131298
 30
0.0
 11
111.6388946645
 21
263.6385787059
 31
0.0
  0
ARC
  5
A4
  8
0
  6
CONTINUOUS
 62
     7
 10
224.7388943963
 20
128.7334358264
 30
0.0
 40
0.4000000000000057
 50
180.0
 51
270.0
  0
ARC
  5
A5
  8
0
  6
CONTINUOUS
 62
     7
 10
235.6388943963
 20
128.7334358264
 30
0.0
 40
0.4000000000000057
 50
270.0
 51
0.0
  0
LINE
  5
A6
  8
0
  6
CONTINUOUS
 62
     7
 10
235.6388948731
 20
128.3334363033
 30
0.0
 11
224.7388981156
 21
128.3334363033
 31
0.0
  0
LINE
  5
A7
  8
0
  6
CONTINUOUS
 62
     7
 10
224.3388913445
 20
128.7334371139
 30
0.0
 11
224.3388913445
 21
211.3683212329
 31
0.0
  0
LINE
  5
A8
  8
0
  6
CONTINUOUS
 62
     7
 10
236.0388897233
 20
211.3683212329
 30
0.0
 11
236.0388897233
 21
128.7334371139
 31
0.0
  0
LINE
  5
A9
  8
0
  6
CONTINUOUS
 62
     7
 10
224.3388913445
 20
211.3683212329
 30
0.0
 11
224.3388913445
 21
215.1295769741
 31
0.0
  0
LINE
  5
AA
  8
0
  6
CONTINUOUS
 62
     7
 10
236.0388897233
 20
215.1295769741
 30
0.0
 11
236.0388897233
 21
211.3683212329
 31
0.0
  0
ARC
  5
AB
  8
0
  6
CONTINUOUS
 62
     7
 10
11.6388943963
 20
128.7334358264
 30
0.0
 40
0.4000000000000057
 50
180.0
 51
270.0
  0
ARC
  5
AC
  8
0
  6
CONTINUOUS
 62
     7
 10
22.5388943963
 20
128.7334358264
 30
0.0
 40
0.4000000000000128
 50
270.0
 51
0.0
  0
LINE
  5
AD
  8
0
  6
CONTINUOUS
 62
     7
 10
22.538890677
 20
128.3334363033
 30
0.0
 11
11.6388939194
 21
128.3334363033
 31
0.0
  0
LINE
  5
AE
  8
0
  6
CONTINUOUS
 62
     7
 10
22.938897448
 20
211.3683212329
 30
0.0
 11
22.938897448
 21
128.7334371139
 31
0.0
  0
LINE
  5
AF
  8
0
  6
CONTINUOUS
 62
     7
 10
11.2388990693
 20
128.7334371139
 30
0.0
 11
11.2388990693
 21
211.3683212329
 31
0.0
  0
LINE
  5
B0
  8
0
  6
CONTINUOUS
 62
     7
 10
11.2388990693
 20
211.3683212329
 30
0.0
 11
11.2388990693
 21
215.1295769741
 31
0.0
  0
LINE
  5
B1
  8
0
  6
CONTINUOUS
 62
     7
 10
22.938897448
 20
215.1295769741
 30
0.0
 11
22.938897448
 21
211.3683212329
 31
0.0
  0
LINE
  5
B2
  8
0
  6
CONTINUOUS
 62
     7
 10
24.8388968282
 20
129.1482735206
 30
0.0
 11
24.8388968282
 21
211.0783923198
 31
0.0
  0
LINE
  5
B3
  8
0
  6
CONTINUOUS
 62
     7
 10
110.4388944678
 20
211.0783923198
 30
0.0
 11
110.4388944678
 21
129.1482735206
 31
0.0
  0
LINE
  5
B4
  8
0
  6
CONTINUOUS
 62
     7
 10
24.8388968282
 20
128.52074986
 30
0.0
 11
24.8388968282
 21
129.1482735206
 31
0.0
  0
LINE
  5
B5
  8
0
  6
CONTINUOUS
 62
     7
 10
110.4388944678
 20
129.1482735206
 30
0.0
 11
110.4388944678
 21
128.52074986
 31
0.0
  0
LINE
  5
B6
  8
0
  6
CONTINUOUS
 62
     7
 10
23.8388918214
 20
143.7425661613
 30
0.0
 11
23.8388918214
 21
143.7334347297
 31
0.0
  0
LINE
  5
B7
  8
0
  6
CONTINUOUS
 62
     7
 10
23.8388918214
 20
148.5334384967
 30
0.0
 11
23.8388918214
 21
143.7425661613
 31
0.0
  0
LINE
  5
B8
  8
0
  6
CONTINUOUS
 62
     7
 10
111.4388942592
 20
143.7425661613
 30
0.0
 11
111.4388942592
 21
143.7334347297
 31
0.0
  0
LINE
  5
B9
  8
0
  6
CONTINUOUS
 62
     7
 10
111.4388942592
 20
148.5334384967
 30
0.0
 11
111.4388942592
 21
143.7425661613
 31
0.0
  0
LINE
  5
BA
  8
0
  6
CONTINUOUS
 62
     7
 10
24.8388968282
 20
211.0783923198
 30
0.0
 11
24.8388968282
 21
214.7383678485
 31
0.0
  0
LINE
  5
BB
  8
0
  6
CONTINUOUS
 62
     7
 10
110.4388944678
 20
214.7383678485
 30
0.0
 11
110.4388944678
 21
211.0783923198
 31
0.0
  0
LINE
  5
BC
  8
0
  6
CONTINUOUS
 62
     7
 10
24.8388968282
 20
142.0341361095
 30
0.0
 11
24.7388921552
 21
142.0341361095
 31
0.0
  0
LINE
  5
BD
  8
0
  6
CONTINUOUS
 62
     7
 10
110.5388946705
 20
142.0341361095
 30
0.0
 11
110.4388944678
 21
142.0341361095
 31
0.0
  0
LINE
  5
BE
  8
0
  6
CONTINUOUS
 62
     7
 10
110.5388946705
 20
142.0341361095
 30
0.0
 11
110.5388946705
 21
141.6680801441
 31
0.0
  0
LINE
  5
BF
  8
0
  6
CONTINUOUS
 62
     7
 10
24.7388921552
 20
142.0341361095
 30
0.0
 11
24.7388921552
 21
141.6680801441
 31
0.0
  0
LINE
  5
C0
  8
0
  6
CONTINUOUS
 62
     7
 10
110.5388946705
 20
215.1548255016
 30
0.0
 11
110.081572073
 21
215.1548255016
 31
0.0
  0
LINE
  5
C1
  8
0
  6
CONTINUOUS
 62
     7
 10
110.5388946705
 20
215.1548255016
 30
0.0
 11
110.5388946705
 21
148.5334384967
 31
0.0
  0
LINE
  5
C2
  8
0
  6
CONTINUOUS
 62
     7
 10
110.5388946705
 20
143.7334347297
 30
0.0
 11
110.5388946705
 21
142.0341361095
 31
0.0
  0
LINE
  5
C3
  8
0
  6
CONTINUOUS
 62
     7
 10
25.1962147527
 20
215.1548255016
 30
0.0
 11
24.7388921552
 21
215.1548255016
 31
0.0
  0
LINE
  5
C4
  8
0
  6
CONTINUOUS
 62
     7
 10
24.7388921552
 20
215.1548255016
 30
0.0
 11
24.7388921552
 21
148.5334384967
 31
0.0
  0
LINE
  5
C5
  8
0
  6
CONTINUOUS
 62
     7
 10
24.7388921552
 20
143.7334347297
 30
0.0
 11
24.7388921552
 21
142.0341361095
 31
0.0
  0
LINE
  5
C6
  8
0
  6
CONTINUOUS
 62
     7
 10
24.7388921552
 20
141.6680801441
 30
0.0
 11
24.7480295472
 21
141.6589487125
 31
0.0
  0
LINE
  5
C7
  8
0
  6
CONTINUOUS
 62
     7
 10
110.5388946705
 20
141.6680801441
 30
0.0
 11
110.5297617488
 21
141.6589487125
 31
0.0
  0
LINE
  5
C8
  8
0
  6
CONTINUOUS
 62
     7
 10
24.8388968282
 20
214.7383678485
 30
0.0
 11
24.8388968282
 21
214.7571075489
 31
0.0
  0
LINE
  5
C9
  8
0
  6
CONTINUOUS
 62
     7
 10
110.4388944678
 20
214.7571075489
 30
0.0
 11
110.4388944678
 21
214.7383678485
 31
0.0
  0
LINE
  5
CA
  8
0
  6
CONTINUOUS
 62
     7
 10
139.1388945155
 20
156.3334334423
 30
0.0
 11
220.1388917737
 21
156.3334334423
 31
0.0
  0
ARC
  5
CB
  8
0
  6
CONTINUOUS
 62
     7
 10
220.1388922669
 20
153.9334290718
 30
0.0
 40
2.400004370507165
 50
0.0001305203
 51
90.0000117752
  0
ARC
  5
CC
  8
0
  6
CONTINUOUS
 62
     7
 10
139.1388901672
 20
153.9334373972
 30
0.0
 40
2.399996045117137
 50
89.9998961924
 51
180.0000682337
  0
LINE
  5
CD
  8
0
  6
CONTINUOUS
 62
     7
 10
136.8388943248
 20
149.6334362556
 30
0.0
 11
136.8388943248
 21
149.7334349681
 31
0.0
  0
LINE
  5
CE
  8
0
  6
CONTINUOUS
 62
     7
 10
222.4388919644
 20
149.7334349681
 30
0.0
 11
222.4388919644
 21
149.6334362556
 31
0.0
  0
LINE
  5
CF
  8
0
  6
CONTINUOUS
 62
     7
 10
222.5388966374
 20
153.933434539
 30
0.0
 11
222.5388966374
 21
149.7334349681
 31
0.0
  0
LINE
  5
D0
  8
0
  6
CONTINUOUS
 62
     7
 10
222.5388966374
 20
149.7334349681
 30
0.0
 11
222.0388971143
 21
149.7334349681
 31
0.0
  0
LINE
  5
D1
  8
0
  6
CONTINUOUS
 62
     7
 10
136.7388941221
 20
153.933434539
 30
0.0
 11
136.7388941221
 21
149.7334349681
 31
0.0
  0
LINE
  5
D2
  8
0
  6
CONTINUOUS
 62
     7
 10
137.2388951354
 20
149.7334349681
 30
0.0
 11
136.7388941221
 21
149.7334349681
 31
0.0
  0
LINE
  5
D3
  8
0
  6
CONTINUOUS
 62
     7
 10
136.8388943248
 20
142.1334374477
 30
0.0
 11
136.8388943248
 21
149.6334362556
 31
0.0
  0
LINE
  5
D4
  8
0
  6
CONTINUOUS
 62
     7
 10
222.4388919644
 20
149.6334362556
 30
0.0
 11
222.4388919644
 21
142.1334374477
 31
0.0
  0
ARC
  5
D5
  8
0
  6
CONTINUOUS
 62
     7
 10
137.2388943963
 20
142.1334358265
 30
0.0
 40
0.4000000000000341
 50
180.0
 51
270.0
  0
ARC
  5
D6
  8
0
  6
CONTINUOUS
 62
     7
 10
222.0388943963
 20
142.1334358265
 30
0.0
 40
0.4000000000000341
 50
270.0
 51
0.0
  0
LINE
  5
D7
  8
0
  6
CONTINUOUS
 62
     7
 10
222.0388971143
 20
141.7334366371
 30
0.0
 11
137.2388951354
 21
141.7334366371
 31
0.0
  0
LINE
  5
D8
  8
0
  6
CONTINUOUS
 62
     7
 10
223.4388969712
 20
148.5334384967
 30
0.0
 11
223.4388969712
 21
143.7334347297
 31
0.0
  0
LINE
  5
D9
  8
0
  6
CONTINUOUS
 62
     7
 10
135.8388945334
 20
148.5334384967
 30
0.0
 11
135.8388945334
 21
143.7334347297
 31
0.0
  0
LINE
  5
DA
  8
0
  6
CONTINUOUS
 62
     7
 10
224.3388913445
 20
128.933434539
 30
0.0
 11
223.5388956837
 21
128.933434539
 31
0.0
  0
LINE
  5
DB
  8
0
  6
CONTINUOUS
 62
     7
 10
223.5388956837
 20
128.933434539
 30
0.0
 11
223.5388956837
 21
129.8031616737
 31
0.0
  0
LINE
  5
DC
  8
0
  6
CONTINUOUS
 62
     7
 10
135.7388943307
 20
128.933434539
 30
0.0
 11
134.9388941996
 21
128.933434539
 31
0.0
  0
LINE
  5
DD
  8
0
  6
CONTINUOUS
 62
     7
 10
135.7388943307
 20
129.8031616737
 30
0.0
 11
135.7388943307
 21
128.933434539
 31
0.0
  0
LINE
  5
DE
  8
0
  6
CONTINUOUS
 62
     7
 10
134.9388941996
 20
128.933434539
 30
0.0
 11
134.9388941996
 21
129.8031616737
 31
0.0
  0
LINE
  5
DF
  8
0
  6
CONTINUOUS
 62
     7
 10
223.5388956837
 20
210.7589948703
 30
0.0
 11
223.5388956837
 21
129.8031616737
 31
0.0
  0
LINE
  5
E0
  8
0
  6
CONTINUOUS
 62
     7
 10
135.7388943307
 20
129.8031616737
 30
0.0
 11
135.7388943307
 21
210.7589948703
 31
0.0
  0
LINE
  5
E1
  8
0
  6
CONTINUOUS
 62
     7
 10
134.9388941996
 20
129.8031616737
 30
0.0
 11
134.9388941996
 21
210.7589948703
 31
0.0
  0
LINE
  5
E2
  8
0
  6
CONTINUOUS
 62
     7
 10
135.7388943307
 20
211.4143121769
 30
0.0
 11
135.7388943307
 21
210.7589948703
 31
0.0
  0
LINE
  5
E3
  8
0
  6
CONTINUOUS
 62
     7
 10
134.9388941996
 20
210.7589948703
 30
0.0
 11
134.9388941996
 21
211.4143121769
 31
0.0
  0
LINE
  5
E4
  8
0
  6
CONTINUOUS
 62
     7
 10
223.5388956837
 20
210.7589948703
 30
0.0
 11
223.5388956837
 21
211.4143121769
 31
0.0
  0
LINE
  5
E5
  8
0
  6
CONTINUOUS
 62
     7
 10
135.7388943307
 20
211.4143121769
 30
0.0
 11
135.7388943307
 21
214.6435607006
 31
0.0
  0
LINE
  5
E6
  8
0
  6
CONTINUOUS
 62
     7
 10
134.9388941996
 20
211.4143121769
 30
0.0
 11
134.9388941996
 21
214.6435607006
 31
0.0
  0
LINE
  5
E7
  8
0
  6
CONTINUOUS
 62
     7
 10
223.5388956837
 20
214.6435607006
 30
0.0
 11
223.5388956837
 21
211.4143121769
 31
0.0
  0
LINE
  5
E8
  8
0
  6
CONTINUOUS
 62
     7
 10
130.7388946287
 20
128.3334363033
 30
0.0
 11
130.7388946287
 21
127.9334354927
 31
0.0
  0
LINE
  5
E9
  8
0
  6
CONTINUOUS
 62
     7
 10
134.9388941996
 20
131.9334376384
 30
0.0
 11
134.7388945393
 21
131.9334376384
 31
0.0
  0
LINE
  5
EA
  8
0
  6
CONTINUOUS
 62
     7
 10
135.7388943307
 20
128.933434539
 30
0.0
 11
135.7388943307
 21
124.3334341575
 31
0.0
  0
LINE
  5
EB
  8
0
  6
CONTINUOUS
 62
     7
 10
228.5388968758
 20
128.3334363033
 30
0.0
 11
228.5388968758
 21
127.9334354927
 31
0.0
  0
LINE
  5
EC
  8
0
  6
CONTINUOUS
 62
     7
 10
223.5388956837
 20
128.933434539
 30
0.0
 11
223.5388956837
 21
124.3334341575
 31
0.0
  0
LINE
  5
ED
  8
0
  6
CONTINUOUS
 62
     7
 10
135.7388943307
 20
214.7185075809
 30
0.0
 11
135.7388943307
 21
214.6435607006
 31
0.0
  0
LINE
  5
EE
  8
0
  6
CONTINUOUS
 62
     7
 10
134.9388941996
 20
214.6435607006
 30
0.0
 11
134.9388941996
 21
214.7185075809
 31
0.0
  0
LINE
  5
EF
  8
0
  6
CONTINUOUS
 62
     7
 10
223.5388956837
 20
214.6435607006
 30
0.0
 11
223.5388956837
 21
214.7185075809
 31
0.0
  0
ARC
  5
F0
  8
0
  6
CONTINUOUS
 62
     7
 10
217.3043520723
 20
146.9401764738
 30
0.0
 40
7.542410614860242
 50
35.5764375294
 51
46.051238904
  0
ARC
  5
F1
  8
0
  6
CONTINUOUS
 62
     7
 10
141.9728548347
 20
146.9406850732
 30
0.0
 40
7.541639241300132
 50
133.9482492279
 51
144.424121265
  0
LINE
  5
F2
  8
0
  6
CONTINUOUS
 62
     7
 10
135.8388945334
 20
151.3282645275
 30
0.0
 11
135.8388945334
 21
263.8982642223
 31
0.0
  0
POLYLINE
  5
F3
  8
0
  6
CONTINUOUS
 62
     7
 66
     1
 10
0.0
 20
0.0
 30
0.0
  0
VERTEX
  5
364
  8
0
  6
CONTINUOUS
 62
     7
 10
135.8388945334
 20
263.8982642223
 30
0.0
  0
VERTEX
  5
365
  8
0
  6
CONTINUOUS
 62
     7
 10
135.8692787461
 20
263.8982642223
 30
0.0
  0
VERTEX
  5
366
  8
0
  6
CONTINUOUS
 62
     7
 10
135.9595090024
 20
263.8377297451
 30
0.0
  0
VERTEX
  5
367
  8
0
  6
CONTINUOUS
 62
     7
 10
136.1068434887
 20
263.7184966137
 30
0.0
  0
VERTEX
  5
368
  8
0
  6
CONTINUOUS
 62
     7
 10
136.306805151
 20
263.5441768695
 30
0.0
  0
VERTEX
  5
369
  8
0
  6
CONTINUOUS
 62
     7
 10
136.5533195309
 20
263.320087247
 30
0.0
  0
VERTEX
  5
36A
  8
0
  6
CONTINUOUS
 62
     7
 10
136.8388943248
 20
263.0530226757
 30
0.0
  0
VERTEX
  5
36B
  8
0
  6
CONTINUOUS
 62
     7
 10
137.1548540764
 20
262.7511132289
 30
0.0
  0
VERTEX
  5
36C
  8
0
  6
CONTINUOUS
 62
     7
 10
137.4915979676
 20
262.4235141803
 30
0.0
  0
VERTEX
  5
36D
  8
0
  6
CONTINUOUS
 62
     7
 10
137.8388948612
 20
262.0801914264
 30
0.0
  0
SEQEND
  5
3E1
  8
0
  6
CONTINUOUS
 62
     7
  0
POLYLINE
  5
F4
  8
0
  6
CONTINUOUS
 62
     7
 66
     1
 10
0.0
 20
0.0
 30
0.0
  0
VERTEX
  5
36E
  8
0
  6
CONTINUOUS
 62
     7
 10
221.4388929181
 20
262.0801914264
 30
0.0
  0
VERTEX
  5
36F
  8
0
  6
CONTINUOUS
 62
     7
 10
221.7861913018
 20
262.4235141803
 30
0.0
  0
VERTEX
  5
370
  8
0
  6
CONTINUOUS
 62
     7
 10
222.1229337029
 20
262.7511132289
 30
0.0
  0
VERTEX
  5
371
  8
0
  6
CONTINUOUS
 62
     7
 10
222.4388919644
 20
263.0530226757
 30
0.0
  0
VERTEX
  5
372
  8
0
  6
CONTINUOUS
 62
     7
 10
222.7244697385
 20
263.320087247
 30
0.0
  0
VERTEX
  5
373
  8
0
  6
CONTINUOUS
 62
     7
 10
222.9709826283
 20
263.5441768695
 30
0.0
  0
VERTEX
  5
374
  8
0
  6
CONTINUOUS
 62
     7
 10
223.1709442906
 20
263.7184966137
 30
0.0
  0
VERTEX
  5
375
  8
0
  6
CONTINUOUS
 62
     7
 10
223.318281012
 20
263.8377297451
 30
0.0
  0
VERTEX
  5
376
  8
0
  6
CONTINUOUS
 62
     7
 10
223.4085105233
 20
263.8982642223
 30
0.0
  0
VERTEX
  5
377
  8
0
  6
CONTINUOUS
 62
     7
 10
223.4388969712
 20
263.8982642223
 30
0.0
  0
SEQEND
  5
3E0
  8
0
  6
CONTINUOUS
 62
     7
  0
LINE
  5
F5
  8
0
  6
CONTINUOUS
 62
     7
 10
223.4388969712
 20
263.8982642223
 30
0.0
 11
223.4388969712
 21
151.3282645275
 31
0.0
  0
LINE
  5
F6
  8
0
  6
CONTINUOUS
 62
     7
 10
135.8388945334
 20
150.9273458053
 30
0.0
 11
136.7388941221
 21
150.9273458053
 31
0.0
  0
LINE
  5
F7
  8
0
  6
CONTINUOUS
 62
     7
 10
222.5388966374
 20
150.9273458053
 30
0.0
 11
223.4388969712
 21
150.9273458053
 31
0.0
  0
LINE
  5
F8
  8
0
  6
CONTINUOUS
 62
     7
 10
135.8388945334
 20
151.3282645275
 30
0.0
 11
135.8388945334
 21
150.9273458053
 31
0.0
  0
LINE
  5
F9
  8
0
  6
CONTINUOUS
 62
     7
 10
223.4388969712
 20
151.3282645275
 30
0.0
 11
223.4388969712
 21
150.9273458053
 31
0.0
  0
LINE
  5
FA
  8
0
  6
CONTINUOUS
 62
     7
 10
135.7388943307
 20
263.596962743
 30
0.0
 11
135.7388943307
 21
214.7185075809
 31
0.0
  0
LINE
  5
FB
  8
0
  6
CONTINUOUS
 62
     7
 10
223.5388956837
 20
263.596962743
 30
0.0
 11
223.4388969712
 21
263.596962743
 31
0.0
  0
LINE
  5
FC
  8
0
  6
CONTINUOUS
 62
     7
 10
135.8388945334
 20
263.596962743
 30
0.0
 11
135.7388943307
 21
263.596962743
 31
0.0
  0
LINE
  5
FD
  8
0
  6
CONTINUOUS
 62
     7
 10
223.5388956837
 20
263.596962743
 30
0.0
 11
223.5388956837
 21
214.7185075809
 31
0.0
  0
LINE
  5
FE
  8
0
  6
CONTINUOUS
 62
     7
 10
136.8388943248
 20
149.3334341575
 30
0.0
 11
135.7388943307
 21
149.3334341575
 31
0.0
  0
LINE
  5
FF
  8
0
  6
CONTINUOUS
 62
     7
 10
223.5388956837
 20
149.3334341575
 30
0.0
 11
222.4388919644
 21
149.3334341575
 31
0.0
  0
LINE
  5
100
  8
0
  6
CONTINUOUS
 62
     7
 10
233.6388967805
 20
128.3334363033
 30
0.0
 11
233.6388967805
 21
127.9334354927
 31
0.0
  0
LINE
  5
101
  8
0
  6
CONTINUOUS
 62
     7
 10
134.7388945393
 20
210.9334338237
 30
0.0
 11
134.9388941996
 21
210.9334338237
 31
0.0
  0
LINE
  5
102
  8
0
  6
CONTINUOUS
 62
     7
 10
125.6388943516
 20
127.9334354927
 30
0.0
 11
125.6388943516
 21
128.3334363033
 31
0.0
  0
LINE
  5
103
  8
0
  6
CONTINUOUS
 62
     7
 10
23.7388931088
 20
128.933434539
 30
0.0
 11
22.938897448
 21
128.933434539
 31
0.0
  0
LINE
  5
104
  8
0
  6
CONTINUOUS
 62
     7
 10
23.7388931088
 20
129.8031616737
 30
0.0
 11
23.7388931088
 21
128.933434539
 31
0.0
  0
LINE
  5
105
  8
0
  6
CONTINUOUS
 62
     7
 10
112.338894593
 20
128.933434539
 30
0.0
 11
111.5388944619
 21
128.933434539
 31
0.0
  0
LINE
  5
106
  8
0
  6
CONTINUOUS
 62
     7
 10
111.5388944619
 20
128.933434539
 30
0.0
 11
111.5388944619
 21
129.8031616737
 31
0.0
  0
LINE
  5
107
  8
0
  6
CONTINUOUS
 62
     7
 10
112.338894593
 20
129.8031616737
 30
0.0
 11
112.338894593
 21
128.933434539
 31
0.0
  0
LINE
  5
108
  8
0
  6
CONTINUOUS
 62
     7
 10
23.7388931088
 20
129.8031616737
 30
0.0
 11
23.7388931088
 21
210.7589948703
 31
0.0
  0
LINE
  5
109
  8
0
  6
CONTINUOUS
 62
     7
 10
111.5388944619
 20
210.7589948703
 30
0.0
 11
111.5388944619
 21
129.8031616737
 31
0.0
  0
LINE
  5
10A
  8
0
  6
CONTINUOUS
 62
     7
 10
112.338894593
 20
210.7589948703
 30
0.0
 11
112.338894593
 21
129.8031616737
 31
0.0
  0
LINE
  5
10B
  8
0
  6
CONTINUOUS
 62
     7
 10
23.7388931088
 20
211.4143121769
 30
0.0
 11
23.7388931088
 21
210.7589948703
 31
0.0
  0
LINE
  5
10C
  8
0
  6
CONTINUOUS
 62
     7
 10
111.5388944619
 20
210.7589948703
 30
0.0
 11
111.5388944619
 21
211.4143121769
 31
0.0
  0
LINE
  5
10D
  8
0
  6
CONTINUOUS
 62
     7
 10
112.338894593
 20
211.4143121769
 30
0.0
 11
112.338894593
 21
210.7589948703
 31
0.0
  0
LINE
  5
10E
  8
0
  6
CONTINUOUS
 62
     7
 10
111.5388944619
 20
214.6435607006
 30
0.0
 11
111.5388944619
 21
211.4143121769
 31
0.0
  0
LINE
  5
10F
  8
0
  6
CONTINUOUS
 62
     7
 10
112.338894593
 20
214.6435607006
 30
0.0
 11
112.338894593
 21
211.4143121769
 31
0.0
  0
LINE
  5
110
  8
0
  6
CONTINUOUS
 62
     7
 10
23.7388931088
 20
211.4143121769
 30
0.0
 11
23.7388931088
 21
214.6435607006
 31
0.0
  0
LINE
  5
111
  8
0
  6
CONTINUOUS
 62
     7
 10
18.7388919167
 20
128.3334363033
 30
0.0
 11
18.7388919167
 21
127.9334354927
 31
0.0
  0
LINE
  5
112
  8
0
  6
CONTINUOUS
 62
     7
 10
23.7388931088
 20
128.933434539
 30
0.0
 11
23.7388931088
 21
124.3334341575
 31
0.0
  0
LINE
  5
113
  8
0
  6
CONTINUOUS
 62
     7
 10
112.5388942532
 20
131.9334376384
 30
0.0
 11
112.338894593
 21
131.9334376384
 31
0.0
  0
LINE
  5
114
  8
0
  6
CONTINUOUS
 62
     7
 10
116.5388941638
 20
128.3334363033
 30
0.0
 11
116.5388941638
 21
127.9334354927
 31
0.0
  0
LINE
  5
115
  8
0
  6
CONTINUOUS
 62
     7
 10
111.5388944619
 20
128.933434539
 30
0.0
 11
111.5388944619
 21
124.3334341575
 31
0.0
  0
LINE
  5
116
  8
0
  6
CONTINUOUS
 62
     7
 10
23.7388931088
 20
214.7185075809
 30
0.0
 11
23.7388931088
 21
214.6435607006
 31
0.0
  0
LINE
  5
117
  8
0
  6
CONTINUOUS
 62
     7
 10
111.5388944619
 20
214.6435607006
 30
0.0
 11
111.5388944619
 21
214.7185075809
 31
0.0
  0
LINE
  5
118
  8
0
  6
CONTINUOUS
 62
     7
 10
112.338894593
 20
214.7185075809
 30
0.0
 11
112.338894593
 21
214.6435607006
 31
0.0
  0
ARC
  5
119
  8
0
  6
CONTINUOUS
 62
     7
 10
105.3049339578
 20
146.9406850732
 30
0.0
 40
7.541639241303418
 50
35.575878735
 51
46.0517507721
  0
ARC
  5
11A
  8
0
  6
CONTINUOUS
 62
     7
 10
29.9734367203
 20
146.9401764738
 30
0.0
 40
7.542410614854752
 50
133.948761096
 51
144.4235624706
  0
LINE
  5
11B
  8
0
  6
CONTINUOUS
 62
     7
 10
23.8388918214
 20
151.3282645275
 30
0.0
 11
23.8388918214
 21
263.8982642223
 31
0.0
  0
POLYLINE
  5
11C
  8
0
  6
CONTINUOUS
 62
     7
 66
     1
 10
0.0
 20
0.0
 30
0.0
  0
VERTEX
  5
378
  8
0
  6
CONTINUOUS
 62
     7
 10
23.8388918214
 20
263.8982642223
 30
0.0
  0
VERTEX
  5
379
  8
0
  6
CONTINUOUS
 62
     7
 10
23.8692782693
 20
263.8982642223
 30
0.0
  0
VERTEX
  5
37A
  8
0
  6
CONTINUOUS
 62
     7
 10
23.9595077805
 20
263.8377297451
 30
0.0
  0
VERTEX
  5
37B
  8
0
  6
CONTINUOUS
 62
     7
 10
24.106844502
 20
263.7184966137
 30
0.0
  0
VERTEX
  5
37C
  8
0
  6
CONTINUOUS
 62
     7
 10
24.3068061642
 20
263.5441768695
 30
0.0
  0
VERTEX
  5
37D
  8
0
  6
CONTINUOUS
 62
     7
 10
24.5533190541
 20
263.320087247
 30
0.0
  0
VERTEX
  5
37E
  8
0
  6
CONTINUOUS
 62
     7
 10
24.8388968282
 20
263.0530226757
 30
0.0
  0
VERTEX
  5
37F
  8
0
  6
CONTINUOUS
 62
     7
 10
25.1548550896
 20
262.7511132289
 30
0.0
  0
VERTEX
  5
380
  8
0
  6
CONTINUOUS
 62
     7
 10
25.4915974908
 20
262.4235141803
 30
0.0
  0
VERTEX
  5
381
  8
0
  6
CONTINUOUS
 62
     7
 10
25.8388958745
 20
262.0801914264
 30
0.0
  0
SEQEND
  5
3DF
  8
0
  6
CONTINUOUS
 62
     7
  0
POLYLINE
  5
11D
  8
0
  6
CONTINUOUS
 62
     7
 66
     1
 10
0.0
 20
0.0
 30
0.0
  0
VERTEX
  5
382
  8
0
  6
CONTINUOUS
 62
     7
 10
109.4388939314
 20
262.0801914264
 30
0.0
  0
VERTEX
  5
383
  8
0
  6
CONTINUOUS
 62
     7
 10
109.786190825
 20
262.4235141803
 30
0.0
  0
VERTEX
  5
384
  8
0
  6
CONTINUOUS
 62
     7
 10
110.1229347162
 20
262.7511132289
 30
0.0
  0
VERTEX
  5
385
  8
0
  6
CONTINUOUS
 62
     7
 10
110.4388944678
 20
263.0530226757
 30
0.0
  0
VERTEX
  5
386
  8
0
  6
CONTINUOUS
 62
     7
 10
110.7244692616
 20
263.320087247
 30
0.0
  0
VERTEX
  5
387
  8
0
  6
CONTINUOUS
 62
     7
 10
110.9709836416
 20
263.5441768695
 30
0.0
  0
VERTEX
  5
388
  8
0
  6
CONTINUOUS
 62
     7
 10
111.1709453039
 20
263.7184966137
 30
0.0
  0
VERTEX
  5
389
  8
0
  6
CONTINUOUS
 62
     7
 10
111.3182797901
 20
263.8377297451
 30
0.0
  0
VERTEX
  5
38A
  8
0
  6
CONTINUOUS
 62
     7
 10
111.4085100465
 20
263.8982642223
 30
0.0
  0
VERTEX
  5
38B
  8
0
  6
CONTINUOUS
 62
     7
 10
111.4388942592
 20
263.8982642223
 30
0.0
  0
SEQEND
  5
3DE
  8
0
  6
CONTINUOUS
 62
     7
  0
LINE
  5
11E
  8
0
  6
CONTINUOUS
 62
     7
 10
111.4388942592
 20
263.8982642223
 30
0.0
 11
111.4388942592
 21
151.3282645275
 31
0.0
  0
LINE
  5
11F
  8
0
  6
CONTINUOUS
 62
     7
 10
23.8388918214
 20
150.9273458053
 30
0.0
 11
24.7388921552
 21
150.9273458053
 31
0.0
  0
LINE
  5
120
  8
0
  6
CONTINUOUS
 62
     7
 10
110.5388946705
 20
150.9273458053
 30
0.0
 11
111.4388942592
 21
150.9273458053
 31
0.0
  0
LINE
  5
121
  8
0
  6
CONTINUOUS
 62
     7
 10
23.8388918214
 20
151.3282645275
 30
0.0
 11
23.8388918214
 21
150.9273458053
 31
0.0
  0
LINE
  5
122
  8
0
  6
CONTINUOUS
 62
     7
 10
111.4388942592
 20
151.3282645275
 30
0.0
 11
111.4388942592
 21
150.9273458053
 31
0.0
  0
LINE
  5
123
  8
0
  6
CONTINUOUS
 62
     7
 10
23.7388931088
 20
263.596962743
 30
0.0
 11
23.7388931088
 21
214.7185075809
 31
0.0
  0
LINE
  5
124
  8
0
  6
CONTINUOUS
 62
     7
 10
111.5388944619
 20
263.596962743
 30
0.0
 11
111.4388942592
 21
263.596962743
 31
0.0
  0
LINE
  5
125
  8
0
  6
CONTINUOUS
 62
     7
 10
23.8388918214
 20
263.596962743
 30
0.0
 11
23.7388931088
 21
263.596962743
 31
0.0
  0
LINE
  5
126
  8
0
  6
CONTINUOUS
 62
     7
 10
111.5388944619
 20
263.596962743
 30
0.0
 11
111.5388944619
 21
214.7185075809
 31
0.0
  0
LINE
  5
127
  8
0
  6
CONTINUOUS
 62
     7
 10
24.7388921552
 20
149.3334341575
 30
0.0
 11
23.7388931088
 21
149.3334341575
 31
0.0
  0
LINE
  5
128
  8
0
  6
CONTINUOUS
 62
     7
 10
111.5388944619
 20
149.3334341575
 30
0.0
 11
110.5388946705
 21
149.3334341575
 31
0.0
  0
LINE
  5
129
  8
0
  6
CONTINUOUS
 62
     7
 10
13.6388920121
 20
127.9334354927
 30
0.0
 11
13.6388920121
 21
128.3334363033
 31
0.0
  0
LINE
  5
12A
  8
0
  6
CONTINUOUS
 62
     7
 10
112.338894593
 20
210.9334338237
 30
0.0
 11
112.5388942532
 21
210.9334338237
 31
0.0
  0
LINE
  5
12B
  8
0
  6
CONTINUOUS
 62
     7
 10
121.638894441
 20
128.3334363033
 30
0.0
 11
121.638894441
 21
127.9334354927
 31
0.0
  0
LINE
  5
12C
  8
0
  6
CONTINUOUS
 62
     7
 10
318.2821181493
 20
66.3334358265
 30
0.0
 11
343.8821193652
 21
66.3334358265
 31
0.0
  0
LINE
  5
12D
  8
0
  6
CONTINUOUS
 62
     7
 10
318.2821181493
 20
127.533434682
 30
0.0
 11
318.2821181493
 21
66.3334358265
 31
0.0
  0
LINE
  5
12E
  8
0
  6
CONTINUOUS
 62
     7
 10
318.2821181493
 20
127.9334354927
 30
0.0
 11
343.8821193652
 21
127.9334354927
 31
0.0
  0
LINE
  5
12F
  8
0
  6
CONTINUOUS
 62
     7
 10
318.2821181493
 20
127.533434682
 30
0.0
 11
318.2821181493
 21
127.9334354927
 31
0.0
  0
LINE
  5
130
  8
0
  6
CONTINUOUS
 62
     7
 10
344.2821171956
 20
127.533434682
 30
0.0
 11
344.2821171956
 21
66.3334358265
 31
0.0
  0
LINE
  5
131
  8
0
  6
CONTINUOUS
 62
     7
 10
344.2821171956
 20
66.3334358265
 30
0.0
 11
343.8821193652
 21
66.3334358265
 31
0.0
  0
ARC
  5
132
  8
0
  6
CONTINUOUS
 62
     7
 10
343.8821181493
 20
127.5334358265
 30
0.0
 40
0.3999999999999773
 50
0.0
 51
90.0
  0
LINE
  5
133
  8
0
  6
CONTINUOUS
 62
     7
 10
320.9053625243
 20
263.5968792965
 30
0.0
 11
325.93659357
 21
264.0370476772
 31
0.0
  0
ARC
  5
134
  8
0
  6
CONTINUOUS
 62
     7
 10
325.9714555527
 20
263.6385731433
 30
0.0
 40
0.3999999999999973
 50
22.2493115514
 51
95.0
  0
LINE
  5
135
  8
0
  6
CONTINUOUS
 62
     7
 10
318.2821181493
 20
213.3570659687
 30
0.0
 11
318.2821181493
 21
128.7334371139
 31
0.0
  0
LINE
  5
136
  8
0
  6
CONTINUOUS
 62
     7
 10
318.2821181493
 20
213.7047994663
 30
0.0
 11
318.2867888113
 21
213.7052047779
 31
0.0
  0
POLYLINE
  5
137
  8
0
  6
CONTINUOUS
 62
     7
 66
     1
 10
0.0
 20
0.0
 30
0.0
  0
VERTEX
  5
38C
  8
0
  6
CONTINUOUS
 62
     7
 10
318.2867888113
 20
213.7052047779
 30
0.0
  0
VERTEX
  5
38D
  8
0
  6
CONTINUOUS
 62
     7
 10
318.2857134026
 20
213.7174952556
 30
0.0
  0
VERTEX
  5
38E
  8
0
  6
CONTINUOUS
 62
     7
 10
318.2847718836
 20
213.7282598545
 30
0.0
  0
VERTEX
  5
38F
  8
0
  6
CONTINUOUS
 62
     7
 10
318.2839682869
 20
213.7374508907
 30
0.0
  0
VERTEX
  5
390
  8
0
  6
CONTINUOUS
 62
     7
 10
318.2833060532
 20
213.7450206806
 30
0.0
  0
VERTEX
  5
391
  8
0
  6
CONTINUOUS
 62
     7
 10
318.2827880185
 20
213.7509334613
 30
0.0
  0
VERTEX
  5
392
  8
0
  6
CONTINUOUS
 62
     7
 10
318.2824164011
 20
213.755189233
 30
0.0
  0
VERTEX
  5
393
  8
0
  6
CONTINUOUS
 62
     7
 10
318.2821927921
 20
213.7577403118
 30
0.0
  0
VERTEX
  5
394
  8
0
  6
CONTINUOUS
 62
     7
 10
318.2821181493
 20
213.7585986187
 30
0.0
  0
SEQEND
  5
3DD
  8
0
  6
CONTINUOUS
 62
     7
  0
LINE
  5
138
  8
0
  6
CONTINUOUS
 62
     7
 10
318.2821181493
 20
213.7585986187
 30
0.0
 11
338.5070857482
 21
215.5280459453
 31
0.0
  0
LINE
  5
139
  8
0
  6
CONTINUOUS
 62
     7
 10
318.2821181493
 20
213.3570659687
 30
0.0
 11
318.2821181493
 21
213.7047994663
 31
0.0
  0
LINE
  5
13A
  8
0
  6
CONTINUOUS
 62
     7
 10
353.8375940995
 20
128.3334363033
 30
0.0
 11
318.2821181493
 21
128.3334363033
 31
0.0
  0
LINE
  5
13B
  8
0
  6
CONTINUOUS
 62
     7
 10
318.2821181493
 20
128.3334363033
 30
0.0
 11
318.2821181493
 21
128.7334371139
 31
0.0
  0
LINE
  5
13C
  8
0
  6
CONTINUOUS
 62
     7
 10
338.7109962182
 20
215.4920924236
 30
0.0
 11
346.777027555
 21
211.7308486034
 31
0.0
  0
ARC
  5
13D
  8
0
  6
CONTINUOUS
 62
     7
 10
338.5419483867
 20
215.1295723899
 30
0.0
 40
0.3999999999999899
 50
65.0
 51
95.0
  0
LINE
  5
13E
  8
0
  6
CONTINUOUS
 62
     7
 10
347.0064577537
 20
211.4031780292
 30
0.0
 11
354.2360720115
 21
128.7682998706
 31
0.0
  0
ARC
  5
13F
  8
0
  6
CONTINUOUS
 62
     7
 10
346.6079791296
 20
211.3683204835
 30
0.0
 40
0.3999999999999819
 50
5.0
 51
65.0
  0
ARC
  5
140
  8
0
  6
CONTINUOUS
 62
     7
 10
353.8375947489
 20
128.7334358264
 30
0.0
 40
0.4000000000000057
 50
270.0
 51
5.0
  0
ARC
  5
141
  8
0
  6
CONTINUOUS
 62
     7
 10
346.6108050392
 20
128.5207497029
 30
0.0
 40
0.400000000000041
 50
207.9230096112
 51
275.0
  0
LINE
  5
142
  8
0
  6
CONTINUOUS
 62
     7
 10
349.059283443
 20
128.3334363033
 30
0.0
 11
346.6456678586
 21
128.1222689678
 31
0.0
  0
LINE
  5
143
  8
0
  6
CONTINUOUS
 62
     7
 10
417.8821173386
 20
153.933434539
 30
0.0
 11
417.8821173386
 21
149.7334349681
 31
0.0
  0
LINE
  5
144
  8
0
  6
CONTINUOUS
 62
     7
 10
417.8821173386
 20
149.7334349681
 30
0.0
 11
352.401861258
 21
149.7334349681
 31
0.0
  0
LINE
  5
145
  8
0
  6
CONTINUOUS
 62
     7
 10
351.8244353013
 20
156.3334334423
 30
0.0
 11
415.4821184354
 21
156.3334334423
 31
0.0
  0
ARC
  5
146
  8
0
  6
CONTINUOUS
 62
     7
 10
415.4821259861
 20
153.9334420897
 30
0.0
 40
2.399991352544985
 50
359.9998197387
 51
90.0001802613
  0
LINE
  5
147
  8
0
  6
CONTINUOUS
 62
     7
 10
413.1251958089
 20
141.7334366371
 30
0.0
 11
353.1017687993
 21
141.7334366371
 31
0.0
  0
LINE
  5
148
  8
0
  6
CONTINUOUS
 62
     7
 10
417.8017345147
 20
149.4334328701
 30
0.0
 11
413.4716060834
 21
141.9334340622
 31
0.0
  0
ARC
  5
149
  8
0
  6
CONTINUOUS
 62
     7
 10
413.1251962111
 20
142.1334358265
 30
0.0
 40
0.4000000000000341
 50
270.0
 51
330.0
  0
ARC
  5
14A
  8
0
  6
CONTINUOUS
 62
     7
 10
417.2821181493
 20
149.7334358265
 30
0.0
 40
0.6000000000000227
 50
330.0
 51
0.0
  0
LINE
  5
14B
  8
0
  6
CONTINUOUS
 62
     7
 10
318.2821181493
 20
127.9334354927
 30
0.0
 11
318.2821181493
 21
128.3334363033
 31
0.0
  0
LINE
  5
14C
  8
0
  6
CONTINUOUS
 62
     7
 10
319.0821181873
 20
127.9334354927
 30
0.0
 11
319.0821181873
 21
128.3334363033
 31
0.0
  0
LINE
  5
14D
  8
0
  6
CONTINUOUS
 62
     7
 10
342.0821186976
 20
128.3334363033
 30
0.0
 11
342.0821186976
 21
127.9334354927
 31
0.0
  0
LINE
  5
14E
  8
0
  6
CONTINUOUS
 62
     7
 10
342.8821188288
 20
128.3334363033
 30
0.0
 11
342.8821188288
 21
127.9334354927
 31
0.0
  0
LINE
  5
14F
  8
0
  6
CONTINUOUS
 62
     7
 10
318.2821181493
 20
263.3674610187
 30
0.0
 11
320.9053545149
 21
263.596962743
 31
0.0
  0
LINE
  5
150
  8
0
  6
CONTINUOUS
 62
     7
 10
320.9053545149
 20
263.596962743
 30
0.0
 11
325.2125990467
 21
214.3649328281
 31
0.0
  0
LINE
  5
151
  8
0
  6
CONTINUOUS
 62
     7
 10
318.2821181493
 20
213.7047994663
 30
0.0
 11
318.2821181493
 21
263.3674610187
 31
0.0
  0
LINE
  5
152
  8
0
  6
CONTINUOUS
 62
     7
 10
325.4965660052
 20
263.8982642223
 30
0.0
 11
320.9140700178
 21
263.4973514606
 31
0.0
  0
LINE
  5
153
  8
0
  6
CONTINUOUS
 62
     7
 10
327.6632663684
 20
262.0801914264
 30
0.0
 11
331.7874845939
 21
214.9401653339
 31
0.0
  0
ARC
  5
154
  8
0
  6
CONTINUOUS
 62
     7
 10
325.6708808599
 20
261.9058789192
 30
0.0
 40
1.999996216115674
 50
5.0000388656
 51
95.0001063734
  0
ARC
  5
155
  8
0
  6
CONTINUOUS
 62
     7
 10
112.9388943963
 20
-72.5094459766
 30
0.0
 40
0.4000000000000199
 50
180.0
 51
270.0
  0
ARC
  5
156
  8
0
  6
CONTINUOUS
 62
     7
 10
134.3388943963
 20
-72.5094459766
 30
0.0
 40
0.4000000000000199
 50
270.0
 51
0.0
  0
LINE
  5
157
  8
0
  6
CONTINUOUS
 62
     7
 10
112.9388943188
 20
-72.9094461379
 30
0.0
 11
134.3388944738
 21
-72.9094461379
 31
0.0
  0
LINE
  5
158
  8
0
  6
CONTINUOUS
 62
     7
 10
224.7388981156
 20
-72.9094461379
 30
0.0
 11
235.6388948731
 21
-72.9094461379
 31
0.0
  0
ARC
  5
159
  8
0
  6
CONTINUOUS
 62
     7
 10
224.7388943963
 20
-72.5094459766
 30
0.0
 40
0.4000000000000057
 50
180.0
 51
270.0
  0
ARC
  5
15A
  8
0
  6
CONTINUOUS
 62
     7
 10
235.6388943963
 20
-72.5094459766
 30
0.0
 40
0.3999999999999915
 50
270.0
 51
0.0
  0
LINE
  5
15B
  8
0
  6
CONTINUOUS
 62
     7
 10
11.6388939194
 20
-72.9094461379
 30
0.0
 11
22.538890677
 21
-72.9094461379
 31
0.0
  0
ARC
  5
15C
  8
0
  6
CONTINUOUS
 62
     7
 10
11.6388943963
 20
-72.5094459766
 30
0.0
 40
0.3999999999999968
 50
180.0
 51
270.0
  0
ARC
  5
15D
  8
0
  6
CONTINUOUS
 62
     7
 10
22.5388943963
 20
-72.5094459766
 30
0.0
 40
0.4000000000000128
 50
270.0
 51
0.0
  0
LINE
  5
15E
  8
0
  6
CONTINUOUS
 62
     7
 10
108.3480678372
 20
-50.9267852483
 30
0.0
 11
26.9297204785
 21
-50.9267852483
 31
0.0
  0
LINE
  5
15F
  8
0
  6
CONTINUOUS
 62
     7
 10
110.4388944678
 20
-69.3539694724
 30
0.0
 11
111.4388942592
 21
-69.3539694724
 31
0.0
  0
LINE
  5
160
  8
0
  6
CONTINUOUS
 62
     7
 10
111.4388942592
 20
-64.5539686857
 30
0.0
 11
110.4388944678
 21
-64.5539686857
 31
0.0
  0
LINE
  5
161
  8
0
  6
CONTINUOUS
 62
     7
 10
23.8388918214
 20
-69.3539694724
 30
0.0
 11
24.8388968282
 21
-69.3539694724
 31
0.0
  0
LINE
  5
162
  8
0
  6
CONTINUOUS
 62
     7
 10
24.8388968282
 20
-64.5539686857
 30
0.0
 11
23.8388918214
 21
-64.5539686857
 31
0.0
  0
ARC
  5
163
  8
0
  6
CONTINUOUS
 62
     7
 10
110.0388943963
 20
-72.4552580932
 30
0.0
 40
0.4000000000000057
 50
270.0
 51
0.0
  0
LINE
  5
164
  8
0
  6
CONTINUOUS
 62
     7
 10
25.2388916783
 20
-72.8552595554
 30
0.0
 11
110.0388936572
 21
-72.8552595554
 31
0.0
  0
ARC
  5
165
  8
0
  6
CONTINUOUS
 62
     7
 10
25.2388943963
 20
-72.4552580932
 30
0.0
 40
0.4000000000000057
 50
180.0
 51
270.0
  0
LINE
  5
166
  8
0
  6
CONTINUOUS
 62
     7
 10
222.5388966374
 20
-69.3539694724
 30
0.0
 11
223.4388969712
 21
-69.3539694724
 31
0.0
  0
LINE
  5
167
  8
0
  6
CONTINUOUS
 62
     7
 10
223.4388969712
 20
-64.5539686857
 30
0.0
 11
222.5388966374
 21
-64.5539686857
 31
0.0
  0
LINE
  5
168
  8
0
  6
CONTINUOUS
 62
     7
 10
135.8388945334
 20
-69.3539694724
 30
0.0
 11
136.7388941221
 21
-69.3539694724
 31
0.0
  0
LINE
  5
169
  8
0
  6
CONTINUOUS
 62
     7
 10
136.7388941221
 20
-64.5539686857
 30
0.0
 11
135.8388945334
 21
-64.5539686857
 31
0.0
  0
LINE
  5
16A
  8
0
  6
CONTINUOUS
 62
     7
 10
137.6645825677
 20
-55.8427036581
 30
0.0
 11
221.6132067017
 21
-55.8427036581
 31
0.0
  0
LINE
  5
16B
  8
0
  6
CONTINUOUS
 62
     7
 10
223.5388956837
 20
-65.7539681373
 30
0.0
 11
223.4388969712
 21
-65.7539681373
 31
0.0
  0
LINE
  5
16C
  8
0
  6
CONTINUOUS
 62
     7
 10
135.8388945334
 20
-65.7539681373
 30
0.0
 11
135.7388943307
 21
-65.7539681373
 31
0.0
  0
LINE
  5
16D
  8
0
  6
CONTINUOUS
 62
     7
 10
135.7388943307
 20
-68.1539700208
 30
0.0
 11
135.8388945334
 21
-68.1539700208
 31
0.0
  0
LINE
  5
16E
  8
0
  6
CONTINUOUS
 62
     7
 10
223.4388969712
 20
-68.1539700208
 30
0.0
 11
223.5388956837
 21
-68.1539700208
 31
0.0
  0
LINE
  5
16F
  8
0
  6
CONTINUOUS
 62
     7
 10
134.9388941996
 20
-72.2002432523
 30
0.0
 11
135.7388943307
 21
-72.2002432523
 31
0.0
  0
LINE
  5
170
  8
0
  6
CONTINUOUS
 62
     7
 10
223.5388956837
 20
-72.2002432523
 30
0.0
 11
224.3388913445
 21
-72.2002432523
 31
0.0
  0
LINE
  5
171
  8
0
  6
CONTINUOUS
 62
     7
 10
111.5388944619
 20
-65.7539681373
 30
0.0
 11
111.4388942592
 21
-65.7539681373
 31
0.0
  0
LINE
  5
172
  8
0
  6
CONTINUOUS
 62
     7
 10
23.8388918214
 20
-65.7539681373
 30
0.0
 11
23.7388931088
 21
-65.7539681373
 31
0.0
  0
LINE
  5
173
  8
0
  6
CONTINUOUS
 62
     7
 10
23.7388931088
 20
-68.1539700208
 30
0.0
 11
23.8388918214
 21
-68.1539700208
 31
0.0
  0
LINE
  5
174
  8
0
  6
CONTINUOUS
 62
     7
 10
111.4388942592
 20
-68.1539700208
 30
0.0
 11
111.5388944619
 21
-68.1539700208
 31
0.0
  0
LINE
  5
175
  8
0
  6
CONTINUOUS
 62
     7
 10
22.938897448
 20
-72.2002432523
 30
0.0
 11
23.7388931088
 21
-72.2002432523
 31
0.0
  0
LINE
  5
176
  8
0
  6
CONTINUOUS
 62
     7
 10
111.5388944619
 20
-72.2002432523
 30
0.0
 11
112.338894593
 21
-72.2002432523
 31
0.0
  0
ARC
  5
177
  8
0
  6
CONTINUOUS
 62
     7
 10
134.5388943963
 20
-62.5539693771
 30
0.0
 40
0.4000000000000057
 50
300.0
 51
0.0
  0
LINE
  5
178
  8
0
  6
CONTINUOUS
 62
     7
 10
223.5388956837
 20
-62.9539684234
 30
0.0
 11
222.4388919644
 21
-62.9539684234
 31
0.0
  0
LINE
  5
179
  8
0
  6
CONTINUOUS
 62
     7
 10
136.8388943248
 20
-62.9539684234
 30
0.0
 11
135.7388943307
 21
-62.9539684234
 31
0.0
  0
LINE
  5
17A
  8
0
  6
CONTINUOUS
 62
     7
 10
134.9388941996
 20
-62.9539684234
 30
0.0
 11
134.7388945393
 21
-62.9539684234
 31
0.0
  0
ARC
  5
17B
  8
0
  6
CONTINUOUS
 62
     7
 10
112.7388943963
 20
-62.5539693771
 30
0.0
 40
0.4000000000000057
 50
180.0
 51
240.0
  0
LINE
  5
17C
  8
0
  6
CONTINUOUS
 62
     7
 10
112.5388942532
 20
-62.9539684234
 30
0.0
 11
112.338894593
 21
-62.9539684234
 31
0.0
  0
LINE
  5
17D
  8
0
  6
CONTINUOUS
 62
     7
 10
111.5388944619
 20
-62.9539684234
 30
0.0
 11
110.5388946705
 21
-62.9539684234
 31
0.0
  0
LINE
  5
17E
  8
0
  6
CONTINUOUS
 62
     7
 10
24.7388921552
 20
-62.9539684234
 30
0.0
 11
23.7388931088
 21
-62.9539684234
 31
0.0
  0
LINE
  5
17F
  8
0
  6
CONTINUOUS
 62
     7
 10
135.2388940625
 20
-37.7147771725
 30
0.0
 11
112.0388947301
 21
-37.7147771725
 31
0.0
  0
LINE
  5
180
  8
0
  6
CONTINUOUS
 62
     7
 10
111.6388946645
 20
-44.6433068095
 30
0.0
 11
111.6388946645
 21
-37.7496395102
 31
0.0
  0
ARC
  5
181
  8
0
  6
CONTINUOUS
 62
     7
 10
111.9396540524
 20
-38.8882911344
 30
0.0
 40
1.177702734526588
 50
85.1661631578
 51
104.7959855297
  0
LINE
  5
182
  8
0
  6
CONTINUOUS
 62
     7
 10
135.6388941281
 20
-37.7496395102
 30
0.0
 11
135.6388941281
 21
-44.6433068095
 31
0.0
  0
ARC
  5
183
  8
0
  6
CONTINUOUS
 62
     7
 10
135.3381347401
 20
-38.8882911344
 30
0.0
 40
1.17770273452665
 50
75.2040144703
 51
94.8338368422
  0
LINE
  5
184
  8
0
  6
CONTINUOUS
 62
     7
 10
135.2388940625
 20
-49.3141592322
 30
0.0
 11
134.3388944738
 21
-49.3141592322
 31
0.0
  0
LINE
  5
185
  8
0
  6
CONTINUOUS
 62
     7
 10
134.3388944738
 20
-49.3141592322
 30
0.0
 11
112.9388943188
 21
-49.3141592322
 31
0.0
  0
LINE
  5
186
  8
0
  6
CONTINUOUS
 62
     7
 10
112.9388943188
 20
-49.3141592322
 30
0.0
 11
112.0388947301
 21
-49.3141592322
 31
0.0
  0
LINE
  5
187
  8
0
  6
CONTINUOUS
 62
     7
 10
111.6388946645
 20
-48.9156813202
 30
0.0
 11
111.6388946645
 21
-44.6433068095
 31
0.0
  0
ARC
  5
188
  8
0
  6
CONTINUOUS
 62
     7
 10
112.0381346043
 20
-48.9149192887
 30
0.0
 40
0.399240667050856
 50
180.1093606395
 51
270.1090871444
  0
LINE
  5
189
  8
0
  6
CONTINUOUS
 62
     7
 10
135.6388941281
 20
-44.6433068095
 30
0.0
 11
135.6388941281
 21
-48.9156813202
 31
0.0
  0
ARC
  5
18A
  8
0
  6
CONTINUOUS
 62
     7
 10
135.2396541883
 20
-48.9149192887
 30
0.0
 40
0.3992406670508703
 50
269.8909128556
 51
359.8906393605
  0
LINE
  5
18B
  8
0
  6
CONTINUOUS
 62
     7
 10
134.7388945393
 20
-57.2137997327
 30
0.0
 11
134.7388945393
 21
-65.2798310695
 31
0.0
  0
LINE
  5
18C
  8
0
  6
CONTINUOUS
 62
     7
 10
112.5388942532
 20
-65.2798310695
 30
0.0
 11
112.5388942532
 21
-57.2137997327
 31
0.0
  0
LINE
  5
18D
  8
0
  6
CONTINUOUS
 62
     7
 10
112.5388942532
 20
-57.2137997327
 30
0.0
 11
112.5388942532
 21
-49.3141592322
 31
0.0
  0
LINE
  5
18E
  8
0
  6
CONTINUOUS
 62
     7
 10
134.7388945393
 20
-49.3141592322
 30
0.0
 11
134.7388945393
 21
-57.2137997327
 31
0.0
  0
LINE
  5
18F
  8
0
  6
CONTINUOUS
 62
     7
 10
134.7388945393
 20
-65.2798310695
 30
0.0
 11
134.7388945393
 21
-72.5094453273
 31
0.0
  0
LINE
  5
190
  8
0
  6
CONTINUOUS
 62
     7
 10
112.5388942532
 20
-72.5094453273
 30
0.0
 11
112.5388942532
 21
-65.2798310695
 31
0.0
  0
LINE
  5
191
  8
0
  6
CONTINUOUS
 62
     7
 10
224.3388913445
 20
-65.2798310695
 30
0.0
 11
224.3388913445
 21
-57.2137997327
 31
0.0
  0
LINE
  5
192
  8
0
  6
CONTINUOUS
 62
     7
 10
236.0388897233
 20
-57.2137997327
 30
0.0
 11
236.0388897233
 21
-65.2798310695
 31
0.0
  0
LINE
  5
193
  8
0
  6
CONTINUOUS
 62
     7
 10
235.6388948731
 20
-36.9539693771
 30
0.0
 11
224.7388981156
 21
-36.9539693771
 31
0.0
  0
LINE
  5
194
  8
0
  6
CONTINUOUS
 62
     7
 10
235.8388922982
 20
-36.9539693771
 30
0.0
 11
236.0388897233
 21
-36.9539693771
 31
0.0
  0
ARC
  5
195
  8
0
  6
CONTINUOUS
 62
     7
 10
235.6442854312
 20
-41.0074193523
 30
0.0
 40
4.053453559582793
 50
87.2481638449
 51
90.0761958452
  0
LINE
  5
196
  8
0
  6
CONTINUOUS
 62
     7
 10
236.0388897233
 20
-36.9539693771
 30
0.0
 11
236.0388897233
 21
-57.2137997327
 31
0.0
  0
LINE
  5
197
  8
0
  6
CONTINUOUS
 62
     7
 10
235.8388922982
 20
-36.9586400391
 30
0.0
 11
235.8388922982
 21
-36.9539693771
 31
0.0
  0
ARC
  5
198
  8
0
  6
CONTINUOUS
 62
     7
 10
224.6396541216
 20
-38.1275044677
 30
0.0
 40
1.177724067509377
 50
85.166089008
 51
104.7958819326
  0
LINE
  5
199
  8
0
  6
CONTINUOUS
 62
     7
 10
224.3388913445
 20
-57.2137997327
 30
0.0
 11
224.3388913445
 21
-36.988831674
 31
0.0
  0
LINE
  5
19A
  8
0
  6
CONTINUOUS
 62
     7
 10
224.3388913445
 20
-72.5094453273
 30
0.0
 11
224.3388913445
 21
-65.2798310695
 31
0.0
  0
LINE
  5
19B
  8
0
  6
CONTINUOUS
 62
     7
 10
236.0388897233
 20
-65.2798310695
 30
0.0
 11
236.0388897233
 21
-72.5094453273
 31
0.0
  0
LINE
  5
19C
  8
0
  6
CONTINUOUS
 62
     7
 10
235.8388922982
 20
-36.9539693771
 30
0.0
 11
235.6388948731
 21
-36.9539693771
 31
0.0
  0
LINE
  5
19D
  8
0
  6
CONTINUOUS
 62
     7
 10
22.938897448
 20
-57.2137997327
 30
0.0
 11
22.938897448
 21
-65.2798310695
 31
0.0
  0
LINE
  5
19E
  8
0
  6
CONTINUOUS
 62
     7
 10
11.2388990693
 20
-65.2798310695
 30
0.0
 11
11.2388990693
 21
-57.2137997327
 31
0.0
  0
ARC
  5
19F
  8
0
  6
CONTINUOUS
 62
     7
 10
22.638134671
 20
-38.1275044677
 30
0.0
 40
1.177724067509037
 50
75.2041180674
 51
94.833910992
  0
LINE
  5
1A0
  8
0
  6
CONTINUOUS
 62
     7
 10
22.938897448
 20
-36.988831674
 30
0.0
 11
22.938897448
 21
-57.2137997327
 31
0.0
  0
LINE
  5
1A1
  8
0
  6
CONTINUOUS
 62
     7
 10
11.2388990693
 20
-36.9539693771
 30
0.0
 11
11.4388964944
 21
-36.9539693771
 31
0.0
  0
ARC
  5
1A2
  8
0
  6
CONTINUOUS
 62
     7
 10
11.6335033613
 20
-41.0074193523
 30
0.0
 40
4.053453559584987
 50
89.9238041548
 51
92.7518361551
  0
LINE
  5
1A3
  8
0
  6
CONTINUOUS
 62
     7
 10
11.2388990693
 20
-57.2137997327
 30
0.0
 11
11.2388990693
 21
-36.9539693771
 31
0.0
  0
LINE
  5
1A4
  8
0
  6
CONTINUOUS
 62
     7
 10
11.4388964944
 20
-36.9539693771
 30
0.0
 11
11.4388964944
 21
-36.9586400391
 31
0.0
  0
LINE
  5
1A5
  8
0
  6
CONTINUOUS
 62
     7
 10
22.538890677
 20
-36.9539693771
 30
0.0
 11
11.6388939194
 21
-36.9539693771
 31
0.0
  0
LINE
  5
1A6
  8
0
  6
CONTINUOUS
 62
     7
 10
22.938897448
 20
-65.2798310695
 30
0.0
 11
22.938897448
 21
-72.5094453273
 31
0.0
  0
LINE
  5
1A7
  8
0
  6
CONTINUOUS
 62
     7
 10
11.2388990693
 20
-72.5094453273
 30
0.0
 11
11.2388990693
 21
-65.2798310695
 31
0.0
  0
LINE
  5
1A8
  8
0
  6
CONTINUOUS
 62
     7
 10
11.6388939194
 20
-36.9539693771
 30
0.0
 11
11.4388964944
 21
-36.9539693771
 31
0.0
  0
LINE
  5
1A9
  8
0
  6
CONTINUOUS
 62
     7
 10
24.8388968282
 20
-65.2873025117
 30
0.0
 11
24.8388968282
 21
-57.4384451685
 31
0.0
  0
LINE
  5
1AA
  8
0
  6
CONTINUOUS
 62
     7
 10
110.4388944678
 20
-57.4384451685
 30
0.0
 11
110.4388944678
 21
-65.2873025117
 31
0.0
  0
ARC
  5
1AB
  8
0
  6
CONTINUOUS
 62
     7
 10
25.1396535649
 20
-58.4751133679
 30
0.0
 40
1.177673361582221
 50
85.1661675043
 51
104.7962295813
  0
LINE
  5
1AC
  8
0
  6
CONTINUOUS
 62
     7
 10
24.8388968282
 20
-57.4384451685
 30
0.0
 11
24.8388968282
 21
-57.3364914236
 31
0.0
  0
ARC
  5
1AD
  8
0
  6
CONTINUOUS
 62
     7
 10
110.1381318598
 20
-58.4751637662
 30
0.0
 40
1.177723588195663
 50
75.2041204123
 51
94.8336302062
  0
LINE
  5
1AE
  8
0
  6
CONTINUOUS
 62
     7
 10
110.4388944678
 20
-57.3364914236
 30
0.0
 11
110.4388944678
 21
-57.4384451685
 31
0.0
  0
LINE
  5
1AF
  8
0
  6
CONTINUOUS
 62
     7
 10
24.7388921552
 20
-57.3016286669
 30
0.0
 11
24.7388921552
 21
-63.6988595901
 31
0.0
  0
LINE
  5
1B0
  8
0
  6
CONTINUOUS
 62
     7
 10
25.2388916783
 20
-57.3016286669
 30
0.0
 11
24.7388921552
 21
-57.3016286669
 31
0.0
  0
LINE
  5
1B1
  8
0
  6
CONTINUOUS
 62
     7
 10
24.8388968282
 20
-63.6988595901
 30
0.0
 11
24.7388921552
 21
-63.6988595901
 31
0.0
  0
LINE
  5
1B2
  8
0
  6
CONTINUOUS
 62
     7
 10
110.5388946705
 20
-57.3016286669
 30
0.0
 11
110.0388936572
 21
-57.3016286669
 31
0.0
  0
LINE
  5
1B3
  8
0
  6
CONTINUOUS
 62
     7
 10
110.5388946705
 20
-57.3016286669
 30
0.0
 11
110.5388946705
 21
-63.6988595901
 31
0.0
  0
LINE
  5
1B4
  8
0
  6
CONTINUOUS
 62
     7
 10
110.5388946705
 20
-63.6988595901
 30
0.0
 11
110.4388944678
 21
-63.6988595901
 31
0.0
  0
LINE
  5
1B5
  8
0
  6
CONTINUOUS
 62
     7
 10
110.5388946705
 20
-53.1176105914
 30
0.0
 11
110.5388946705
 21
-57.3016286669
 31
0.0
  0
LINE
  5
1B6
  8
0
  6
CONTINUOUS
 62
     7
 10
24.7388921552
 20
-53.1176105914
 30
0.0
 11
24.7388921552
 21
-57.3016286669
 31
0.0
  0
ARC
  5
1B7
  8
0
  6
CONTINUOUS
 62
     7
 10
108.374903745
 20
-53.0907761555
 30
0.0
 40
2.164157298478805
 50
359.2895436372
 51
90.7104953332
  0
ARC
  5
1B8
  8
0
  6
CONTINUOUS
 62
     7
 10
26.9028907564
 20
-53.090783813
 30
0.0
 40
2.164164878665011
 50
89.2896709304
 51
180.7102511289
  0
LINE
  5
1B9
  8
0
  6
CONTINUOUS
 62
     7
 10
110.4388944678
 20
-65.2873025117
 30
0.0
 11
110.4388944678
 21
-72.4552587447
 31
0.0
  0
LINE
  5
1BA
  8
0
  6
CONTINUOUS
 62
     7
 10
24.8388968282
 20
-72.4552587447
 30
0.0
 11
24.8388968282
 21
-65.2873025117
 31
0.0
  0
LINE
  5
1BB
  8
0
  6
CONTINUOUS
 62
     7
 10
111.4388942592
 20
-64.5539686857
 30
0.0
 11
111.4388942592
 21
-69.3539694724
 31
0.0
  0
LINE
  5
1BC
  8
0
  6
CONTINUOUS
 62
     7
 10
23.8388918214
 20
-64.5539686857
 30
0.0
 11
23.8388918214
 21
-69.3539694724
 31
0.0
  0
LINE
  5
1BD
  8
0
  6
CONTINUOUS
 62
     7
 10
136.7388941221
 20
-136.5539685664
 30
0.0
 11
136.7388941221
 21
-63.1539688287
 31
0.0
  0
POLYLINE
  5
1BE
  8
0
  6
CONTINUOUS
 62
     7
 66
     1
 10
0.0
 20
0.0
 30
0.0
  0
VERTEX
  5
395
  8
0
  6
CONTINUOUS
 62
     7
 10
136.7388941221
 20
-63.1539688287
 30
0.0
  0
VERTEX
  5
396
  8
0
  6
CONTINUOUS
 62
     7
 10
136.7684416346
 20
-63.1835178314
 30
0.0
  0
VERTEX
  5
397
  8
0
  6
CONTINUOUS
 62
     7
 10
136.8563584857
 20
-63.2714346824
 30
0.0
  0
VERTEX
  5
398
  8
0
  6
CONTINUOUS
 62
     7
 10
137.0004780464
 20
-63.415552753
 30
0.0
  0
VERTEX
  5
399
  8
0
  6
CONTINUOUS
 62
     7
 10
137.1972538404
 20
-63.612328547
 30
0.0
  0
VERTEX
  5
39A
  8
0
  6
CONTINUOUS
 62
     7
 10
137.44183852
 20
-63.8569132266
 30
0.0
  0
VERTEX
  5
39B
  8
0
  6
CONTINUOUS
 62
     7
 10
137.728210526
 20
-64.1432837425
 30
0.0
  0
VERTEX
  5
39C
  8
0
  6
CONTINUOUS
 62
     7
 10
138.0493171387
 20
-64.4643918453
 30
0.0
  0
VERTEX
  5
39D
  8
0
  6
CONTINUOUS
 62
     7
 10
138.3972532921
 20
-64.8123279987
 30
0.0
  0
VERTEX
  5
39E
  8
0
  6
CONTINUOUS
 62
     7
 10
138.7634523086
 20
-65.1785270152
 30
0.0
  0
VERTEX
  5
39F
  8
0
  6
CONTINUOUS
 62
     7
 10
139.1388945155
 20
-65.5539707122
 30
0.0
  0
SEQEND
  5
3DC
  8
0
  6
CONTINUOUS
 62
     7
  0
POLYLINE
  5
1BF
  8
0
  6
CONTINUOUS
 62
     7
 66
     1
 10
0.0
 20
0.0
 30
0.0
  0
VERTEX
  5
3A0
  8
0
  6
CONTINUOUS
 62
     7
 10
139.1388945155
 20
-134.1539696632
 30
0.0
  0
VERTEX
  5
3A1
  8
0
  6
CONTINUOUS
 62
     7
 10
138.7634523086
 20
-134.5294133602
 30
0.0
  0
VERTEX
  5
3A2
  8
0
  6
CONTINUOUS
 62
     7
 10
138.3972532921
 20
-134.8956123767
 30
0.0
  0
VERTEX
  5
3A3
  8
0
  6
CONTINUOUS
 62
     7
 10
138.0493171387
 20
-135.2435485301
 30
0.0
  0
VERTEX
  5
3A4
  8
0
  6
CONTINUOUS
 62
     7
 10
137.728210526
 20
-135.5646566329
 30
0.0
  0
VERTEX
  5
3A5
  8
0
  6
CONTINUOUS
 62
     7
 10
137.44183852
 20
-135.8510271488
 30
0.0
  0
VERTEX
  5
3A6
  8
0
  6
CONTINUOUS
 62
     7
 10
137.1972538404
 20
-136.0956088481
 30
0.0
  0
VERTEX
  5
3A7
  8
0
  6
CONTINUOUS
 62
     7
 10
137.0004780464
 20
-136.2923876224
 30
0.0
  0
VERTEX
  5
3A8
  8
0
  6
CONTINUOUS
 62
     7
 10
136.8563584857
 20
-136.436505693
 30
0.0
  0
VERTEX
  5
3A9
  8
0
  6
CONTINUOUS
 62
     7
 10
136.7684416346
 20
-136.524422544
 30
0.0
  0
VERTEX
  5
3AA
  8
0
  6
CONTINUOUS
 62
     7
 10
136.7388941221
 20
-136.5539685664
 30
0.0
  0
SEQEND
  5
3DB
  8
0
  6
CONTINUOUS
 62
     7
  0
LINE
  5
1C0
  8
0
  6
CONTINUOUS
 62
     7
 10
222.5388966374
 20
-63.1539688287
 30
0.0
 11
222.5388966374
 21
-136.5539685664
 31
0.0
  0
POLYLINE
  5
1C1
  8
0
  6
CONTINUOUS
 62
     7
 66
     1
 10
0.0
 20
0.0
 30
0.0
  0
VERTEX
  5
3AB
  8
0
  6
CONTINUOUS
 62
     7
 10
220.1388917737
 20
-134.1539696632
 30
0.0
  0
VERTEX
  5
3AC
  8
0
  6
CONTINUOUS
 62
     7
 10
220.5143354707
 20
-134.5294133602
 30
0.0
  0
VERTEX
  5
3AD
  8
0
  6
CONTINUOUS
 62
     7
 10
220.8805344872
 20
-134.8956123767
 30
0.0
  0
VERTEX
  5
3AE
  8
0
  6
CONTINUOUS
 62
     7
 10
221.2284706406
 20
-135.2435485301
 30
0.0
  0
VERTEX
  5
3AF
  8
0
  6
CONTINUOUS
 62
     7
 10
221.5495787434
 20
-135.5646566329
 30
0.0
  0
VERTEX
  5
3B0
  8
0
  6
CONTINUOUS
 62
     7
 10
221.8359492593
 20
-135.8510271488
 30
0.0
  0
VERTEX
  5
3B1
  8
0
  6
CONTINUOUS
 62
     7
 10
222.0805369191
 20
-136.0956088481
 30
0.0
  0
VERTEX
  5
3B2
  8
0
  6
CONTINUOUS
 62
     7
 10
222.2773097329
 20
-136.2923876224
 30
0.0
  0
VERTEX
  5
3B3
  8
0
  6
CONTINUOUS
 62
     7
 10
222.4214278035
 20
-136.436505693
 30
0.0
  0
VERTEX
  5
3B4
  8
0
  6
CONTINUOUS
 62
     7
 10
222.5093446545
 20
-136.524422544
 30
0.0
  0
VERTEX
  5
3B5
  8
0
  6
CONTINUOUS
 62
     7
 10
222.5388966374
 20
-136.5539685664
 30
0.0
  0
SEQEND
  5
3DA
  8
0
  6
CONTINUOUS
 62
     7
  0
POLYLINE
  5
1C2
  8
0
  6
CONTINUOUS
 62
     7
 66
     1
 10
0.0
 20
0.0
 30
0.0
  0
VERTEX
  5
3B6
  8
0
  6
CONTINUOUS
 62
     7
 10
222.5388966374
 20
-63.1539688287
 30
0.0
  0
VERTEX
  5
3B7
  8
0
  6
CONTINUOUS
 62
     7
 10
222.5093446545
 20
-63.1835178314
 30
0.0
  0
VERTEX
  5
3B8
  8
0
  6
CONTINUOUS
 62
     7
 10
222.4214278035
 20
-63.2714346824
 30
0.0
  0
VERTEX
  5
3B9
  8
0
  6
CONTINUOUS
 62
     7
 10
222.2773097329
 20
-63.415552753
 30
0.0
  0
VERTEX
  5
3BA
  8
0
  6
CONTINUOUS
 62
     7
 10
222.0805369191
 20
-63.612328547
 30
0.0
  0
VERTEX
  5
3BB
  8
0
  6
CONTINUOUS
 62
     7
 10
221.8359492593
 20
-63.8569132266
 30
0.0
  0
VERTEX
  5
3BC
  8
0
  6
CONTINUOUS
 62
     7
 10
221.5495787434
 20
-64.1432837425
 30
0.0
  0
VERTEX
  5
3BD
  8
0
  6
CONTINUOUS
 62
     7
 10
221.2284706406
 20
-64.4643918453
 30
0.0
  0
VERTEX
  5
3BE
  8
0
  6
CONTINUOUS
 62
     7
 10
220.8805344872
 20
-64.8123279987
 30
0.0
  0
VERTEX
  5
3BF
  8
0
  6
CONTINUOUS
 62
     7
 10
220.5143354707
 20
-65.1785270152
 30
0.0
  0
VERTEX
  5
3C0
  8
0
  6
CONTINUOUS
 62
     7
 10
220.1388917737
 20
-65.5539707122
 30
0.0
  0
SEQEND
  5
3D9
  8
0
  6
CONTINUOUS
 62
     7
  0
LINE
  5
1C3
  8
0
  6
CONTINUOUS
 62
     7
 10
136.7388941221
 20
-63.1539688287
 30
0.0
 11
222.5388966374
 21
-63.1539688287
 31
0.0
  0
LINE
  5
1C4
  8
0
  6
CONTINUOUS
 62
     7
 10
222.5388966374
 20
-136.5539685664
 30
0.0
 11
136.7388941221
 21
-136.5539685664
 31
0.0
  0
LINE
  5
1C5
  8
0
  6
CONTINUOUS
 62
     7
 10
222.4388919644
 20
-55.655320066
 30
0.0
 11
222.4388919644
 21
-63.1539688287
 31
0.0
  0
LINE
  5
1C6
  8
0
  6
CONTINUOUS
 62
     7
 10
136.8388943248
 20
-63.1539688287
 30
0.0
 11
136.8388943248
 21
-55.655320066
 31
0.0
  0
LINE
  5
1C7
  8
0
  6
CONTINUOUS
 62
     7
 10
223.4388969712
 20
-64.5539686857
 30
0.0
 11
223.4388969712
 21
-69.3539694724
 31
0.0
  0
LINE
  5
1C8
  8
0
  6
CONTINUOUS
 62
     7
 10
135.8388945334
 20
-64.5539686857
 30
0.0
 11
135.8388945334
 21
-69.3539694724
 31
0.0
  0
ARC
  5
1C9
  8
0
  6
CONTINUOUS
 62
     7
 10
221.2267226614
 20
-44.1328542871
 30
0.0
 40
2.212460146565585
 50
275.5030010018
 51
359.0789915641
  0
LINE
  5
1CA
  8
0
  6
CONTINUOUS
 62
     7
 10
223.4388969712
 20
-44.168417233
 30
0.0
 11
223.4388969712
 21
-54.0170163689
 31
0.0
  0
ARC
  5
1CB
  8
0
  6
CONTINUOUS
 62
     7
 10
221.6315712166
 20
-54.037946032
 30
0.0
 40
1.807446938095938
 50
263.8805007263
 51
0.6634818092
  0
ARC
  5
1CC
  8
0
  6
CONTINUOUS
 62
     7
 10
138.0517418289
 20
-44.1322334439
 30
0.0
 40
2.213143108811683
 50
180.9367992377
 51
264.4811018159
  0
LINE
  5
1CD
  8
0
  6
CONTINUOUS
 62
     7
 10
135.8388945334
 20
-54.0170163689
 30
0.0
 11
135.8388945334
 21
-44.168417233
 31
0.0
  0
ARC
  5
1CE
  8
0
  6
CONTINUOUS
 62
     7
 10
137.6467857548
 20
-54.0373235879
 30
0.0
 40
1.808005268661429
 50
179.3564496594
 51
276.099461567
  0
LINE
  5
1CF
  8
0
  6
CONTINUOUS
 62
     7
 10
223.4388969712
 20
-39.5859212456
 30
0.0
 11
135.8388945334
 21
-39.5859212456
 31
0.0
  0
LINE
  5
1D0
  8
0
  6
CONTINUOUS
 62
     7
 10
135.8388945334
 20
-44.168417233
 30
0.0
 11
135.8388945334
 21
-39.5859212456
 31
0.0
  0
LINE
  5
1D1
  8
0
  6
CONTINUOUS
 62
     7
 10
223.4388969712
 20
-44.168417233
 30
0.0
 11
223.4388969712
 21
-39.5859212456
 31
0.0
  0
LINE
  5
1D2
  8
0
  6
CONTINUOUS
 62
     7
 10
223.5388956837
 20
-36.9539693771
 30
0.0
 11
135.7388943307
 21
-36.9539693771
 31
0.0
  0
LINE
  5
1D3
  8
0
  6
CONTINUOUS
 62
     7
 10
223.5388956837
 20
-36.9539693771
 30
0.0
 11
223.5388956837
 21
-39.5772057427
 31
0.0
  0
LINE
  5
1D4
  8
0
  6
CONTINUOUS
 62
     7
 10
223.5388956837
 20
-39.5772057427
 30
0.0
 11
135.7388943307
 21
-39.5772057427
 31
0.0
  0
LINE
  5
1D5
  8
0
  6
CONTINUOUS
 62
     7
 10
135.7388943307
 20
-36.9539693771
 30
0.0
 11
135.7388943307
 21
-39.5772057427
 31
0.0
  0
LINE
  5
1D6
  8
0
  6
CONTINUOUS
 62
     7
 10
135.8388945334
 20
-49.5739699183
 30
0.0
 11
135.7388943307
 21
-49.5739699183
 31
0.0
  0
LINE
  5
1D7
  8
0
  6
CONTINUOUS
 62
     7
 10
135.7388943307
 20
-39.5772057427
 30
0.0
 11
135.7388943307
 21
-43.9560943125
 31
0.0
  0
LINE
  5
1D8
  8
0
  6
CONTINUOUS
 62
     7
 10
223.5388956837
 20
-49.5739699183
 30
0.0
 11
223.4388969712
 21
-49.5739699183
 31
0.0
  0
LINE
  5
1D9
  8
0
  6
CONTINUOUS
 62
     7
 10
223.5388956837
 20
-39.5772057427
 30
0.0
 11
223.5388956837
 21
-43.9560943125
 31
0.0
  0
LINE
  5
1DA
  8
0
  6
CONTINUOUS
 62
     7
 10
223.5388956837
 20
-57.7304915366
 30
0.0
 11
223.5388956837
 21
-57.3226735769
 31
0.0
  0
LINE
  5
1DB
  8
0
  6
CONTINUOUS
 62
     7
 10
135.7388943307
 20
-57.3226735769
 30
0.0
 11
135.7388943307
 21
-57.7304915366
 31
0.0
  0
LINE
  5
1DC
  8
0
  6
CONTINUOUS
 62
     7
 10
134.9388941996
 20
-57.7304915366
 30
0.0
 11
134.9388941996
 21
-57.3226735769
 31
0.0
  0
LINE
  5
1DD
  8
0
  6
CONTINUOUS
 62
     7
 10
224.3388913445
 20
-36.9539693771
 30
0.0
 11
224.3388913445
 21
-36.988831674
 31
0.0
  0
LINE
  5
1DE
  8
0
  6
CONTINUOUS
 62
     7
 10
223.5388956837
 20
-43.9560943125
 30
0.0
 11
223.5388956837
 21
-57.3226735769
 31
0.0
  0
LINE
  5
1DF
  8
0
  6
CONTINUOUS
 62
     7
 10
224.3388913445
 20
-36.9539693771
 30
0.0
 11
223.5388956837
 21
-36.9539693771
 31
0.0
  0
LINE
  5
1E0
  8
0
  6
CONTINUOUS
 62
     7
 10
135.7388943307
 20
-57.3226735769
 30
0.0
 11
135.7388943307
 21
-43.9560943125
 31
0.0
  0
LINE
  5
1E1
  8
0
  6
CONTINUOUS
 62
     7
 10
134.9388941996
 20
-57.3226735769
 30
0.0
 11
134.9388941996
 21
-49.3141592322
 31
0.0
  0
LINE
  5
1E2
  8
0
  6
CONTINUOUS
 62
     7
 10
134.9388941996
 20
-37.7147771725
 30
0.0
 11
134.9388941996
 21
-36.9539693771
 31
0.0
  0
LINE
  5
1E3
  8
0
  6
CONTINUOUS
 62
     7
 10
134.9388941996
 20
-36.9539693771
 30
0.0
 11
135.7388943307
 21
-36.9539693771
 31
0.0
  0
LINE
  5
1E4
  8
0
  6
CONTINUOUS
 62
     7
 10
135.7388943307
 20
-64.6556184469
 30
0.0
 11
135.7388943307
 21
-57.7304915366
 31
0.0
  0
LINE
  5
1E5
  8
0
  6
CONTINUOUS
 62
     7
 10
134.9388941996
 20
-64.6556184469
 30
0.0
 11
134.9388941996
 21
-57.7304915366
 31
0.0
  0
LINE
  5
1E6
  8
0
  6
CONTINUOUS
 62
     7
 10
223.5388956837
 20
-57.7304915366
 30
0.0
 11
223.5388956837
 21
-64.6556184469
 31
0.0
  0
LINE
  5
1E7
  8
0
  6
CONTINUOUS
 62
     7
 10
223.5388956837
 20
-65.1144818244
 30
0.0
 11
223.5388956837
 21
-64.6556184469
 31
0.0
  0
LINE
  5
1E8
  8
0
  6
CONTINUOUS
 62
     7
 10
135.7388943307
 20
-64.6556184469
 30
0.0
 11
135.7388943307
 21
-65.1144818244
 31
0.0
  0
LINE
  5
1E9
  8
0
  6
CONTINUOUS
 62
     7
 10
134.9388941996
 20
-65.1144818244
 30
0.0
 11
134.9388941996
 21
-64.6556184469
 31
0.0
  0
LINE
  5
1EA
  8
0
  6
CONTINUOUS
 62
     7
 10
127.6388943069
 20
-36.9539693771
 30
0.0
 11
134.9388941996
 21
-36.9539693771
 31
0.0
  0
LINE
  5
1EB
  8
0
  6
CONTINUOUS
 62
     7
 10
125.6388943516
 20
-37.7147771725
 30
0.0
 11
125.6388943516
 21
-36.9539693771
 31
0.0
  0
LINE
  5
1EC
  8
0
  6
CONTINUOUS
 62
     7
 10
125.6388943516
 20
-36.9539693771
 30
0.0
 11
127.6388943069
 21
-36.9539693771
 31
0.0
  0
LINE
  5
1ED
  8
0
  6
CONTINUOUS
 62
     7
 10
224.3388913445
 20
-36.9539693771
 30
0.0
 11
224.7388981156
 21
-36.9539693771
 31
0.0
  0
LINE
  5
1EE
  8
0
  6
CONTINUOUS
 62
     7
 10
223.5388956837
 20
-65.1144818244
 30
0.0
 11
223.5388956837
 21
-72.197197455
 31
0.0
  0
LINE
  5
1EF
  8
0
  6
CONTINUOUS
 62
     7
 10
135.7388943307
 20
-72.197197455
 30
0.0
 11
135.7388943307
 21
-65.1144818244
 31
0.0
  0
LINE
  5
1F0
  8
0
  6
CONTINUOUS
 62
     7
 10
134.9388941996
 20
-72.197197455
 30
0.0
 11
134.9388941996
 21
-65.1144818244
 31
0.0
  0
LINE
  5
1F1
  8
0
  6
CONTINUOUS
 62
     7
 10
123.6388943963
 20
-37.7147771725
 30
0.0
 11
123.6388943963
 21
-36.9539693771
 31
0.0
  0
LINE
  5
1F2
  8
0
  6
CONTINUOUS
 62
     7
 10
123.6388943963
 20
-36.9539693771
 30
0.0
 11
125.6388943516
 21
-36.9539693771
 31
0.0
  0
LINE
  5
1F3
  8
0
  6
CONTINUOUS
 62
     7
 10
134.9388941996
 20
-61.5539700566
 30
0.0
 11
134.7388945393
 21
-61.5539700566
 31
0.0
  0
LINE
  5
1F4
  8
0
  6
CONTINUOUS
 62
     7
 10
134.7388945393
 20
-60.7539699254
 30
0.0
 11
134.9388941996
 21
-60.7539699254
 31
0.0
  0
LINE
  5
1F5
  8
0
  6
CONTINUOUS
 62
     7
 10
135.7388943307
 20
-72.197197455
 30
0.0
 11
135.7388943307
 21
-72.2002432523
 31
0.0
  0
LINE
  5
1F6
  8
0
  6
CONTINUOUS
 62
     7
 10
134.9388941996
 20
-72.2002432523
 30
0.0
 11
134.9388941996
 21
-72.197197455
 31
0.0
  0
LINE
  5
1F7
  8
0
  6
CONTINUOUS
 62
     7
 10
223.5388956837
 20
-72.2002432523
 30
0.0
 11
223.5388956837
 21
-72.197197455
 31
0.0
  0
ARC
  5
1F8
  8
0
  6
CONTINUOUS
 62
     7
 10
26.0517438652
 20
-44.132228695
 30
0.0
 40
2.213147934081797
 50
180.9369201549
 51
264.4810872792
  0
ARC
  5
1F9
  8
0
  6
CONTINUOUS
 62
     7
 10
109.2267261442
 20
-44.1328603701
 30
0.0
 40
2.212453854811222
 50
275.502952451
 51
359.0791464954
  0
LINE
  5
1FA
  8
0
  6
CONTINUOUS
 62
     7
 10
111.4388942592
 20
-44.168417233
 30
0.0
 11
111.4388942592
 21
-54.0170163689
 31
0.0
  0
ARC
  5
1FB
  8
0
  6
CONTINUOUS
 62
     7
 10
109.6373508241
 20
-54.0426029048
 30
0.0
 40
1.801725123188289
 50
300.0250199792
 51
0.8136922658
  0
LINE
  5
1FC
  8
0
  6
CONTINUOUS
 62
     7
 10
23.8388918214
 20
-54.0170163689
 30
0.0
 11
23.8388918214
 21
-44.168417233
 31
0.0
  0
ARC
  5
1FD
  8
0
  6
CONTINUOUS
 62
     7
 10
25.6404543717
 20
-54.0425916307
 30
0.0
 40
1.80174407643334
 50
179.1866748483
 51
239.9746536325
  0
LINE
  5
1FE
  8
0
  6
CONTINUOUS
 62
     7
 10
111.4388942592
 20
-39.5859212456
 30
0.0
 11
23.8388918214
 21
-39.5859212456
 31
0.0
  0
LINE
  5
1FF
  8
0
  6
CONTINUOUS
 62
     7
 10
111.4388942592
 20
-44.168417233
 30
0.0
 11
111.4388942592
 21
-39.5859212456
 31
0.0
  0
LINE
  5
200
  8
0
  6
CONTINUOUS
 62
     7
 10
23.8388918214
 20
-44.168417233
 30
0.0
 11
23.8388918214
 21
-39.5859212456
 31
0.0
  0
LINE
  5
201
  8
0
  6
CONTINUOUS
 62
     7
 10
23.8388918214
 20
-49.5739699183
 30
0.0
 11
23.7388931088
 21
-49.5739699183
 31
0.0
  0
LINE
  5
202
  8
0
  6
CONTINUOUS
 62
     7
 10
111.5388944619
 20
-39.5772057427
 30
0.0
 11
23.7388931088
 21
-39.5772057427
 31
0.0
  0
LINE
  5
203
  8
0
  6
CONTINUOUS
 62
     7
 10
111.5388944619
 20
-39.5772057427
 30
0.0
 11
111.5388944619
 21
-43.9560943125
 31
0.0
  0
LINE
  5
204
  8
0
  6
CONTINUOUS
 62
     7
 10
111.5388944619
 20
-49.5739699183
 30
0.0
 11
111.4388942592
 21
-49.5739699183
 31
0.0
  0
LINE
  5
205
  8
0
  6
CONTINUOUS
 62
     7
 10
23.7388931088
 20
-39.5772057427
 30
0.0
 11
23.7388931088
 21
-43.9560943125
 31
0.0
  0
LINE
  5
206
  8
0
  6
CONTINUOUS
 62
     7
 10
111.5388944619
 20
-36.9539693771
 30
0.0
 11
23.7388931088
 21
-36.9539693771
 31
0.0
  0
LINE
  5
207
  8
0
  6
CONTINUOUS
 62
     7
 10
111.5388944619
 20
-36.9539693771
 30
0.0
 11
111.5388944619
 21
-39.5772057427
 31
0.0
  0
LINE
  5
208
  8
0
  6
CONTINUOUS
 62
     7
 10
23.7388931088
 20
-36.9539693771
 30
0.0
 11
23.7388931088
 21
-39.5772057427
 31
0.0
  0
LINE
  5
209
  8
0
  6
CONTINUOUS
 62
     7
 10
23.7388931088
 20
-57.3226735769
 30
0.0
 11
23.7388931088
 21
-57.7304915366
 31
0.0
  0
LINE
  5
20A
  8
0
  6
CONTINUOUS
 62
     7
 10
111.5388944619
 20
-57.7304915366
 30
0.0
 11
111.5388944619
 21
-57.3226735769
 31
0.0
  0
LINE
  5
20B
  8
0
  6
CONTINUOUS
 62
     7
 10
112.338894593
 20
-57.3226735769
 30
0.0
 11
112.338894593
 21
-57.7304915366
 31
0.0
  0
LINE
  5
20C
  8
0
  6
CONTINUOUS
 62
     7
 10
22.938897448
 20
-36.988831674
 30
0.0
 11
22.938897448
 21
-36.9539693771
 31
0.0
  0
LINE
  5
20D
  8
0
  6
CONTINUOUS
 62
     7
 10
23.7388931088
 20
-57.3226735769
 30
0.0
 11
23.7388931088
 21
-43.9560943125
 31
0.0
  0
LINE
  5
20E
  8
0
  6
CONTINUOUS
 62
     7
 10
22.938897448
 20
-36.9539693771
 30
0.0
 11
23.7388931088
 21
-36.9539693771
 31
0.0
  0
LINE
  5
20F
  8
0
  6
CONTINUOUS
 62
     7
 10
111.5388944619
 20
-43.9560943125
 30
0.0
 11
111.5388944619
 21
-57.3226735769
 31
0.0
  0
LINE
  5
210
  8
0
  6
CONTINUOUS
 62
     7
 10
112.338894593
 20
-36.9539693771
 30
0.0
 11
112.338894593
 21
-37.7147771725
 31
0.0
  0
LINE
  5
211
  8
0
  6
CONTINUOUS
 62
     7
 10
112.338894593
 20
-49.3141592322
 30
0.0
 11
112.338894593
 21
-57.3226735769
 31
0.0
  0
LINE
  5
212
  8
0
  6
CONTINUOUS
 62
     7
 10
112.338894593
 20
-36.9539693771
 30
0.0
 11
111.5388944619
 21
-36.9539693771
 31
0.0
  0
LINE
  5
213
  8
0
  6
CONTINUOUS
 62
     7
 10
23.7388931088
 20
-64.6556184469
 30
0.0
 11
23.7388931088
 21
-57.7304915366
 31
0.0
  0
LINE
  5
214
  8
0
  6
CONTINUOUS
 62
     7
 10
111.5388944619
 20
-57.7304915366
 30
0.0
 11
111.5388944619
 21
-64.6556184469
 31
0.0
  0
LINE
  5
215
  8
0
  6
CONTINUOUS
 62
     7
 10
112.338894593
 20
-57.7304915366
 30
0.0
 11
112.338894593
 21
-64.6556184469
 31
0.0
  0
LINE
  5
216
  8
0
  6
CONTINUOUS
 62
     7
 10
111.5388944619
 20
-65.1144818244
 30
0.0
 11
111.5388944619
 21
-64.6556184469
 31
0.0
  0
LINE
  5
217
  8
0
  6
CONTINUOUS
 62
     7
 10
112.338894593
 20
-64.6556184469
 30
0.0
 11
112.338894593
 21
-65.1144818244
 31
0.0
  0
LINE
  5
218
  8
0
  6
CONTINUOUS
 62
     7
 10
23.7388931088
 20
-64.6556184469
 30
0.0
 11
23.7388931088
 21
-65.1144818244
 31
0.0
  0
LINE
  5
219
  8
0
  6
CONTINUOUS
 62
     7
 10
121.638894441
 20
-36.9539693771
 30
0.0
 11
121.638894441
 21
-37.7147771725
 31
0.0
  0
LINE
  5
21A
  8
0
  6
CONTINUOUS
 62
     7
 10
119.6388944857
 20
-36.9539693771
 30
0.0
 11
121.638894441
 21
-36.9539693771
 31
0.0
  0
LINE
  5
21B
  8
0
  6
CONTINUOUS
 62
     7
 10
22.538890677
 20
-36.9539693771
 30
0.0
 11
22.938897448
 21
-36.9539693771
 31
0.0
  0
LINE
  5
21C
  8
0
  6
CONTINUOUS
 62
     7
 10
112.338894593
 20
-36.9539693771
 30
0.0
 11
119.6388944857
 21
-36.9539693771
 31
0.0
  0
LINE
  5
21D
  8
0
  6
CONTINUOUS
 62
     7
 10
111.5388944619
 20
-65.1144818244
 30
0.0
 11
111.5388944619
 21
-72.197197455
 31
0.0
  0
LINE
  5
21E
  8
0
  6
CONTINUOUS
 62
     7
 10
112.338894593
 20
-65.1144818244
 30
0.0
 11
112.338894593
 21
-72.197197455
 31
0.0
  0
LINE
  5
21F
  8
0
  6
CONTINUOUS
 62
     7
 10
23.7388931088
 20
-72.197197455
 30
0.0
 11
23.7388931088
 21
-65.1144818244
 31
0.0
  0
LINE
  5
220
  8
0
  6
CONTINUOUS
 62
     7
 10
121.638894441
 20
-36.9539693771
 30
0.0
 11
123.6388943963
 21
-36.9539693771
 31
0.0
  0
LINE
  5
221
  8
0
  6
CONTINUOUS
 62
     7
 10
112.5388942532
 20
-61.5539700566
 30
0.0
 11
112.338894593
 21
-61.5539700566
 31
0.0
  0
LINE
  5
222
  8
0
  6
CONTINUOUS
 62
     7
 10
112.338894593
 20
-60.7539699254
 30
0.0
 11
112.5388942532
 21
-60.7539699254
 31
0.0
  0
LINE
  5
223
  8
0
  6
CONTINUOUS
 62
     7
 10
23.7388931088
 20
-72.197197455
 30
0.0
 11
23.7388931088
 21
-72.2002432523
 31
0.0
  0
LINE
  5
224
  8
0
  6
CONTINUOUS
 62
     7
 10
111.5388944619
 20
-72.2002432523
 30
0.0
 11
111.5388944619
 21
-72.197197455
 31
0.0
  0
LINE
  5
225
  8
0
  6
CONTINUOUS
 62
     7
 10
112.338894593
 20
-72.197197455
 30
0.0
 11
112.338894593
 21
-72.2002432523
 31
0.0
  0
ARC
  5
226
  8
0
  6
CONTINUOUS
 62
     7
 10
630.8771499693
 20
263.6385731433
 30
0.0
 40
0.3999999999999773
 50
90.0
 51
180.0
  0
LINE
  5
227
  8
0
  6
CONTINUOUS
 62
     7
 10
654.0771496355
 20
264.0385735561
 30
0.0
 11
630.877150303
 21
264.0385735561
 31
0.0
  0
ARC
  5
228
  8
0
  6
CONTINUOUS
 62
     7
 10
654.0771499693
 20
263.6385731433
 30
0.0
 40
0.4000000000000909
 50
0.0
 51
90.0
  0
ARC
  5
229
  8
0
  6
CONTINUOUS
 62
     7
 10
530.4771499693
 20
215.1295723899
 30
0.0
 40
0.4000000000000909
 50
90.0
 51
180.0
  0
LINE
  5
22A
  8
0
  6
CONTINUOUS
 62
     7
 10
541.3771462499
 20
215.5295718242
 30
0.0
 11
530.4771494924
 21
215.5295718242
 31
0.0
  0
ARC
  5
22B
  8
0
  6
CONTINUOUS
 62
     7
 10
541.3771499693
 20
215.1295723899
 30
0.0
 40
0.3999999999999773
 50
0.0
 51
90.0
  0
ARC
  5
22C
  8
0
  6
CONTINUOUS
 62
     7
 10
743.5771499693
 20
215.1295723899
 30
0.0
 40
0.3999999999999773
 50
90.0
 51
180.0
  0
LINE
  5
22D
  8
0
  6
CONTINUOUS
 62
     7
 10
754.4771504461
 20
215.5295718242
 30
0.0
 11
743.5771536886
 21
215.5295718242
 31
0.0
  0
ARC
  5
22E
  8
0
  6
CONTINUOUS
 62
     7
 10
754.4771499693
 20
215.1295723899
 30
0.0
 40
0.3999999999999773
 50
0.0
 51
90.0
  0
LINE
  5
22F
  8
0
  6
CONTINUOUS
 62
     7
 10
655.5862826168
 20
141.6589487125
 30
0.0
 11
741.3680148184
 21
141.6589487125
 31
0.0
  0
LINE
  5
230
  8
0
  6
CONTINUOUS
 62
     7
 10
655.5771496951
 20
148.5334384967
 30
0.0
 11
654.6771501064
 21
148.5334384967
 31
0.0
  0
LINE
  5
231
  8
0
  6
CONTINUOUS
 62
     7
 10
654.6771501064
 20
143.7334347297
 30
0.0
 11
655.5771496951
 21
143.7334347297
 31
0.0
  0
LINE
  5
232
  8
0
  6
CONTINUOUS
 62
     7
 10
742.2771525442
 20
148.5334384967
 30
0.0
 11
741.3771522104
 21
148.5334384967
 31
0.0
  0
LINE
  5
233
  8
0
  6
CONTINUOUS
 62
     7
 10
741.3771522104
 20
143.7334347297
 30
0.0
 11
742.2771525442
 21
143.7334347297
 31
0.0
  0
LINE
  5
234
  8
0
  6
CONTINUOUS
 62
     7
 10
543.6771524011
 20
148.5334384967
 30
0.0
 11
542.6771473943
 21
148.5334384967
 31
0.0
  0
LINE
  5
235
  8
0
  6
CONTINUOUS
 62
     7
 10
542.6771473943
 20
143.7334347297
 30
0.0
 11
543.6771524011
 21
143.7334347297
 31
0.0
  0
LINE
  5
236
  8
0
  6
CONTINUOUS
 62
     7
 10
630.2771498322
 20
148.5334384967
 30
0.0
 11
629.2771500408
 21
148.5334384967
 31
0.0
  0
LINE
  5
237
  8
0
  6
CONTINUOUS
 62
     7
 10
629.2771500408
 20
143.7334347297
 30
0.0
 11
630.2771498322
 21
143.7334347297
 31
0.0
  0
LINE
  5
238
  8
0
  6
CONTINUOUS
 62
     7
 10
630.2695390641
 20
263.905869775
 30
0.0
 11
542.6847589075
 21
263.905869775
 31
0.0
  0
LINE
  5
239
  8
0
  6
CONTINUOUS
 62
     7
 10
542.5771486818
 20
214.7185075809
 30
0.0
 11
541.777153021
 21
214.7185075809
 31
0.0
  0
LINE
  5
23A
  8
0
  6
CONTINUOUS
 62
     7
 10
631.177150166
 20
214.7185075809
 30
0.0
 11
630.6771498977
 21
214.7185075809
 31
0.0
  0
LINE
  5
23B
  8
0
  6
CONTINUOUS
 62
     7
 10
630.4771502375
 20
214.7185075809
 30
0.0
 11
630.3771500348
 21
214.7185075809
 31
0.0
  0
LINE
  5
23C
  8
0
  6
CONTINUOUS
 62
     7
 10
542.5771486818
 20
144.9334371616
 30
0.0
 11
542.6771473943
 21
144.9334371616
 31
0.0
  0
LINE
  5
23D
  8
0
  6
CONTINUOUS
 62
     7
 10
630.2771498322
 20
144.9334371616
 30
0.0
 11
630.3771500348
 21
144.9334371616
 31
0.0
  0
LINE
  5
23E
  8
0
  6
CONTINUOUS
 62
     7
 10
630.3771500348
 20
147.3334360649
 30
0.0
 11
630.2771498322
 21
147.3334360649
 31
0.0
  0
LINE
  5
23F
  8
0
  6
CONTINUOUS
 62
     7
 10
542.6771473943
 20
147.3334360649
 30
0.0
 11
542.5771486818
 21
147.3334360649
 31
0.0
  0
LINE
  5
240
  8
0
  6
CONTINUOUS
 62
     7
 10
742.269541031
 20
263.905869775
 30
0.0
 11
654.6847608744
 21
263.905869775
 31
0.0
  0
LINE
  5
241
  8
0
  6
CONTINUOUS
 62
     7
 10
654.5771499037
 20
214.7185075809
 30
0.0
 11
654.477149701
 21
214.7185075809
 31
0.0
  0
LINE
  5
242
  8
0
  6
CONTINUOUS
 62
     7
 10
654.2771500408
 20
214.7185075809
 30
0.0
 11
653.7771497726
 21
214.7185075809
 31
0.0
  0
LINE
  5
243
  8
0
  6
CONTINUOUS
 62
     7
 10
743.1771469175
 20
214.7185075809
 30
0.0
 11
742.3771512567
 21
214.7185075809
 31
0.0
  0
LINE
  5
244
  8
0
  6
CONTINUOUS
 62
     7
 10
654.5771499037
 20
144.9334371616
 30
0.0
 11
654.6771501064
 21
144.9334371616
 31
0.0
  0
LINE
  5
245
  8
0
  6
CONTINUOUS
 62
     7
 10
742.2771525442
 20
144.9334371616
 30
0.0
 11
742.3771512567
 21
144.9334371616
 31
0.0
  0
LINE
  5
246
  8
0
  6
CONTINUOUS
 62
     7
 10
742.3771512567
 20
147.3334360649
 30
0.0
 11
742.2771525442
 21
147.3334360649
 31
0.0
  0
LINE
  5
247
  8
0
  6
CONTINUOUS
 62
     7
 10
654.6771501064
 20
147.3334360649
 30
0.0
 11
654.5771499037
 21
147.3334360649
 31
0.0
  0
LINE
  5
248
  8
0
  6
CONTINUOUS
 62
     7
 10
532.4771475851
 20
127.9334354927
 30
0.0
 11
532.4771475851
 21
124.1334367324
 31
0.0
  0
LINE
  5
249
  8
0
  6
CONTINUOUS
 62
     7
 10
530.6771469175
 20
124.1334367324
 30
0.0
 11
532.4771475851
 21
124.1334367324
 31
0.0
  0
LINE
  5
24A
  8
0
  6
CONTINUOUS
 62
     7
 10
530.6771469175
 20
124.1334367324
 30
0.0
 11
530.6771469175
 21
66.3334358265
 31
0.0
  0
LINE
  5
24B
  8
0
  6
CONTINUOUS
 62
     7
 10
530.4771494924
 20
127.533434682
 30
0.0
 11
530.4771494924
 21
66.3334358265
 31
0.0
  0
LINE
  5
24C
  8
0
  6
CONTINUOUS
 62
     7
 10
530.8771443426
 20
127.9334354927
 30
0.0
 11
532.4771475851
 21
127.9334354927
 31
0.0
  0
ARC
  5
24D
  8
0
  6
CONTINUOUS
 62
     7
 10
530.8771499693
 20
127.5334358265
 30
0.0
 40
0.3999999999999773
 50
90.0
 51
180.0
  0
LINE
  5
24E
  8
0
  6
CONTINUOUS
 62
     7
 10
530.4771494924
 20
66.3334358265
 30
0.0
 11
530.6771469175
 21
66.3334358265
 31
0.0
  0
LINE
  5
24F
  8
0
  6
CONTINUOUS
 62
     7
 10
630.3771500348
 20
124.1334367324
 30
0.0
 11
630.3771500348
 21
130.3334343959
 31
0.0
  0
LINE
  5
250
  8
0
  6
CONTINUOUS
 62
     7
 10
542.5771486818
 20
124.1334367324
 30
0.0
 11
542.5771486818
 21
130.3334343959
 31
0.0
  0
LINE
  5
251
  8
0
  6
CONTINUOUS
 62
     7
 10
542.5771486818
 20
130.3334343959
 30
0.0
 11
630.3771500348
 21
130.3334343959
 31
0.0
  0
LINE
  5
252
  8
0
  6
CONTINUOUS
 62
     7
 10
542.5771486818
 20
124.1334367324
 30
0.0
 11
630.3771500348
 21
124.1334367324
 31
0.0
  0
LINE
  5
253
  8
0
  6
CONTINUOUS
 62
     7
 10
642.2771499598
 20
124.1334367324
 30
0.0
 11
642.2771499598
 21
66.3334358265
 31
0.0
  0
ARC
  5
254
  8
0
  6
CONTINUOUS
 62
     7
 10
642.0771499693
 20
127.5334358265
 30
0.0
 40
0.4000000000000909
 50
0.0
 51
90.0
  0
LINE
  5
255
  8
0
  6
CONTINUOUS
 62
     7
 10
642.4771499693
 20
127.533434682
 30
0.0
 11
642.4771499693
 21
66.3334358265
 31
0.0
  0
LINE
  5
256
  8
0
  6
CONTINUOUS
 62
     7
 10
640.477150014
 20
127.9334354927
 30
0.0
 11
640.477150014
 21
124.1334367324
 31
0.0
  0
LINE
  5
257
  8
0
  6
CONTINUOUS
 62
     7
 10
640.477150014
 20
127.9334354927
 30
0.0
 11
642.0771499503
 21
127.9334354927
 31
0.0
  0
LINE
  5
258
  8
0
  6
CONTINUOUS
 62
     7
 10
640.477150014
 20
124.1334367324
 30
0.0
 11
642.2771499598
 21
124.1334367324
 31
0.0
  0
LINE
  5
259
  8
0
  6
CONTINUOUS
 62
     7
 10
642.2771499598
 20
66.3334358265
 30
0.0
 11
642.4771499693
 21
66.3334358265
 31
0.0
  0
LINE
  5
25A
  8
0
  6
CONTINUOUS
 62
     7
 10
642.2771499598
 20
66.3334358265
 30
0.0
 11
640.477150014
 21
66.3334358265
 31
0.0
  0
LINE
  5
25B
  8
0
  6
CONTINUOUS
 62
     7
 10
623.4771502077
 20
66.3334358265
 30
0.0
 11
549.477149254
 21
66.3334358265
 31
0.0
  0
LINE
  5
25C
  8
0
  6
CONTINUOUS
 62
     7
 10
532.4771475851
 20
66.3334358265
 30
0.0
 11
530.6771469175
 21
66.3334358265
 31
0.0
  0
LINE
  5
25D
  8
0
  6
CONTINUOUS
 62
     7
 10
644.4771499246
 20
127.9334354927
 30
0.0
 11
644.4771499246
 21
124.1334367324
 31
0.0
  0
LINE
  5
25E
  8
0
  6
CONTINUOUS
 62
     7
 10
642.6771499788
 20
124.1334367324
 30
0.0
 11
644.4771499246
 21
124.1334367324
 31
0.0
  0
LINE
  5
25F
  8
0
  6
CONTINUOUS
 62
     7
 10
642.6771499788
 20
124.1334367324
 30
0.0
 11
642.6771499788
 21
66.3334358265
 31
0.0
  0
LINE
  5
260
  8
0
  6
CONTINUOUS
 62
     7
 10
642.8771499883
 20
127.9334354927
 30
0.0
 11
644.4771499246
 21
127.9334354927
 31
0.0
  0
ARC
  5
261
  8
0
  6
CONTINUOUS
 62
     7
 10
642.8771499693
 20
127.5334358265
 30
0.0
 40
0.3999999999999773
 50
90.0
 51
180.0
  0
LINE
  5
262
  8
0
  6
CONTINUOUS
 62
     7
 10
642.4771499693
 20
66.3334358265
 30
0.0
 11
642.6771499788
 21
66.3334358265
 31
0.0
  0
LINE
  5
263
  8
0
  6
CONTINUOUS
 62
     7
 10
742.3771512567
 20
124.1334367324
 30
0.0
 11
742.3771512567
 21
130.3334343959
 31
0.0
  0
LINE
  5
264
  8
0
  6
CONTINUOUS
 62
     7
 10
654.5771499037
 20
124.1334367324
 30
0.0
 11
654.5771499037
 21
130.3334343959
 31
0.0
  0
LINE
  5
265
  8
0
  6
CONTINUOUS
 62
     7
 10
654.5771499037
 20
130.3334343959
 30
0.0
 11
742.3771512567
 21
130.3334343959
 31
0.0
  0
LINE
  5
266
  8
0
  6
CONTINUOUS
 62
     7
 10
654.5771499037
 20
124.1334367324
 30
0.0
 11
742.3771512567
 21
124.1334367324
 31
0.0
  0
LINE
  5
267
  8
0
  6
CONTINUOUS
 62
     7
 10
754.277153021
 20
124.1334367324
 30
0.0
 11
754.277153021
 21
66.3334358265
 31
0.0
  0
ARC
  5
268
  8
0
  6
CONTINUOUS
 62
     7
 10
754.0771499693
 20
127.5334358265
 30
0.0
 40
0.3999999999999773
 50
0.0
 51
90.0
  0
LINE
  5
269
  8
0
  6
CONTINUOUS
 62
     7
 10
754.4771504461
 20
127.533434682
 30
0.0
 11
754.4771504461
 21
66.3334358265
 31
0.0
  0
LINE
  5
26A
  8
0
  6
CONTINUOUS
 62
     7
 10
752.4771523534
 20
127.9334354927
 30
0.0
 11
752.4771523534
 21
124.1334367324
 31
0.0
  0
LINE
  5
26B
  8
0
  6
CONTINUOUS
 62
     7
 10
752.4771523534
 20
127.9334354927
 30
0.0
 11
754.0771555959
 21
127.9334354927
 31
0.0
  0
LINE
  5
26C
  8
0
  6
CONTINUOUS
 62
     7
 10
752.4771523534
 20
124.1334367324
 30
0.0
 11
754.277153021
 21
124.1334367324
 31
0.0
  0
LINE
  5
26D
  8
0
  6
CONTINUOUS
 62
     7
 10
754.277153021
 20
66.3334358265
 30
0.0
 11
754.4771504461
 21
66.3334358265
 31
0.0
  0
LINE
  5
26E
  8
0
  6
CONTINUOUS
 62
     7
 10
754.277153021
 20
66.3334358265
 30
0.0
 11
752.4771523534
 21
66.3334358265
 31
0.0
  0
LINE
  5
26F
  8
0
  6
CONTINUOUS
 62
     7
 10
735.4771506845
 20
66.3334358265
 30
0.0
 11
661.4771497308
 21
66.3334358265
 31
0.0
  0
LINE
  5
270
  8
0
  6
CONTINUOUS
 62
     7
 10
644.4771499246
 20
66.3334358265
 30
0.0
 11
642.6771499788
 21
66.3334358265
 31
0.0
  0
LINE
  5
271
  8
0
  6
CONTINUOUS
 62
     7
 10
644.4771499246
 20
128.5334337284
 30
0.0
 11
640.477150014
 21
128.5334337284
 31
0.0
  0
LINE
  5
272
  8
0
  6
CONTINUOUS
 62
     7
 10
640.477150014
 20
128.3334363033
 30
0.0
 11
644.4771499246
 21
128.3334363033
 31
0.0
  0
LINE
  5
273
  8
0
  6
CONTINUOUS
 62
     7
 10
630.4771502375
 20
263.0354512264
 30
0.0
 11
630.4771502375
 21
263.6385787059
 31
0.0
  0
ARC
  5
274
  8
0
  6
CONTINUOUS
 62
     7
 10
630.8763821691
 20
263.0347002196
 30
0.0
 40
0.3992326379693067
 50
89.8897613639
 51
179.8922193649
  0
LINE
  5
275
  8
0
  6
CONTINUOUS
 62
     7
 10
654.2771500408
 20
259.4491589595
 30
0.0
 11
654.477149701
 21
259.4491589595
 31
0.0
  0
LINE
  5
276
  8
0
  6
CONTINUOUS
 62
     7
 10
654.2771500408
 20
259.4491589595
 30
0.0
 11
654.2771500408
 21
263.2346976329
 31
0.0
  0
LINE
  5
277
  8
0
  6
CONTINUOUS
 62
     7
 10
630.6771498977
 20
263.2346976329
 30
0.0
 11
654.2771500408
 21
263.2346976329
 31
0.0
  0
LINE
  5
278
  8
0
  6
CONTINUOUS
 62
     7
 10
630.6771498977
 20
263.2346976329
 30
0.0
 11
630.6771498977
 21
259.4491589595
 31
0.0
  0
LINE
  5
279
  8
0
  6
CONTINUOUS
 62
     7
 10
630.6771498977
 20
259.4491589595
 30
0.0
 11
630.4771502375
 21
259.4491589595
 31
0.0
  0
LINE
  5
27A
  8
0
  6
CONTINUOUS
 62
     7
 10
630.4771502375
 20
263.0354512264
 30
0.0
 11
630.4771502375
 21
259.4491589595
 31
0.0
  0
LINE
  5
27B
  8
0
  6
CONTINUOUS
 62
     7
 10
630.877150303
 20
263.4339321186
 30
0.0
 11
654.0771496355
 21
263.4339321186
 31
0.0
  0
ARC
  5
27C
  8
0
  6
CONTINUOUS
 62
     7
 10
654.0779177694
 20
263.0347002196
 30
0.0
 40
0.3992326379693066
 50
0.107780635
 51
90.1102386361
  0
LINE
  5
27D
  8
0
  6
CONTINUOUS
 62
     7
 10
654.477149701
 20
263.0354512264
 30
0.0
 11
654.477149701
 21
259.4491589595
 31
0.0
  0
LINE
  5
27E
  8
0
  6
CONTINUOUS
 62
     7
 10
654.477149701
 20
263.6385787059
 30
0.0
 11
654.477149701
 21
263.0354512264
 31
0.0
  0
LINE
  5
27F
  8
0
  6
CONTINUOUS
 62
     7
 10
630.6771498977
 20
214.4913542797
 30
0.0
 11
630.4771502375
 21
214.4913542797
 31
0.0
  0
LINE
  5
280
  8
0
  6
CONTINUOUS
 62
     7
 10
630.4771502375
 20
214.4913542797
 30
0.0
 11
630.4771502375
 21
259.4491589595
 31
0.0
  0
LINE
  5
281
  8
0
  6
CONTINUOUS
 62
     7
 10
630.6771498977
 20
214.4913542797
 30
0.0
 11
630.6771498977
 21
259.4491589595
 31
0.0
  0
LINE
  5
282
  8
0
  6
CONTINUOUS
 62
     7
 10
654.2771500408
 20
214.4913542797
 30
0.0
 11
654.477149701
 21
214.4913542797
 31
0.0
  0
LINE
  5
283
  8
0
  6
CONTINUOUS
 62
     7
 10
654.477149701
 20
214.4913542797
 30
0.0
 11
654.477149701
 21
259.4491589595
 31
0.0
  0
LINE
  5
284
  8
0
  6
CONTINUOUS
 62
     7
 10
654.2771500408
 20
214.4913542797
 30
0.0
 11
654.2771500408
 21
259.4491589595
 31
0.0
  0
LINE
  5
285
  8
0
  6
CONTINUOUS
 62
     7
 10
631.7771498918
 20
214.8225415279
 30
0.0
 11
653.1771500467
 21
214.8225415279
 31
0.0
  0
LINE
  5
286
  8
0
  6
CONTINUOUS
 62
     7
 10
630.6771498977
 20
214.8225415279
 30
0.0
 11
631.7771498918
 21
214.8225415279
 31
0.0
  0
LINE
  5
287
  8
0
  6
CONTINUOUS
 62
     7
 10
653.1771500467
 20
214.8225415279
 30
0.0
 11
654.2771500408
 21
214.8225415279
 31
0.0
  0
ARC
  5
288
  8
0
  6
CONTINUOUS
 62
     7
 10
653.1778987049
 20
214.0921028306
 30
0.0
 40
0.399252151029362
 50
0.1105809622
 51
90.1074383089
  0
LINE
  5
289
  8
0
  6
CONTINUOUS
 62
     7
 10
631.5771502315
 20
214.2921078731
 30
0.0
 11
653.377149707
 21
214.2921078731
 31
0.0
  0
ARC
  5
28A
  8
0
  6
CONTINUOUS
 62
     7
 10
631.7764012337
 20
214.0921028306
 30
0.0
 40
0.399252151029362
 50
89.8925616911
 51
179.8894190378
  0
LINE
  5
28B
  8
0
  6
CONTINUOUS
 62
     7
 10
631.7771498918
 20
214.4913542797
 30
0.0
 11
653.1771500467
 21
214.4913542797
 31
0.0
  0
LINE
  5
28C
  8
0
  6
CONTINUOUS
 62
     7
 10
653.5771501123
 20
214.0928733875
 30
0.0
 11
653.5771501123
 21
210.9334338237
 31
0.0
  0
LINE
  5
28D
  8
0
  6
CONTINUOUS
 62
     7
 10
631.3771498262
 20
214.0928733875
 30
0.0
 11
631.3771498262
 21
210.9334338237
 31
0.0
  0
LINE
  5
28E
  8
0
  6
CONTINUOUS
 62
     7
 10
653.377149707
 20
214.2921078731
 30
0.0
 11
653.377149707
 21
210.9334338237
 31
0.0
  0
LINE
  5
28F
  8
0
  6
CONTINUOUS
 62
     7
 10
631.5771502315
 20
214.2921078731
 30
0.0
 11
631.5771502315
 21
210.9334338237
 31
0.0
  0
LINE
  5
290
  8
0
  6
CONTINUOUS
 62
     7
 10
631.3771498262
 20
214.0928733875
 30
0.0
 11
631.3771498262
 21
214.8225415279
 31
0.0
  0
LINE
  5
291
  8
0
  6
CONTINUOUS
 62
     7
 10
653.5771501123
 20
214.8225415279
 30
0.0
 11
653.5771501123
 21
214.0928733875
 31
0.0
  0
LINE
  5
292
  8
0
  6
CONTINUOUS
 62
     7
 10
631.5771502315
 20
211.5007865955
 30
0.0
 11
653.377149707
 21
211.5007865955
 31
0.0
  0
LINE
  5
293
  8
0
  6
CONTINUOUS
 62
     7
 10
530.4771494924
 20
128.3334363033
 30
0.0
 11
532.0771527349
 21
128.3334363033
 31
0.0
  0
ARC
  5
294
  8
0
  6
CONTINUOUS
 62
     7
 10
530.4771499693
 20
128.7334358264
 30
0.0
 40
0.4000000000000909
 50
180.0
 51
270.0
  0
LINE
  5
295
  8
0
  6
CONTINUOUS
 62
     7
 10
530.0771546423
 20
213.3570659687
 30
0.0
 11
530.0771546423
 21
128.7334371139
 31
0.0
  0
ARC
  5
296
  8
0
  6
CONTINUOUS
 62
     7
 10
530.4789788256
 20
213.3573390965
 30
0.0
 40
0.4018242761289264
 50
120.1507047656
 51
180.0389450712
  0
LINE
  5
297
  8
0
  6
CONTINUOUS
 62
     7
 10
530.2771520673
 20
128.5334337284
 30
0.0
 11
530.2771520673
 21
213.7047994663
 31
0.0
  0
LINE
  5
298
  8
0
  6
CONTINUOUS
 62
     7
 10
530.2771520673
 20
128.5334337284
 30
0.0
 11
532.0771527349
 21
128.5334337284
 31
0.0
  0
LINE
  5
299
  8
0
  6
CONTINUOUS
 62
     7
 10
532.0771527349
 20
128.5334337284
 30
0.0
 11
532.0771527349
 21
128.3334363033
 31
0.0
  0
ARC
  5
29A
  8
0
  6
CONTINUOUS
 62
     7
 10
530.4771056866
 20
213.3575003875
 30
0.0
 40
0.4010982335034065
 50
89.9937424647
 51
119.9018237129
  0
LINE
  5
29B
  8
0
  6
CONTINUOUS
 62
     7
 10
530.0771546423
 20
213.3570659687
 30
0.0
 11
530.0771546423
 21
215.1295769741
 31
0.0
  0
LINE
  5
29C
  8
0
  6
CONTINUOUS
 62
     7
 10
530.2771520673
 20
213.7052047779
 30
0.0
 11
530.2771520673
 21
213.7047994663
 31
0.0
  0
LINE
  5
29D
  8
0
  6
CONTINUOUS
 62
     7
 10
530.2771520673
 20
213.5593522121
 30
0.0
 11
541.5771555959
 21
213.5593522121
 31
0.0
  0
LINE
  5
29E
  8
0
  6
CONTINUOUS
 62
     7
 10
530.4771494924
 20
213.7585986187
 30
0.0
 11
541.3771462499
 21
213.7585986187
 31
0.0
  0
ARC
  5
29F
  8
0
  6
CONTINUOUS
 62
     7
 10
541.3779017477
 20
213.3593473168
 30
0.0
 40
0.3992520166442627
 50
0.1105598651
 51
90.1084198862
  0
LINE
  5
2A0
  8
0
  6
CONTINUOUS
 62
     7
 10
541.777153021
 20
213.3601177265
 30
0.0
 11
541.777153021
 21
212.939702325
 31
0.0
  0
LINE
  5
2A1
  8
0
  6
CONTINUOUS
 62
     7
 10
541.5771555959
 20
210.9334338237
 30
0.0
 11
541.5771555959
 21
213.5593522121
 31
0.0
  0
LINE
  5
2A2
  8
0
  6
CONTINUOUS
 62
     7
 10
541.777153021
 20
215.1295769741
 30
0.0
 11
541.777153021
 21
213.3601177265
 31
0.0
  0
LINE
  5
2A3
  8
0
  6
CONTINUOUS
 62
     7
 10
532.4771475851
 20
128.5334337284
 30
0.0
 11
532.0771527349
 21
128.5334337284
 31
0.0
  0
LINE
  5
2A4
  8
0
  6
CONTINUOUS
 62
     7
 10
532.0771527349
 20
128.3334363033
 30
0.0
 11
532.4771475851
 21
128.3334363033
 31
0.0
  0
LINE
  5
2A5
  8
0
  6
CONTINUOUS
 62
     7
 10
530.2771520673
 20
211.5007865955
 30
0.0
 11
541.5771555959
 21
211.5007865955
 31
0.0
  0
LINE
  5
2A6
  8
0
  6
CONTINUOUS
 62
     7
 10
752.8771472036
 20
128.5334337284
 30
0.0
 11
754.6771478712
 21
128.5334337284
 31
0.0
  0
LINE
  5
2A7
  8
0
  6
CONTINUOUS
 62
     7
 10
754.6771478712
 20
213.7047994663
 30
0.0
 11
754.6771478712
 21
128.5334337284
 31
0.0
  0
ARC
  5
2A8
  8
0
  6
CONTINUOUS
 62
     7
 10
754.4753838162
 20
213.35737516
 30
0.0
 40
0.4017615990794118
 50
359.9559057895
 51
59.8544443737
  0
LINE
  5
2A9
  8
0
  6
CONTINUOUS
 62
     7
 10
754.8771452963
 20
213.3570659687
 30
0.0
 11
754.8771452963
 21
128.7334371139
 31
0.0
  0
ARC
  5
2AA
  8
0
  6
CONTINUOUS
 62
     7
 10
754.4771499693
 20
128.7334358264
 30
0.0
 40
0.4000000000000057
 50
270.0
 51
360.0
  0
LINE
  5
2AB
  8
0
  6
CONTINUOUS
 62
     7
 10
752.8771472036
 20
128.3334363033
 30
0.0
 11
754.4771504461
 21
128.3334363033
 31
0.0
  0
LINE
  5
2AC
  8
0
  6
CONTINUOUS
 62
     7
 10
752.8771472036
 20
128.5334337284
 30
0.0
 11
752.8771472036
 21
128.3334363033
 31
0.0
  0
ARC
  5
2AD
  8
0
  6
CONTINUOUS
 62
     7
 10
754.4771942519
 20
213.3575003875
 30
0.0
 40
0.4010982335035452
 50
60.0981762871
 51
90.0062575353
  0
LINE
  5
2AE
  8
0
  6
CONTINUOUS
 62
     7
 10
754.8771452963
 20
215.1295769741
 30
0.0
 11
754.8771452963
 21
213.3570659687
 31
0.0
  0
LINE
  5
2AF
  8
0
  6
CONTINUOUS
 62
     7
 10
754.6771478712
 20
213.7047994663
 30
0.0
 11
754.6771478712
 21
213.7052047779
 31
0.0
  0
ARC
  5
2B0
  8
0
  6
CONTINUOUS
 62
     7
 10
743.5763981908
 20
213.3593473168
 30
0.0
 40
0.3992520166443618
 50
89.8915801138
 51
179.8894401349
  0
LINE
  5
2B1
  8
0
  6
CONTINUOUS
 62
     7
 10
743.1771469175
 20
213.3601177265
 30
0.0
 11
743.1771469175
 21
215.1295769741
 31
0.0
  0
LINE
  5
2B2
  8
0
  6
CONTINUOUS
 62
     7
 10
743.3771443426
 20
213.5593522121
 30
0.0
 11
754.6771478712
 21
213.5593522121
 31
0.0
  0
LINE
  5
2B3
  8
0
  6
CONTINUOUS
 62
     7
 10
743.5771536886
 20
213.7585986187
 30
0.0
 11
754.4771504461
 21
213.7585986187
 31
0.0
  0
LINE
  5
2B4
  8
0
  6
CONTINUOUS
 62
     7
 10
743.1771469175
 20
213.3601177265
 30
0.0
 11
743.1771469175
 21
212.939702325
 31
0.0
  0
LINE
  5
2B5
  8
0
  6
CONTINUOUS
 62
     7
 10
743.3771443426
 20
213.5593522121
 30
0.0
 11
743.3771443426
 21
210.9334338237
 31
0.0
  0
LINE
  5
2B6
  8
0
  6
CONTINUOUS
 62
     7
 10
752.8771472036
 20
128.5334337284
 30
0.0
 11
752.4771523534
 21
128.5334337284
 31
0.0
  0
LINE
  5
2B7
  8
0
  6
CONTINUOUS
 62
     7
 10
752.4771523534
 20
128.3334363033
 30
0.0
 11
752.8771472036
 21
128.3334363033
 31
0.0
  0
LINE
  5
2B8
  8
0
  6
CONTINUOUS
 62
     7
 10
743.3771443426
 20
211.5007865955
 30
0.0
 11
754.6771478712
 21
211.5007865955
 31
0.0
  0
LINE
  5
2B9
  8
0
  6
CONTINUOUS
 62
     7
 10
655.5771496951
 20
141.6680801441
 30
0.0
 11
655.5771496951
 21
149.3334341575
 31
0.0
  0
POLYLINE
  5
2BA
  8
0
  6
CONTINUOUS
 62
     7
 66
     1
 10
0.0
 20
0.0
 30
0.0
  0
VERTEX
  5
3C1
  8
0
  6
CONTINUOUS
 62
     7
 10
655.5771496951
 20
141.6680801441
 30
0.0
  0
VERTEX
  5
3C2
  8
0
  6
CONTINUOUS
 62
     7
 10
655.6066972076
 20
141.6647959282
 30
0.0
  0
VERTEX
  5
3C3
  8
0
  6
CONTINUOUS
 62
     7
 10
655.6946140587
 20
141.7204607059
 30
0.0
  0
VERTEX
  5
3C4
  8
0
  6
CONTINUOUS
 62
     7
 10
655.8387336194
 20
141.833709531
 30
0.0
  0
VERTEX
  5
3C5
  8
0
  6
CONTINUOUS
 62
     7
 10
656.0355094134
 20
142.0017469455
 30
0.0
  0
VERTEX
  5
3C6
  8
0
  6
CONTINUOUS
 62
     7
 10
656.280094093
 20
142.2204423477
 30
0.0
  0
VERTEX
  5
3C7
  8
0
  6
CONTINUOUS
 62
     7
 10
656.5664660989
 20
142.4844074775
 30
0.0
  0
VERTEX
  5
3C8
  8
0
  6
CONTINUOUS
 62
     7
 10
656.8875727116
 20
142.7871394683
 30
0.0
  0
VERTEX
  5
3C9
  8
0
  6
CONTINUOUS
 62
     7
 10
657.235508865
 20
143.1211937
 30
0.0
  0
VERTEX
  5
3CA
  8
0
  6
CONTINUOUS
 62
     7
 10
657.6017078816
 20
143.478338771
 30
0.0
  0
VERTEX
  5
3CB
  8
0
  6
CONTINUOUS
 62
     7
 10
657.9771500885
 20
143.8497770359
 30
0.0
  0
SEQEND
  5
3D8
  8
0
  6
CONTINUOUS
 62
     7
  0
LINE
  5
2BB
  8
0
  6
CONTINUOUS
 62
     7
 10
741.3771522104
 20
149.3334341575
 30
0.0
 11
741.3771522104
 21
141.6680801441
 31
0.0
  0
POLYLINE
  5
2BC
  8
0
  6
CONTINUOUS
 62
     7
 66
     1
 10
0.0
 20
0.0
 30
0.0
  0
VERTEX
  5
3CC
  8
0
  6
CONTINUOUS
 62
     7
 10
741.3771522104
 20
141.6680801441
 30
0.0
  0
VERTEX
  5
3CD
  8
0
  6
CONTINUOUS
 62
     7
 10
741.3476002275
 20
141.6647959282
 30
0.0
  0
VERTEX
  5
3CE
  8
0
  6
CONTINUOUS
 62
     7
 10
741.2596833765
 20
141.7204607059
 30
0.0
  0
VERTEX
  5
3CF
  8
0
  6
CONTINUOUS
 62
     7
 10
741.1155653059
 20
141.833709531
 30
0.0
  0
VERTEX
  5
3D0
  8
0
  6
CONTINUOUS
 62
     7
 10
740.9187924921
 20
142.0017469455
 30
0.0
  0
VERTEX
  5
3D1
  8
0
  6
CONTINUOUS
 62
     7
 10
740.6742048322
 20
142.2204423477
 30
0.0
  0
VERTEX
  5
3D2
  8
0
  6
CONTINUOUS
 62
     7
 10
740.3878343164
 20
142.4844074775
 30
0.0
  0
VERTEX
  5
3D3
  8
0
  6
CONTINUOUS
 62
     7
 10
740.0667262136
 20
142.7871394683
 30
0.0
  0
VERTEX
  5
3D4
  8
0
  6
CONTINUOUS
 62
     7
 10
739.7187900602
 20
143.1211937
 30
0.0
  0
VERTEX
  5
3D5
  8
0
  6
CONTINUOUS
 62
     7
 10
739.3525910436
 20
143.478338771
 30
0.0
  0
VERTEX
  5
3D6
  8
0
  6
CONTINUOUS
 62
     7
 10
738.9771473467
 20
143.8497770359
 30
0.0
  0
SEQEND
  5
3D7
  8
0
  6
CONTINUOUS
 62
     7
  0
LINE
  5
2BD
  8
0
  6
CONTINUOUS
 62
     7
 10
655.6771498977
 20
130.3334343959
 30
0.0
 11
655.6771498977
 21
141.6589487125
 31
0.0
  0
LINE
  5
2BE
  8
0
  6
CONTINUOUS
 62
     7
 10
741.2771475374
 20
141.6589487125
 30
0.0
 11
741.2771475374
 21
130.3334343959
 31
0.0
  0
LINE
  5
2BF
  8
0
  6
CONTINUOUS
 62
     7
 10
654.6771501064
 20
143.7334347297
 30
0.0
 11
654.6771501064
 21
148.5334384967
 31
0.0
  0
LINE
  5
2C0
  8
0
  6
CONTINUOUS
 62
     7
 10
742.2771525442
 20
143.7334347297
 30
0.0
 11
742.2771525442
 21
148.5334384967
 31
0.0
  0
LINE
  5
2C1
  8
0
  6
CONTINUOUS
 62
     7
 10
543.6771524011
 20
142.1334374477
 30
0.0
 11
543.6771524011
 21
149.3334341575
 31
0.0
  0
ARC
  5
2C2
  8
0
  6
CONTINUOUS
 62
     7
 10
544.0771499693
 20
142.1334358265
 30
0.0
 40
0.4000000000000057
 50
180.0
 51
270.0
  0
LINE
  5
2C3
  8
0
  6
CONTINUOUS
 62
     7
 10
628.8771492302
 20
141.7334366371
 30
0.0
 11
544.0771472513
 21
141.7334366371
 31
0.0
  0
LINE
  5
2C4
  8
0
  6
CONTINUOUS
 62
     7
 10
629.2771500408
 20
149.3334341575
 30
0.0
 11
629.2771500408
 21
142.1334374477
 31
0.0
  0
ARC
  5
2C5
  8
0
  6
CONTINUOUS
 62
     7
 10
628.8771499693
 20
142.1334358265
 30
0.0
 40
0.4000000000000909
 50
270.0
 51
0.0
  0
LINE
  5
2C6
  8
0
  6
CONTINUOUS
 62
     7
 10
542.6771473943
 20
146.133433633
 30
0.0
 11
542.6771473943
 21
148.5334384967
 31
0.0
  0
LINE
  5
2C7
  8
0
  6
CONTINUOUS
 62
     7
 10
542.6771473943
 20
143.7334347297
 30
0.0
 11
542.6771473943
 21
146.133433633
 31
0.0
  0
LINE
  5
2C8
  8
0
  6
CONTINUOUS
 62
     7
 10
630.2771498322
 20
146.133433633
 30
0.0
 11
630.2771498322
 21
148.5334384967
 31
0.0
  0
LINE
  5
2C9
  8
0
  6
CONTINUOUS
 62
     7
 10
630.2771498322
 20
143.7334347297
 30
0.0
 11
630.2771498322
 21
146.133433633
 31
0.0
  0
CIRCLE
  5
2CA
  8
0
  6
CONTINUOUS
 62
     7
 10
636.4771499693
 20
206.3334358265
 30
0.0
 40
1.100000000000023
  0
CIRCLE
  5
2CB
  8
0
  6
CONTINUOUS
 62
     7
 10
636.4771499693
 20
134.3334358265
 30
0.0
 40
1.100000000000023
  0
CIRCLE
  5
2CC
  8
0
  6
CONTINUOUS
 62
     7
 10
536.4771499693
 20
206.3334358265
 30
0.0
 40
1.100000000000023
  0
CIRCLE
  5
2CD
  8
0
  6
CONTINUOUS
 62
     7
 10
536.4771499693
 20
134.3334358265
 30
0.0
 40
1.100000000000023
  0
LINE
  5
2CE
  8
0
  6
CONTINUOUS
 62
     7
 10
542.5771486818
 20
201.7909873058
 30
0.0
 11
630.3771500348
 21
201.7909873058
 31
0.0
  0
LINE
  5
2CF
  8
0
  6
CONTINUOUS
 62
     7
 10
542.5771486818
 20
82.3334354688
 30
0.0
 11
542.5771486818
 21
201.7909873058
 31
0.0
  0
LINE
  5
2D0
  8
0
  6
CONTINUOUS
 62
     7
 10
542.5771486818
 20
82.3334354688
 30
0.0
 11
532.4771475851
 21
82.3334354688
 31
0.0
  0
LINE
  5
2D1
  8
0
  6
CONTINUOUS
 62
     7
 10
532.4771475851
 20
137.7334344913
 30
0.0
 11
532.4771475851
 21
82.3334354688
 31
0.0
  0
LINE
  5
2D2
  8
0
  6
CONTINUOUS
 62
     7
 10
530.4771494924
 20
137.7334344913
 30
0.0
 11
532.4771475851
 21
137.7334344913
 31
0.0
  0
LINE
  5
2D3
  8
0
  6
CONTINUOUS
 62
     7
 10
530.4771494924
 20
139.7334385444
 30
0.0
 11
530.4771494924
 21
137.7334344913
 31
0.0
  0
LINE
  5
2D4
  8
0
  6
CONTINUOUS
 62
     7
 10
532.4771475851
 20
139.7334385444
 30
0.0
 11
530.4771494924
 21
139.7334385444
 31
0.0
  0
LINE
  5
2D5
  8
0
  6
CONTINUOUS
 62
     7
 10
532.4771475851
 20
202.9334414531
 30
0.0
 11
532.4771475851
 21
139.7334385444
 31
0.0
  0
LINE
  5
2D6
  8
0
  6
CONTINUOUS
 62
     7
 10
530.4771494924
 20
204.9334395458
 30
0.0
 11
530.4771494924
 21
202.9334414531
 31
0.0
  0
LINE
  5
2D7
  8
0
  6
CONTINUOUS
 62
     7
 10
532.4771475851
 20
208.9334357311
 30
0.0
 11
532.4771475851
 21
204.9334395458
 31
0.0
  0
ARC
  5
2D8
  8
0
  6
CONTINUOUS
 62
     7
 10
534.4771499693
 20
208.9334358265
 30
0.0
 40
2.0
 50
90.0
 51
180.0
  0
LINE
  5
2D9
  8
0
  6
CONTINUOUS
 62
     7
 10
541.777153021
 20
210.9334338237
 30
0.0
 11
534.4771456777
 21
210.9334338237
 31
0.0
  0
LINE
  5
2DA
  8
0
  6
CONTINUOUS
 62
     7
 10
541.777153021
 20
210.9334338237
 30
0.0
 11
541.777153021
 21
212.9334319164
 31
0.0
  0
LINE
  5
2DB
  8
0
  6
CONTINUOUS
 62
     7
 10
541.777153021
 20
212.9334319164
 30
0.0
 11
542.5771486818
 21
212.9334319164
 31
0.0
  0
LINE
  5
2DC
  8
0
  6
CONTINUOUS
 62
     7
 10
542.5771486818
 20
212.9334319164
 30
0.0
 11
542.5771486818
 21
263.3674610187
 31
0.0
  0
LINE
  5
2DD
  8
0
  6
CONTINUOUS
 62
     7
 10
542.5771486818
 20
263.3674610187
 30
0.0
 11
630.3771500348
 21
263.3674610187
 31
0.0
  0
LINE
  5
2DE
  8
0
  6
CONTINUOUS
 62
     7
 10
630.3771500348
 20
212.9334319164
 30
0.0
 11
630.3771500348
 21
263.3674610187
 31
0.0
  0
LINE
  5
2DF
  8
0
  6
CONTINUOUS
 62
     7
 10
631.177150166
 20
212.9334319164
 30
0.0
 11
630.3771500348
 21
212.9334319164
 31
0.0
  0
LINE
  5
2E0
  8
0
  6
CONTINUOUS
 62
     7
 10
631.177150166
 20
212.9334319164
 30
0.0
 11
631.177150166
 21
210.9334338237
 31
0.0
  0
LINE
  5
2E1
  8
0
  6
CONTINUOUS
 62
     7
 10
638.4771500587
 20
210.9334338237
 30
0.0
 11
631.177150166
 21
210.9334338237
 31
0.0
  0
ARC
  5
2E2
  8
0
  6
CONTINUOUS
 62
     7
 10
638.4771499693
 20
208.9334358265
 30
0.0
 40
2.0
 50
0.0
 51
90.0
  0
LINE
  5
2E3
  8
0
  6
CONTINUOUS
 62
     7
 10
640.477150014
 20
204.9334395458
 30
0.0
 11
640.477150014
 21
208.9334357311
 31
0.0
  0
LINE
  5
2E4
  8
0
  6
CONTINUOUS
 62
     7
 10
642.4771499693
 20
204.9334395458
 30
0.0
 11
640.477150014
 21
204.9334395458
 31
0.0
  0
LINE
  5
2E5
  8
0
  6
CONTINUOUS
 62
     7
 10
642.4771499693
 20
202.9334414531
 30
0.0
 11
642.4771499693
 21
204.9334395458
 31
0.0
  0
LINE
  5
2E6
  8
0
  6
CONTINUOUS
 62
     7
 10
640.477150014
 20
202.9334414531
 30
0.0
 11
642.4771499693
 21
202.9334414531
 31
0.0
  0
LINE
  5
2E7
  8
0
  6
CONTINUOUS
 62
     7
 10
640.477150014
 20
139.7334385444
 30
0.0
 11
640.477150014
 21
202.9334414531
 31
0.0
  0
LINE
  5
2E8
  8
0
  6
CONTINUOUS
 62
     7
 10
642.4771499693
 20
139.7334385444
 30
0.0
 11
640.477150014
 21
139.7334385444
 31
0.0
  0
LINE
  5
2E9
  8
0
  6
CONTINUOUS
 62
     7
 10
642.4771499693
 20
137.7334344913
 30
0.0
 11
642.4771499693
 21
139.7334385444
 31
0.0
  0
LINE
  5
2EA
  8
0
  6
CONTINUOUS
 62
     7
 10
640.477150014
 20
137.7334344913
 30
0.0
 11
642.4771499693
 21
137.7334344913
 31
0.0
  0
LINE
  5
2EB
  8
0
  6
CONTINUOUS
 62
     7
 10
640.477150014
 20
82.3334354688
 30
0.0
 11
640.477150014
 21
137.7334344913
 31
0.0
  0
LINE
  5
2EC
  8
0
  6
CONTINUOUS
 62
     7
 10
640.477150014
 20
82.3334354688
 30
0.0
 11
630.3771500348
 21
82.3334354688
 31
0.0
  0
LINE
  5
2ED
  8
0
  6
CONTINUOUS
 62
     7
 10
630.3771500348
 20
201.7909873058
 30
0.0
 11
630.3771500348
 21
82.3334354688
 31
0.0
  0
CIRCLE
  5
2EE
  8
0
  6
CONTINUOUS
 62
     7
 10
536.4771499693
 20
90.3334358265
 30
0.0
 40
1.100000000000023
  0
CIRCLE
  5
2EF
  8
0
  6
CONTINUOUS
 62
     7
 10
636.4771499693
 20
90.3334358265
 30
0.0
 40
1.100000000000023
  0
LINE
  5
2F0
  8
0
  6
CONTINUOUS
 62
     7
 10
530.4771494924
 20
202.9334414531
 30
0.0
 11
532.4771475851
 21
202.9334414531
 31
0.0
  0
LINE
  5
2F1
  8
0
  6
CONTINUOUS
 62
     7
 10
532.4771475851
 20
204.9334395458
 30
0.0
 11
530.4771494924
 21
204.9334395458
 31
0.0
  0
LINE
  5
2F2
  8
0
  6
CONTINUOUS
 62
     7
 10
542.5771486818
 20
149.3334341575
 30
0.0
 11
630.3771500348
 21
149.3334341575
 31
0.0
  0
LINE
  5
2F3
  8
0
  6
CONTINUOUS
 62
     7
 10
541.777153021
 20
212.9334319164
 30
0.0
 11
541.777153021
 21
212.939702325
 31
0.0
  0
LINE
  5
2F4
  8
0
  6
CONTINUOUS
 62
     7
 10
542.5771486818
 20
263.596962743
 30
0.0
 11
630.3771500348
 21
263.596962743
 31
0.0
  0
LINE
  5
2F5
  8
0
  6
CONTINUOUS
 62
     7
 10
630.3771500348
 20
263.3674610187
 30
0.0
 11
630.3771500348
 21
263.596962743
 31
0.0
  0
LINE
  5
2F6
  8
0
  6
CONTINUOUS
 62
     7
 10
542.5771486818
 20
263.3674610187
 30
0.0
 11
542.5771486818
 21
263.596962743
 31
0.0
  0
LINE
  5
2F7
  8
0
  6
CONTINUOUS
 62
     7
 10
631.177150166
 20
214.715467744
 30
0.0
 11
631.177150166
 21
212.9334319164
 31
0.0
  0
LINE
  5
2F8
  8
0
  6
CONTINUOUS
 62
     7
 10
542.6771473943
 20
263.8982642223
 30
0.0
 11
542.6771473943
 21
263.596962743
 31
0.0
  0
LINE
  5
2F9
  8
0
  6
CONTINUOUS
 62
     7
 10
630.2771498322
 20
263.8982642223
 30
0.0
 11
630.2771498322
 21
263.596962743
 31
0.0
  0
LINE
  5
2FA
  8
0
  6
CONTINUOUS
 62
     7
 10
549.477149254
 20
66.3334358265
 30
0.0
 11
532.4771475851
 21
66.3334358265
 31
0.0
  0
LINE
  5
2FB
  8
0
  6
CONTINUOUS
 62
     7
 10
549.477149254
 20
75.4334356417
 30
0.0
 11
542.5771486818
 21
82.3334354688
 31
0.0
  0
LINE
  5
2FC
  8
0
  6
CONTINUOUS
 62
     7
 10
549.477149254
 20
66.3334358265
 30
0.0
 11
549.477149254
 21
75.4334356417
 31
0.0
  0
LINE
  5
2FD
  8
0
  6
CONTINUOUS
 62
     7
 10
532.4771475851
 20
66.3334358265
 30
0.0
 11
532.4771475851
 21
82.3334354688
 31
0.0
  0
LINE
  5
2FE
  8
0
  6
CONTINUOUS
 62
     7
 10
640.477150014
 20
66.3334358265
 30
0.0
 11
623.4771502077
 21
66.3334358265
 31
0.0
  0
LINE
  5
2FF
  8
0
  6
CONTINUOUS
 62
     7
 10
623.4771502077
 20
75.4334356417
 30
0.0
 11
623.4771502077
 21
66.3334358265
 31
0.0
  0
LINE
  5
300
  8
0
  6
CONTINUOUS
 62
     7
 10
630.3771500348
 20
82.3334354688
 30
0.0
 11
623.4771502077
 21
75.4334356417
 31
0.0
  0
LINE
  5
301
  8
0
  6
CONTINUOUS
 62
     7
 10
640.477150014
 20
66.3334358265
 30
0.0
 11
640.477150014
 21
82.3334354688
 31
0.0
  0
LINE
  5
302
  8
0
  6
CONTINUOUS
 62
     7
 10
542.6847589075
 20
263.905869775
 30
0.0
 11
542.6771473943
 21
263.8982642223
 31
0.0
  0
LINE
  5
303
  8
0
  6
CONTINUOUS
 62
     7
 10
630.2771498322
 20
263.8982642223
 30
0.0
 11
630.2695390641
 21
263.905869775
 31
0.0
  0
LINE
  5
304
  8
0
  6
CONTINUOUS
 62
     7
 10
631.177150166
 20
214.7185075809
 30
0.0
 11
631.177150166
 21
214.715467744
 31
0.0
  0
CIRCLE
  5
305
  8
0
  6
CONTINUOUS
 62
     7
 10
748.4771499693
 20
206.3334358264
 30
0.0
 40
1.100000000000023
  0
CIRCLE
  5
306
  8
0
  6
CONTINUOUS
 62
     7
 10
748.4771499693
 20
134.3334358264
 30
0.0
 40
1.100000000000023
  0
CIRCLE
  5
307
  8
0
  6
CONTINUOUS
 62
     7
 10
648.4771499693
 20
206.3334358264
 30
0.0
 40
1.100000000000023
  0
CIRCLE
  5
308
  8
0
  6
CONTINUOUS
 62
     7
 10
648.4771499693
 20
134.3334358264
 30
0.0
 40
1.100000000000023
  0
LINE
  5
309
  8
0
  6
CONTINUOUS
 62
     7
 10
654.5771499037
 20
201.7909873058
 30
0.0
 11
742.3771512567
 21
201.7909873058
 31
0.0
  0
LINE
  5
30A
  8
0
  6
CONTINUOUS
 62
     7
 10
654.5771499037
 20
82.3334354688
 30
0.0
 11
654.5771499037
 21
201.7909873058
 31
0.0
  0
LINE
  5
30B
  8
0
  6
CONTINUOUS
 62
     7
 10
654.5771499037
 20
82.3334354688
 30
0.0
 11
644.4771499246
 21
82.3334354688
 31
0.0
  0
LINE
  5
30C
  8
0
  6
CONTINUOUS
 62
     7
 10
644.4771499246
 20
137.7334344913
 30
0.0
 11
644.4771499246
 21
82.3334354688
 31
0.0
  0
LINE
  5
30D
  8
0
  6
CONTINUOUS
 62
     7
 10
642.4771499693
 20
137.7334344913
 30
0.0
 11
644.4771499246
 21
137.7334344913
 31
0.0
  0
LINE
  5
30E
  8
0
  6
CONTINUOUS
 62
     7
 10
644.4771499246
 20
139.7334385444
 30
0.0
 11
642.4771499693
 21
139.7334385444
 31
0.0
  0
LINE
  5
30F
  8
0
  6
CONTINUOUS
 62
     7
 10
644.4771499246
 20
202.9334414531
 30
0.0
 11
644.4771499246
 21
139.7334385444
 31
0.0
  0
LINE
  5
310
  8
0
  6
CONTINUOUS
 62
     7
 10
642.4771499693
 20
202.9334414531
 30
0.0
 11
644.4771499246
 21
202.9334414531
 31
0.0
  0
LINE
  5
311
  8
0
  6
CONTINUOUS
 62
     7
 10
644.4771499246
 20
204.9334395458
 30
0.0
 11
642.4771499693
 21
204.9334395458
 31
0.0
  0
LINE
  5
312
  8
0
  6
CONTINUOUS
 62
     7
 10
644.4771499246
 20
208.9334357311
 30
0.0
 11
644.4771499246
 21
204.9334395458
 31
0.0
  0
ARC
  5
313
  8
0
  6
CONTINUOUS
 62
     7
 10
646.4771499693
 20
208.9334358264
 30
0.0
 40
2.000000000000028
 50
90.0
 51
180.0
  0
LINE
  5
314
  8
0
  6
CONTINUOUS
 62
     7
 10
653.7771497726
 20
210.9334338237
 30
0.0
 11
646.4771498799
 21
210.9334338237
 31
0.0
  0
LINE
  5
315
  8
0
  6
CONTINUOUS
 62
     7
 10
653.7771497726
 20
210.9334338237
 30
0.0
 11
653.7771497726
 21
212.9334319164
 31
0.0
  0
LINE
  5
316
  8
0
  6
CONTINUOUS
 62
     7
 10
653.7771497726
 20
212.9334319164
 30
0.0
 11
654.5771499037
 21
212.9334319164
 31
0.0
  0
LINE
  5
317
  8
0
  6
CONTINUOUS
 62
     7
 10
654.5771499037
 20
212.9334319164
 30
0.0
 11
654.5771499037
 21
263.3674610187
 31
0.0
  0
LINE
  5
318
  8
0
  6
CONTINUOUS
 62
     7
 10
654.5771499037
 20
263.3674610187
 30
0.0
 11
742.3771512567
 21
263.3674610187
 31
0.0
  0
LINE
  5
319
  8
0
  6
CONTINUOUS
 62
     7
 10
742.3771512567
 20
212.9334319164
 30
0.0
 11
742.3771512567
 21
263.3674610187
 31
0.0
  0
LINE
  5
31A
  8
0
  6
CONTINUOUS
 62
     7
 10
743.1771469175
 20
212.9334319164
 30
0.0
 11
742.3771512567
 21
212.9334319164
 31
0.0
  0
LINE
  5
31B
  8
0
  6
CONTINUOUS
 62
     7
 10
743.1771469175
 20
212.9334319164
 30
0.0
 11
743.1771469175
 21
210.9334338237
 31
0.0
  0
LINE
  5
31C
  8
0
  6
CONTINUOUS
 62
     7
 10
750.4771542608
 20
210.9334338237
 30
0.0
 11
743.1771469175
 21
210.9334338237
 31
0.0
  0
ARC
  5
31D
  8
0
  6
CONTINUOUS
 62
     7
 10
750.4771499693
 20
208.9334358264
 30
0.0
 40
2.000000000000028
 50
0.0
 51
90.0
  0
LINE
  5
31E
  8
0
  6
CONTINUOUS
 62
     7
 10
752.4771523534
 20
204.9334395458
 30
0.0
 11
752.4771523534
 21
208.9334357311
 31
0.0
  0
LINE
  5
31F
  8
0
  6
CONTINUOUS
 62
     7
 10
754.4771504461
 20
204.9334395458
 30
0.0
 11
752.4771523534
 21
204.9334395458
 31
0.0
  0
LINE
  5
320
  8
0
  6
CONTINUOUS
 62
     7
 10
754.4771504461
 20
202.9334414531
 30
0.0
 11
754.4771504461
 21
204.9334395458
 31
0.0
  0
LINE
  5
321
  8
0
  6
CONTINUOUS
 62
     7
 10
752.4771523534
 20
202.9334414531
 30
0.0
 11
754.4771504461
 21
202.9334414531
 31
0.0
  0
LINE
  5
322
  8
0
  6
CONTINUOUS
 62
     7
 10
752.4771523534
 20
139.7334385444
 30
0.0
 11
752.4771523534
 21
202.9334414531
 31
0.0
  0
LINE
  5
323
  8
0
  6
CONTINUOUS
 62
     7
 10
754.4771504461
 20
139.7334385444
 30
0.0
 11
752.4771523534
 21
139.7334385444
 31
0.0
  0
LINE
  5
324
  8
0
  6
CONTINUOUS
 62
     7
 10
754.4771504461
 20
137.7334344913
 30
0.0
 11
754.4771504461
 21
139.7334385444
 31
0.0
  0
LINE
  5
325
  8
0
  6
CONTINUOUS
 62
     7
 10
752.4771523534
 20
137.7334344913
 30
0.0
 11
754.4771504461
 21
137.7334344913
 31
0.0
  0
LINE
  5
326
  8
0
  6
CONTINUOUS
 62
     7
 10
752.4771523534
 20
82.3334354688
 30
0.0
 11
752.4771523534
 21
137.7334344913
 31
0.0
  0
LINE
  5
327
  8
0
  6
CONTINUOUS
 62
     7
 10
752.4771523534
 20
82.3334354688
 30
0.0
 11
742.3771512567
 21
82.3334354688
 31
0.0
  0
LINE
  5
328
  8
0
  6
CONTINUOUS
 62
     7
 10
742.3771512567
 20
201.7909873058
 30
0.0
 11
742.3771512567
 21
82.3334354688
 31
0.0
  0
CIRCLE
  5
329
  8
0
  6
CONTINUOUS
 62
     7
 10
648.4771499693
 20
90.3334358264
 30
0.0
 40
1.100000000000023
  0
CIRCLE
  5
32A
  8
0
  6
CONTINUOUS
 62
     7
 10
748.4771499693
 20
90.3334358264
 30
0.0
 40
1.100000000000023
  0
LINE
  5
32B
  8
0
  6
CONTINUOUS
 62
     7
 10
654.5771499037
 20
149.3334341575
 30
0.0
 11
742.3771512567
 21
149.3334341575
 31
0.0
  0
LINE
  5
32C
  8
0
  6
CONTINUOUS
 62
     7
 10
653.7771497726
 20
212.9334319164
 30
0.0
 11
653.7771497726
 21
214.715467744
 31
0.0
  0
LINE
  5
32D
  8
0
  6
CONTINUOUS
 62
     7
 10
654.5771499037
 20
263.596962743
 30
0.0
 11
742.3771512567
 21
263.596962743
 31
0.0
  0
LINE
  5
32E
  8
0
  6
CONTINUOUS
 62
     7
 10
742.3771512567
 20
263.3674610187
 30
0.0
 11
742.3771512567
 21
263.596962743
 31
0.0
  0
LINE
  5
32F
  8
0
  6
CONTINUOUS
 62
     7
 10
654.5771499037
 20
263.3674610187
 30
0.0
 11
654.5771499037
 21
263.596962743
 31
0.0
  0
LINE
  5
330
  8
0
  6
CONTINUOUS
 62
     7
 10
743.1771469175
 20
212.939702325
 30
0.0
 11
743.1771469175
 21
212.9334319164
 31
0.0
  0
LINE
  5
331
  8
0
  6
CONTINUOUS
 62
     7
 10
654.6771501064
 20
263.8982642223
 30
0.0
 11
654.6771501064
 21
263.596962743
 31
0.0
  0
LINE
  5
332
  8
0
  6
CONTINUOUS
 62
     7
 10
742.2771525442
 20
263.8982642223
 30
0.0
 11
742.2771525442
 21
263.596962743
 31
0.0
  0
LINE
  5
333
  8
0
  6
CONTINUOUS
 62
     7
 10
661.4771497308
 20
66.3334358264
 30
0.0
 11
644.4771499246
 21
66.3334358264
 31
0.0
  0
LINE
  5
334
  8
0
  6
CONTINUOUS
 62
     7
 10
661.4771497308
 20
75.4334356417
 30
0.0
 11
654.5771499037
 21
82.3334354688
 31
0.0
  0
LINE
  5
335
  8
0
  6
CONTINUOUS
 62
     7
 10
661.4771497308
 20
66.3334358264
 30
0.0
 11
661.4771497308
 21
75.4334356417
 31
0.0
  0
LINE
  5
336
  8
0
  6
CONTINUOUS
 62
     7
 10
644.4771499246
 20
66.3334358264
 30
0.0
 11
644.4771499246
 21
82.3334354688
 31
0.0
  0
LINE
  5
337
  8
0
  6
CONTINUOUS
 62
     7
 10
752.4771523534
 20
66.3334358264
 30
0.0
 11
735.4771506845
 21
66.3334358264
 31
0.0
  0
LINE
  5
338
  8
0
  6
CONTINUOUS
 62
     7
 10
735.4771506845
 20
75.4334356417
 30
0.0
 11
735.4771506845
 21
66.3334358264
 31
0.0
  0
LINE
  5
339
  8
0
  6
CONTINUOUS
 62
     7
 10
742.3771512567
 20
82.3334354688
 30
0.0
 11
735.4771506845
 21
75.4334356417
 31
0.0
  0
LINE
  5
33A
  8
0
  6
CONTINUOUS
 62
     7
 10
752.4771523534
 20
66.3334358264
 30
0.0
 11
752.4771523534
 21
82.3334354688
 31
0.0
  0
LINE
  5
33B
  8
0
  6
CONTINUOUS
 62
     7
 10
654.6847608744
 20
263.905869775
 30
0.0
 11
654.6771501064
 21
263.8982642223
 31
0.0
  0
LINE
  5
33C
  8
0
  6
CONTINUOUS
 62
     7
 10
742.2771525442
 20
263.8982642223
 30
0.0
 11
742.269541031
 21
263.905869775
 31
0.0
  0
LINE
  5
33D
  8
0
  6
CONTINUOUS
 62
     7
 10
653.7771497726
 20
214.715467744
 30
0.0
 11
653.7771497726
 21
214.7185075809
 31
0.0
  0
ENDSEC
  0
EOF
