  0
SECTION
  2
HEADER
  9
$ACADVER
  1
AC1009
  9
$DWGCODEPAGE
  3
ansi_1252
  9
$INSBASE
 10
0.0
 20
0.0
 30
0.0
  9
$EXTMIN
 10
0.0
 20
0.0
 30
0.0
  9
$EXTMAX
 10
420.0
 20
297.0
 30
0.0
  9
$LIMMIN
 10
0.0
 20
0.0
  9
$LIMMAX
 10
420.0
 20
297.0
  9
$ORTHOMODE
 70
     0
  9
$REGENMODE
 70
     1
  9
$FILLMODE
 70
     1
  9
$QTEXTMODE
 70
     0
  9
$MIRRTEXT
 70
     1
  9
$DRAGMODE
 70
     2
  9
$LTSCALE
 40
1.0
  9
$OSMODE
 70
    37
  9
$ATTMODE
 70
     1
  9
$TEXTSIZE
 40
3.5
  9
$TRACEWID
 40
1.0
  9
$TEXTSTYLE
  7
STANDARD
  9
$CLAYER
  8
0
  9
$CELTYPE
  6
BYLAYER
  9
$CECOLOR
 62
   256
  9
$DIMSCALE
 40
1.0
  9
$DIMASZ
 40
4.0
  9
$DIMEXO
 40
0.0
  9
$DIMDLI
 40
3.75
  9
$DIMRND
 40
0.0
  9
$DIMDLE
 40
0.0
  9
$DIMEXE
 40
2.0
  9
$DIMTP
 40
0.0
  9
$DIMTM
 40
0.0
  9
$DIMTXT
 40
3.5
  9
$DIMCEN
 40
2.5
  9
$DIMTSZ
 40
0.0
  9
$DIMTOL
 70
     0
  9
$DIMLIM
 70
     0
  9
$DIMTIH
 70
     1
  9
$DIMTOH
 70
     1
  9
$DIMSE1
 70
     0
  9
$DIMSE2
 70
     0
  9
$DIMTAD
 70
     1
  9
$DIMZIN
 70
     0
  9
$DIMBLK
  1

  9
$DIMASO
 70
     1
  9
$DIMSHO
 70
     1
  9
$DIMPOST
  1

  9
$DIMAPOST
  1

  9
$DIMALT
 70
     0
  9
$DIMALTD
 70
     3
  9
$DIMALTF
 40
0.0393700787
  9
$DIMLFAC
 40
5.0
  9
$DIMTOFL
 70
     1
  9
$DIMTVP
 40
0.0
  9
$DIMTIX
 70
     0
  9
$DIMSOXD
 70
     0
  9
$DIMSAH
 70
     0
  9
$DIMBLK1
  1

  9
$DIMBLK2
  1

  9
$DIMSTYLE
  2
ISO-25
  9
$DIMCLRD
 70
     0
  9
$DIMCLRE
 70
     0
  9
$DIMCLRT
 70
     0
  9
$DIMTFAC
 40
1.0
  9
$DIMGAP
 40
1.524
  9
$LUNITS
 70
     2
  9
$LUPREC
 70
     2
  9
$SKETCHINC
 40
1.0
  9
$FILLETRAD
 40
10.0
  9
$AUNITS
 70
     0
  9
$AUPREC
 70
     2
  9
$MENU
  1
.
  9
$ELEVATION
 40
0.0
  9
$PELEVATION
 40
0.0
  9
$THICKNESS
 40
0.0
  9
$LIMCHECK
 70
     0
  9
$CHAMFERA
 40
10.0
  9
$CHAMFERB
 40
10.0
  9
$SKPOLY
 70
     0
  9
$TDCREATE
 40
2457802.656083947
  9
$TDUPDATE
 40
2457802.656084236
  9
$TDINDWG
 40
0.0000000116
  9
$TDUSRTIMER
 40
0.0000000116
  9
$USRTIMER
 70
     1
  9
$ANGBASE
 50
0.0
  9
$ANGDIR
 70
     0
  9
$PDMODE
 70
     0
  9
$PDSIZE
 40
-1.0
  9
$PLINEWID
 40
0.0
  9
$COORDS
 70
     1
  9
$SPLFRAME
 70
     0
  9
$SPLINETYPE
 70
     6
  9
$SPLINESEGS
 70
     8
  9
$ATTDIA
 70
     0
  9
$ATTREQ
 70
     1
  9
$HANDLING
 70
     1
  9
$HANDSEED
  5
99A
  9
$SURFTAB1
 70
     6
  9
$SURFTAB2
 70
     6
  9
$SURFTYPE
 70
     6
  9
$SURFU
 70
     6
  9
$SURFV
 70
     6
  9
$UCSNAME
  2

  9
$UCSORG
 10
0.0
 20
0.0
 30
0.0
  9
$UCSXDIR
 10
1.0
 20
0.0
 30
0.0
  9
$UCSYDIR
 10
0.0
 20
1.0
 30
0.0
  9
$PUCSNAME
  2

  9
$PUCSORG
 10
0.0
 20
0.0
 30
0.0
  9
$PUCSXDIR
 10
1.0
 20
0.0
 30
0.0
  9
$PUCSYDIR
 10
0.0
 20
1.0
 30
0.0
  9
$USERI1
 70
     0
  9
$USERI2
 70
     0
  9
$USERI3
 70
     0
  9
$USERI4
 70
     0
  9
$USERI5
 70
     0
  9
$USERR1
 40
0.0
  9
$USERR2
 40
0.0
  9
$USERR3
 40
0.0
  9
$USERR4
 40
0.0
  9
$USERR5
 40
0.0
  9
$WORLDVIEW
 70
     1
  9
$SHADEDGE
 70
     3
  9
$SHADEDIF
 70
    70
  9
$TILEMODE
 70
     1
  9
$MAXACTVP
 70
    64
  9
$PLIMCHECK
 70
     0
  9
$PEXTMIN
 10
1.0000000000E+20
 20
1.0000000000E+20
 30
1.0000000000E+20
  9
$PEXTMAX
 10
-1.0000000000E+20
 20
-1.0000000000E+20
 30
-1.0000000000E+20
  9
$PLIMMIN
 10
0.0
 20
0.0
  9
$PLIMMAX
 10
420.0
 20
297.0
  9
$UNITMODE
 70
     0
  9
$VISRETAIN
 70
     1
  9
$PLINEGEN
 70
     0
  9
$PSLTSCALE
 70
     1
  0
ENDSEC
  0
SECTION
  2
TABLES
  0
TABLE
  2
VPORT
 70
     1
  0
VPORT
  2
*ACTIVE
 70
     0
 10
0.0
 20
0.0
 11
1.0
 21
1.0
 12
210.0
 22
148.5
 13
0.0
 23
0.0
 14
10.0
 24
10.0
 15
10.0
 25
10.0
 16
0.0
 26
0.0
 36
1.0
 17
0.0
 27
0.0
 37
0.0
 40
297.0
 41
1.4141414141
 42
50.0
 43
0.0
 44
0.0
 50
0.0
 51
0.0
 71
     0
 72
  2000
 73
     1
 74
     3
 75
     0
 76
     0
 77
     0
 78
     0
  0
ENDTAB
  0
TABLE
  2
LTYPE
 70
     6
  0
LTYPE
  2
CONTINUOUS
 70
     0
  3
Solid line
 72
    65
 73
     0
 40
0.0
  0
LTYPE
  2
HIDDEN
 70
     0
  3
Hidden __ __ __ __ __ __ __ __ __ __ __ __ __ __
 72
    65
 73
     2
 40
1.905
 49
1.27
 49
-0.635
  0
LTYPE
  2
PHANTOM
 70
     0
  3
Phantom ______  __  __  ______  __  __  ______
 72
    65
 73
     6
 40
12.7
 49
6.35
 49
-1.27
 49
1.27
 49
-1.27
 49
1.27
 49
-1.27
  0
LTYPE
  2
CENTER
 70
     0
  3
Center ____ _ ____ _ ____ _ ____ _ ____ _ ____
 72
    65
 73
     4
 40
10.16
 49
6.35
 49
-1.27
 49
1.27
 49
-1.27
  0
LTYPE
  2
CENTERX2
 70
     0
  3
Center (2x) ________  __  ________  __  _____
 72
    65
 73
     4
 40
20.32
 49
12.7
 49
-2.54
 49
2.54
 49
-2.54
  0
LTYPE
  2
DOT2
 70
     0
  3
Dot (.5x) ........................................
 72
    65
 73
     2
 40
0.635
 49
0.0
 49
-0.635
  0
ENDTAB
  0
TABLE
  2
LAYER
 70
     2
  0
LAYER
  2
0
 70
     0
 62
     7
  6
CONTINUOUS
  0
LAYER
  2
FORMAT
 70
     0
 62
     7
  6
CONTINUOUS
  0
ENDTAB
  0
TABLE
  2
STYLE
 70
     1
  0
STYLE
  2
STANDARD
 70
     0
 40
0.0
 41
1.0
 50
0.0
 71
     0
 42
3.5
  3
txt
  4

  0
ENDTAB
  0
TABLE
  2
VIEW
 70
     0
  0
ENDTAB
  0
TABLE
  2
UCS
 70
     0
  0
ENDTAB
  0
TABLE
  2
APPID
 70
     1
  0
APPID
  2
ACAD
 70
     0
  0
ENDTAB
  0
TABLE
  2
DIMSTYLE
 70
     1
  0
DIMSTYLE
  2
ISO-25
 70
     0
  3

  4

  5

  6

  7

 40
1.0
 41
2.5
 42
0.625
 43
3.75
 44
1.25
 45
0.0
 46
0.0
 47
0.0
 48
0.0
140
2.5
141
2.5
142
0.0
143
0.0393700787
144
1.0
145
0.0
146
1.0
147
0.625
 71
     0
 72
     0
 73
     0
 74
     0
 75
     0
 76
     0
 77
     1
 78
     8
170
     0
171
     3
172
     1
173
     0
174
     0
175
     0
176
     0
177
     0
178
     0
  0
ENDTAB
  0
ENDSEC
  0
SECTION
  2
BLOCKS
  0
BLOCK
  8
0
  2
$MODEL_SPACE
 70
     0
 10
0.0
 20
0.0
 30
0.0
  3
$MODEL_SPACE
  1

  0
ENDBLK
  5
21
  8
0
  0
BLOCK
 67
     1
  8
0
  2
$PAPER_SPACE
 70
     0
 10
0.0
 20
0.0
 30
0.0
  3
$PAPER_SPACE
  1

  0
ENDBLK
  5
1D
 67
     1
  8
0
  0
ENDSEC
  0
SECTION
  2
ENTITIES
  0
POLYLINE
  5
45
  8
0
  6
CONTINUOUS
 62
     7
 66
     1
 10
0.0
 20
0.0
 30
0.0
  0
VERTEX
  5
45B
  8
0
  6
CONTINUOUS
 62
     7
 10
187.6232215949
 20
180.5879257124
 30
0.0
  0
VERTEX
  5
45C
  8
0
  6
CONTINUOUS
 62
     7
 10
186.3483616897
 20
180.4177127283
 30
0.0
  0
VERTEX
  5
45D
  8
0
  6
CONTINUOUS
 62
     7
 10
185.2555209585
 20
180.2766464155
 30
0.0
  0
VERTEX
  5
45E
  8
0
  6
CONTINUOUS
 62
     7
 10
184.3449929544
 20
180.1625154417
 30
0.0
  0
VERTEX
  5
45F
  8
0
  6
CONTINUOUS
 62
     7
 10
183.6170175859
 20
180.0734839838
 30
0.0
  0
VERTEX
  5
460
  8
0
  6
CONTINUOUS
 62
     7
 10
183.0186256953
 20
180.0017676752
 30
0.0
  0
VERTEX
  5
461
  8
0
  6
CONTINUOUS
 62
     7
 10
182.5975784846
 20
179.9521766107
 30
0.0
  0
VERTEX
  5
462
  8
0
  6
CONTINUOUS
 62
     7
 10
182.1613976546
 20
179.9019477766
 30
0.0
  0
VERTEX
  5
463
  8
0
  6
CONTINUOUS
 62
     7
 10
181.6920498201
 20
179.8491440218
 30
0.0
  0
VERTEX
  5
464
  8
0
  6
CONTINUOUS
 62
     7
 10
181.1895170995
 20
179.7939620416
 30
0.0
  0
VERTEX
  5
465
  8
0
  6
CONTINUOUS
 62
     7
 10
180.6537786313
 20
179.7365925711
 30
0.0
  0
VERTEX
  5
466
  8
0
  6
CONTINUOUS
 62
     7
 10
179.2594739982
 20
179.5939765375
 30
0.0
  0
VERTEX
  5
467
  8
0
  6
CONTINUOUS
 62
     7
 10
177.6803085395
 20
179.4434807699
 30
0.0
  0
VERTEX
  5
468
  8
0
  6
CONTINUOUS
 62
     7
 10
176.3607481309
 20
179.3263576429
 30
0.0
  0
VERTEX
  5
469
  8
0
  6
CONTINUOUS
 62
     7
 10
175.0340381452
 20
179.2171798151
 30
0.0
  0
VERTEX
  5
46A
  8
0
  6
CONTINUOUS
 62
     7
 10
173.8004753181
 20
179.1245124739
 30
0.0
  0
VERTEX
  5
46B
  8
0
  6
CONTINUOUS
 62
     7
 10
172.6602265426
 20
179.0472350519
 30
0.0
  0
VERTEX
  5
46C
  8
0
  6
CONTINUOUS
 62
     7
 10
171.6134527513
 20
178.9844057958
 30
0.0
  0
VERTEX
  5
46D
  8
0
  6
CONTINUOUS
 62
     7
 10
170.6602969953
 20
178.9352856081
 30
0.0
  0
VERTEX
  5
46E
  8
0
  6
CONTINUOUS
 62
     7
 10
169.8008993455
 20
178.8993380468
 30
0.0
  0
VERTEX
  5
46F
  8
0
  6
CONTINUOUS
 62
     7
 10
169.0346905776
 20
178.876074354
 30
0.0
  0
VERTEX
  5
470
  8
0
  6
CONTINUOUS
 62
     7
 10
168.6740794965
 20
178.8666270178
 30
0.0
  0
VERTEX
  5
471
  8
0
  6
CONTINUOUS
 62
     7
 10
168.3204093763
 20
178.8558743399
 30
0.0
  0
VERTEX
  5
472
  8
0
  6
CONTINUOUS
 62
     7
 10
167.973668296
 20
178.8434169691
 30
0.0
  0
VERTEX
  5
473
  8
0
  6
CONTINUOUS
 62
     7
 10
167.6338592359
 20
178.8298688333
 30
0.0
  0
VERTEX
  5
474
  8
0
  6
CONTINUOUS
 62
     7
 10
167.0781979152
 20
178.8068316381
 30
0.0
  0
VERTEX
  5
475
  8
0
  6
CONTINUOUS
 62
     7
 10
166.4630302974
 20
178.7819466989
 30
0.0
  0
VERTEX
  5
476
  8
0
  6
CONTINUOUS
 62
     7
 10
165.7301554271
 20
178.7536821764
 30
0.0
  0
VERTEX
  5
477
  8
0
  6
CONTINUOUS
 62
     7
 10
164.8795464822
 20
178.7227294844
 30
0.0
  0
VERTEX
  5
478
  8
0
  6
CONTINUOUS
 62
     7
 10
163.8621249982
 20
178.6882422369
 30
0.0
  0
VERTEX
  5
479
  8
0
  6
CONTINUOUS
 62
     7
 10
162.7154329606
 20
178.6526225012
 30
0.0
  0
VERTEX
  5
47A
  8
0
  6
CONTINUOUS
 62
     7
 10
161.4396283218
 20
178.6169670027
 30
0.0
  0
VERTEX
  5
47B
  8
0
  6
CONTINUOUS
 62
     7
 10
155.3920725175
 20
178.502311508
 30
0.0
  0
VERTEX
  5
47C
  8
0
  6
CONTINUOUS
 62
     7
 10
149.3750253507
 20
178.4728072088
 30
0.0
  0
VERTEX
  5
47D
  8
0
  6
CONTINUOUS
 62
     7
 10
147.0004835912
 20
178.4837506216
 30
0.0
  0
VERTEX
  5
47E
  8
0
  6
CONTINUOUS
 62
     7
 10
144.7654286214
 20
178.5057804983
 30
0.0
  0
VERTEX
  5
47F
  8
0
  6
CONTINUOUS
 62
     7
 10
142.6841953584
 20
178.5366080206
 30
0.0
  0
VERTEX
  5
480
  8
0
  6
CONTINUOUS
 62
     7
 10
140.756807644
 20
178.5741649072
 30
0.0
  0
VERTEX
  5
481
  8
0
  6
CONTINUOUS
 62
     7
 10
138.9735439607
 20
178.6168001097
 30
0.0
  0
VERTEX
  5
482
  8
0
  6
CONTINUOUS
 62
     7
 10
138.0641201326
 20
178.6415241163
 30
0.0
  0
VERTEX
  5
483
  8
0
  6
CONTINUOUS
 62
     7
 10
137.1119776555
 20
178.6696396273
 30
0.0
  0
VERTEX
  5
484
  8
0
  6
CONTINUOUS
 62
     7
 10
136.1171403714
 20
178.7015340727
 30
0.0
  0
VERTEX
  5
485
  8
0
  6
CONTINUOUS
 62
     7
 10
135.0796321222
 20
178.737636606
 30
0.0
  0
VERTEX
  5
486
  8
0
  6
CONTINUOUS
 62
     7
 10
134.0552726575
 20
178.776224653
 30
0.0
  0
VERTEX
  5
487
  8
0
  6
CONTINUOUS
 62
     7
 10
133.386955578
 20
178.8030229013
 30
0.0
  0
VERTEX
  5
488
  8
0
  6
CONTINUOUS
 62
     7
 10
132.9062858411
 20
178.8231037062
 30
0.0
  0
VERTEX
  5
489
  8
0
  6
CONTINUOUS
 62
     7
 10
132.5922468492
 20
178.8365803163
 30
0.0
  0
VERTEX
  5
48A
  8
0
  6
CONTINUOUS
 62
     7
 10
132.1113625356
 20
178.8573882978
 30
0.0
  0
VERTEX
  5
48B
  8
0
  6
CONTINUOUS
 62
     7
 10
131.5554538556
 20
178.8804552954
 30
0.0
  0
VERTEX
  5
48C
  8
0
  6
CONTINUOUS
 62
     7
 10
130.924568493
 20
178.9045832556
 30
0.0
  0
VERTEX
  5
48D
  8
0
  6
CONTINUOUS
 62
     7
 10
130.2187243291
 20
178.9319894712
 30
0.0
  0
VERTEX
  5
48E
  8
0
  6
CONTINUOUS
 62
     7
 10
129.4369915315
 20
178.9662084978
 30
0.0
  0
VERTEX
  5
48F
  8
0
  6
CONTINUOUS
 62
     7
 10
128.5748401471
 20
179.0110431116
 30
0.0
  0
VERTEX
  5
490
  8
0
  6
CONTINUOUS
 62
     7
 10
127.6316979715
 20
179.0673933428
 30
0.0
  0
VERTEX
  5
491
  8
0
  6
CONTINUOUS
 62
     7
 10
126.6076722928
 20
179.135819475
 30
0.0
  0
VERTEX
  5
492
  8
0
  6
CONTINUOUS
 62
     7
 10
125.5028942414
 20
179.2170188825
 30
0.0
  0
VERTEX
  5
493
  8
0
  6
CONTINUOUS
 62
     7
 10
124.3174830266
 20
179.3118081491
 30
0.0
  0
VERTEX
  5
494
  8
0
  6
CONTINUOUS
 62
     7
 10
122.2534993478
 20
179.4941745203
 30
0.0
  0
VERTEX
  5
495
  8
0
  6
CONTINUOUS
 62
     7
 10
119.9982384034
 20
179.7168693941
 30
0.0
  0
VERTEX
  5
496
  8
0
  6
CONTINUOUS
 62
     7
 10
117.6523962804
 20
179.9732647341
 30
0.0
  0
VERTEX
  5
497
  8
0
  6
CONTINUOUS
 62
     7
 10
115.235970337
 20
180.2631161611
 30
0.0
  0
VERTEX
  5
498
  8
0
  6
CONTINUOUS
 62
     7
 10
112.7493182012
 20
180.5879257124
 30
0.0
  0
SEQEND
  5
999
  8
0
  6
CONTINUOUS
 62
     7
  0
POLYLINE
  5
46
  8
0
  6
CONTINUOUS
 62
     7
 66
     1
 10
0.0
 20
0.0
 30
0.0
  0
VERTEX
  5
499
  8
0
  6
CONTINUOUS
 62
     7
 10
187.7863341757
 20
180.0041697424
 30
0.0
  0
VERTEX
  5
49A
  8
0
  6
CONTINUOUS
 62
     7
 10
187.7041185089
 20
180.3651652735
 30
0.0
  0
VERTEX
  5
49B
  8
0
  6
CONTINUOUS
 62
     7
 10
187.5701049157
 20
180.9541485708
 30
0.0
  0
SEQEND
  5
998
  8
0
  6
CONTINUOUS
 62
     7
  0
POLYLINE
  5
47
  8
0
  6
CONTINUOUS
 62
     7
 66
     1
 10
0.0
 20
0.0
 30
0.0
  0
VERTEX
  5
49C
  8
0
  6
CONTINUOUS
 62
     7
 10
112.8024378606
 20
180.9541485708
 30
0.0
  0
VERTEX
  5
49D
  8
0
  6
CONTINUOUS
 62
     7
 10
112.6697519609
 20
180.3710005682
 30
0.0
  0
VERTEX
  5
49E
  8
0
  6
CONTINUOUS
 62
     7
 10
112.5839987584
 20
179.9944780271
 30
0.0
  0
SEQEND
  5
997
  8
0
  6
CONTINUOUS
 62
     7
  0
POLYLINE
  5
48
  8
0
  6
CONTINUOUS
 62
     7
 66
     1
 10
0.0
 20
0.0
 30
0.0
  0
VERTEX
  5
49F
  8
0
  6
CONTINUOUS
 62
     7
 10
67.6232257672
 20
180.5879257124
 30
0.0
  0
VERTEX
  5
4A0
  8
0
  6
CONTINUOUS
 62
     7
 10
66.348365862
 20
180.4177127283
 30
0.0
  0
VERTEX
  5
4A1
  8
0
  6
CONTINUOUS
 62
     7
 10
65.2555147
 20
180.2766464155
 30
0.0
  0
VERTEX
  5
4A2
  8
0
  6
CONTINUOUS
 62
     7
 10
64.3449941465
 20
180.1625154417
 30
0.0
  0
VERTEX
  5
4A3
  8
0
  6
CONTINUOUS
 62
     7
 10
63.617018778
 20
180.0734839838
 30
0.0
  0
VERTEX
  5
4A4
  8
0
  6
CONTINUOUS
 62
     7
 10
63.0186239072
 20
180.0017676752
 30
0.0
  0
VERTEX
  5
4A5
  8
0
  6
CONTINUOUS
 62
     7
 10
62.5975766965
 20
179.9521766107
 30
0.0
  0
VERTEX
  5
4A6
  8
0
  6
CONTINUOUS
 62
     7
 10
62.161401827
 20
179.9019477766
 30
0.0
  0
VERTEX
  5
4A7
  8
0
  6
CONTINUOUS
 62
     7
 10
61.6920510121
 20
179.8491440218
 30
0.0
  0
VERTEX
  5
4A8
  8
0
  6
CONTINUOUS
 62
     7
 10
61.1895123311
 20
179.7939620416
 30
0.0
  0
VERTEX
  5
4A9
  8
0
  6
CONTINUOUS
 62
     7
 10
60.6537857839
 20
179.7365925711
 30
0.0
  0
VERTEX
  5
4AA
  8
0
  6
CONTINUOUS
 62
     7
 10
59.2594781705
 20
179.5939765375
 30
0.0
  0
VERTEX
  5
4AB
  8
0
  6
CONTINUOUS
 62
     7
 10
57.6803127118
 20
179.4434807699
 30
0.0
  0
VERTEX
  5
4AC
  8
0
  6
CONTINUOUS
 62
     7
 10
56.360749323
 20
179.3263576429
 30
0.0
  0
VERTEX
  5
4AD
  8
0
  6
CONTINUOUS
 62
     7
 10
55.0340333768
 20
179.2171798151
 30
0.0
  0
VERTEX
  5
4AE
  8
0
  6
CONTINUOUS
 62
     7
 10
53.8004794904
 20
179.1245124739
 30
0.0
  0
VERTEX
  5
4AF
  8
0
  6
CONTINUOUS
 62
     7
 10
52.6602307149
 20
179.0472350519
 30
0.0
  0
VERTEX
  5
4B0
  8
0
  6
CONTINUOUS
 62
     7
 10
51.6134539434
 20
178.9844057958
 30
0.0
  0
VERTEX
  5
4B1
  8
0
  6
CONTINUOUS
 62
     7
 10
50.6602922269
 20
178.9352856081
 30
0.0
  0
VERTEX
  5
4B2
  8
0
  6
CONTINUOUS
 62
     7
 10
49.8009005376
 20
178.8993380468
 30
0.0
  0
VERTEX
  5
4B3
  8
0
  6
CONTINUOUS
 62
     7
 10
49.0346947499
 20
178.876074354
 30
0.0
  0
VERTEX
  5
4B4
  8
0
  6
CONTINUOUS
 62
     7
 10
48.6740747281
 20
178.8666270178
 30
0.0
  0
VERTEX
  5
4B5
  8
0
  6
CONTINUOUS
 62
     7
 10
48.3204046079
 20
178.8558743399
 30
0.0
  0
VERTEX
  5
4B6
  8
0
  6
CONTINUOUS
 62
     7
 10
47.9736724683
 20
178.8434169691
 30
0.0
  0
VERTEX
  5
4B7
  8
0
  6
CONTINUOUS
 62
     7
 10
47.6338544675
 20
178.8298688333
 30
0.0
  0
VERTEX
  5
4B8
  8
0
  6
CONTINUOUS
 62
     7
 10
47.078196127
 20
178.8068316381
 30
0.0
  0
VERTEX
  5
4B9
  8
0
  6
CONTINUOUS
 62
     7
 10
46.4630285093
 20
178.7819466989
 30
0.0
  0
VERTEX
  5
4BA
  8
0
  6
CONTINUOUS
 62
     7
 10
45.730153639
 20
178.7536821764
 30
0.0
  0
VERTEX
  5
4BB
  8
0
  6
CONTINUOUS
 62
     7
 10
44.8795476743
 20
178.7227294844
 30
0.0
  0
VERTEX
  5
4BC
  8
0
  6
CONTINUOUS
 62
     7
 10
43.8621202298
 20
178.6882422369
 30
0.0
  0
VERTEX
  5
4BD
  8
0
  6
CONTINUOUS
 62
     7
 10
42.7154341527
 20
178.6526225012
 30
0.0
  0
VERTEX
  5
4BE
  8
0
  6
CONTINUOUS
 62
     7
 10
41.4396324941
 20
178.6169670027
 30
0.0
  0
VERTEX
  5
4BF
  8
0
  6
CONTINUOUS
 62
     7
 10
35.3920737096
 20
178.502311508
 30
0.0
  0
VERTEX
  5
4C0
  8
0
  6
CONTINUOUS
 62
     7
 10
29.3750205823
 20
178.4728072088
 30
0.0
  0
VERTEX
  5
4C1
  8
0
  6
CONTINUOUS
 62
     7
 10
27.0004788228
 20
178.4837506216
 30
0.0
  0
VERTEX
  5
4C2
  8
0
  6
CONTINUOUS
 62
     7
 10
24.765423853
 20
178.5057804983
 30
0.0
  0
VERTEX
  5
4C3
  8
0
  6
CONTINUOUS
 62
     7
 10
22.6841965505
 20
178.5366080206
 30
0.0
  0
VERTEX
  5
4C4
  8
0
  6
CONTINUOUS
 62
     7
 10
20.7568088361
 20
178.5741649072
 30
0.0
  0
VERTEX
  5
4C5
  8
0
  6
CONTINUOUS
 62
     7
 10
18.9735451528
 20
178.6168001097
 30
0.0
  0
VERTEX
  5
4C6
  8
0
  6
CONTINUOUS
 62
     7
 10
18.0641213246
 20
178.6415241163
 30
0.0
  0
VERTEX
  5
4C7
  8
0
  6
CONTINUOUS
 62
     7
 10
17.1119848081
 20
178.6696396273
 30
0.0
  0
VERTEX
  5
4C8
  8
0
  6
CONTINUOUS
 62
     7
 10
16.1171356031
 20
178.7015340727
 30
0.0
  0
VERTEX
  5
4C9
  8
0
  6
CONTINUOUS
 62
     7
 10
15.0796333142
 20
178.737636606
 30
0.0
  0
VERTEX
  5
4CA
  8
0
  6
CONTINUOUS
 62
     7
 10
14.0552798101
 20
178.776224653
 30
0.0
  0
VERTEX
  5
4CB
  8
0
  6
CONTINUOUS
 62
     7
 10
13.3869567701
 20
178.8030229013
 30
0.0
  0
VERTEX
  5
4CC
  8
0
  6
CONTINUOUS
 62
     7
 10
12.9062810727
 20
178.8231037062
 30
0.0
  0
VERTEX
  5
4CD
  8
0
  6
CONTINUOUS
 62
     7
 10
12.5922480413
 20
178.8365803163
 30
0.0
  0
VERTEX
  5
4CE
  8
0
  6
CONTINUOUS
 62
     7
 10
12.1113577672
 20
178.8573882978
 30
0.0
  0
VERTEX
  5
4CF
  8
0
  6
CONTINUOUS
 62
     7
 10
11.5554490873
 20
178.8804552954
 30
0.0
  0
VERTEX
  5
4D0
  8
0
  6
CONTINUOUS
 62
     7
 10
10.9245696851
 20
178.9045832556
 30
0.0
  0
VERTEX
  5
4D1
  8
0
  6
CONTINUOUS
 62
     7
 10
10.2187195607
 20
178.9319894712
 30
0.0
  0
VERTEX
  5
4D2
  8
0
  6
CONTINUOUS
 62
     7
 10
9.4369927236
 20
178.9662084978
 30
0.0
  0
VERTEX
  5
4D3
  8
0
  6
CONTINUOUS
 62
     7
 10
8.5748472997
 20
179.0110431116
 30
0.0
  0
VERTEX
  5
4D4
  8
0
  6
CONTINUOUS
 62
     7
 10
7.6316872426
 20
179.0673933428
 30
0.0
  0
VERTEX
  5
4D5
  8
0
  6
CONTINUOUS
 62
     7
 10
6.6076794454
 20
179.135819475
 30
0.0
  0
VERTEX
  5
4D6
  8
0
  6
CONTINUOUS
 62
     7
 10
5.5028954335
 20
179.2170188825
 30
0.0
  0
VERTEX
  5
4D7
  8
0
  6
CONTINUOUS
 62
     7
 10
4.3174782582
 20
179.3118081491
 30
0.0
  0
VERTEX
  5
4D8
  8
0
  6
CONTINUOUS
 62
     7
 10
2.2535124608
 20
179.4941745203
 30
0.0
  0
VERTEX
  5
4D9
  8
0
  6
CONTINUOUS
 62
     7
 10
-0.0017604045
 20
179.7168693941
 30
0.0
  0
VERTEX
  5
4DA
  8
0
  6
CONTINUOUS
 62
     7
 10
-2.347608488
 20
179.9732647341
 30
0.0
  0
VERTEX
  5
4DB
  8
0
  6
CONTINUOUS
 62
     7
 10
-4.7640284709
 20
180.2631161611
 30
0.0
  0
VERTEX
  5
4DC
  8
0
  6
CONTINUOUS
 62
     7
 10
-7.2506865672
 20
180.5879257124
 30
0.0
  0
SEQEND
  5
996
  8
0
  6
CONTINUOUS
 62
     7
  0
POLYLINE
  5
49
  8
0
  6
CONTINUOUS
 62
     7
 66
     1
 10
0.0
 20
0.0
 30
0.0
  0
VERTEX
  5
4DD
  8
0
  6
CONTINUOUS
 62
     7
 10
67.7863398381
 20
180.0041697424
 30
0.0
  0
VERTEX
  5
4DE
  8
0
  6
CONTINUOUS
 62
     7
 10
67.7041211911
 20
180.3651652735
 30
0.0
  0
VERTEX
  5
4DF
  8
0
  6
CONTINUOUS
 62
     7
 10
67.5701061078
 20
180.9541485708
 30
0.0
  0
SEQEND
  5
995
  8
0
  6
CONTINUOUS
 62
     7
  0
POLYLINE
  5
4A
  8
0
  6
CONTINUOUS
 62
     7
 66
     1
 10
0.0
 20
0.0
 30
0.0
  0
VERTEX
  5
4E0
  8
0
  6
CONTINUOUS
 62
     7
 10
-7.1975669078
 20
180.9541485708
 30
0.0
  0
VERTEX
  5
4E1
  8
0
  6
CONTINUOUS
 62
     7
 10
-7.330246847
 20
180.3710005682
 30
0.0
  0
VERTEX
  5
4E2
  8
0
  6
CONTINUOUS
 62
     7
 10
-7.4160060099
 20
179.9944780271
 30
0.0
  0
SEQEND
  5
994
  8
0
  6
CONTINUOUS
 62
     7
  0
POLYLINE
  5
4B
  8
0
  6
CONTINUOUS
 62
     7
 66
     1
 10
0.0
 20
0.0
 30
0.0
  0
VERTEX
  5
4E3
  8
0
  6
CONTINUOUS
 62
     7
 10
427.6232281514
 20
180.5879257124
 30
0.0
  0
VERTEX
  5
4E4
  8
0
  6
CONTINUOUS
 62
     7
 10
426.3483563253
 20
180.4177127283
 30
0.0
  0
VERTEX
  5
4E5
  8
0
  6
CONTINUOUS
 62
     7
 10
425.2555170842
 20
180.2766464155
 30
0.0
  0
VERTEX
  5
4E6
  8
0
  6
CONTINUOUS
 62
     7
 10
424.3449965306
 20
180.1625154417
 30
0.0
  0
VERTEX
  5
4E7
  8
0
  6
CONTINUOUS
 62
     7
 10
423.6170092412
 20
180.0734839838
 30
0.0
  0
VERTEX
  5
4E8
  8
0
  6
CONTINUOUS
 62
     7
 10
423.0186262914
 20
180.0017676752
 30
0.0
  0
VERTEX
  5
4E9
  8
0
  6
CONTINUOUS
 62
     7
 10
422.5975790807
 20
179.9521766107
 30
0.0
  0
VERTEX
  5
4EA
  8
0
  6
CONTINUOUS
 62
     7
 10
422.1613922902
 20
179.9019477766
 30
0.0
  0
VERTEX
  5
4EB
  8
0
  6
CONTINUOUS
 62
     7
 10
421.6920414754
 20
179.8491440218
 30
0.0
  0
VERTEX
  5
4EC
  8
0
  6
CONTINUOUS
 62
     7
 10
421.1895266362
 20
179.7939620416
 30
0.0
  0
VERTEX
  5
4ED
  8
0
  6
CONTINUOUS
 62
     7
 10
420.6537762471
 20
179.7365925711
 30
0.0
  0
VERTEX
  5
4EE
  8
0
  6
CONTINUOUS
 62
     7
 10
419.2594805547
 20
179.5939765375
 30
0.0
  0
VERTEX
  5
4EF
  8
0
  6
CONTINUOUS
 62
     7
 10
417.680315096
 20
179.4434807699
 30
0.0
  0
VERTEX
  5
4F0
  8
0
  6
CONTINUOUS
 62
     7
 10
416.3607397863
 20
179.3263576429
 30
0.0
  0
VERTEX
  5
4F1
  8
0
  6
CONTINUOUS
 62
     7
 10
415.034035761
 20
179.2171798151
 30
0.0
  0
VERTEX
  5
4F2
  8
0
  6
CONTINUOUS
 62
     7
 10
413.8004818746
 20
179.1245124739
 30
0.0
  0
VERTEX
  5
4F3
  8
0
  6
CONTINUOUS
 62
     7
 10
412.6602211782
 20
179.0472350519
 30
0.0
  0
VERTEX
  5
4F4
  8
0
  6
CONTINUOUS
 62
     7
 10
411.6134444066
 20
178.9844057958
 30
0.0
  0
VERTEX
  5
4F5
  8
0
  6
CONTINUOUS
 62
     7
 10
410.6602946111
 20
178.9352856081
 30
0.0
  0
VERTEX
  5
4F6
  8
0
  6
CONTINUOUS
 62
     7
 10
409.8009029218
 20
178.8993380468
 30
0.0
  0
VERTEX
  5
4F7
  8
0
  6
CONTINUOUS
 62
     7
 10
409.0346852132
 20
178.876074354
 30
0.0
  0
VERTEX
  5
4F8
  8
0
  6
CONTINUOUS
 62
     7
 10
408.6740771123
 20
178.8666270178
 30
0.0
  0
VERTEX
  5
4F9
  8
0
  6
CONTINUOUS
 62
     7
 10
408.3204069921
 20
178.8558743399
 30
0.0
  0
VERTEX
  5
4FA
  8
0
  6
CONTINUOUS
 62
     7
 10
407.9736629316
 20
178.8434169691
 30
0.0
  0
VERTEX
  5
4FB
  8
0
  6
CONTINUOUS
 62
     7
 10
407.6338568517
 20
178.8298688333
 30
0.0
  0
VERTEX
  5
4FC
  8
0
  6
CONTINUOUS
 62
     7
 10
407.0781985112
 20
178.8068316381
 30
0.0
  0
VERTEX
  5
4FD
  8
0
  6
CONTINUOUS
 62
     7
 10
406.4630308934
 20
178.7819466989
 30
0.0
  0
VERTEX
  5
4FE
  8
0
  6
CONTINUOUS
 62
     7
 10
405.7301560231
 20
178.7536821764
 30
0.0
  0
VERTEX
  5
4FF
  8
0
  6
CONTINUOUS
 62
     7
 10
404.8795500585
 20
178.7227294844
 30
0.0
  0
VERTEX
  5
500
  8
0
  6
CONTINUOUS
 62
     7
 10
403.862122614
 20
178.6882422369
 30
0.0
  0
VERTEX
  5
501
  8
0
  6
CONTINUOUS
 62
     7
 10
402.7154365369
 20
178.6526225012
 30
0.0
  0
VERTEX
  5
502
  8
0
  6
CONTINUOUS
 62
     7
 10
401.4396229573
 20
178.6169670027
 30
0.0
  0
VERTEX
  5
503
  8
0
  6
CONTINUOUS
 62
     7
 10
395.3920760938
 20
178.502311508
 30
0.0
  0
VERTEX
  5
504
  8
0
  6
CONTINUOUS
 62
     7
 10
389.3750229665
 20
178.4728072088
 30
0.0
  0
VERTEX
  5
505
  8
0
  6
CONTINUOUS
 62
     7
 10
387.000481207
 20
178.4837506216
 30
0.0
  0
VERTEX
  5
506
  8
0
  6
CONTINUOUS
 62
     7
 10
384.7654262372
 20
178.5057804983
 30
0.0
  0
VERTEX
  5
507
  8
0
  6
CONTINUOUS
 62
     7
 10
382.6841989347
 20
178.5366080206
 30
0.0
  0
VERTEX
  5
508
  8
0
  6
CONTINUOUS
 62
     7
 10
380.7568112203
 20
178.5741649072
 30
0.0
  0
VERTEX
  5
509
  8
0
  6
CONTINUOUS
 62
     7
 10
378.973547537
 20
178.6168001097
 30
0.0
  0
VERTEX
  5
50A
  8
0
  6
CONTINUOUS
 62
     7
 10
378.0641237088
 20
178.6415241163
 30
0.0
  0
VERTEX
  5
50B
  8
0
  6
CONTINUOUS
 62
     7
 10
377.1119752713
 20
178.6696396273
 30
0.0
  0
VERTEX
  5
50C
  8
0
  6
CONTINUOUS
 62
     7
 10
376.1171379872
 20
178.7015340727
 30
0.0
  0
VERTEX
  5
50D
  8
0
  6
CONTINUOUS
 62
     7
 10
375.0796356984
 20
178.737636606
 30
0.0
  0
VERTEX
  5
50E
  8
0
  6
CONTINUOUS
 62
     7
 10
374.0552702733
 20
178.776224653
 30
0.0
  0
VERTEX
  5
50F
  8
0
  6
CONTINUOUS
 62
     7
 10
373.3869591542
 20
178.8030229013
 30
0.0
  0
VERTEX
  5
510
  8
0
  6
CONTINUOUS
 62
     7
 10
372.9062834569
 20
178.8231037062
 30
0.0
  0
VERTEX
  5
511
  8
0
  6
CONTINUOUS
 62
     7
 10
372.5922385045
 20
178.8365803163
 30
0.0
  0
VERTEX
  5
512
  8
0
  6
CONTINUOUS
 62
     7
 10
372.1113601514
 20
178.8573882978
 30
0.0
  0
VERTEX
  5
513
  8
0
  6
CONTINUOUS
 62
     7
 10
371.5554514714
 20
178.8804552954
 30
0.0
  0
VERTEX
  5
514
  8
0
  6
CONTINUOUS
 62
     7
 10
370.9245720693
 20
178.9045832556
 30
0.0
  0
VERTEX
  5
515
  8
0
  6
CONTINUOUS
 62
     7
 10
370.2187219449
 20
178.9319894712
 30
0.0
  0
VERTEX
  5
516
  8
0
  6
CONTINUOUS
 62
     7
 10
369.4369951078
 20
178.9662084978
 30
0.0
  0
VERTEX
  5
517
  8
0
  6
CONTINUOUS
 62
     7
 10
368.5748377629
 20
179.0110431116
 30
0.0
  0
VERTEX
  5
518
  8
0
  6
CONTINUOUS
 62
     7
 10
367.6317015477
 20
179.0673933428
 30
0.0
  0
VERTEX
  5
519
  8
0
  6
CONTINUOUS
 62
     7
 10
366.6076699086
 20
179.135819475
 30
0.0
  0
VERTEX
  5
51A
  8
0
  6
CONTINUOUS
 62
     7
 10
365.5028858968
 20
179.2170188825
 30
0.0
  0
VERTEX
  5
51B
  8
0
  6
CONTINUOUS
 62
     7
 10
364.3174806424
 20
179.3118081491
 30
0.0
  0
VERTEX
  5
51C
  8
0
  6
CONTINUOUS
 62
     7
 10
362.2535029241
 20
179.4941745203
 30
0.0
  0
VERTEX
  5
51D
  8
0
  6
CONTINUOUS
 62
     7
 10
359.9982419797
 20
179.7168693941
 30
0.0
  0
VERTEX
  5
51E
  8
0
  6
CONTINUOUS
 62
     7
 10
357.6523938962
 20
179.9732647341
 30
0.0
  0
VERTEX
  5
51F
  8
0
  6
CONTINUOUS
 62
     7
 10
355.2359739133
 20
180.2631161611
 30
0.0
  0
VERTEX
  5
520
  8
0
  6
CONTINUOUS
 62
     7
 10
352.749315817
 20
180.5879257124
 30
0.0
  0
SEQEND
  5
993
  8
0
  6
CONTINUOUS
 62
     7
  0
POLYLINE
  5
4C
  8
0
  6
CONTINUOUS
 62
     7
 66
     1
 10
0.0
 20
0.0
 30
0.0
  0
VERTEX
  5
521
  8
0
  6
CONTINUOUS
 62
     7
 10
427.7863303014
 20
180.0041697424
 30
0.0
  0
VERTEX
  5
522
  8
0
  6
CONTINUOUS
 62
     7
 10
427.7041235753
 20
180.3651652735
 30
0.0
  0
VERTEX
  5
523
  8
0
  6
CONTINUOUS
 62
     7
 10
427.570108492
 20
180.9541485708
 30
0.0
  0
SEQEND
  5
992
  8
0
  6
CONTINUOUS
 62
     7
  0
POLYLINE
  5
4D
  8
0
  6
CONTINUOUS
 62
     7
 66
     1
 10
0.0
 20
0.0
 30
0.0
  0
VERTEX
  5
524
  8
0
  6
CONTINUOUS
 62
     7
 10
352.8024354764
 20
180.9541485708
 30
0.0
  0
VERTEX
  5
525
  8
0
  6
CONTINUOUS
 62
     7
 10
352.6697555371
 20
180.3710005682
 30
0.0
  0
VERTEX
  5
526
  8
0
  6
CONTINUOUS
 62
     7
 10
352.5839963742
 20
179.9944780271
 30
0.0
  0
SEQEND
  5
991
  8
0
  6
CONTINUOUS
 62
     7
  0
POLYLINE
  5
4E
  8
0
  6
CONTINUOUS
 62
     7
 66
     1
 10
0.0
 20
0.0
 30
0.0
  0
VERTEX
  5
527
  8
0
  6
CONTINUOUS
 62
     7
 10
307.6232233831
 20
180.5879257124
 30
0.0
  0
VERTEX
  5
528
  8
0
  6
CONTINUOUS
 62
     7
 10
306.3483634778
 20
180.4177127283
 30
0.0
  0
VERTEX
  5
529
  8
0
  6
CONTINUOUS
 62
     7
 10
305.2555182763
 20
180.2766464155
 30
0.0
  0
VERTEX
  5
52A
  8
0
  6
CONTINUOUS
 62
     7
 10
304.3449917623
 20
180.1625154417
 30
0.0
  0
VERTEX
  5
52B
  8
0
  6
CONTINUOUS
 62
     7
 10
303.6170163938
 20
180.0734839838
 30
0.0
  0
VERTEX
  5
52C
  8
0
  6
CONTINUOUS
 62
     7
 10
303.0186274835
 20
180.0017676752
 30
0.0
  0
VERTEX
  5
52D
  8
0
  6
CONTINUOUS
 62
     7
 10
302.5975802728
 20
179.9521766107
 30
0.0
  0
VERTEX
  5
52E
  8
0
  6
CONTINUOUS
 62
     7
 10
302.1613934823
 20
179.9019477766
 30
0.0
  0
VERTEX
  5
52F
  8
0
  6
CONTINUOUS
 62
     7
 10
301.692048628
 20
179.8491440218
 30
0.0
  0
VERTEX
  5
530
  8
0
  6
CONTINUOUS
 62
     7
 10
301.1895159074
 20
179.7939620416
 30
0.0
  0
VERTEX
  5
531
  8
0
  6
CONTINUOUS
 62
     7
 10
300.6537774392
 20
179.7365925711
 30
0.0
  0
VERTEX
  5
532
  8
0
  6
CONTINUOUS
 62
     7
 10
299.2594757863
 20
179.5939765375
 30
0.0
  0
VERTEX
  5
533
  8
0
  6
CONTINUOUS
 62
     7
 10
297.6803103276
 20
179.4434807699
 30
0.0
  0
VERTEX
  5
534
  8
0
  6
CONTINUOUS
 62
     7
 10
296.3607469388
 20
179.3263576429
 30
0.0
  0
VERTEX
  5
535
  8
0
  6
CONTINUOUS
 62
     7
 10
295.0340369531
 20
179.2171798151
 30
0.0
  0
VERTEX
  5
536
  8
0
  6
CONTINUOUS
 62
     7
 10
293.8004771062
 20
179.1245124739
 30
0.0
  0
VERTEX
  5
537
  8
0
  6
CONTINUOUS
 62
     7
 10
292.6602283307
 20
179.0472350519
 30
0.0
  0
VERTEX
  5
538
  8
0
  6
CONTINUOUS
 62
     7
 10
291.6134515592
 20
178.9844057958
 30
0.0
  0
VERTEX
  5
539
  8
0
  6
CONTINUOUS
 62
     7
 10
290.6602958032
 20
178.9352856081
 30
0.0
  0
VERTEX
  5
53A
  8
0
  6
CONTINUOUS
 62
     7
 10
289.8008981534
 20
178.8993380468
 30
0.0
  0
VERTEX
  5
53B
  8
0
  6
CONTINUOUS
 62
     7
 10
289.0346923658
 20
178.876074354
 30
0.0
  0
VERTEX
  5
53C
  8
0
  6
CONTINUOUS
 62
     7
 10
288.6740783044
 20
178.8666270178
 30
0.0
  0
VERTEX
  5
53D
  8
0
  6
CONTINUOUS
 62
     7
 10
288.3204081842
 20
178.8558743399
 30
0.0
  0
VERTEX
  5
53E
  8
0
  6
CONTINUOUS
 62
     7
 10
287.9736700841
 20
178.8434169691
 30
0.0
  0
VERTEX
  5
53F
  8
0
  6
CONTINUOUS
 62
     7
 10
287.6338580438
 20
178.8298688333
 30
0.0
  0
VERTEX
  5
540
  8
0
  6
CONTINUOUS
 62
     7
 10
287.0781937429
 20
178.8068316381
 30
0.0
  0
VERTEX
  5
541
  8
0
  6
CONTINUOUS
 62
     7
 10
286.4630320855
 20
178.7819466989
 30
0.0
  0
VERTEX
  5
542
  8
0
  6
CONTINUOUS
 62
     7
 10
285.7301572152
 20
178.7536821764
 30
0.0
  0
VERTEX
  5
543
  8
0
  6
CONTINUOUS
 62
     7
 10
284.8795452901
 20
178.7227294844
 30
0.0
  0
VERTEX
  5
544
  8
0
  6
CONTINUOUS
 62
     7
 10
283.8621238061
 20
178.6882422369
 30
0.0
  0
VERTEX
  5
545
  8
0
  6
CONTINUOUS
 62
     7
 10
282.7154317685
 20
178.6526225012
 30
0.0
  0
VERTEX
  5
546
  8
0
  6
CONTINUOUS
 62
     7
 10
281.4396301099
 20
178.6169670027
 30
0.0
  0
VERTEX
  5
547
  8
0
  6
CONTINUOUS
 62
     7
 10
275.3920713254
 20
178.502311508
 30
0.0
  0
VERTEX
  5
548
  8
0
  6
CONTINUOUS
 62
     7
 10
269.3750241586
 20
178.4728072088
 30
0.0
  0
VERTEX
  5
549
  8
0
  6
CONTINUOUS
 62
     7
 10
267.0004823991
 20
178.4837506216
 30
0.0
  0
VERTEX
  5
54A
  8
0
  6
CONTINUOUS
 62
     7
 10
264.7654274293
 20
178.5057804983
 30
0.0
  0
VERTEX
  5
54B
  8
0
  6
CONTINUOUS
 62
     7
 10
262.6841941663
 20
178.5366080206
 30
0.0
  0
VERTEX
  5
54C
  8
0
  6
CONTINUOUS
 62
     7
 10
260.7568064519
 20
178.5741649072
 30
0.0
  0
VERTEX
  5
54D
  8
0
  6
CONTINUOUS
 62
     7
 10
258.9735427686
 20
178.6168001097
 30
0.0
  0
VERTEX
  5
54E
  8
0
  6
CONTINUOUS
 62
     7
 10
258.0641189405
 20
178.6415241163
 30
0.0
  0
VERTEX
  5
54F
  8
0
  6
CONTINUOUS
 62
     7
 10
257.1119794437
 20
178.6696396273
 30
0.0
  0
VERTEX
  5
550
  8
0
  6
CONTINUOUS
 62
     7
 10
256.1171421596
 20
178.7015340727
 30
0.0
  0
VERTEX
  5
551
  8
0
  6
CONTINUOUS
 62
     7
 10
255.0796309301
 20
178.737636606
 30
0.0
  0
VERTEX
  5
552
  8
0
  6
CONTINUOUS
 62
     7
 10
254.0552744456
 20
178.776224653
 30
0.0
  0
VERTEX
  5
553
  8
0
  6
CONTINUOUS
 62
     7
 10
253.3869543859
 20
178.8030229013
 30
0.0
  0
VERTEX
  5
554
  8
0
  6
CONTINUOUS
 62
     7
 10
252.906284649
 20
178.8231037062
 30
0.0
  0
VERTEX
  5
555
  8
0
  6
CONTINUOUS
 62
     7
 10
252.5922456571
 20
178.8365803163
 30
0.0
  0
VERTEX
  5
556
  8
0
  6
CONTINUOUS
 62
     7
 10
252.1113643237
 20
178.8573882978
 30
0.0
  0
VERTEX
  5
557
  8
0
  6
CONTINUOUS
 62
     7
 10
251.5554526635
 20
178.8804552954
 30
0.0
  0
VERTEX
  5
558
  8
0
  6
CONTINUOUS
 62
     7
 10
250.9245702811
 20
178.9045832556
 30
0.0
  0
VERTEX
  5
559
  8
0
  6
CONTINUOUS
 62
     7
 10
250.218723137
 20
178.9319894712
 30
0.0
  0
VERTEX
  5
55A
  8
0
  6
CONTINUOUS
 62
     7
 10
249.4369933196
 20
178.9662084978
 30
0.0
  0
VERTEX
  5
55B
  8
0
  6
CONTINUOUS
 62
     7
 10
248.5748419353
 20
179.0110431116
 30
0.0
  0
VERTEX
  5
55C
  8
0
  6
CONTINUOUS
 62
     7
 10
247.6316967794
 20
179.0673933428
 30
0.0
  0
VERTEX
  5
55D
  8
0
  6
CONTINUOUS
 62
     7
 10
246.607674081
 20
179.135819475
 30
0.0
  0
VERTEX
  5
55E
  8
0
  6
CONTINUOUS
 62
     7
 10
245.5028930494
 20
179.2170188825
 30
0.0
  0
VERTEX
  5
55F
  8
0
  6
CONTINUOUS
 62
     7
 10
244.3174848148
 20
179.3118081491
 30
0.0
  0
VERTEX
  5
560
  8
0
  6
CONTINUOUS
 62
     7
 10
242.2535011359
 20
179.4941745203
 30
0.0
  0
VERTEX
  5
561
  8
0
  6
CONTINUOUS
 62
     7
 10
239.9982401916
 20
179.7168693941
 30
0.0
  0
VERTEX
  5
562
  8
0
  6
CONTINUOUS
 62
     7
 10
237.6523980685
 20
179.9732647341
 30
0.0
  0
VERTEX
  5
563
  8
0
  6
CONTINUOUS
 62
     7
 10
235.2359691449
 20
180.2631161611
 30
0.0
  0
VERTEX
  5
564
  8
0
  6
CONTINUOUS
 62
     7
 10
232.7493199893
 20
180.5879257124
 30
0.0
  0
SEQEND
  5
990
  8
0
  6
CONTINUOUS
 62
     7
  0
POLYLINE
  5
4F
  8
0
  6
CONTINUOUS
 62
     7
 66
     1
 10
0.0
 20
0.0
 30
0.0
  0
VERTEX
  5
565
  8
0
  6
CONTINUOUS
 62
     7
 10
307.786337454
 20
180.0041697424
 30
0.0
  0
VERTEX
  5
566
  8
0
  6
CONTINUOUS
 62
     7
 10
307.7041188069
 20
180.3651652735
 30
0.0
  0
VERTEX
  5
567
  8
0
  6
CONTINUOUS
 62
     7
 10
307.5701037236
 20
180.9541485708
 30
0.0
  0
SEQEND
  5
98F
  8
0
  6
CONTINUOUS
 62
     7
  0
POLYLINE
  5
50
  8
0
  6
CONTINUOUS
 62
     7
 66
     1
 10
0.0
 20
0.0
 30
0.0
  0
VERTEX
  5
568
  8
0
  6
CONTINUOUS
 62
     7
 10
232.8024366685
 20
180.9541485708
 30
0.0
  0
VERTEX
  5
569
  8
0
  6
CONTINUOUS
 62
     7
 10
232.6697492787
 20
180.3710005682
 30
0.0
  0
VERTEX
  5
56A
  8
0
  6
CONTINUOUS
 62
     7
 10
232.5839990565
 20
179.9944780271
 30
0.0
  0
SEQEND
  5
98E
  8
0
  6
CONTINUOUS
 62
     7
  0
LINE
  5
51
  8
0
  6
CONTINUOUS
 62
     7
 10
-32.5137337855
 20
203.399869005
 30
0.0
 11
-32.5137337855
 21
188.3998713892
 31
0.0
  0
LINE
  5
52
  8
0
  6
CONTINUOUS
 62
     7
 10
-27.1137198619
 20
188.3998713892
 30
0.0
 11
-27.1137198619
 21
203.399869005
 31
0.0
  0
LINE
  5
53
  8
0
  6
CONTINUOUS
 62
     7
 10
-27.1137198619
 20
171.7998705309
 30
0.0
 11
-27.1137198619
 21
188.3998713892
 31
0.0
  0
LINE
  5
54
  8
0
  6
CONTINUOUS
 62
     7
 10
-32.5137337855
 20
188.3998713892
 30
0.0
 11
-32.5137337855
 21
171.7998705309
 31
0.0
  0
LINE
  5
55
  8
0
  6
CONTINUOUS
 62
     7
 10
-32.5137337855
 20
171.7998705309
 30
0.0
 11
-32.5137337855
 21
156.7998729151
 31
0.0
  0
LINE
  5
56
  8
0
  6
CONTINUOUS
 62
     7
 10
-27.1137198619
 20
156.7998729151
 30
0.0
 11
-27.1137198619
 21
171.7998705309
 31
0.0
  0
LINE
  5
57
  8
0
  6
CONTINUOUS
 62
     7
 10
87.4862709829
 20
203.399869005
 30
0.0
 11
87.4862709829
 21
188.3998713892
 31
0.0
  0
LINE
  5
58
  8
0
  6
CONTINUOUS
 62
     7
 10
92.8862729856
 20
188.3998713892
 30
0.0
 11
92.8862729856
 21
203.399869005
 31
0.0
  0
LINE
  5
59
  8
0
  6
CONTINUOUS
 62
     7
 10
92.8862729856
 20
171.7998705309
 30
0.0
 11
92.8862729856
 21
188.3998713892
 31
0.0
  0
LINE
  5
5A
  8
0
  6
CONTINUOUS
 62
     7
 10
87.4862709829
 20
188.3998713892
 30
0.0
 11
87.4862709829
 21
171.7998705309
 31
0.0
  0
LINE
  5
5B
  8
0
  6
CONTINUOUS
 62
     7
 10
87.4862709829
 20
171.7998705309
 30
0.0
 11
87.4862709829
 21
156.7998729151
 31
0.0
  0
LINE
  5
5C
  8
0
  6
CONTINUOUS
 62
     7
 10
92.8862729856
 20
156.7998729151
 30
0.0
 11
92.8862729856
 21
171.7998705309
 31
0.0
  0
LINE
  5
5D
  8
0
  6
CONTINUOUS
 62
     7
 10
447.4862614461
 20
203.399869005
 30
0.0
 11
447.4862614461
 21
188.3998713892
 31
0.0
  0
LINE
  5
5E
  8
0
  6
CONTINUOUS
 62
     7
 10
452.8862753698
 20
188.3998713892
 30
0.0
 11
452.8862753698
 21
203.399869005
 31
0.0
  0
LINE
  5
5F
  8
0
  6
CONTINUOUS
 62
     7
 10
452.8862753698
 20
171.7998705309
 30
0.0
 11
452.8862753698
 21
188.3998713892
 31
0.0
  0
LINE
  5
60
  8
0
  6
CONTINUOUS
 62
     7
 10
447.4862614461
 20
188.3998713892
 30
0.0
 11
447.4862614461
 21
171.7998705309
 31
0.0
  0
LINE
  5
61
  8
0
  6
CONTINUOUS
 62
     7
 10
447.4862614461
 20
171.7998705309
 30
0.0
 11
447.4862614461
 21
156.7998729151
 31
0.0
  0
LINE
  5
62
  8
0
  6
CONTINUOUS
 62
     7
 10
452.8862753698
 20
156.7998729151
 30
0.0
 11
452.8862753698
 21
171.7998705309
 31
0.0
  0
LINE
  5
63
  8
0
  6
CONTINUOUS
 62
     7
 10
332.8862706014
 20
171.7998705309
 30
0.0
 11
332.8862706014
 21
188.3998713892
 31
0.0
  0
LINE
  5
64
  8
0
  6
CONTINUOUS
 62
     7
 10
327.4862685987
 20
188.3998713892
 30
0.0
 11
327.4862685987
 21
171.7998705309
 31
0.0
  0
LINE
  5
65
  8
0
  6
CONTINUOUS
 62
     7
 10
327.4862685987
 20
203.399869005
 30
0.0
 11
327.4862685987
 21
188.3998713892
 31
0.0
  0
LINE
  5
66
  8
0
  6
CONTINUOUS
 62
     7
 10
332.8862706014
 20
188.3998713892
 30
0.0
 11
332.8862706014
 21
203.399869005
 31
0.0
  0
LINE
  5
67
  8
0
  6
CONTINUOUS
 62
     7
 10
327.4862685987
 20
171.7998705309
 30
0.0
 11
327.4862685987
 21
156.7998729151
 31
0.0
  0
LINE
  5
68
  8
0
  6
CONTINUOUS
 62
     7
 10
332.8862706014
 20
156.7998729151
 30
0.0
 11
332.8862706014
 21
171.7998705309
 31
0.0
  0
LINE
  5
69
  8
0
  6
CONTINUOUS
 62
     7
 10
207.4862707221
 20
203.399869005
 30
0.0
 11
207.4862707221
 21
188.3998713892
 31
0.0
  0
LINE
  5
6A
  8
0
  6
CONTINUOUS
 62
     7
 10
212.8862708622
 20
188.3998713892
 30
0.0
 11
212.8862708622
 21
203.399869005
 31
0.0
  0
LINE
  5
6B
  8
0
  6
CONTINUOUS
 62
     7
 10
212.8862708622
 20
171.7998705309
 30
0.0
 11
212.8862708622
 21
188.3998713892
 31
0.0
  0
LINE
  5
6C
  8
0
  6
CONTINUOUS
 62
     7
 10
207.4862707221
 20
188.3998713892
 30
0.0
 11
207.4862707221
 21
171.7998705309
 31
0.0
  0
LINE
  5
6D
  8
0
  6
CONTINUOUS
 62
     7
 10
207.4862707221
 20
171.7998705309
 30
0.0
 11
207.4862707221
 21
156.7998729151
 31
0.0
  0
LINE
  5
6E
  8
0
  6
CONTINUOUS
 62
     7
 10
212.8862708622
 20
156.7998729151
 30
0.0
 11
212.8862708622
 21
171.7998705309
 31
0.0
  0
POLYLINE
  5
6F
  8
0
  6
CONTINUOUS
 62
     7
 66
     1
 10
0.0
 20
0.0
 30
0.0
  0
VERTEX
  5
56B
  8
0
  6
CONTINUOUS
 62
     7
 10
187.7863416263
 20
178.9305708807
 30
0.0
  0
VERTEX
  5
56C
  8
0
  6
CONTINUOUS
 62
     7
 10
187.6984679886
 20
178.6764822405
 30
0.0
  0
VERTEX
  5
56D
  8
0
  6
CONTINUOUS
 62
     7
 10
187.4331543037
 20
178.3214710157
 30
0.0
  0
VERTEX
  5
56E
  8
0
  6
CONTINUOUS
 62
     7
 10
187.0241546818
 20
177.8897247713
 30
0.0
  0
VERTEX
  5
56F
  8
0
  6
CONTINUOUS
 62
     7
 10
186.4657396265
 20
177.3877880972
 30
0.0
  0
VERTEX
  5
570
  8
0
  6
CONTINUOUS
 62
     7
 10
185.7297787257
 20
176.8323085707
 30
0.0
  0
VERTEX
  5
571
  8
0
  6
CONTINUOUS
 62
     7
 10
184.8277011701
 20
176.2841067713
 30
0.0
  0
VERTEX
  5
572
  8
0
  6
CONTINUOUS
 62
     7
 10
183.9613208362
 20
175.8762798708
 30
0.0
  0
VERTEX
  5
573
  8
0
  6
CONTINUOUS
 62
     7
 10
182.9776475021
 20
175.5387983721
 30
0.0
  0
VERTEX
  5
574
  8
0
  6
CONTINUOUS
 62
     7
 10
182.3525795528
 20
175.3885291021
 30
0.0
  0
VERTEX
  5
575
  8
0
  6
CONTINUOUS
 62
     7
 10
181.6987702438
 20
175.2820752066
 30
0.0
  0
SEQEND
  5
98D
  8
0
  6
CONTINUOUS
 62
     7
  0
POLYLINE
  5
70
  8
0
  6
CONTINUOUS
 62
     7
 66
     1
 10
0.0
 20
0.0
 30
0.0
  0
VERTEX
  5
576
  8
0
  6
CONTINUOUS
 62
     7
 10
187.7863416263
 20
178.9305708807
 30
0.0
  0
VERTEX
  5
577
  8
0
  6
CONTINUOUS
 62
     7
 10
187.7863401362
 20
178.9853594702
 30
0.0
  0
VERTEX
  5
578
  8
0
  6
CONTINUOUS
 62
     7
 10
187.7861255594
 20
179.2780540388
 30
0.0
  0
VERTEX
  5
579
  8
0
  6
CONTINUOUS
 62
     7
 10
187.7856487223
 20
179.400762121
 30
0.0
  0
VERTEX
  5
57A
  8
0
  6
CONTINUOUS
 62
     7
 10
187.785298545
 20
179.4143937033
 30
0.0
  0
VERTEX
  5
57B
  8
0
  6
CONTINUOUS
 62
     7
 10
187.7855444142
 20
179.4015369814
 30
0.0
  0
SEQEND
  5
98C
  8
0
  6
CONTINUOUS
 62
     7
  0
POLYLINE
  5
71
  8
0
  6
CONTINUOUS
 62
     7
 66
     1
 10
0.0
 20
0.0
 30
0.0
  0
VERTEX
  5
57C
  8
0
  6
CONTINUOUS
 62
     7
 10
187.7862701007
 20
179.6979687612
 30
0.0
  0
VERTEX
  5
57D
  8
0
  6
CONTINUOUS
 62
     7
 10
187.7715611645
 20
179.6502075594
 30
0.0
  0
VERTEX
  5
57E
  8
0
  6
CONTINUOUS
 62
     7
 10
187.7862745711
 20
179.5234105985
 30
0.0
  0
SEQEND
  5
98B
  8
0
  6
CONTINUOUS
 62
     7
  0
POLYLINE
  5
72
  8
0
  6
CONTINUOUS
 62
     7
 66
     1
 10
0.0
 20
0.0
 30
0.0
  0
VERTEX
  5
57F
  8
0
  6
CONTINUOUS
 62
     7
 10
112.5862696954
 20
179.5234105985
 30
0.0
  0
VERTEX
  5
580
  8
0
  6
CONTINUOUS
 62
     7
 10
112.6009801217
 20
179.6502075594
 30
0.0
  0
VERTEX
  5
581
  8
0
  6
CONTINUOUS
 62
     7
 10
112.5862696954
 20
179.6979687612
 30
0.0
  0
SEQEND
  5
98A
  8
0
  6
CONTINUOUS
 62
     7
  0
POLYLINE
  5
73
  8
0
  6
CONTINUOUS
 62
     7
 66
     1
 10
0.0
 20
0.0
 30
0.0
  0
VERTEX
  5
582
  8
0
  6
CONTINUOUS
 62
     7
 10
112.5861981698
 20
178.9307496946
 30
0.0
  0
VERTEX
  5
583
  8
0
  6
CONTINUOUS
 62
     7
 10
112.5861981698
 20
178.9354465406
 30
0.0
  0
VERTEX
  5
584
  8
0
  6
CONTINUOUS
 62
     7
 10
112.5863710233
 20
179.25394396
 30
0.0
  0
VERTEX
  5
585
  8
0
  6
CONTINUOUS
 62
     7
 10
112.5868359395
 20
179.3931863706
 30
0.0
  0
VERTEX
  5
586
  8
0
  6
CONTINUOUS
 62
     7
 10
112.5872233697
 20
179.4165513914
 30
0.0
  0
VERTEX
  5
587
  8
0
  6
CONTINUOUS
 62
     7
 10
112.5871697255
 20
179.3991408747
 30
0.0
  0
SEQEND
  5
989
  8
0
  6
CONTINUOUS
 62
     7
  0
POLYLINE
  5
74
  8
0
  6
CONTINUOUS
 62
     7
 66
     1
 10
0.0
 20
0.0
 30
0.0
  0
VERTEX
  5
588
  8
0
  6
CONTINUOUS
 62
     7
 10
118.6737695523
 20
175.2820752066
 30
0.0
  0
VERTEX
  5
589
  8
0
  6
CONTINUOUS
 62
     7
 10
117.6597216912
 20
175.4692397516
 30
0.0
  0
VERTEX
  5
58A
  8
0
  6
CONTINUOUS
 62
     7
 10
116.6744151899
 20
175.7734201353
 30
0.0
  0
VERTEX
  5
58B
  8
0
  6
CONTINUOUS
 62
     7
 10
115.8055761644
 20
176.1498115461
 30
0.0
  0
VERTEX
  5
58C
  8
0
  6
CONTINUOUS
 62
     7
 10
115.0123039075
 20
176.591380636
 30
0.0
  0
VERTEX
  5
58D
  8
0
  6
CONTINUOUS
 62
     7
 10
114.2548361608
 20
177.1117470663
 30
0.0
  0
VERTEX
  5
58E
  8
0
  6
CONTINUOUS
 62
     7
 10
113.6135438272
 20
177.6413045328
 30
0.0
  0
VERTEX
  5
58F
  8
0
  6
CONTINUOUS
 62
     7
 10
113.0673030206
 20
178.1783125799
 30
0.0
  0
VERTEX
  5
590
  8
0
  6
CONTINUOUS
 62
     7
 10
112.859163601
 20
178.4169338148
 30
0.0
  0
VERTEX
  5
591
  8
0
  6
CONTINUOUS
 62
     7
 10
112.7070465871
 20
178.6229632299
 30
0.0
  0
VERTEX
  5
592
  8
0
  6
CONTINUOUS
 62
     7
 10
112.5861981698
 20
178.9307496946
 30
0.0
  0
SEQEND
  5
988
  8
0
  6
CONTINUOUS
 62
     7
  0
POLYLINE
  5
75
  8
0
  6
CONTINUOUS
 62
     7
 66
     1
 10
0.0
 20
0.0
 30
0.0
  0
VERTEX
  5
593
  8
0
  6
CONTINUOUS
 62
     7
 10
181.6987702438
 20
175.2820752066
 30
0.0
  0
VERTEX
  5
594
  8
0
  6
CONTINUOUS
 62
     7
 10
174.6094414779
 20
174.4811616342
 30
0.0
  0
VERTEX
  5
595
  8
0
  6
CONTINUOUS
 62
     7
 10
167.4923756906
 20
173.8537214201
 30
0.0
  0
VERTEX
  5
596
  8
0
  6
CONTINUOUS
 62
     7
 10
160.3194692918
 20
173.4271548193
 30
0.0
  0
VERTEX
  5
597
  8
0
  6
CONTINUOUS
 62
     7
 10
153.1325438806
 20
173.2199392717
 30
0.0
  0
VERTEX
  5
598
  8
0
  6
CONTINUOUS
 62
     7
 10
148.0695107766
 20
173.210742275
 30
0.0
  0
VERTEX
  5
599
  8
0
  6
CONTINUOUS
 62
     7
 10
143.0079797097
 20
173.3144126337
 30
0.0
  0
VERTEX
  5
59A
  8
0
  6
CONTINUOUS
 62
     7
 10
137.9373172113
 20
173.5303483408
 30
0.0
  0
VERTEX
  5
59B
  8
0
  6
CONTINUOUS
 62
     7
 10
132.8750410863
 20
173.8541028898
 30
0.0
  0
VERTEX
  5
59C
  8
0
  6
CONTINUOUS
 62
     7
 10
125.7641592809
 20
174.4806549948
 30
0.0
  0
VERTEX
  5
59D
  8
0
  6
CONTINUOUS
 62
     7
 10
118.6737695523
 20
175.2820752066
 30
0.0
  0
SEQEND
  5
987
  8
0
  6
CONTINUOUS
 62
     7
  0
POLYLINE
  5
76
  8
0
  6
CONTINUOUS
 62
     7
 66
     1
 10
0.0
 20
0.0
 30
0.0
  0
VERTEX
  5
59E
  8
0
  6
CONTINUOUS
 62
     7
 10
118.8536682912
 20
180.6146464746
 30
0.0
  0
VERTEX
  5
59F
  8
0
  6
CONTINUOUS
 62
     7
 10
117.8471961805
 20
180.832292835
 30
0.0
  0
VERTEX
  5
5A0
  8
0
  6
CONTINUOUS
 62
     7
 10
116.9226029702
 20
181.0221038263
 30
0.0
  0
VERTEX
  5
5A1
  8
0
  6
CONTINUOUS
 62
     7
 10
116.1551097222
 20
181.160076658
 30
0.0
  0
VERTEX
  5
5A2
  8
0
  6
CONTINUOUS
 62
     7
 10
115.5196288415
 20
181.2439999979
 30
0.0
  0
VERTEX
  5
5A3
  8
0
  6
CONTINUOUS
 62
     7
 10
115.2178982087
 20
181.2647543352
 30
0.0
  0
VERTEX
  5
5A4
  8
0
  6
CONTINUOUS
 62
     7
 10
114.9799087831
 20
181.2633297842
 30
0.0
  0
SEQEND
  5
986
  8
0
  6
CONTINUOUS
 62
     7
  0
ARC
  5
77
  8
0
  6
CONTINUOUS
 62
     7
 10
150.070322593
 20
319.8488118427
 30
0.0
 40
142.6906875431338
 50
257.3631130655
 51
260.3830519281
  0
ARC
  5
78
  8
0
  6
CONTINUOUS
 62
     7
 10
149.5845297082
 20
323.4772993415
 30
0.0
 40
146.3883184210317
 50
279.6013542355
 51
282.6002885644
  0
POLYLINE
  5
79
  8
0
  6
CONTINUOUS
 62
     7
 66
     1
 10
0.0
 20
0.0
 30
0.0
  0
VERTEX
  5
5A5
  8
0
  6
CONTINUOUS
 62
     7
 10
185.3926325031
 20
181.2633297842
 30
0.0
  0
VERTEX
  5
5A6
  8
0
  6
CONTINUOUS
 62
     7
 10
184.9735447951
 20
181.2544188898
 30
0.0
  0
VERTEX
  5
5A7
  8
0
  6
CONTINUOUS
 62
     7
 10
184.3639144488
 20
181.1827025812
 30
0.0
  0
VERTEX
  5
5A8
  8
0
  6
CONTINUOUS
 62
     7
 10
183.612669427
 20
181.0534439485
 30
0.0
  0
VERTEX
  5
5A9
  8
0
  6
CONTINUOUS
 62
     7
 10
182.6952943393
 20
180.8682523172
 30
0.0
  0
VERTEX
  5
5AA
  8
0
  6
CONTINUOUS
 62
     7
 10
181.5188715049
 20
180.6146464746
 30
0.0
  0
SEQEND
  5
985
  8
0
  6
CONTINUOUS
 62
     7
  0
POLYLINE
  5
7A
  8
0
  6
CONTINUOUS
 62
     7
 66
     1
 10
0.0
 20
0.0
 30
0.0
  0
VERTEX
  5
5AB
  8
0
  6
CONTINUOUS
 62
     7
 10
185.3926146217
 20
181.2634072702
 30
0.0
  0
VERTEX
  5
5AC
  8
0
  6
CONTINUOUS
 62
     7
 10
186.3096812555
 20
181.2085948389
 30
0.0
  0
VERTEX
  5
5AD
  8
0
  6
CONTINUOUS
 62
     7
 10
186.9108551928
 20
181.1540565889
 30
0.0
  0
VERTEX
  5
5AE
  8
0
  6
CONTINUOUS
 62
     7
 10
187.2683772632
 20
181.0983262461
 30
0.0
  0
VERTEX
  5
5AF
  8
0
  6
CONTINUOUS
 62
     7
 10
187.4831357785
 20
181.0417137544
 30
0.0
  0
VERTEX
  5
5B0
  8
0
  6
CONTINUOUS
 62
     7
 10
187.5648820587
 20
180.9832833212
 30
0.0
  0
VERTEX
  5
5B1
  8
0
  6
CONTINUOUS
 62
     7
 10
187.5617170521
 20
180.9257290762
 30
0.0
  0
VERTEX
  5
5B2
  8
0
  6
CONTINUOUS
 62
     7
 10
187.5346163102
 20
180.8728776377
 30
0.0
  0
VERTEX
  5
5B3
  8
0
  6
CONTINUOUS
 62
     7
 10
187.5324586221
 20
180.8260164659
 30
0.0
  0
VERTEX
  5
5B4
  8
0
  6
CONTINUOUS
 62
     7
 10
187.5793957897
 20
180.7177207868
 30
0.0
  0
VERTEX
  5
5B5
  8
0
  6
CONTINUOUS
 62
     7
 10
187.5886300393
 20
180.6761644285
 30
0.0
  0
SEQEND
  5
984
  8
0
  6
CONTINUOUS
 62
     7
  0
ARC
  5
7B
  8
0
  6
CONTINUOUS
 62
     7
 10
182.7422441302
 20
179.8473153263
 30
0.0
 40
4.945514220563738
 50
3.5861812415
 51
8.4290288726
  0
POLYLINE
  5
7C
  8
0
  6
CONTINUOUS
 62
     7
 66
     1
 10
0.0
 20
0.0
 30
0.0
  0
VERTEX
  5
5B6
  8
0
  6
CONTINUOUS
 62
     7
 10
181.5894344636
 20
176.7788253229
 30
0.0
  0
VERTEX
  5
5B7
  8
0
  6
CONTINUOUS
 62
     7
 10
182.6131293365
 20
176.957752506
 30
0.0
  0
VERTEX
  5
5B8
  8
0
  6
CONTINUOUS
 62
     7
 10
183.6091080495
 20
177.2485337656
 30
0.0
  0
VERTEX
  5
5B9
  8
0
  6
CONTINUOUS
 62
     7
 10
184.4893613645
 20
177.6074788969
 30
0.0
  0
VERTEX
  5
5BA
  8
0
  6
CONTINUOUS
 62
     7
 10
185.2939912864
 20
178.0262849729
 30
0.0
  0
VERTEX
  5
5BB
  8
0
  6
CONTINUOUS
 62
     7
 10
186.0537105986
 20
178.5099885862
 30
0.0
  0
VERTEX
  5
5BC
  8
0
  6
CONTINUOUS
 62
     7
 10
186.6951146909
 20
178.9965651434
 30
0.0
  0
VERTEX
  5
5BD
  8
0
  6
CONTINUOUS
 62
     7
 10
187.2228333541
 20
179.4698617857
 30
0.0
  0
VERTEX
  5
5BE
  8
0
  6
CONTINUOUS
 62
     7
 10
187.566066701
 20
179.8629901808
 30
0.0
  0
VERTEX
  5
5BF
  8
0
  6
CONTINUOUS
 62
     7
 10
187.6541474649
 20
180.0236545008
 30
0.0
  0
VERTEX
  5
5C0
  8
0
  6
CONTINUOUS
 62
     7
 10
187.6780742594
 20
180.1566503446
 30
0.0
  0
SEQEND
  5
983
  8
0
  6
CONTINUOUS
 62
     7
  0
POLYLINE
  5
7D
  8
0
  6
CONTINUOUS
 62
     7
 66
     1
 10
0.0
 20
0.0
 30
0.0
  0
VERTEX
  5
5C1
  8
0
  6
CONTINUOUS
 62
     7
 10
181.5894344636
 20
176.7788253229
 30
0.0
  0
VERTEX
  5
5C2
  8
0
  6
CONTINUOUS
 62
     7
 10
176.2386092731
 20
176.1922321718
 30
0.0
  0
VERTEX
  5
5C3
  8
0
  6
CONTINUOUS
 62
     7
 10
170.8724507877
 20
175.6942294042
 30
0.0
  0
VERTEX
  5
5C4
  8
0
  6
CONTINUOUS
 62
     7
 10
165.4801973888
 20
175.2970776956
 30
0.0
  0
VERTEX
  5
5C5
  8
0
  6
CONTINUOUS
 62
     7
 10
160.0771048852
 20
175.012095968
 30
0.0
  0
VERTEX
  5
5C6
  8
0
  6
CONTINUOUS
 62
     7
 10
154.1756132432
 20
174.838431875
 30
0.0
  0
VERTEX
  5
5C7
  8
0
  6
CONTINUOUS
 62
     7
 10
148.2704678365
 20
174.812098543
 30
0.0
  0
VERTEX
  5
5C8
  8
0
  6
CONTINUOUS
 62
     7
 10
142.3453012296
 20
174.9353728693
 30
0.0
  0
VERTEX
  5
5C9
  8
0
  6
CONTINUOUS
 62
     7
 10
136.4272573777
 20
175.2041421335
 30
0.0
  0
VERTEX
  5
5CA
  8
0
  6
CONTINUOUS
 62
     7
 10
132.0059696027
 20
175.4961572092
 30
0.0
  0
VERTEX
  5
5CB
  8
0
  6
CONTINUOUS
 62
     7
 10
127.5930264779
 20
175.8600554865
 30
0.0
  0
VERTEX
  5
5CC
  8
0
  6
CONTINUOUS
 62
     7
 10
123.1827834436
 20
176.290275852
 30
0.0
  0
VERTEX
  5
5CD
  8
0
  6
CONTINUOUS
 62
     7
 10
118.7831083127
 20
176.7788253229
 30
0.0
  0
SEQEND
  5
982
  8
0
  6
CONTINUOUS
 62
     7
  0
POLYLINE
  5
7E
  8
0
  6
CONTINUOUS
 62
     7
 66
     1
 10
0.0
 20
0.0
 30
0.0
  0
VERTEX
  5
5CE
  8
0
  6
CONTINUOUS
 62
     7
 10
112.6944700071
 20
180.1566503446
 30
0.0
  0
VERTEX
  5
5CF
  8
0
  6
CONTINUOUS
 62
     7
 10
112.76880892
 20
179.9219928186
 30
0.0
  0
VERTEX
  5
5D0
  8
0
  6
CONTINUOUS
 62
     7
 10
113.0260506459
 20
179.5965872209
 30
0.0
  0
VERTEX
  5
5D1
  8
0
  6
CONTINUOUS
 62
     7
 10
113.4358027764
 20
179.2029581468
 30
0.0
  0
VERTEX
  5
5D2
  8
0
  6
CONTINUOUS
 62
     7
 10
114.0035668203
 20
178.7391386431
 30
0.0
  0
VERTEX
  5
5D3
  8
0
  6
CONTINUOUS
 62
     7
 10
114.7362926789
 20
178.2328985136
 30
0.0
  0
VERTEX
  5
5D4
  8
0
  6
CONTINUOUS
 62
     7
 10
115.6324842759
 20
177.7282975118
 30
0.0
  0
VERTEX
  5
5D5
  8
0
  6
CONTINUOUS
 62
     7
 10
116.5126005002
 20
177.340754072
 30
0.0
  0
VERTEX
  5
5D6
  8
0
  6
CONTINUOUS
 62
     7
 10
117.51033457
 20
177.0194313925
 30
0.0
  0
VERTEX
  5
5D7
  8
0
  6
CONTINUOUS
 62
     7
 10
118.1331435033
 20
176.8786631029
 30
0.0
  0
VERTEX
  5
5D8
  8
0
  6
CONTINUOUS
 62
     7
 10
118.7831083127
 20
176.7788253229
 30
0.0
  0
SEQEND
  5
981
  8
0
  6
CONTINUOUS
 62
     7
  0
POLYLINE
  5
7F
  8
0
  6
CONTINUOUS
 62
     7
 66
     1
 10
0.0
 20
0.0
 30
0.0
  0
VERTEX
  5
5D9
  8
0
  6
CONTINUOUS
 62
     7
 10
112.6944700071
 20
180.1566563051
 30
0.0
  0
VERTEX
  5
5DA
  8
0
  6
CONTINUOUS
 62
     7
 10
112.7227881738
 20
180.4529927175
 30
0.0
  0
VERTEX
  5
5DB
  8
0
  6
CONTINUOUS
 62
     7
 10
112.738613207
 20
180.577667753
 30
0.0
  0
SEQEND
  5
980
  8
0
  6
CONTINUOUS
 62
     7
  0
POLYLINE
  5
80
  8
0
  6
CONTINUOUS
 62
     7
 66
     1
 10
0.0
 20
0.0
 30
0.0
  0
VERTEX
  5
5DC
  8
0
  6
CONTINUOUS
 62
     7
 10
112.7839842626
 20
180.675657789
 30
0.0
  0
VERTEX
  5
5DD
  8
0
  6
CONTINUOUS
 62
     7
 10
112.7940932103
 20
180.720301668
 30
0.0
  0
VERTEX
  5
5DE
  8
0
  6
CONTINUOUS
 62
     7
 10
112.8400841542
 20
180.8260164659
 30
0.0
  0
VERTEX
  5
5DF
  8
0
  6
CONTINUOUS
 62
     7
 10
112.8379264661
 20
180.8728776377
 30
0.0
  0
VERTEX
  5
5E0
  8
0
  6
CONTINUOUS
 62
     7
 10
112.8108242341
 20
180.9257290762
 30
0.0
  0
VERTEX
  5
5E1
  8
0
  6
CONTINUOUS
 62
     7
 10
112.8076592275
 20
180.9832833212
 30
0.0
  0
VERTEX
  5
5E2
  8
0
  6
CONTINUOUS
 62
     7
 10
112.8894069978
 20
181.0417137544
 30
0.0
  0
VERTEX
  5
5E3
  8
0
  6
CONTINUOUS
 62
     7
 10
113.1041625329
 20
181.0983262461
 30
0.0
  0
VERTEX
  5
5E4
  8
0
  6
CONTINUOUS
 62
     7
 10
113.4616890737
 20
181.1540565889
 30
0.0
  0
VERTEX
  5
5E5
  8
0
  6
CONTINUOUS
 62
     7
 10
114.0628615209
 20
181.2085948389
 30
0.0
  0
VERTEX
  5
5E6
  8
0
  6
CONTINUOUS
 62
     7
 10
114.9799266645
 20
181.2634072702
 30
0.0
  0
SEQEND
  5
97F
  8
0
  6
CONTINUOUS
 62
     7
  0
LINE
  5
81
  8
0
  6
CONTINUOUS
 62
     7
 10
187.7862701007
 20
179.6984575193
 30
0.0
 11
187.7862701007
 21
180.0041578214
 31
0.0
  0
LINE
  5
82
  8
0
  6
CONTINUOUS
 62
     7
 10
112.5862696954
 20
179.5234105985
 30
0.0
 11
112.5862696954
 21
179.3489478033
 31
0.0
  0
LINE
  5
83
  8
0
  6
CONTINUOUS
 62
     7
 10
112.5862696954
 20
179.9939654272
 30
0.0
 11
112.5862696954
 21
179.6984575193
 31
0.0
  0
POLYLINE
  5
84
  8
0
  6
CONTINUOUS
 62
     7
 66
     1
 10
0.0
 20
0.0
 30
0.0
  0
VERTEX
  5
5E7
  8
0
  6
CONTINUOUS
 62
     7
 10
67.7863398381
 20
178.9305708807
 30
0.0
  0
VERTEX
  5
5E8
  8
0
  6
CONTINUOUS
 62
     7
 10
67.6984706708
 20
178.6764822405
 30
0.0
  0
VERTEX
  5
5E9
  8
0
  6
CONTINUOUS
 62
     7
 10
67.433158476
 20
178.3214710157
 30
0.0
  0
VERTEX
  5
5EA
  8
0
  6
CONTINUOUS
 62
     7
 10
67.0241514035
 20
177.8897247713
 30
0.0
  0
VERTEX
  5
5EB
  8
0
  6
CONTINUOUS
 62
     7
 10
66.4657393285
 20
177.3877880972
 30
0.0
  0
VERTEX
  5
5EC
  8
0
  6
CONTINUOUS
 62
     7
 10
65.7297769376
 20
176.8323085707
 30
0.0
  0
VERTEX
  5
5ED
  8
0
  6
CONTINUOUS
 62
     7
 10
64.8276964017
 20
176.2841067713
 30
0.0
  0
VERTEX
  5
5EE
  8
0
  6
CONTINUOUS
 62
     7
 10
63.961319048
 20
175.8762798708
 30
0.0
  0
VERTEX
  5
5EF
  8
0
  6
CONTINUOUS
 62
     7
 10
62.9776516744
 20
175.5387983721
 30
0.0
  0
VERTEX
  5
5F0
  8
0
  6
CONTINUOUS
 62
     7
 10
62.3525777646
 20
175.3885291021
 30
0.0
  0
VERTEX
  5
5F1
  8
0
  6
CONTINUOUS
 62
     7
 10
61.6987744161
 20
175.2820752066
 30
0.0
  0
SEQEND
  5
97E
  8
0
  6
CONTINUOUS
 62
     7
  0
POLYLINE
  5
85
  8
0
  6
CONTINUOUS
 62
     7
 66
     1
 10
0.0
 20
0.0
 30
0.0
  0
VERTEX
  5
5F2
  8
0
  6
CONTINUOUS
 62
     7
 10
67.7863398381
 20
178.9305708807
 30
0.0
  0
VERTEX
  5
5F3
  8
0
  6
CONTINUOUS
 62
     7
 10
67.7863398381
 20
178.9853594702
 30
0.0
  0
VERTEX
  5
5F4
  8
0
  6
CONTINUOUS
 62
     7
 10
67.7861252614
 20
179.2780540388
 30
0.0
  0
VERTEX
  5
5F5
  8
0
  6
CONTINUOUS
 62
     7
 10
67.7856484243
 20
179.400762121
 30
0.0
  0
VERTEX
  5
5F6
  8
0
  6
CONTINUOUS
 62
     7
 10
67.7853027173
 20
179.4143937033
 30
0.0
  0
VERTEX
  5
5F7
  8
0
  6
CONTINUOUS
 62
     7
 10
67.7855411359
 20
179.4015369814
 30
0.0
  0
SEQEND
  5
97D
  8
0
  6
CONTINUOUS
 62
     7
  0
POLYLINE
  5
86
  8
0
  6
CONTINUOUS
 62
     7
 66
     1
 10
0.0
 20
0.0
 30
0.0
  0
VERTEX
  5
5F8
  8
0
  6
CONTINUOUS
 62
     7
 10
67.7862683126
 20
179.6979687612
 30
0.0
  0
VERTEX
  5
5F9
  8
0
  6
CONTINUOUS
 62
     7
 10
67.7715578862
 20
179.6502075594
 30
0.0
  0
VERTEX
  5
5FA
  8
0
  6
CONTINUOUS
 62
     7
 10
67.7862683126
 20
179.5234105985
 30
0.0
  0
SEQEND
  5
97C
  8
0
  6
CONTINUOUS
 62
     7
  0
POLYLINE
  5
87
  8
0
  6
CONTINUOUS
 62
     7
 66
     1
 10
0.0
 20
0.0
 30
0.0
  0
VERTEX
  5
5FB
  8
0
  6
CONTINUOUS
 62
     7
 10
-7.4137410334
 20
179.5234105985
 30
0.0
  0
VERTEX
  5
5FC
  8
0
  6
CONTINUOUS
 62
     7
 10
-7.3990306071
 20
179.6502075594
 30
0.0
  0
VERTEX
  5
5FD
  8
0
  6
CONTINUOUS
 62
     7
 10
-7.4137171916
 20
179.6979687612
 30
0.0
  0
SEQEND
  5
97B
  8
0
  6
CONTINUOUS
 62
     7
  0
POLYLINE
  5
88
  8
0
  6
CONTINUOUS
 62
     7
 66
     1
 10
0.0
 20
0.0
 30
0.0
  0
VERTEX
  5
5FE
  8
0
  6
CONTINUOUS
 62
     7
 10
-7.4137887172
 20
178.9307496946
 30
0.0
  0
VERTEX
  5
5FF
  8
0
  6
CONTINUOUS
 62
     7
 10
-7.4137887172
 20
178.9354465406
 30
0.0
  0
VERTEX
  5
600
  8
0
  6
CONTINUOUS
 62
     7
 10
-7.4136218242
 20
179.25394396
 30
0.0
  0
VERTEX
  5
601
  8
0
  6
CONTINUOUS
 62
     7
 10
-7.4131688289
 20
179.3931863706
 30
0.0
  0
VERTEX
  5
602
  8
0
  6
CONTINUOUS
 62
     7
 10
-7.4127873591
 20
179.4165513914
 30
0.0
  0
VERTEX
  5
603
  8
0
  6
CONTINUOUS
 62
     7
 10
-7.4128350428
 20
179.3991408747
 30
0.0
  0
SEQEND
  5
97A
  8
0
  6
CONTINUOUS
 62
     7
  0
POLYLINE
  5
89
  8
0
  6
CONTINUOUS
 62
     7
 66
     1
 10
0.0
 20
0.0
 30
0.0
  0
VERTEX
  5
604
  8
0
  6
CONTINUOUS
 62
     7
 10
-1.3262232951
 20
175.2820752066
 30
0.0
  0
VERTEX
  5
605
  8
0
  6
CONTINUOUS
 62
     7
 10
-2.3402890376
 20
175.4692397516
 30
0.0
  0
VERTEX
  5
606
  8
0
  6
CONTINUOUS
 62
     7
 10
-3.3255776576
 20
175.7734201353
 30
0.0
  0
VERTEX
  5
607
  8
0
  6
CONTINUOUS
 62
     7
 10
-4.1944226436
 20
176.1498115461
 30
0.0
  0
VERTEX
  5
608
  8
0
  6
CONTINUOUS
 62
     7
 10
-4.9876889399
 20
176.591380636
 30
0.0
  0
VERTEX
  5
609
  8
0
  6
CONTINUOUS
 62
     7
 10
-5.7451686076
 20
177.1117470663
 30
0.0
  0
VERTEX
  5
60A
  8
0
  6
CONTINUOUS
 62
     7
 10
-6.3864669017
 20
177.6413045328
 30
0.0
  0
VERTEX
  5
60B
  8
0
  6
CONTINUOUS
 62
     7
 10
-6.9326838664
 20
178.1783125799
 30
0.0
  0
VERTEX
  5
60C
  8
0
  6
CONTINUOUS
 62
     7
 10
-7.1408471278
 20
178.4169338148
 30
0.0
  0
VERTEX
  5
60D
  8
0
  6
CONTINUOUS
 62
     7
 10
-7.2929581813
 20
178.6229632299
 30
0.0
  0
VERTEX
  5
60E
  8
0
  6
CONTINUOUS
 62
     7
 10
-7.4137887172
 20
178.9307496946
 30
0.0
  0
SEQEND
  5
979
  8
0
  6
CONTINUOUS
 62
     7
  0
POLYLINE
  5
8A
  8
0
  6
CONTINUOUS
 62
     7
 66
     1
 10
0.0
 20
0.0
 30
0.0
  0
VERTEX
  5
60F
  8
0
  6
CONTINUOUS
 62
     7
 10
61.6987744161
 20
175.2820752066
 30
0.0
  0
VERTEX
  5
610
  8
0
  6
CONTINUOUS
 62
     7
 10
54.6094456502
 20
174.4811616342
 30
0.0
  0
VERTEX
  5
611
  8
0
  6
CONTINUOUS
 62
     7
 10
47.4923768827
 20
173.8537214201
 30
0.0
  0
VERTEX
  5
612
  8
0
  6
CONTINUOUS
 62
     7
 10
40.3194704839
 20
173.4271548193
 30
0.0
  0
VERTEX
  5
613
  8
0
  6
CONTINUOUS
 62
     7
 10
33.1325450727
 20
173.2199392717
 30
0.0
  0
VERTEX
  5
614
  8
0
  6
CONTINUOUS
 62
     7
 10
28.0695119687
 20
173.210742275
 30
0.0
  0
VERTEX
  5
615
  8
0
  6
CONTINUOUS
 62
     7
 10
23.0079809018
 20
173.3144126337
 30
0.0
  0
VERTEX
  5
616
  8
0
  6
CONTINUOUS
 62
     7
 10
17.9373184034
 20
173.5303483408
 30
0.0
  0
VERTEX
  5
617
  8
0
  6
CONTINUOUS
 62
     7
 10
12.8750363179
 20
173.8541028898
 30
0.0
  0
VERTEX
  5
618
  8
0
  6
CONTINUOUS
 62
     7
 10
5.7641545125
 20
174.4806549948
 30
0.0
  0
VERTEX
  5
619
  8
0
  6
CONTINUOUS
 62
     7
 10
-1.3262232951
 20
175.2820752066
 30
0.0
  0
SEQEND
  5
978
  8
0
  6
CONTINUOUS
 62
     7
  0
POLYLINE
  5
8B
  8
0
  6
CONTINUOUS
 62
     7
 66
     1
 10
0.0
 20
0.0
 30
0.0
  0
VERTEX
  5
61A
  8
0
  6
CONTINUOUS
 62
     7
 10
-1.1463364772
 20
180.6146464746
 30
0.0
  0
VERTEX
  5
61B
  8
0
  6
CONTINUOUS
 62
     7
 10
-2.152796667
 20
180.832292835
 30
0.0
  0
VERTEX
  5
61C
  8
0
  6
CONTINUOUS
 62
     7
 10
-3.0774077586
 20
181.0221038263
 30
0.0
  0
VERTEX
  5
61D
  8
0
  6
CONTINUOUS
 62
     7
 10
-3.8448771647
 20
181.160076658
 30
0.0
  0
VERTEX
  5
61E
  8
0
  6
CONTINUOUS
 62
     7
 10
-4.4803818873
 20
181.2439999979
 30
0.0
  0
VERTEX
  5
61F
  8
0
  6
CONTINUOUS
 62
     7
 10
-4.7821005992
 20
181.2647543352
 30
0.0
  0
VERTEX
  5
620
  8
0
  6
CONTINUOUS
 62
     7
 10
-5.0200900248
 20
181.2633297842
 30
0.0
  0
SEQEND
  5
977
  8
0
  6
CONTINUOUS
 62
     7
  0
ARC
  5
8C
  8
0
  6
CONTINUOUS
 62
     7
 10
30.0706507844
 20
319.8506026498
 30
0.0
 40
142.692507812065
 50
257.3631399214
 51
260.3830426002
  0
ARC
  5
8D
  8
0
  6
CONTINUOUS
 62
     7
 10
29.5843407761
 20
323.4782835282
 30
0.0
 40
146.3893210296155
 50
279.6013645076
 51
282.6002782923
  0
POLYLINE
  5
8E
  8
0
  6
CONTINUOUS
 62
     7
 66
     1
 10
0.0
 20
0.0
 30
0.0
  0
VERTEX
  5
621
  8
0
  6
CONTINUOUS
 62
     7
 10
65.3926292249
 20
181.2633297842
 30
0.0
  0
VERTEX
  5
622
  8
0
  6
CONTINUOUS
 62
     7
 10
64.9735489675
 20
181.2544188898
 30
0.0
  0
VERTEX
  5
623
  8
0
  6
CONTINUOUS
 62
     7
 10
64.3639126607
 20
181.1827025812
 30
0.0
  0
VERTEX
  5
624
  8
0
  6
CONTINUOUS
 62
     7
 10
63.6126676389
 20
181.0534439485
 30
0.0
  0
VERTEX
  5
625
  8
0
  6
CONTINUOUS
 62
     7
 10
62.6952925512
 20
180.8682523172
 30
0.0
  0
VERTEX
  5
626
  8
0
  6
CONTINUOUS
 62
     7
 10
61.5188756772
 20
180.6146464746
 30
0.0
  0
SEQEND
  5
976
  8
0
  6
CONTINUOUS
 62
     7
  0
POLYLINE
  5
8F
  8
0
  6
CONTINUOUS
 62
     7
 66
     1
 10
0.0
 20
0.0
 30
0.0
  0
VERTEX
  5
627
  8
0
  6
CONTINUOUS
 62
     7
 10
65.392617304
 20
181.2634072702
 30
0.0
  0
VERTEX
  5
628
  8
0
  6
CONTINUOUS
 62
     7
 10
66.3096824475
 20
181.2085948389
 30
0.0
  0
VERTEX
  5
629
  8
0
  6
CONTINUOUS
 62
     7
 10
66.9108548947
 20
181.1540565889
 30
0.0
  0
VERTEX
  5
62A
  8
0
  6
CONTINUOUS
 62
     7
 10
67.268375475
 20
181.0983262461
 30
0.0
  0
VERTEX
  5
62B
  8
0
  6
CONTINUOUS
 62
     7
 10
67.4831310102
 20
181.0417137544
 30
0.0
  0
VERTEX
  5
62C
  8
0
  6
CONTINUOUS
 62
     7
 10
67.5648847409
 20
180.9832833212
 30
0.0
  0
VERTEX
  5
62D
  8
0
  6
CONTINUOUS
 62
     7
 10
67.5617137738
 20
180.9257290762
 30
0.0
  0
VERTEX
  5
62E
  8
0
  6
CONTINUOUS
 62
     7
 10
67.5346175023
 20
180.8728776377
 30
0.0
  0
VERTEX
  5
62F
  8
0
  6
CONTINUOUS
 62
     7
 10
67.5324598142
 20
180.8260164659
 30
0.0
  0
VERTEX
  5
630
  8
0
  6
CONTINUOUS
 62
     7
 10
67.5793925115
 20
180.7177207868
 30
0.0
  0
VERTEX
  5
631
  8
0
  6
CONTINUOUS
 62
     7
 10
67.5886312314
 20
180.6761644285
 30
0.0
  0
SEQEND
  5
975
  8
0
  6
CONTINUOUS
 62
     7
  0
ARC
  5
90
  8
0
  6
CONTINUOUS
 62
     7
 10
62.7422338768
 20
179.847296738
 30
0.0
 40
4.94552531909199
 50
3.5863889591
 51
8.429227524
  0
POLYLINE
  5
91
  8
0
  6
CONTINUOUS
 62
     7
 66
     1
 10
0.0
 20
0.0
 30
0.0
  0
VERTEX
  5
632
  8
0
  6
CONTINUOUS
 62
     7
 10
61.5894356557
 20
176.7788253229
 30
0.0
  0
VERTEX
  5
633
  8
0
  6
CONTINUOUS
 62
     7
 10
62.6131335088
 20
176.957752506
 30
0.0
  0
VERTEX
  5
634
  8
0
  6
CONTINUOUS
 62
     7
 10
63.6091032811
 20
177.2485337656
 30
0.0
  0
VERTEX
  5
635
  8
0
  6
CONTINUOUS
 62
     7
 10
64.4893565961
 20
177.6074788969
 30
0.0
  0
VERTEX
  5
636
  8
0
  6
CONTINUOUS
 62
     7
 10
65.2939954587
 20
178.0262849729
 30
0.0
  0
VERTEX
  5
637
  8
0
  6
CONTINUOUS
 62
     7
 10
66.053716261
 20
178.5099885862
 30
0.0
  0
VERTEX
  5
638
  8
0
  6
CONTINUOUS
 62
     7
 10
66.6951099225
 20
178.9965651434
 30
0.0
  0
VERTEX
  5
639
  8
0
  6
CONTINUOUS
 62
     7
 10
67.2228375264
 20
179.4698617857
 30
0.0
  0
VERTEX
  5
63A
  8
0
  6
CONTINUOUS
 62
     7
 10
67.5660649129
 20
179.8629901808
 30
0.0
  0
VERTEX
  5
63B
  8
0
  6
CONTINUOUS
 62
     7
 10
67.654148657
 20
180.0236545008
 30
0.0
  0
VERTEX
  5
63C
  8
0
  6
CONTINUOUS
 62
     7
 10
67.6780739614
 20
180.1566503446
 30
0.0
  0
SEQEND
  5
974
  8
0
  6
CONTINUOUS
 62
     7
  0
POLYLINE
  5
92
  8
0
  6
CONTINUOUS
 62
     7
 66
     1
 10
0.0
 20
0.0
 30
0.0
  0
VERTEX
  5
63D
  8
0
  6
CONTINUOUS
 62
     7
 10
61.5894356557
 20
176.7788253229
 30
0.0
  0
VERTEX
  5
63E
  8
0
  6
CONTINUOUS
 62
     7
 10
56.2386074849
 20
176.1922321718
 30
0.0
  0
VERTEX
  5
63F
  8
0
  6
CONTINUOUS
 62
     7
 10
50.8724489995
 20
175.6942294042
 30
0.0
  0
VERTEX
  5
640
  8
0
  6
CONTINUOUS
 62
     7
 10
45.4801956006
 20
175.2970776956
 30
0.0
  0
VERTEX
  5
641
  8
0
  6
CONTINUOUS
 62
     7
 10
40.0771060773
 20
175.012095968
 30
0.0
  0
VERTEX
  5
642
  8
0
  6
CONTINUOUS
 62
     7
 10
34.1756144353
 20
174.838431875
 30
0.0
  0
VERTEX
  5
643
  8
0
  6
CONTINUOUS
 62
     7
 10
28.2704630681
 20
174.812098543
 30
0.0
  0
VERTEX
  5
644
  8
0
  6
CONTINUOUS
 62
     7
 10
22.3452964612
 20
174.9353728693
 30
0.0
  0
VERTEX
  5
645
  8
0
  6
CONTINUOUS
 62
     7
 10
16.4272585698
 20
175.2041421335
 30
0.0
  0
VERTEX
  5
646
  8
0
  6
CONTINUOUS
 62
     7
 10
12.0059648343
 20
175.4961572092
 30
0.0
  0
VERTEX
  5
647
  8
0
  6
CONTINUOUS
 62
     7
 10
7.5930157491
 20
175.8600554865
 30
0.0
  0
VERTEX
  5
648
  8
0
  6
CONTINUOUS
 62
     7
 10
3.1827965566
 20
176.290275852
 30
0.0
  0
VERTEX
  5
649
  8
0
  6
CONTINUOUS
 62
     7
 10
-1.2168845347
 20
176.7788253229
 30
0.0
  0
SEQEND
  5
973
  8
0
  6
CONTINUOUS
 62
     7
  0
POLYLINE
  5
93
  8
0
  6
CONTINUOUS
 62
     7
 66
     1
 10
0.0
 20
0.0
 30
0.0
  0
VERTEX
  5
64A
  8
0
  6
CONTINUOUS
 62
     7
 10
-7.3055228404
 20
180.1566503446
 30
0.0
  0
VERTEX
  5
64B
  8
0
  6
CONTINUOUS
 62
     7
 10
-7.2311839274
 20
179.9219928186
 30
0.0
  0
VERTEX
  5
64C
  8
0
  6
CONTINUOUS
 62
     7
 10
-6.9739541224
 20
179.5965872209
 30
0.0
  0
VERTEX
  5
64D
  8
0
  6
CONTINUOUS
 62
     7
 10
-6.5641841105
 20
179.2029581468
 30
0.0
  0
VERTEX
  5
64E
  8
0
  6
CONTINUOUS
 62
     7
 10
-5.9964379481
 20
178.7391386431
 30
0.0
  0
VERTEX
  5
64F
  8
0
  6
CONTINUOUS
 62
     7
 10
-5.263706129
 20
178.2328985136
 30
0.0
  0
VERTEX
  5
650
  8
0
  6
CONTINUOUS
 62
     7
 10
-4.367514532
 20
177.7282975118
 30
0.0
  0
VERTEX
  5
651
  8
0
  6
CONTINUOUS
 62
     7
 10
-3.4873923472
 20
177.340754072
 30
0.0
  0
VERTEX
  5
652
  8
0
  6
CONTINUOUS
 62
     7
 10
-2.4896582774
 20
177.0194313925
 30
0.0
  0
VERTEX
  5
653
  8
0
  6
CONTINUOUS
 62
     7
 10
-1.8668612651
 20
176.8786631029
 30
0.0
  0
VERTEX
  5
654
  8
0
  6
CONTINUOUS
 62
     7
 10
-1.2168845347
 20
176.7788253229
 30
0.0
  0
SEQEND
  5
972
  8
0
  6
CONTINUOUS
 62
     7
  0
POLYLINE
  5
94
  8
0
  6
CONTINUOUS
 62
     7
 66
     1
 10
0.0
 20
0.0
 30
0.0
  0
VERTEX
  5
655
  8
0
  6
CONTINUOUS
 62
     7
 10
-7.3055228404
 20
180.1566563051
 30
0.0
  0
VERTEX
  5
656
  8
0
  6
CONTINUOUS
 62
     7
 10
-7.277222555
 20
180.4529927175
 30
0.0
  0
VERTEX
  5
657
  8
0
  6
CONTINUOUS
 62
     7
 10
-7.2613915614
 20
180.577667753
 30
0.0
  0
SEQEND
  5
971
  8
0
  6
CONTINUOUS
 62
     7
  0
POLYLINE
  5
95
  8
0
  6
CONTINUOUS
 62
     7
 66
     1
 10
0.0
 20
0.0
 30
0.0
  0
VERTEX
  5
658
  8
0
  6
CONTINUOUS
 62
     7
 10
-7.2160205058
 20
180.675657789
 30
0.0
  0
VERTEX
  5
659
  8
0
  6
CONTINUOUS
 62
     7
 10
-7.205911558
 20
180.720301668
 30
0.0
  0
VERTEX
  5
65A
  8
0
  6
CONTINUOUS
 62
     7
 10
-7.1599206141
 20
180.8260164659
 30
0.0
  0
VERTEX
  5
65B
  8
0
  6
CONTINUOUS
 62
     7
 10
-7.1620663813
 20
180.8728776377
 30
0.0
  0
VERTEX
  5
65C
  8
0
  6
CONTINUOUS
 62
     7
 10
-7.1891745738
 20
180.9257290762
 30
0.0
  0
VERTEX
  5
65D
  8
0
  6
CONTINUOUS
 62
     7
 10
-7.1923455409
 20
180.9832833212
 30
0.0
  0
VERTEX
  5
65E
  8
0
  6
CONTINUOUS
 62
     7
 10
-7.1105918101
 20
181.0417137544
 30
0.0
  0
VERTEX
  5
65F
  8
0
  6
CONTINUOUS
 62
     7
 10
-6.8958481959
 20
181.0983262461
 30
0.0
  0
VERTEX
  5
660
  8
0
  6
CONTINUOUS
 62
     7
 10
-6.5383156947
 20
181.1540565889
 30
0.0
  0
VERTEX
  5
661
  8
0
  6
CONTINUOUS
 62
     7
 10
-5.9371432475
 20
181.2085948389
 30
0.0
  0
VERTEX
  5
662
  8
0
  6
CONTINUOUS
 62
     7
 10
-5.020066183
 20
181.2634072702
 30
0.0
  0
SEQEND
  5
970
  8
0
  6
CONTINUOUS
 62
     7
  0
LINE
  5
96
  8
0
  6
CONTINUOUS
 62
     7
 10
67.7862683126
 20
179.6984575193
 30
0.0
 11
67.7862683126
 21
180.0041578214
 31
0.0
  0
LINE
  5
97
  8
0
  6
CONTINUOUS
 62
     7
 10
-7.4137410334
 20
179.5234105985
 30
0.0
 11
-7.4137410334
 21
179.3489478033
 31
0.0
  0
LINE
  5
98
  8
0
  6
CONTINUOUS
 62
     7
 10
-7.4137410334
 20
179.9939654272
 30
0.0
 11
-7.4137410334
 21
179.6984575193
 31
0.0
  0
POLYLINE
  5
99
  8
0
  6
CONTINUOUS
 62
     7
 66
     1
 10
0.0
 20
0.0
 30
0.0
  0
VERTEX
  5
663
  8
0
  6
CONTINUOUS
 62
     7
 10
427.7863303014
 20
178.9305708807
 30
0.0
  0
VERTEX
  5
664
  8
0
  6
CONTINUOUS
 62
     7
 10
427.698473055
 20
178.6764822405
 30
0.0
  0
VERTEX
  5
665
  8
0
  6
CONTINUOUS
 62
     7
 10
427.4331608602
 20
178.3214710157
 30
0.0
  0
VERTEX
  5
666
  8
0
  6
CONTINUOUS
 62
     7
 10
427.0241537877
 20
177.8897247713
 30
0.0
  0
VERTEX
  5
667
  8
0
  6
CONTINUOUS
 62
     7
 10
426.4657297918
 20
177.3877880972
 30
0.0
  0
VERTEX
  5
668
  8
0
  6
CONTINUOUS
 62
     7
 10
425.7297793218
 20
176.8323085707
 30
0.0
  0
VERTEX
  5
669
  8
0
  6
CONTINUOUS
 62
     7
 10
424.8276987859
 20
176.2841067713
 30
0.0
  0
VERTEX
  5
66A
  8
0
  6
CONTINUOUS
 62
     7
 10
423.9613095113
 20
175.8762798708
 30
0.0
  0
VERTEX
  5
66B
  8
0
  6
CONTINUOUS
 62
     7
 10
422.9776421376
 20
175.5387983721
 30
0.0
  0
VERTEX
  5
66C
  8
0
  6
CONTINUOUS
 62
     7
 10
422.3525801488
 20
175.3885291021
 30
0.0
  0
VERTEX
  5
66D
  8
0
  6
CONTINUOUS
 62
     7
 10
421.6987648793
 20
175.2820752066
 30
0.0
  0
SEQEND
  5
96F
  8
0
  6
CONTINUOUS
 62
     7
  0
POLYLINE
  5
9A
  8
0
  6
CONTINUOUS
 62
     7
 66
     1
 10
0.0
 20
0.0
 30
0.0
  0
VERTEX
  5
66E
  8
0
  6
CONTINUOUS
 62
     7
 10
427.7863303014
 20
178.9305708807
 30
0.0
  0
VERTEX
  5
66F
  8
0
  6
CONTINUOUS
 62
     7
 10
427.7863303014
 20
178.9853594702
 30
0.0
  0
VERTEX
  5
670
  8
0
  6
CONTINUOUS
 62
     7
 10
427.7861157247
 20
179.2780540388
 30
0.0
  0
VERTEX
  5
671
  8
0
  6
CONTINUOUS
 62
     7
 10
427.7856388875
 20
179.400762121
 30
0.0
  0
VERTEX
  5
672
  8
0
  6
CONTINUOUS
 62
     7
 10
427.7853051015
 20
179.4143937033
 30
0.0
  0
VERTEX
  5
673
  8
0
  6
CONTINUOUS
 62
     7
 10
427.7855435201
 20
179.4015369814
 30
0.0
  0
SEQEND
  5
96E
  8
0
  6
CONTINUOUS
 62
     7
  0
POLYLINE
  5
9B
  8
0
  6
CONTINUOUS
 62
     7
 66
     1
 10
0.0
 20
0.0
 30
0.0
  0
VERTEX
  5
674
  8
0
  6
CONTINUOUS
 62
     7
 10
427.7862587758
 20
179.6979687612
 30
0.0
  0
VERTEX
  5
675
  8
0
  6
CONTINUOUS
 62
     7
 10
427.7715721913
 20
179.6502075594
 30
0.0
  0
VERTEX
  5
676
  8
0
  6
CONTINUOUS
 62
     7
 10
427.7862826177
 20
179.5234105985
 30
0.0
  0
SEQEND
  5
96D
  8
0
  6
CONTINUOUS
 62
     7
  0
POLYLINE
  5
9C
  8
0
  6
CONTINUOUS
 62
     7
 66
     1
 10
0.0
 20
0.0
 30
0.0
  0
VERTEX
  5
677
  8
0
  6
CONTINUOUS
 62
     7
 10
352.5862732717
 20
179.5234105985
 30
0.0
  0
VERTEX
  5
678
  8
0
  6
CONTINUOUS
 62
     7
 10
352.600983698
 20
179.6502075594
 30
0.0
  0
VERTEX
  5
679
  8
0
  6
CONTINUOUS
 62
     7
 10
352.5862732717
 20
179.6979687612
 30
0.0
  0
SEQEND
  5
96C
  8
0
  6
CONTINUOUS
 62
     7
  0
POLYLINE
  5
9D
  8
0
  6
CONTINUOUS
 62
     7
 66
     1
 10
0.0
 20
0.0
 30
0.0
  0
VERTEX
  5
67A
  8
0
  6
CONTINUOUS
 62
     7
 10
352.5862017461
 20
178.9307496946
 30
0.0
  0
VERTEX
  5
67B
  8
0
  6
CONTINUOUS
 62
     7
 10
352.5862017461
 20
178.9354465406
 30
0.0
  0
VERTEX
  5
67C
  8
0
  6
CONTINUOUS
 62
     7
 10
352.5863686391
 20
179.25394396
 30
0.0
  0
VERTEX
  5
67D
  8
0
  6
CONTINUOUS
 62
     7
 10
352.5868335553
 20
179.3931863706
 30
0.0
  0
VERTEX
  5
67E
  8
0
  6
CONTINUOUS
 62
     7
 10
352.587226946
 20
179.4165513914
 30
0.0
  0
VERTEX
  5
67F
  8
0
  6
CONTINUOUS
 62
     7
 10
352.5871673413
 20
179.3991408747
 30
0.0
  0
SEQEND
  5
96B
  8
0
  6
CONTINUOUS
 62
     7
  0
POLYLINE
  5
9E
  8
0
  6
CONTINUOUS
 62
     7
 66
     1
 10
0.0
 20
0.0
 30
0.0
  0
VERTEX
  5
680
  8
0
  6
CONTINUOUS
 62
     7
 10
358.6737671682
 20
175.2820752066
 30
0.0
  0
VERTEX
  5
681
  8
0
  6
CONTINUOUS
 62
     7
 10
357.6597252675
 20
175.4692397516
 30
0.0
  0
VERTEX
  5
682
  8
0
  6
CONTINUOUS
 62
     7
 10
356.6744128057
 20
175.7734201353
 30
0.0
  0
VERTEX
  5
683
  8
0
  6
CONTINUOUS
 62
     7
 10
355.8055797406
 20
176.1498115461
 30
0.0
  0
VERTEX
  5
684
  8
0
  6
CONTINUOUS
 62
     7
 10
355.0123015233
 20
176.591380636
 30
0.0
  0
VERTEX
  5
685
  8
0
  6
CONTINUOUS
 62
     7
 10
354.2548337766
 20
177.1117470663
 30
0.0
  0
VERTEX
  5
686
  8
0
  6
CONTINUOUS
 62
     7
 10
353.6135354825
 20
177.6413045328
 30
0.0
  0
VERTEX
  5
687
  8
0
  6
CONTINUOUS
 62
     7
 10
353.0673065969
 20
178.1783125799
 30
0.0
  0
VERTEX
  5
688
  8
0
  6
CONTINUOUS
 62
     7
 10
352.8591671773
 20
178.4169338148
 30
0.0
  0
VERTEX
  5
689
  8
0
  6
CONTINUOUS
 62
     7
 10
352.7070442029
 20
178.6229632299
 30
0.0
  0
VERTEX
  5
68A
  8
0
  6
CONTINUOUS
 62
     7
 10
352.5862017461
 20
178.9307496946
 30
0.0
  0
SEQEND
  5
96A
  8
0
  6
CONTINUOUS
 62
     7
  0
POLYLINE
  5
9F
  8
0
  6
CONTINUOUS
 62
     7
 66
     1
 10
0.0
 20
0.0
 30
0.0
  0
VERTEX
  5
68B
  8
0
  6
CONTINUOUS
 62
     7
 10
421.6987648793
 20
175.2820752066
 30
0.0
  0
VERTEX
  5
68C
  8
0
  6
CONTINUOUS
 62
     7
 10
414.6094361135
 20
174.4811616342
 30
0.0
  0
VERTEX
  5
68D
  8
0
  6
CONTINUOUS
 62
     7
 10
407.4923792668
 20
173.8537214201
 30
0.0
  0
VERTEX
  5
68E
  8
0
  6
CONTINUOUS
 62
     7
 10
400.3194728681
 20
173.4271548193
 30
0.0
  0
VERTEX
  5
68F
  8
0
  6
CONTINUOUS
 62
     7
 10
393.1325474569
 20
173.2199392717
 30
0.0
  0
VERTEX
  5
690
  8
0
  6
CONTINUOUS
 62
     7
 10
388.069502432
 20
173.210742275
 30
0.0
  0
VERTEX
  5
691
  8
0
  6
CONTINUOUS
 62
     7
 10
383.007983286
 20
173.3144126337
 30
0.0
  0
VERTEX
  5
692
  8
0
  6
CONTINUOUS
 62
     7
 10
377.9373207875
 20
173.5303483408
 30
0.0
  0
VERTEX
  5
693
  8
0
  6
CONTINUOUS
 62
     7
 10
372.8750387021
 20
173.8541028898
 30
0.0
  0
VERTEX
  5
694
  8
0
  6
CONTINUOUS
 62
     7
 10
365.7641568967
 20
174.4806549948
 30
0.0
  0
VERTEX
  5
695
  8
0
  6
CONTINUOUS
 62
     7
 10
358.6737671682
 20
175.2820752066
 30
0.0
  0
SEQEND
  5
969
  8
0
  6
CONTINUOUS
 62
     7
  0
POLYLINE
  5
A0
  8
0
  6
CONTINUOUS
 62
     7
 66
     1
 10
0.0
 20
0.0
 30
0.0
  0
VERTEX
  5
696
  8
0
  6
CONTINUOUS
 62
     7
 10
358.853665907
 20
180.6146464746
 30
0.0
  0
VERTEX
  5
697
  8
0
  6
CONTINUOUS
 62
     7
 10
357.8471937963
 20
180.832292835
 30
0.0
  0
VERTEX
  5
698
  8
0
  6
CONTINUOUS
 62
     7
 10
356.9226065465
 20
181.0221038263
 30
0.0
  0
VERTEX
  5
699
  8
0
  6
CONTINUOUS
 62
     7
 10
356.1551132985
 20
181.160076658
 30
0.0
  0
VERTEX
  5
69A
  8
0
  6
CONTINUOUS
 62
     7
 10
355.5196324178
 20
181.2439999979
 30
0.0
  0
VERTEX
  5
69B
  8
0
  6
CONTINUOUS
 62
     7
 10
355.217901785
 20
181.2647543352
 30
0.0
  0
VERTEX
  5
69C
  8
0
  6
CONTINUOUS
 62
     7
 10
354.9799123593
 20
181.2633297842
 30
0.0
  0
SEQEND
  5
968
  8
0
  6
CONTINUOUS
 62
     7
  0
ARC
  5
A1
  8
0
  6
CONTINUOUS
 62
     7
 10
390.0706531686
 20
319.8506026498
 30
0.0
 40
142.6925078121231
 50
257.3631399214
 51
260.3830426002
  0
ARC
  5
A2
  8
0
  6
CONTINUOUS
 62
     7
 10
389.5835706773
 20
323.4822206083
 30
0.0
 40
146.3933318036179
 50
279.6014055979
 51
282.600237202
  0
POLYLINE
  5
A3
  8
0
  6
CONTINUOUS
 62
     7
 66
     1
 10
0.0
 20
0.0
 30
0.0
  0
VERTEX
  5
69D
  8
0
  6
CONTINUOUS
 62
     7
 10
425.3926316091
 20
181.2633297842
 30
0.0
  0
VERTEX
  5
69E
  8
0
  6
CONTINUOUS
 62
     7
 10
424.9735394307
 20
181.2544188898
 30
0.0
  0
VERTEX
  5
69F
  8
0
  6
CONTINUOUS
 62
     7
 10
424.363903124
 20
181.1827025812
 30
0.0
  0
VERTEX
  5
6A0
  8
0
  6
CONTINUOUS
 62
     7
 10
423.6126700231
 20
181.0534439485
 30
0.0
  0
VERTEX
  5
6A1
  8
0
  6
CONTINUOUS
 62
     7
 10
422.6952830144
 20
180.8682523172
 30
0.0
  0
VERTEX
  5
6A2
  8
0
  6
CONTINUOUS
 62
     7
 10
421.5188780614
 20
180.6146464746
 30
0.0
  0
SEQEND
  5
967
  8
0
  6
CONTINUOUS
 62
     7
  0
POLYLINE
  5
A4
  8
0
  6
CONTINUOUS
 62
     7
 66
     1
 10
0.0
 20
0.0
 30
0.0
  0
VERTEX
  5
6A3
  8
0
  6
CONTINUOUS
 62
     7
 10
425.3926077672
 20
181.2634072702
 30
0.0
  0
VERTEX
  5
6A4
  8
0
  6
CONTINUOUS
 62
     7
 10
426.3096848317
 20
181.2085948389
 30
0.0
  0
VERTEX
  5
6A5
  8
0
  6
CONTINUOUS
 62
     7
 10
426.9108572789
 20
181.1540565889
 30
0.0
  0
VERTEX
  5
6A6
  8
0
  6
CONTINUOUS
 62
     7
 10
427.2683897802
 20
181.0983262461
 30
0.0
  0
VERTEX
  5
6A7
  8
0
  6
CONTINUOUS
 62
     7
 10
427.4831333944
 20
181.0417137544
 30
0.0
  0
VERTEX
  5
6A8
  8
0
  6
CONTINUOUS
 62
     7
 10
427.5648871251
 20
180.9832833212
 30
0.0
  0
VERTEX
  5
6A9
  8
0
  6
CONTINUOUS
 62
     7
 10
427.561716158
 20
180.9257290762
 30
0.0
  0
VERTEX
  5
6AA
  8
0
  6
CONTINUOUS
 62
     7
 10
427.5346079656
 20
180.8728776377
 30
0.0
  0
VERTEX
  5
6AB
  8
0
  6
CONTINUOUS
 62
     7
 10
427.5324621984
 20
180.8260164659
 30
0.0
  0
VERTEX
  5
6AC
  8
0
  6
CONTINUOUS
 62
     7
 10
427.5794068166
 20
180.7177207868
 30
0.0
  0
VERTEX
  5
6AD
  8
0
  6
CONTINUOUS
 62
     7
 10
427.5886336156
 20
180.6761644285
 30
0.0
  0
SEQEND
  5
966
  8
0
  6
CONTINUOUS
 62
     7
  0
ARC
  5
A5
  8
0
  6
CONTINUOUS
 62
     7
 10
422.7481273979
 20
179.8480581442
 30
0.0
 40
4.93958620864819
 50
3.58185759
 51
8.4305079329
  0
POLYLINE
  5
A6
  8
0
  6
CONTINUOUS
 62
     7
 66
     1
 10
0.0
 20
0.0
 30
0.0
  0
VERTEX
  5
6AE
  8
0
  6
CONTINUOUS
 62
     7
 10
421.589426119
 20
176.7788253229
 30
0.0
  0
VERTEX
  5
6AF
  8
0
  6
CONTINUOUS
 62
     7
 10
422.613123972
 20
176.957752506
 30
0.0
  0
VERTEX
  5
6B0
  8
0
  6
CONTINUOUS
 62
     7
 10
423.6091175862
 20
177.2485337656
 30
0.0
  0
VERTEX
  5
6B1
  8
0
  6
CONTINUOUS
 62
     7
 10
424.4893589803
 20
177.6074788969
 30
0.0
  0
VERTEX
  5
6B2
  8
0
  6
CONTINUOUS
 62
     7
 10
425.2939978429
 20
178.0262849729
 30
0.0
  0
VERTEX
  5
6B3
  8
0
  6
CONTINUOUS
 62
     7
 10
426.0537186452
 20
178.5099885862
 30
0.0
  0
VERTEX
  5
6B4
  8
0
  6
CONTINUOUS
 62
     7
 10
426.6951123067
 20
178.9965651434
 30
0.0
  0
VERTEX
  5
6B5
  8
0
  6
CONTINUOUS
 62
     7
 10
427.2228279897
 20
179.4698617857
 30
0.0
  0
VERTEX
  5
6B6
  8
0
  6
CONTINUOUS
 62
     7
 10
427.566079218
 20
179.8629901808
 30
0.0
  0
VERTEX
  5
6B7
  8
0
  6
CONTINUOUS
 62
     7
 10
427.6541510411
 20
180.0236545008
 30
0.0
  0
VERTEX
  5
6B8
  8
0
  6
CONTINUOUS
 62
     7
 10
427.6780644246
 20
180.1566503446
 30
0.0
  0
SEQEND
  5
965
  8
0
  6
CONTINUOUS
 62
     7
  0
POLYLINE
  5
A7
  8
0
  6
CONTINUOUS
 62
     7
 66
     1
 10
0.0
 20
0.0
 30
0.0
  0
VERTEX
  5
6B9
  8
0
  6
CONTINUOUS
 62
     7
 10
421.589426119
 20
176.7788253229
 30
0.0
  0
VERTEX
  5
6BA
  8
0
  6
CONTINUOUS
 62
     7
 10
416.2385979482
 20
176.1922321718
 30
0.0
  0
VERTEX
  5
6BB
  8
0
  6
CONTINUOUS
 62
     7
 10
410.8724633046
 20
175.6942294042
 30
0.0
  0
VERTEX
  5
6BC
  8
0
  6
CONTINUOUS
 62
     7
 10
405.4801979848
 20
175.2970776956
 30
0.0
  0
VERTEX
  5
6BD
  8
0
  6
CONTINUOUS
 62
     7
 10
400.0771084615
 20
175.012095968
 30
0.0
  0
VERTEX
  5
6BE
  8
0
  6
CONTINUOUS
 62
     7
 10
394.1756168195
 20
174.838431875
 30
0.0
  0
VERTEX
  5
6BF
  8
0
  6
CONTINUOUS
 62
     7
 10
388.2704654523
 20
174.812098543
 30
0.0
  0
VERTEX
  5
6C0
  8
0
  6
CONTINUOUS
 62
     7
 10
382.3452988454
 20
174.9353728693
 30
0.0
  0
VERTEX
  5
6C1
  8
0
  6
CONTINUOUS
 62
     7
 10
376.427260954
 20
175.2041421335
 30
0.0
  0
VERTEX
  5
6C2
  8
0
  6
CONTINUOUS
 62
     7
 10
372.0059672185
 20
175.4961572092
 30
0.0
  0
VERTEX
  5
6C3
  8
0
  6
CONTINUOUS
 62
     7
 10
367.5930300542
 20
175.8600554865
 30
0.0
  0
VERTEX
  5
6C4
  8
0
  6
CONTINUOUS
 62
     7
 10
363.1827870198
 20
176.290275852
 30
0.0
  0
VERTEX
  5
6C5
  8
0
  6
CONTINUOUS
 62
     7
 10
358.7831059285
 20
176.7788253229
 30
0.0
  0
SEQEND
  5
964
  8
0
  6
CONTINUOUS
 62
     7
  0
POLYLINE
  5
A8
  8
0
  6
CONTINUOUS
 62
     7
 66
     1
 10
0.0
 20
0.0
 30
0.0
  0
VERTEX
  5
6C6
  8
0
  6
CONTINUOUS
 62
     7
 10
352.6944676229
 20
180.1566503446
 30
0.0
  0
VERTEX
  5
6C7
  8
0
  6
CONTINUOUS
 62
     7
 10
352.7688065358
 20
179.9219928186
 30
0.0
  0
VERTEX
  5
6C8
  8
0
  6
CONTINUOUS
 62
     7
 10
353.0260482618
 20
179.5965872209
 30
0.0
  0
VERTEX
  5
6C9
  8
0
  6
CONTINUOUS
 62
     7
 10
353.4358063527
 20
179.2029581468
 30
0.0
  0
VERTEX
  5
6CA
  8
0
  6
CONTINUOUS
 62
     7
 10
354.0035644361
 20
178.7391386431
 30
0.0
  0
VERTEX
  5
6CB
  8
0
  6
CONTINUOUS
 62
     7
 10
354.7362962552
 20
178.2328985136
 30
0.0
  0
VERTEX
  5
6CC
  8
0
  6
CONTINUOUS
 62
     7
 10
355.6324878522
 20
177.7282975118
 30
0.0
  0
VERTEX
  5
6CD
  8
0
  6
CONTINUOUS
 62
     7
 10
356.512598116
 20
177.340754072
 30
0.0
  0
VERTEX
  5
6CE
  8
0
  6
CONTINUOUS
 62
     7
 10
357.5103321859
 20
177.0194313925
 30
0.0
  0
VERTEX
  5
6CF
  8
0
  6
CONTINUOUS
 62
     7
 10
358.1331411191
 20
176.8786631029
 30
0.0
  0
VERTEX
  5
6D0
  8
0
  6
CONTINUOUS
 62
     7
 10
358.7831059285
 20
176.7788253229
 30
0.0
  0
SEQEND
  5
963
  8
0
  6
CONTINUOUS
 62
     7
  0
POLYLINE
  5
A9
  8
0
  6
CONTINUOUS
 62
     7
 66
     1
 10
0.0
 20
0.0
 30
0.0
  0
VERTEX
  5
6D1
  8
0
  6
CONTINUOUS
 62
     7
 10
352.6944676229
 20
180.1566563051
 30
0.0
  0
VERTEX
  5
6D2
  8
0
  6
CONTINUOUS
 62
     7
 10
352.7227798291
 20
180.4529927175
 30
0.0
  0
VERTEX
  5
6D3
  8
0
  6
CONTINUOUS
 62
     7
 10
352.7386108228
 20
180.577667753
 30
0.0
  0
SEQEND
  5
962
  8
0
  6
CONTINUOUS
 62
     7
  0
POLYLINE
  5
AA
  8
0
  6
CONTINUOUS
 62
     7
 66
     1
 10
0.0
 20
0.0
 30
0.0
  0
VERTEX
  5
6D4
  8
0
  6
CONTINUOUS
 62
     7
 10
352.7839818784
 20
180.675657789
 30
0.0
  0
VERTEX
  5
6D5
  8
0
  6
CONTINUOUS
 62
     7
 10
352.7940908261
 20
180.720301668
 30
0.0
  0
VERTEX
  5
6D6
  8
0
  6
CONTINUOUS
 62
     7
 10
352.8400817701
 20
180.8260164659
 30
0.0
  0
VERTEX
  5
6D7
  8
0
  6
CONTINUOUS
 62
     7
 10
352.8379240819
 20
180.8728776377
 30
0.0
  0
VERTEX
  5
6D8
  8
0
  6
CONTINUOUS
 62
     7
 10
352.8108278104
 20
180.9257290762
 30
0.0
  0
VERTEX
  5
6D9
  8
0
  6
CONTINUOUS
 62
     7
 10
352.8076568433
 20
180.9832833212
 30
0.0
  0
VERTEX
  5
6DA
  8
0
  6
CONTINUOUS
 62
     7
 10
352.8894105741
 20
181.0417137544
 30
0.0
  0
VERTEX
  5
6DB
  8
0
  6
CONTINUOUS
 62
     7
 10
353.1041661092
 20
181.0983262461
 30
0.0
  0
VERTEX
  5
6DC
  8
0
  6
CONTINUOUS
 62
     7
 10
353.4616866895
 20
181.1540565889
 30
0.0
  0
VERTEX
  5
6DD
  8
0
  6
CONTINUOUS
 62
     7
 10
354.0628591367
 20
181.2085948389
 30
0.0
  0
VERTEX
  5
6DE
  8
0
  6
CONTINUOUS
 62
     7
 10
354.9799242803
 20
181.2634072702
 30
0.0
  0
SEQEND
  5
961
  8
0
  6
CONTINUOUS
 62
     7
  0
LINE
  5
AB
  8
0
  6
CONTINUOUS
 62
     7
 10
427.7862826177
 20
179.6984575193
 30
0.0
 11
427.7862826177
 21
180.0041578214
 31
0.0
  0
LINE
  5
AC
  8
0
  6
CONTINUOUS
 62
     7
 10
352.5862732717
 20
179.5234105985
 30
0.0
 11
352.5862732717
 21
179.3489478033
 31
0.0
  0
LINE
  5
AD
  8
0
  6
CONTINUOUS
 62
     7
 10
352.5862732717
 20
179.9939654272
 30
0.0
 11
352.5862732717
 21
179.6984575193
 31
0.0
  0
POLYLINE
  5
AE
  8
0
  6
CONTINUOUS
 62
     7
 66
     1
 10
0.0
 20
0.0
 30
0.0
  0
VERTEX
  5
6DF
  8
0
  6
CONTINUOUS
 62
     7
 10
307.7863434144
 20
178.9305708807
 30
0.0
  0
VERTEX
  5
6E0
  8
0
  6
CONTINUOUS
 62
     7
 10
307.6984682866
 20
178.6764822405
 30
0.0
  0
VERTEX
  5
6E1
  8
0
  6
CONTINUOUS
 62
     7
 10
307.4331560918
 20
178.3214710157
 30
0.0
  0
VERTEX
  5
6E2
  8
0
  6
CONTINUOUS
 62
     7
 10
307.0241549798
 20
177.8897247713
 30
0.0
  0
VERTEX
  5
6E3
  8
0
  6
CONTINUOUS
 62
     7
 10
306.4657369443
 20
177.3877880972
 30
0.0
  0
VERTEX
  5
6E4
  8
0
  6
CONTINUOUS
 62
     7
 10
305.7297805139
 20
176.8323085707
 30
0.0
  0
VERTEX
  5
6E5
  8
0
  6
CONTINUOUS
 62
     7
 10
304.827699978
 20
176.2841067713
 30
0.0
  0
VERTEX
  5
6E6
  8
0
  6
CONTINUOUS
 62
     7
 10
303.9613226243
 20
175.8762798708
 30
0.0
  0
VERTEX
  5
6E7
  8
0
  6
CONTINUOUS
 62
     7
 10
302.9776433297
 20
175.5387983721
 30
0.0
  0
VERTEX
  5
6E8
  8
0
  6
CONTINUOUS
 62
     7
 10
302.3525813409
 20
175.3885291021
 30
0.0
  0
VERTEX
  5
6E9
  8
0
  6
CONTINUOUS
 62
     7
 10
301.6987720319
 20
175.2820752066
 30
0.0
  0
SEQEND
  5
960
  8
0
  6
CONTINUOUS
 62
     7
  0
POLYLINE
  5
AF
  8
0
  6
CONTINUOUS
 62
     7
 66
     1
 10
0.0
 20
0.0
 30
0.0
  0
VERTEX
  5
6EA
  8
0
  6
CONTINUOUS
 62
     7
 10
307.7863434144
 20
178.9305708807
 30
0.0
  0
VERTEX
  5
6EB
  8
0
  6
CONTINUOUS
 62
     7
 10
307.786337454
 20
178.9853594702
 30
0.0
  0
VERTEX
  5
6EC
  8
0
  6
CONTINUOUS
 62
     7
 10
307.7861228772
 20
179.2780540388
 30
0.0
  0
VERTEX
  5
6ED
  8
0
  6
CONTINUOUS
 62
     7
 10
307.7856460401
 20
179.400762121
 30
0.0
  0
VERTEX
  5
6EE
  8
0
  6
CONTINUOUS
 62
     7
 10
307.7853003331
 20
179.4143937033
 30
0.0
  0
VERTEX
  5
6EF
  8
0
  6
CONTINUOUS
 62
     7
 10
307.7855447122
 20
179.4015369814
 30
0.0
  0
SEQEND
  5
95F
  8
0
  6
CONTINUOUS
 62
     7
  0
POLYLINE
  5
B0
  8
0
  6
CONTINUOUS
 62
     7
 66
     1
 10
0.0
 20
0.0
 30
0.0
  0
VERTEX
  5
6F0
  8
0
  6
CONTINUOUS
 62
     7
 10
307.7862718888
 20
179.6979687612
 30
0.0
  0
VERTEX
  5
6F1
  8
0
  6
CONTINUOUS
 62
     7
 10
307.7715614625
 20
179.6502075594
 30
0.0
  0
VERTEX
  5
6F2
  8
0
  6
CONTINUOUS
 62
     7
 10
307.7862718888
 20
179.5234105985
 30
0.0
  0
SEQEND
  5
95E
  8
0
  6
CONTINUOUS
 62
     7
  0
POLYLINE
  5
B1
  8
0
  6
CONTINUOUS
 62
     7
 66
     1
 10
0.0
 20
0.0
 30
0.0
  0
VERTEX
  5
6F3
  8
0
  6
CONTINUOUS
 62
     7
 10
232.5862670132
 20
179.5234105985
 30
0.0
  0
VERTEX
  5
6F4
  8
0
  6
CONTINUOUS
 62
     7
 10
232.6009804197
 20
179.6502075594
 30
0.0
  0
VERTEX
  5
6F5
  8
0
  6
CONTINUOUS
 62
     7
 10
232.5862714835
 20
179.6979687612
 30
0.0
  0
SEQEND
  5
95D
  8
0
  6
CONTINUOUS
 62
     7
  0
POLYLINE
  5
B2
  8
0
  6
CONTINUOUS
 62
     7
 66
     1
 10
0.0
 20
0.0
 30
0.0
  0
VERTEX
  5
6F6
  8
0
  6
CONTINUOUS
 62
     7
 10
232.586199958
 20
178.9307496946
 30
0.0
  0
VERTEX
  5
6F7
  8
0
  6
CONTINUOUS
 62
     7
 10
232.586199958
 20
178.9354465406
 30
0.0
  0
VERTEX
  5
6F8
  8
0
  6
CONTINUOUS
 62
     7
 10
232.5863698312
 20
179.25394396
 30
0.0
  0
VERTEX
  5
6F9
  8
0
  6
CONTINUOUS
 62
     7
 10
232.5868347474
 20
179.3931863706
 30
0.0
  0
VERTEX
  5
6FA
  8
0
  6
CONTINUOUS
 62
     7
 10
232.5872206875
 20
179.4165513914
 30
0.0
  0
VERTEX
  5
6FB
  8
0
  6
CONTINUOUS
 62
     7
 10
232.5871685334
 20
179.3991408747
 30
0.0
  0
SEQEND
  5
95C
  8
0
  6
CONTINUOUS
 62
     7
  0
POLYLINE
  5
B3
  8
0
  6
CONTINUOUS
 62
     7
 66
     1
 10
0.0
 20
0.0
 30
0.0
  0
VERTEX
  5
6FC
  8
0
  6
CONTINUOUS
 62
     7
 10
238.6737713405
 20
175.2820752066
 30
0.0
  0
VERTEX
  5
6FD
  8
0
  6
CONTINUOUS
 62
     7
 10
237.6597234794
 20
175.4692397516
 30
0.0
  0
VERTEX
  5
6FE
  8
0
  6
CONTINUOUS
 62
     7
 10
236.674416978
 20
175.7734201353
 30
0.0
  0
VERTEX
  5
6FF
  8
0
  6
CONTINUOUS
 62
     7
 10
235.8055779525
 20
176.1498115461
 30
0.0
  0
VERTEX
  5
700
  8
0
  6
CONTINUOUS
 62
     7
 10
235.0123071858
 20
176.591380636
 30
0.0
  0
VERTEX
  5
701
  8
0
  6
CONTINUOUS
 62
     7
 10
234.2548349687
 20
177.1117470663
 30
0.0
  0
VERTEX
  5
702
  8
0
  6
CONTINUOUS
 62
     7
 10
233.613541145
 20
177.6413045328
 30
0.0
  0
VERTEX
  5
703
  8
0
  6
CONTINUOUS
 62
     7
 10
233.0673048087
 20
178.1783125799
 30
0.0
  0
VERTEX
  5
704
  8
0
  6
CONTINUOUS
 62
     7
 10
232.8591624089
 20
178.4169338148
 30
0.0
  0
VERTEX
  5
705
  8
0
  6
CONTINUOUS
 62
     7
 10
232.7070483752
 20
178.6229632299
 30
0.0
  0
VERTEX
  5
706
  8
0
  6
CONTINUOUS
 62
     7
 10
232.586199958
 20
178.9307496946
 30
0.0
  0
SEQEND
  5
95B
  8
0
  6
CONTINUOUS
 62
     7
  0
POLYLINE
  5
B4
  8
0
  6
CONTINUOUS
 62
     7
 66
     1
 10
0.0
 20
0.0
 30
0.0
  0
VERTEX
  5
707
  8
0
  6
CONTINUOUS
 62
     7
 10
301.6987720319
 20
175.2820752066
 30
0.0
  0
VERTEX
  5
708
  8
0
  6
CONTINUOUS
 62
     7
 10
294.609443266
 20
174.4811616342
 30
0.0
  0
VERTEX
  5
709
  8
0
  6
CONTINUOUS
 62
     7
 10
287.4923744985
 20
173.8537214201
 30
0.0
  0
VERTEX
  5
70A
  8
0
  6
CONTINUOUS
 62
     7
 10
280.3194680997
 20
173.4271548193
 30
0.0
  0
VERTEX
  5
70B
  8
0
  6
CONTINUOUS
 62
     7
 10
273.1325426885
 20
173.2199392717
 30
0.0
  0
VERTEX
  5
70C
  8
0
  6
CONTINUOUS
 62
     7
 10
268.0695095845
 20
173.210742275
 30
0.0
  0
VERTEX
  5
70D
  8
0
  6
CONTINUOUS
 62
     7
 10
263.0079844781
 20
173.3144126337
 30
0.0
  0
VERTEX
  5
70E
  8
0
  6
CONTINUOUS
 62
     7
 10
257.9373160192
 20
173.5303483408
 30
0.0
  0
VERTEX
  5
70F
  8
0
  6
CONTINUOUS
 62
     7
 10
252.8750398942
 20
173.8541028898
 30
0.0
  0
VERTEX
  5
710
  8
0
  6
CONTINUOUS
 62
     7
 10
245.7641580888
 20
174.4806549948
 30
0.0
  0
VERTEX
  5
711
  8
0
  6
CONTINUOUS
 62
     7
 10
238.6737713405
 20
175.2820752066
 30
0.0
  0
SEQEND
  5
95A
  8
0
  6
CONTINUOUS
 62
     7
  0
POLYLINE
  5
B5
  8
0
  6
CONTINUOUS
 62
     7
 66
     1
 10
0.0
 20
0.0
 30
0.0
  0
VERTEX
  5
712
  8
0
  6
CONTINUOUS
 62
     7
 10
238.8536700793
 20
180.6146464746
 30
0.0
  0
VERTEX
  5
713
  8
0
  6
CONTINUOUS
 62
     7
 10
237.8471979686
 20
180.832292835
 30
0.0
  0
VERTEX
  5
714
  8
0
  6
CONTINUOUS
 62
     7
 10
236.9226017781
 20
181.0221038263
 30
0.0
  0
VERTEX
  5
715
  8
0
  6
CONTINUOUS
 62
     7
 10
236.1551115104
 20
181.160076658
 30
0.0
  0
VERTEX
  5
716
  8
0
  6
CONTINUOUS
 62
     7
 10
235.5196306297
 20
181.2439999979
 30
0.0
  0
VERTEX
  5
717
  8
0
  6
CONTINUOUS
 62
     7
 10
235.2178999969
 20
181.2647543352
 30
0.0
  0
VERTEX
  5
718
  8
0
  6
CONTINUOUS
 62
     7
 10
234.9799090811
 20
181.2633297842
 30
0.0
  0
SEQEND
  5
959
  8
0
  6
CONTINUOUS
 62
     7
  0
ARC
  5
B6
  8
0
  6
CONTINUOUS
 62
     7
 10
270.0701055184
 20
319.8476990574
 30
0.0
 40
142.6895538329487
 50
257.3631010656
 51
260.3830639281
  0
ARC
  5
B7
  8
0
  6
CONTINUOUS
 62
     7
 10
269.5843383919
 20
323.4782835282
 30
0.0
 40
146.3893210296237
 50
279.6013645076
 51
282.6002782923
  0
POLYLINE
  5
B8
  8
0
  6
CONTINUOUS
 62
     7
 66
     1
 10
0.0
 20
0.0
 30
0.0
  0
VERTEX
  5
719
  8
0
  6
CONTINUOUS
 62
     7
 10
305.3926328012
 20
181.2633297842
 30
0.0
  0
VERTEX
  5
71A
  8
0
  6
CONTINUOUS
 62
     7
 10
304.9735465833
 20
181.2544188898
 30
0.0
  0
VERTEX
  5
71B
  8
0
  6
CONTINUOUS
 62
     7
 10
304.363916237
 20
181.1827025812
 30
0.0
  0
VERTEX
  5
71C
  8
0
  6
CONTINUOUS
 62
     7
 10
303.6126712152
 20
181.0534439485
 30
0.0
  0
VERTEX
  5
71D
  8
0
  6
CONTINUOUS
 62
     7
 10
302.6952961274
 20
180.8682523172
 30
0.0
  0
VERTEX
  5
71E
  8
0
  6
CONTINUOUS
 62
     7
 10
301.518873293
 20
180.6146464746
 30
0.0
  0
SEQEND
  5
958
  8
0
  6
CONTINUOUS
 62
     7
  0
POLYLINE
  5
B9
  8
0
  6
CONTINUOUS
 62
     7
 66
     1
 10
0.0
 20
0.0
 30
0.0
  0
VERTEX
  5
71F
  8
0
  6
CONTINUOUS
 62
     7
 10
305.3926149198
 20
181.2634072702
 30
0.0
  0
VERTEX
  5
720
  8
0
  6
CONTINUOUS
 62
     7
 10
306.3096800634
 20
181.2085948389
 30
0.0
  0
VERTEX
  5
721
  8
0
  6
CONTINUOUS
 62
     7
 10
306.9108525106
 20
181.1540565889
 30
0.0
  0
VERTEX
  5
722
  8
0
  6
CONTINUOUS
 62
     7
 10
307.2683790513
 20
181.0983262461
 30
0.0
  0
VERTEX
  5
723
  8
0
  6
CONTINUOUS
 62
     7
 10
307.4831345864
 20
181.0417137544
 30
0.0
  0
VERTEX
  5
724
  8
0
  6
CONTINUOUS
 62
     7
 10
307.5648823568
 20
180.9832833212
 30
0.0
  0
VERTEX
  5
725
  8
0
  6
CONTINUOUS
 62
     7
 10
307.5617173501
 20
180.9257290762
 30
0.0
  0
VERTEX
  5
726
  8
0
  6
CONTINUOUS
 62
     7
 10
307.5346151181
 20
180.8728776377
 30
0.0
  0
VERTEX
  5
727
  8
0
  6
CONTINUOUS
 62
     7
 10
307.53245743
 20
180.8260164659
 30
0.0
  0
VERTEX
  5
728
  8
0
  6
CONTINUOUS
 62
     7
 10
307.5793960878
 20
180.7177207868
 30
0.0
  0
VERTEX
  5
729
  8
0
  6
CONTINUOUS
 62
     7
 10
307.5886288472
 20
180.6761644285
 30
0.0
  0
SEQEND
  5
957
  8
0
  6
CONTINUOUS
 62
     7
  0
ARC
  5
BA
  8
0
  6
CONTINUOUS
 62
     7
 10
302.7382654468
 20
179.846949563
 30
0.0
 40
4.949505315919408
 50
3.5875281047
 51
8.4264629008
  0
POLYLINE
  5
BB
  8
0
  6
CONTINUOUS
 62
     7
 66
     1
 10
0.0
 20
0.0
 30
0.0
  0
VERTEX
  5
72A
  8
0
  6
CONTINUOUS
 62
     7
 10
301.5894332715
 20
176.7788253229
 30
0.0
  0
VERTEX
  5
72B
  8
0
  6
CONTINUOUS
 62
     7
 10
302.6131311246
 20
176.957752506
 30
0.0
  0
VERTEX
  5
72C
  8
0
  6
CONTINUOUS
 62
     7
 10
303.6091068574
 20
177.2485337656
 30
0.0
  0
VERTEX
  5
72D
  8
0
  6
CONTINUOUS
 62
     7
 10
304.4893601724
 20
177.6074788969
 30
0.0
  0
VERTEX
  5
72E
  8
0
  6
CONTINUOUS
 62
     7
 10
305.2939930745
 20
178.0262849729
 30
0.0
  0
VERTEX
  5
72F
  8
0
  6
CONTINUOUS
 62
     7
 10
306.0537138768
 20
178.5099885862
 30
0.0
  0
VERTEX
  5
730
  8
0
  6
CONTINUOUS
 62
     7
 10
306.6951134988
 20
178.9965651434
 30
0.0
  0
VERTEX
  5
731
  8
0
  6
CONTINUOUS
 62
     7
 10
307.2228351422
 20
179.4698617857
 30
0.0
  0
VERTEX
  5
732
  8
0
  6
CONTINUOUS
 62
     7
 10
307.5660684892
 20
179.8629901808
 30
0.0
  0
VERTEX
  5
733
  8
0
  6
CONTINUOUS
 62
     7
 10
307.6541462728
 20
180.0236545008
 30
0.0
  0
VERTEX
  5
734
  8
0
  6
CONTINUOUS
 62
     7
 10
307.6780715772
 20
180.1566503446
 30
0.0
  0
SEQEND
  5
956
  8
0
  6
CONTINUOUS
 62
     7
  0
POLYLINE
  5
BC
  8
0
  6
CONTINUOUS
 62
     7
 66
     1
 10
0.0
 20
0.0
 30
0.0
  0
VERTEX
  5
735
  8
0
  6
CONTINUOUS
 62
     7
 10
301.5894332715
 20
176.7788253229
 30
0.0
  0
VERTEX
  5
736
  8
0
  6
CONTINUOUS
 62
     7
 10
296.2386110612
 20
176.1922321718
 30
0.0
  0
VERTEX
  5
737
  8
0
  6
CONTINUOUS
 62
     7
 10
290.8724525758
 20
175.6942294042
 30
0.0
  0
VERTEX
  5
738
  8
0
  6
CONTINUOUS
 62
     7
 10
285.4801991769
 20
175.2970776956
 30
0.0
  0
VERTEX
  5
739
  8
0
  6
CONTINUOUS
 62
     7
 10
280.0771036931
 20
175.012095968
 30
0.0
  0
VERTEX
  5
73A
  8
0
  6
CONTINUOUS
 62
     7
 10
274.1756120511
 20
174.838431875
 30
0.0
  0
VERTEX
  5
73B
  8
0
  6
CONTINUOUS
 62
     7
 10
268.2704666444
 20
174.812098543
 30
0.0
  0
VERTEX
  5
73C
  8
0
  6
CONTINUOUS
 62
     7
 10
262.3453000375
 20
174.9353728693
 30
0.0
  0
VERTEX
  5
73D
  8
0
  6
CONTINUOUS
 62
     7
 10
256.4272561856
 20
175.2041421335
 30
0.0
  0
VERTEX
  5
73E
  8
0
  6
CONTINUOUS
 62
     7
 10
252.0059713908
 20
175.4961572092
 30
0.0
  0
VERTEX
  5
73F
  8
0
  6
CONTINUOUS
 62
     7
 10
247.5930282661
 20
175.8600554865
 30
0.0
  0
VERTEX
  5
740
  8
0
  6
CONTINUOUS
 62
     7
 10
243.1827852317
 20
176.290275852
 30
0.0
  0
VERTEX
  5
741
  8
0
  6
CONTINUOUS
 62
     7
 10
238.7831071206
 20
176.7788253229
 30
0.0
  0
SEQEND
  5
955
  8
0
  6
CONTINUOUS
 62
     7
  0
POLYLINE
  5
BD
  8
0
  6
CONTINUOUS
 62
     7
 66
     1
 10
0.0
 20
0.0
 30
0.0
  0
VERTEX
  5
742
  8
0
  6
CONTINUOUS
 62
     7
 10
232.6944673248
 20
180.1566503446
 30
0.0
  0
VERTEX
  5
743
  8
0
  6
CONTINUOUS
 62
     7
 10
232.768809218
 20
179.9219928186
 30
0.0
  0
VERTEX
  5
744
  8
0
  6
CONTINUOUS
 62
     7
 10
233.0260524341
 20
179.5965872209
 30
0.0
  0
VERTEX
  5
745
  8
0
  6
CONTINUOUS
 62
     7
 10
233.4358045646
 20
179.2029581468
 30
0.0
  0
VERTEX
  5
746
  8
0
  6
CONTINUOUS
 62
     7
 10
234.0035656282
 20
178.7391386431
 30
0.0
  0
VERTEX
  5
747
  8
0
  6
CONTINUOUS
 62
     7
 10
234.7362899967
 20
178.2328985136
 30
0.0
  0
VERTEX
  5
748
  8
0
  6
CONTINUOUS
 62
     7
 10
235.6324830838
 20
177.7282975118
 30
0.0
  0
VERTEX
  5
749
  8
0
  6
CONTINUOUS
 62
     7
 10
236.5125993081
 20
177.340754072
 30
0.0
  0
VERTEX
  5
74A
  8
0
  6
CONTINUOUS
 62
     7
 10
237.5103333779
 20
177.0194313925
 30
0.0
  0
VERTEX
  5
74B
  8
0
  6
CONTINUOUS
 62
     7
 10
238.1331423112
 20
176.8786631029
 30
0.0
  0
VERTEX
  5
74C
  8
0
  6
CONTINUOUS
 62
     7
 10
238.7831071206
 20
176.7788253229
 30
0.0
  0
SEQEND
  5
954
  8
0
  6
CONTINUOUS
 62
     7
  0
POLYLINE
  5
BE
  8
0
  6
CONTINUOUS
 62
     7
 66
     1
 10
0.0
 20
0.0
 30
0.0
  0
VERTEX
  5
74D
  8
0
  6
CONTINUOUS
 62
     7
 10
232.6944673248
 20
180.1566563051
 30
0.0
  0
VERTEX
  5
74E
  8
0
  6
CONTINUOUS
 62
     7
 10
232.7227854916
 20
180.4529927175
 30
0.0
  0
VERTEX
  5
74F
  8
0
  6
CONTINUOUS
 62
     7
 10
232.7386120149
 20
180.577667753
 30
0.0
  0
SEQEND
  5
953
  8
0
  6
CONTINUOUS
 62
     7
  0
POLYLINE
  5
BF
  8
0
  6
CONTINUOUS
 62
     7
 66
     1
 10
0.0
 20
0.0
 30
0.0
  0
VERTEX
  5
750
  8
0
  6
CONTINUOUS
 62
     7
 10
232.7839815804
 20
180.675657789
 30
0.0
  0
VERTEX
  5
751
  8
0
  6
CONTINUOUS
 62
     7
 10
232.7940920182
 20
180.720301668
 30
0.0
  0
VERTEX
  5
752
  8
0
  6
CONTINUOUS
 62
     7
 10
232.8400829621
 20
180.8260164659
 30
0.0
  0
VERTEX
  5
753
  8
0
  6
CONTINUOUS
 62
     7
 10
232.837925274
 20
180.8728776377
 30
0.0
  0
VERTEX
  5
754
  8
0
  6
CONTINUOUS
 62
     7
 10
232.8108245321
 20
180.9257290762
 30
0.0
  0
VERTEX
  5
755
  8
0
  6
CONTINUOUS
 62
     7
 10
232.8076595255
 20
180.9832833212
 30
0.0
  0
VERTEX
  5
756
  8
0
  6
CONTINUOUS
 62
     7
 10
232.8894058057
 20
181.0417137544
 30
0.0
  0
VERTEX
  5
757
  8
0
  6
CONTINUOUS
 62
     7
 10
233.1041643211
 20
181.0983262461
 30
0.0
  0
VERTEX
  5
758
  8
0
  6
CONTINUOUS
 62
     7
 10
233.4616863915
 20
181.1540565889
 30
0.0
  0
VERTEX
  5
759
  8
0
  6
CONTINUOUS
 62
     7
 10
234.0628603288
 20
181.2085948389
 30
0.0
  0
VERTEX
  5
75A
  8
0
  6
CONTINUOUS
 62
     7
 10
234.9799269625
 20
181.2634072702
 30
0.0
  0
SEQEND
  5
952
  8
0
  6
CONTINUOUS
 62
     7
  0
LINE
  5
C0
  8
0
  6
CONTINUOUS
 62
     7
 10
307.7862718888
 20
179.6984575193
 30
0.0
 11
307.7862718888
 21
180.0041578214
 31
0.0
  0
LINE
  5
C1
  8
0
  6
CONTINUOUS
 62
     7
 10
232.5862714835
 20
179.5234105985
 30
0.0
 11
232.5862714835
 21
179.3489478033
 31
0.0
  0
LINE
  5
C2
  8
0
  6
CONTINUOUS
 62
     7
 10
232.5862714835
 20
179.9939654272
 30
0.0
 11
232.5862714835
 21
179.6984575193
 31
0.0
  0
LINE
  5
C3
  8
0
  6
CONTINUOUS
 62
     7
 10
353.2862702199
 20
176.6515038412
 30
0.0
 11
353.2862702199
 21
174.6867976587
 31
0.0
  0
LINE
  5
C4
  8
0
  6
CONTINUOUS
 62
     7
 10
352.4862685987
 20
174.6867976587
 30
0.0
 11
352.4862685987
 21
176.6515038412
 31
0.0
  0
LINE
  5
C5
  8
0
  6
CONTINUOUS
 62
     7
 10
353.2862702199
 20
176.6515038412
 30
0.0
 11
353.2862702199
 21
177.9630444448
 31
0.0
  0
ARC
  5
C6
  8
0
  6
CONTINUOUS
 62
     7
 10
353.4862707921
 20
177.9026582757
 30
0.0
 40
1.0
 50
138.1768700679
 51
180.0
  0
LINE
  5
C7
  8
0
  6
CONTINUOUS
 62
     7
 10
352.4862685987
 20
177.9026589792
 30
0.0
 11
352.4862685987
 21
176.6515038412
 31
0.0
  0
LINE
  5
C8
  8
0
  6
CONTINUOUS
 62
     7
 10
353.2862702199
 20
174.6867976587
 30
0.0
 11
353.2862702199
 21
168.8645444315
 31
0.0
  0
LINE
  5
C9
  8
0
  6
CONTINUOUS
 62
     7
 10
352.4862685987
 20
168.8645444315
 30
0.0
 11
352.4862685987
 21
174.6867976587
 31
0.0
  0
LINE
  5
CA
  8
0
  6
CONTINUOUS
 62
     7
 10
353.2862702199
 20
168.5999534529
 30
0.0
 11
353.2862702199
 21
168.8645444315
 31
0.0
  0
LINE
  5
CB
  8
0
  6
CONTINUOUS
 62
     7
 10
352.4862685987
 20
168.8645444315
 30
0.0
 11
352.4862685987
 21
168.5999534529
 31
0.0
  0
LINE
  5
CC
  8
0
  6
CONTINUOUS
 62
     7
 10
353.2862702199
 20
168.5999534529
 30
0.0
 11
353.2862702199
 21
166.7075834673
 31
0.0
  0
LINE
  5
CD
  8
0
  6
CONTINUOUS
 62
     7
 10
352.4862685987
 20
166.7075834673
 30
0.0
 11
352.4862685987
 21
168.5999534529
 31
0.0
  0
LINE
  5
CE
  8
0
  6
CONTINUOUS
 62
     7
 10
353.2862702199
 20
166.7075834673
 30
0.0
 11
353.2862702199
 21
163.2956109445
 31
0.0
  0
LINE
  5
CF
  8
0
  6
CONTINUOUS
 62
     7
 10
352.4862685987
 20
163.2956109445
 30
0.0
 11
352.4862685987
 21
166.7075834673
 31
0.0
  0
LINE
  5
D0
  8
0
  6
CONTINUOUS
 62
     7
 10
353.2862702199
 20
163.2956109445
 30
0.0
 11
353.2862702199
 21
161.3998732965
 31
0.0
  0
LINE
  5
D1
  8
0
  6
CONTINUOUS
 62
     7
 10
352.4862685987
 20
161.3998732965
 30
0.0
 11
352.4862685987
 21
163.2956109445
 31
0.0
  0
LINE
  5
D2
  8
0
  6
CONTINUOUS
 62
     7
 10
353.2862702199
 20
159.3998752039
 30
0.0
 11
352.4862685987
 21
159.3998752039
 31
0.0
  0
LINE
  5
D3
  8
0
  6
CONTINUOUS
 62
     7
 10
353.2862702199
 20
161.3998732965
 30
0.0
 11
353.2862702199
 21
159.3998752039
 31
0.0
  0
LINE
  5
D4
  8
0
  6
CONTINUOUS
 62
     7
 10
352.4862685987
 20
159.3998752039
 30
0.0
 11
352.4862685987
 21
161.3998732965
 31
0.0
  0
LINE
  5
D5
  8
0
  6
CONTINUOUS
 62
     7
 10
347.6862707921
 20
162.1998749178
 30
0.0
 11
347.6862707921
 21
154.7998748224
 31
0.0
  0
LINE
  5
D6
  8
0
  6
CONTINUOUS
 62
     7
 10
357.6862731763
 20
162.1998749178
 30
0.0
 11
357.6862731763
 21
154.7998748224
 31
0.0
  0
LINE
  5
D7
  8
0
  6
CONTINUOUS
 62
     7
 10
355.6862750837
 20
152.7998707693
 30
0.0
 11
349.6862688848
 21
152.7998707693
 31
0.0
  0
ARC
  5
D8
  8
0
  6
CONTINUOUS
 62
     7
 10
355.6862707921
 20
154.7998723429
 30
0.0
 40
2.0
 50
270.0
 51
0.0
  0
ARC
  5
D9
  8
0
  6
CONTINUOUS
 62
     7
 10
349.6862707921
 20
154.7998723429
 30
0.0
 40
2.0
 50
180.0
 51
270.0
  0
LINE
  5
DA
  8
0
  6
CONTINUOUS
 62
     7
 10
352.4862685987
 20
163.1998739641
 30
0.0
 11
347.6862707921
 21
163.1998739641
 31
0.0
  0
LINE
  5
DB
  8
0
  6
CONTINUOUS
 62
     7
 10
347.6862707921
 20
163.1998739641
 30
0.0
 11
347.6862707921
 21
162.1998749178
 31
0.0
  0
LINE
  5
DC
  8
0
  6
CONTINUOUS
 62
     7
 10
357.6862731763
 20
163.1998739641
 30
0.0
 11
353.2862702199
 21
163.1998739641
 31
0.0
  0
LINE
  5
DD
  8
0
  6
CONTINUOUS
 62
     7
 10
357.6862731763
 20
163.1998739641
 30
0.0
 11
357.6862731763
 21
162.1998749178
 31
0.0
  0
LINE
  5
DE
  8
0
  6
CONTINUOUS
 62
     7
 10
-6.7137202433
 20
176.6515038412
 30
0.0
 11
-6.7137202433
 21
177.9630444448
 31
0.0
  0
LINE
  5
DF
  8
0
  6
CONTINUOUS
 62
     7
 10
-7.5137337855
 20
177.9026589792
 30
0.0
 11
-7.5137337855
 21
176.6515038412
 31
0.0
  0
ARC
  5
E0
  8
0
  6
CONTINUOUS
 62
     7
 10
-6.5137292079
 20
177.9026582757
 30
0.0
 40
1.000000000000001
 50
138.1768700679
 51
180.0
  0
LINE
  5
E1
  8
0
  6
CONTINUOUS
 62
     7
 10
-6.7137202433
 20
176.6515038412
 30
0.0
 11
-6.7137202433
 21
174.6867976587
 31
0.0
  0
LINE
  5
E2
  8
0
  6
CONTINUOUS
 62
     7
 10
-7.5137337855
 20
174.6867976587
 30
0.0
 11
-7.5137337855
 21
176.6515038412
 31
0.0
  0
LINE
  5
E3
  8
0
  6
CONTINUOUS
 62
     7
 10
-6.7137202433
 20
174.6867976587
 30
0.0
 11
-6.7137202433
 21
168.8645444315
 31
0.0
  0
LINE
  5
E4
  8
0
  6
CONTINUOUS
 62
     7
 10
-7.5137337855
 20
168.8645444315
 30
0.0
 11
-7.5137337855
 21
174.6867976587
 31
0.0
  0
LINE
  5
E5
  8
0
  6
CONTINUOUS
 62
     7
 10
-6.7137202433
 20
168.5999534529
 30
0.0
 11
-6.7137202433
 21
168.8645444315
 31
0.0
  0
LINE
  5
E6
  8
0
  6
CONTINUOUS
 62
     7
 10
-7.5137337855
 20
168.8645444315
 30
0.0
 11
-7.5137337855
 21
168.5999534529
 31
0.0
  0
LINE
  5
E7
  8
0
  6
CONTINUOUS
 62
     7
 10
-6.7137202433
 20
168.5999534529
 30
0.0
 11
-6.7137202433
 21
166.7075834673
 31
0.0
  0
LINE
  5
E8
  8
0
  6
CONTINUOUS
 62
     7
 10
-7.5137337855
 20
166.7075834673
 30
0.0
 11
-7.5137337855
 21
168.5999534529
 31
0.0
  0
LINE
  5
E9
  8
0
  6
CONTINUOUS
 62
     7
 10
-6.7137202433
 20
166.7075834673
 30
0.0
 11
-6.7137202433
 21
163.2956109445
 31
0.0
  0
LINE
  5
EA
  8
0
  6
CONTINUOUS
 62
     7
 10
-7.5137337855
 20
163.2956109445
 30
0.0
 11
-7.5137337855
 21
166.7075834673
 31
0.0
  0
LINE
  5
EB
  8
0
  6
CONTINUOUS
 62
     7
 10
-6.7137202433
 20
159.3998752039
 30
0.0
 11
-7.5137337855
 21
159.3998752039
 31
0.0
  0
LINE
  5
EC
  8
0
  6
CONTINUOUS
 62
     7
 10
-6.7137202433
 20
161.3998732965
 30
0.0
 11
-6.7137202433
 21
159.3998752039
 31
0.0
  0
LINE
  5
ED
  8
0
  6
CONTINUOUS
 62
     7
 10
-7.5137337855
 20
159.3998752039
 30
0.0
 11
-7.5137337855
 21
161.3998732965
 31
0.0
  0
LINE
  5
EE
  8
0
  6
CONTINUOUS
 62
     7
 10
-6.7137202433
 20
163.2956109445
 30
0.0
 11
-6.7137202433
 21
161.3998732965
 31
0.0
  0
LINE
  5
EF
  8
0
  6
CONTINUOUS
 62
     7
 10
-7.5137337855
 20
161.3998732965
 30
0.0
 11
-7.5137337855
 21
163.2956109445
 31
0.0
  0
ARC
  5
F0
  8
0
  6
CONTINUOUS
 62
     7
 10
-10.3137292079
 20
154.7998723429
 30
0.0
 40
2.000000000000002
 50
180.0
 51
270.0
  0
LINE
  5
F1
  8
0
  6
CONTINUOUS
 62
     7
 10
-12.3137196711
 20
162.1998749178
 30
0.0
 11
-12.3137196711
 21
154.7998748224
 31
0.0
  0
LINE
  5
F2
  8
0
  6
CONTINUOUS
 62
     7
 10
-2.3137292079
 20
162.1998749178
 30
0.0
 11
-2.3137292079
 21
154.7998748224
 31
0.0
  0
ARC
  5
F3
  8
0
  6
CONTINUOUS
 62
     7
 10
-4.3137292079
 20
154.7998723429
 30
0.0
 40
2.000000000000002
 50
270.0
 51
0.0
  0
LINE
  5
F4
  8
0
  6
CONTINUOUS
 62
     7
 10
-4.3137273005
 20
152.7998707693
 30
0.0
 11
-10.3137215785
 21
152.7998707693
 31
0.0
  0
LINE
  5
F5
  8
0
  6
CONTINUOUS
 62
     7
 10
-2.3137292079
 20
163.1998739641
 30
0.0
 11
-6.7137202433
 21
163.1998739641
 31
0.0
  0
LINE
  5
F6
  8
0
  6
CONTINUOUS
 62
     7
 10
-2.3137292079
 20
163.1998739641
 30
0.0
 11
-2.3137292079
 21
162.1998749178
 31
0.0
  0
LINE
  5
F7
  8
0
  6
CONTINUOUS
 62
     7
 10
-7.5137337855
 20
163.1998739641
 30
0.0
 11
-12.3137196711
 21
163.1998739641
 31
0.0
  0
LINE
  5
F8
  8
0
  6
CONTINUOUS
 62
     7
 10
-12.3137196711
 20
163.1998739641
 30
0.0
 11
-12.3137196711
 21
162.1998749178
 31
0.0
  0
LINE
  5
F9
  8
0
  6
CONTINUOUS
 62
     7
 10
233.286271412
 20
176.6515038412
 30
0.0
 11
233.286271412
 21
177.9630444448
 31
0.0
  0
LINE
  5
FA
  8
0
  6
CONTINUOUS
 62
     7
 10
232.4862712809
 20
177.9026589792
 30
0.0
 11
232.4862712809
 21
176.6515038412
 31
0.0
  0
ARC
  5
FB
  8
0
  6
CONTINUOUS
 62
     7
 10
233.4862707921
 20
177.9026582757
 30
0.0
 40
1.00000000000001
 50
138.1768700679
 51
180.0
  0
LINE
  5
FC
  8
0
  6
CONTINUOUS
 62
     7
 10
233.286271412
 20
176.6515038412
 30
0.0
 11
233.286271412
 21
174.6867976587
 31
0.0
  0
LINE
  5
FD
  8
0
  6
CONTINUOUS
 62
     7
 10
232.4862712809
 20
174.6867976587
 30
0.0
 11
232.4862712809
 21
176.6515038412
 31
0.0
  0
LINE
  5
FE
  8
0
  6
CONTINUOUS
 62
     7
 10
232.4862712809
 20
168.8645444315
 30
0.0
 11
232.4862712809
 21
174.6867976587
 31
0.0
  0
LINE
  5
FF
  8
0
  6
CONTINUOUS
 62
     7
 10
233.286271412
 20
174.6867976587
 30
0.0
 11
233.286271412
 21
168.8645444315
 31
0.0
  0
LINE
  5
100
  8
0
  6
CONTINUOUS
 62
     7
 10
232.4862712809
 20
168.8645444315
 30
0.0
 11
232.4862712809
 21
168.5999534529
 31
0.0
  0
LINE
  5
101
  8
0
  6
CONTINUOUS
 62
     7
 10
233.286271412
 20
168.5999534529
 30
0.0
 11
233.286271412
 21
168.8645444315
 31
0.0
  0
LINE
  5
102
  8
0
  6
CONTINUOUS
 62
     7
 10
232.4862712809
 20
166.7075834673
 30
0.0
 11
232.4862712809
 21
168.5999534529
 31
0.0
  0
LINE
  5
103
  8
0
  6
CONTINUOUS
 62
     7
 10
233.286271412
 20
168.5999534529
 30
0.0
 11
233.286271412
 21
166.7075834673
 31
0.0
  0
LINE
  5
104
  8
0
  6
CONTINUOUS
 62
     7
 10
232.4862712809
 20
163.2956109445
 30
0.0
 11
232.4862712809
 21
166.7075834673
 31
0.0
  0
LINE
  5
105
  8
0
  6
CONTINUOUS
 62
     7
 10
233.286271412
 20
166.7075834673
 30
0.0
 11
233.286271412
 21
163.2956109445
 31
0.0
  0
LINE
  5
106
  8
0
  6
CONTINUOUS
 62
     7
 10
233.286271412
 20
159.3998752039
 30
0.0
 11
232.4862712809
 21
159.3998752039
 31
0.0
  0
LINE
  5
107
  8
0
  6
CONTINUOUS
 62
     7
 10
232.4862712809
 20
159.3998752039
 30
0.0
 11
232.4862712809
 21
161.3998732965
 31
0.0
  0
LINE
  5
108
  8
0
  6
CONTINUOUS
 62
     7
 10
233.286271412
 20
161.3998732965
 30
0.0
 11
233.286271412
 21
159.3998752039
 31
0.0
  0
LINE
  5
109
  8
0
  6
CONTINUOUS
 62
     7
 10
232.4862712809
 20
161.3998732965
 30
0.0
 11
232.4862712809
 21
163.2956109445
 31
0.0
  0
LINE
  5
10A
  8
0
  6
CONTINUOUS
 62
     7
 10
233.286271412
 20
163.2956109445
 30
0.0
 11
233.286271412
 21
161.3998732965
 31
0.0
  0
LINE
  5
10B
  8
0
  6
CONTINUOUS
 62
     7
 10
227.6862704941
 20
162.1998749178
 30
0.0
 11
227.6862704941
 21
154.7998748224
 31
0.0
  0
LINE
  5
10C
  8
0
  6
CONTINUOUS
 62
     7
 10
237.6862713882
 20
162.1998749178
 30
0.0
 11
237.6862713882
 21
154.7998748224
 31
0.0
  0
ARC
  5
10D
  8
0
  6
CONTINUOUS
 62
     7
 10
235.6862707921
 20
154.7998723429
 30
0.0
 40
2.0
 50
270.0
 51
0.0
  0
LINE
  5
10E
  8
0
  6
CONTINUOUS
 62
     7
 10
235.6862703153
 20
152.7998707693
 30
0.0
 11
229.6862700769
 21
152.7998707693
 31
0.0
  0
ARC
  5
10F
  8
0
  6
CONTINUOUS
 62
     7
 10
229.6862707921
 20
154.7998723429
 30
0.0
 40
2.0
 50
180.0
 51
270.0
  0
LINE
  5
110
  8
0
  6
CONTINUOUS
 62
     7
 10
232.4862712809
 20
163.1998739641
 30
0.0
 11
227.6862704941
 21
163.1998739641
 31
0.0
  0
LINE
  5
111
  8
0
  6
CONTINUOUS
 62
     7
 10
227.6862704941
 20
163.1998739641
 30
0.0
 11
227.6862704941
 21
162.1998749178
 31
0.0
  0
LINE
  5
112
  8
0
  6
CONTINUOUS
 62
     7
 10
237.6862713882
 20
163.1998739641
 30
0.0
 11
233.286271412
 21
163.1998739641
 31
0.0
  0
LINE
  5
113
  8
0
  6
CONTINUOUS
 62
     7
 10
237.6862713882
 20
163.1998739641
 30
0.0
 11
237.6862713882
 21
162.1998749178
 31
0.0
  0
LINE
  5
114
  8
0
  6
CONTINUOUS
 62
     7
 10
113.2862726041
 20
176.6515038412
 30
0.0
 11
113.2862726041
 21
174.6867976587
 31
0.0
  0
LINE
  5
115
  8
0
  6
CONTINUOUS
 62
     7
 10
112.4862709829
 20
174.6867976587
 30
0.0
 11
112.4862709829
 21
176.6515038412
 31
0.0
  0
LINE
  5
116
  8
0
  6
CONTINUOUS
 62
     7
 10
113.2862726041
 20
176.6515038412
 30
0.0
 11
113.2862726041
 21
177.9630444448
 31
0.0
  0
LINE
  5
117
  8
0
  6
CONTINUOUS
 62
     7
 10
112.4862709829
 20
177.9026589792
 30
0.0
 11
112.4862709829
 21
176.6515038412
 31
0.0
  0
ARC
  5
118
  8
0
  6
CONTINUOUS
 62
     7
 10
113.4862707921
 20
177.9026582757
 30
0.0
 40
1.0
 50
138.1768700679
 51
180.0
  0
LINE
  5
119
  8
0
  6
CONTINUOUS
 62
     7
 10
113.2862726041
 20
174.6867976587
 30
0.0
 11
113.2862726041
 21
168.8645444315
 31
0.0
  0
LINE
  5
11A
  8
0
  6
CONTINUOUS
 62
     7
 10
112.4862709829
 20
168.8645444315
 30
0.0
 11
112.4862709829
 21
174.6867976587
 31
0.0
  0
LINE
  5
11B
  8
0
  6
CONTINUOUS
 62
     7
 10
113.2862726041
 20
168.5999534529
 30
0.0
 11
113.2862726041
 21
168.8645444315
 31
0.0
  0
LINE
  5
11C
  8
0
  6
CONTINUOUS
 62
     7
 10
112.4862709829
 20
168.8645444315
 30
0.0
 11
112.4862709829
 21
168.5999534529
 31
0.0
  0
LINE
  5
11D
  8
0
  6
CONTINUOUS
 62
     7
 10
113.2862726041
 20
168.5999534529
 30
0.0
 11
113.2862726041
 21
166.7075834673
 31
0.0
  0
LINE
  5
11E
  8
0
  6
CONTINUOUS
 62
     7
 10
112.4862709829
 20
166.7075834673
 30
0.0
 11
112.4862709829
 21
168.5999534529
 31
0.0
  0
LINE
  5
11F
  8
0
  6
CONTINUOUS
 62
     7
 10
113.2862726041
 20
166.7075834673
 30
0.0
 11
113.2862726041
 21
163.2956109445
 31
0.0
  0
LINE
  5
120
  8
0
  6
CONTINUOUS
 62
     7
 10
112.4862709829
 20
163.2956109445
 30
0.0
 11
112.4862709829
 21
166.7075834673
 31
0.0
  0
LINE
  5
121
  8
0
  6
CONTINUOUS
 62
     7
 10
113.2862726041
 20
163.2956109445
 30
0.0
 11
113.2862726041
 21
161.3998732965
 31
0.0
  0
LINE
  5
122
  8
0
  6
CONTINUOUS
 62
     7
 10
112.4862709829
 20
161.3998732965
 30
0.0
 11
112.4862709829
 21
163.2956109445
 31
0.0
  0
LINE
  5
123
  8
0
  6
CONTINUOUS
 62
     7
 10
113.2862726041
 20
159.3998752039
 30
0.0
 11
112.4862709829
 21
159.3998752039
 31
0.0
  0
LINE
  5
124
  8
0
  6
CONTINUOUS
 62
     7
 10
113.2862726041
 20
161.3998732965
 30
0.0
 11
113.2862726041
 21
159.3998752039
 31
0.0
  0
LINE
  5
125
  8
0
  6
CONTINUOUS
 62
     7
 10
112.4862709829
 20
159.3998752039
 30
0.0
 11
112.4862709829
 21
161.3998732965
 31
0.0
  0
LINE
  5
126
  8
0
  6
CONTINUOUS
 62
     7
 10
107.6862731763
 20
162.1998749178
 30
0.0
 11
107.6862731763
 21
154.7998748224
 31
0.0
  0
LINE
  5
127
  8
0
  6
CONTINUOUS
 62
     7
 10
117.6862696
 20
162.1998749178
 30
0.0
 11
117.6862696
 21
154.7998748224
 31
0.0
  0
ARC
  5
128
  8
0
  6
CONTINUOUS
 62
     7
 10
115.6862707921
 20
154.7998723429
 30
0.0
 40
2.0
 50
270.0
 51
0.0
  0
LINE
  5
129
  8
0
  6
CONTINUOUS
 62
     7
 10
115.6862715074
 20
152.7998707693
 30
0.0
 11
109.686271269
 21
152.7998707693
 31
0.0
  0
ARC
  5
12A
  8
0
  6
CONTINUOUS
 62
     7
 10
109.6862707921
 20
154.7998723429
 30
0.0
 40
2.0
 50
180.0
 51
270.0
  0
LINE
  5
12B
  8
0
  6
CONTINUOUS
 62
     7
 10
112.4862709829
 20
163.1998739641
 30
0.0
 11
107.6862731763
 21
163.1998739641
 31
0.0
  0
LINE
  5
12C
  8
0
  6
CONTINUOUS
 62
     7
 10
107.6862731763
 20
163.1998739641
 30
0.0
 11
107.6862731763
 21
162.1998749178
 31
0.0
  0
LINE
  5
12D
  8
0
  6
CONTINUOUS
 62
     7
 10
117.6862696
 20
163.1998739641
 30
0.0
 11
113.2862726041
 21
163.1998739641
 31
0.0
  0
LINE
  5
12E
  8
0
  6
CONTINUOUS
 62
     7
 10
117.6862696
 20
163.1998739641
 30
0.0
 11
117.6862696
 21
162.1998749178
 31
0.0
  0
ARC
  5
12F
  8
0
  6
CONTINUOUS
 62
     7
 10
66.8862707921
 20
177.9026582757
 30
0.0
 40
1.000000000000014
 50
0.0
 51
42.1872028391
  0
LINE
  5
130
  8
0
  6
CONTINUOUS
 62
     7
 10
67.8862729856
 20
177.9026589792
 30
0.0
 11
67.8862729856
 21
176.6515038412
 31
0.0
  0
LINE
  5
131
  8
0
  6
CONTINUOUS
 62
     7
 10
67.0862713643
 20
176.6515038412
 30
0.0
 11
67.0862713643
 21
177.955295841
 31
0.0
  0
LINE
  5
132
  8
0
  6
CONTINUOUS
 62
     7
 10
67.8862729856
 20
174.6867976587
 30
0.0
 11
67.8862729856
 21
176.6515038412
 31
0.0
  0
LINE
  5
133
  8
0
  6
CONTINUOUS
 62
     7
 10
67.0862713643
 20
176.6515038412
 30
0.0
 11
67.0862713643
 21
174.6867976587
 31
0.0
  0
LINE
  5
134
  8
0
  6
CONTINUOUS
 62
     7
 10
67.8862729856
 20
168.8645444315
 30
0.0
 11
67.8862729856
 21
174.6867976587
 31
0.0
  0
LINE
  5
135
  8
0
  6
CONTINUOUS
 62
     7
 10
67.0862713643
 20
174.6867976587
 30
0.0
 11
67.0862713643
 21
168.8645444315
 31
0.0
  0
LINE
  5
136
  8
0
  6
CONTINUOUS
 62
     7
 10
67.8862729856
 20
168.8645444315
 30
0.0
 11
67.8862729856
 21
168.5999534529
 31
0.0
  0
LINE
  5
137
  8
0
  6
CONTINUOUS
 62
     7
 10
67.0862713643
 20
168.5999534529
 30
0.0
 11
67.0862713643
 21
168.8645444315
 31
0.0
  0
LINE
  5
138
  8
0
  6
CONTINUOUS
 62
     7
 10
67.8862729856
 20
166.7075834673
 30
0.0
 11
67.8862729856
 21
168.5999534529
 31
0.0
  0
LINE
  5
139
  8
0
  6
CONTINUOUS
 62
     7
 10
67.0862713643
 20
168.5999534529
 30
0.0
 11
67.0862713643
 21
166.7075834673
 31
0.0
  0
LINE
  5
13A
  8
0
  6
CONTINUOUS
 62
     7
 10
67.8862729856
 20
163.2956109445
 30
0.0
 11
67.8862729856
 21
166.7075834673
 31
0.0
  0
LINE
  5
13B
  8
0
  6
CONTINUOUS
 62
     7
 10
67.0862713643
 20
166.7075834673
 30
0.0
 11
67.0862713643
 21
163.2956109445
 31
0.0
  0
LINE
  5
13C
  8
0
  6
CONTINUOUS
 62
     7
 10
67.0862713643
 20
159.3998752039
 30
0.0
 11
67.8862729856
 21
159.3998752039
 31
0.0
  0
LINE
  5
13D
  8
0
  6
CONTINUOUS
 62
     7
 10
67.8862729856
 20
159.3998752039
 30
0.0
 11
67.8862729856
 21
161.3998732965
 31
0.0
  0
LINE
  5
13E
  8
0
  6
CONTINUOUS
 62
     7
 10
67.0862713643
 20
161.3998732965
 30
0.0
 11
67.0862713643
 21
159.3998752039
 31
0.0
  0
LINE
  5
13F
  8
0
  6
CONTINUOUS
 62
     7
 10
67.8862729856
 20
161.3998732965
 30
0.0
 11
67.8862729856
 21
163.2956109445
 31
0.0
  0
LINE
  5
140
  8
0
  6
CONTINUOUS
 62
     7
 10
67.0862713643
 20
163.2956109445
 30
0.0
 11
67.0862713643
 21
161.3998732965
 31
0.0
  0
LINE
  5
141
  8
0
  6
CONTINUOUS
 62
     7
 10
62.6862684079
 20
162.1998749178
 30
0.0
 11
62.6862684079
 21
154.7998748224
 31
0.0
  0
LINE
  5
142
  8
0
  6
CONTINUOUS
 62
     7
 10
72.6862707921
 20
162.1998749178
 30
0.0
 11
72.6862707921
 21
154.7998748224
 31
0.0
  0
LINE
  5
143
  8
0
  6
CONTINUOUS
 62
     7
 10
64.6862665006
 20
152.7998707693
 30
0.0
 11
70.6862726995
 21
152.7998707693
 31
0.0
  0
ARC
  5
144
  8
0
  6
CONTINUOUS
 62
     7
 10
64.6862707921
 20
154.7998723429
 30
0.0
 40
2.0
 50
180.0
 51
270.0
  0
ARC
  5
145
  8
0
  6
CONTINUOUS
 62
     7
 10
70.6862707921
 20
154.7998723429
 30
0.0
 40
2.000000000000014
 50
270.0
 51
0.0
  0
LINE
  5
146
  8
0
  6
CONTINUOUS
 62
     7
 10
62.6862684079
 20
163.1998739641
 30
0.0
 11
67.0862713643
 21
163.1998739641
 31
0.0
  0
LINE
  5
147
  8
0
  6
CONTINUOUS
 62
     7
 10
62.6862684079
 20
163.1998739641
 30
0.0
 11
62.6862684079
 21
162.1998749178
 31
0.0
  0
LINE
  5
148
  8
0
  6
CONTINUOUS
 62
     7
 10
67.8862729856
 20
163.1998739641
 30
0.0
 11
72.6862707921
 21
163.1998739641
 31
0.0
  0
LINE
  5
149
  8
0
  6
CONTINUOUS
 62
     7
 10
72.6862707921
 20
163.1998739641
 30
0.0
 11
72.6862707921
 21
162.1998749178
 31
0.0
  0
LINE
  5
14A
  8
0
  6
CONTINUOUS
 62
     7
 10
187.0862701722
 20
176.6515038412
 30
0.0
 11
187.0862701722
 21
174.6867976587
 31
0.0
  0
LINE
  5
14B
  8
0
  6
CONTINUOUS
 62
     7
 10
187.8862703034
 20
174.6867976587
 30
0.0
 11
187.8862703034
 21
176.6515038412
 31
0.0
  0
LINE
  5
14C
  8
0
  6
CONTINUOUS
 62
     7
 10
187.0862701722
 20
176.6515038412
 30
0.0
 11
187.0862701722
 21
177.955295841
 31
0.0
  0
ARC
  5
14D
  8
0
  6
CONTINUOUS
 62
     7
 10
186.8862707921
 20
177.9026582757
 30
0.0
 40
1.0
 50
0.0
 51
42.1872028391
  0
LINE
  5
14E
  8
0
  6
CONTINUOUS
 62
     7
 10
187.8862703034
 20
177.9026589792
 30
0.0
 11
187.8862703034
 21
176.6515038412
 31
0.0
  0
LINE
  5
14F
  8
0
  6
CONTINUOUS
 62
     7
 10
187.0862701722
 20
174.6867976587
 30
0.0
 11
187.0862701722
 21
168.8645444315
 31
0.0
  0
LINE
  5
150
  8
0
  6
CONTINUOUS
 62
     7
 10
187.8862703034
 20
168.8645444315
 30
0.0
 11
187.8862703034
 21
174.6867976587
 31
0.0
  0
LINE
  5
151
  8
0
  6
CONTINUOUS
 62
     7
 10
187.0862701722
 20
168.5999534529
 30
0.0
 11
187.0862701722
 21
168.8645444315
 31
0.0
  0
LINE
  5
152
  8
0
  6
CONTINUOUS
 62
     7
 10
187.8862703034
 20
168.8645444315
 30
0.0
 11
187.8862703034
 21
168.5999534529
 31
0.0
  0
LINE
  5
153
  8
0
  6
CONTINUOUS
 62
     7
 10
187.0862701722
 20
168.5999534529
 30
0.0
 11
187.0862701722
 21
166.7075834673
 31
0.0
  0
LINE
  5
154
  8
0
  6
CONTINUOUS
 62
     7
 10
187.8862703034
 20
166.7075834673
 30
0.0
 11
187.8862703034
 21
168.5999534529
 31
0.0
  0
LINE
  5
155
  8
0
  6
CONTINUOUS
 62
     7
 10
187.0862701722
 20
166.7075834673
 30
0.0
 11
187.0862701722
 21
163.2956109445
 31
0.0
  0
LINE
  5
156
  8
0
  6
CONTINUOUS
 62
     7
 10
187.8862703034
 20
163.2956109445
 30
0.0
 11
187.8862703034
 21
166.7075834673
 31
0.0
  0
LINE
  5
157
  8
0
  6
CONTINUOUS
 62
     7
 10
187.0862701722
 20
159.3998752039
 30
0.0
 11
187.8862703034
 21
159.3998752039
 31
0.0
  0
LINE
  5
158
  8
0
  6
CONTINUOUS
 62
     7
 10
187.0862701722
 20
161.3998732965
 30
0.0
 11
187.0862701722
 21
159.3998752039
 31
0.0
  0
LINE
  5
159
  8
0
  6
CONTINUOUS
 62
     7
 10
187.8862703034
 20
159.3998752039
 30
0.0
 11
187.8862703034
 21
161.3998732965
 31
0.0
  0
LINE
  5
15A
  8
0
  6
CONTINUOUS
 62
     7
 10
187.0862701722
 20
163.2956109445
 30
0.0
 11
187.0862701722
 21
161.3998732965
 31
0.0
  0
LINE
  5
15B
  8
0
  6
CONTINUOUS
 62
     7
 10
187.8862703034
 20
161.3998732965
 30
0.0
 11
187.8862703034
 21
163.2956109445
 31
0.0
  0
LINE
  5
15C
  8
0
  6
CONTINUOUS
 62
     7
 10
182.6862701961
 20
162.1998749178
 30
0.0
 11
182.6862701961
 21
154.7998748224
 31
0.0
  0
LINE
  5
15D
  8
0
  6
CONTINUOUS
 62
     7
 10
192.6862710901
 20
162.1998749178
 30
0.0
 11
192.6862710901
 21
154.7998748224
 31
0.0
  0
LINE
  5
15E
  8
0
  6
CONTINUOUS
 62
     7
 10
184.686271269
 20
152.7998707693
 30
0.0
 11
190.6862715074
 21
152.7998707693
 31
0.0
  0
ARC
  5
15F
  8
0
  6
CONTINUOUS
 62
     7
 10
184.6862707921
 20
154.7998723429
 30
0.0
 40
2.0
 50
180.0
 51
270.0
  0
ARC
  5
160
  8
0
  6
CONTINUOUS
 62
     7
 10
190.6862707921
 20
154.7998723429
 30
0.0
 40
2.0
 50
270.0
 51
0.0
  0
LINE
  5
161
  8
0
  6
CONTINUOUS
 62
     7
 10
187.8862703034
 20
163.1998739641
 30
0.0
 11
192.6862710901
 21
163.1998739641
 31
0.0
  0
LINE
  5
162
  8
0
  6
CONTINUOUS
 62
     7
 10
192.6862710901
 20
163.1998739641
 30
0.0
 11
192.6862710901
 21
162.1998749178
 31
0.0
  0
LINE
  5
163
  8
0
  6
CONTINUOUS
 62
     7
 10
182.6862701961
 20
163.1998739641
 30
0.0
 11
187.0862701722
 21
163.1998739641
 31
0.0
  0
LINE
  5
164
  8
0
  6
CONTINUOUS
 62
     7
 10
182.6862701961
 20
163.1998739641
 30
0.0
 11
182.6862701961
 21
162.1998749178
 31
0.0
  0
ARC
  5
165
  8
0
  6
CONTINUOUS
 62
     7
 10
426.8862707921
 20
177.9026582757
 30
0.0
 40
1.000000000000028
 50
0.0
 51
42.1872028391
  0
LINE
  5
166
  8
0
  6
CONTINUOUS
 62
     7
 10
427.0862618276
 20
176.6515038412
 30
0.0
 11
427.0862618276
 21
177.955295841
 31
0.0
  0
LINE
  5
167
  8
0
  6
CONTINUOUS
 62
     7
 10
427.8862753698
 20
177.9026589792
 30
0.0
 11
427.8862753698
 21
176.6515038412
 31
0.0
  0
LINE
  5
168
  8
0
  6
CONTINUOUS
 62
     7
 10
427.0862618276
 20
176.6515038412
 30
0.0
 11
427.0862618276
 21
174.6867976587
 31
0.0
  0
LINE
  5
169
  8
0
  6
CONTINUOUS
 62
     7
 10
427.8862753698
 20
174.6867976587
 30
0.0
 11
427.8862753698
 21
176.6515038412
 31
0.0
  0
LINE
  5
16A
  8
0
  6
CONTINUOUS
 62
     7
 10
427.0862618276
 20
174.6867976587
 30
0.0
 11
427.0862618276
 21
168.8645444315
 31
0.0
  0
LINE
  5
16B
  8
0
  6
CONTINUOUS
 62
     7
 10
427.8862753698
 20
168.8645444315
 30
0.0
 11
427.8862753698
 21
174.6867976587
 31
0.0
  0
LINE
  5
16C
  8
0
  6
CONTINUOUS
 62
     7
 10
427.0862618276
 20
168.5999534529
 30
0.0
 11
427.0862618276
 21
168.8645444315
 31
0.0
  0
LINE
  5
16D
  8
0
  6
CONTINUOUS
 62
     7
 10
427.8862753698
 20
168.8645444315
 30
0.0
 11
427.8862753698
 21
168.5999534529
 31
0.0
  0
LINE
  5
16E
  8
0
  6
CONTINUOUS
 62
     7
 10
427.0862618276
 20
168.5999534529
 30
0.0
 11
427.0862618276
 21
166.7075834673
 31
0.0
  0
LINE
  5
16F
  8
0
  6
CONTINUOUS
 62
     7
 10
427.8862753698
 20
166.7075834673
 30
0.0
 11
427.8862753698
 21
168.5999534529
 31
0.0
  0
LINE
  5
170
  8
0
  6
CONTINUOUS
 62
     7
 10
427.0862618276
 20
166.7075834673
 30
0.0
 11
427.0862618276
 21
163.2956109445
 31
0.0
  0
LINE
  5
171
  8
0
  6
CONTINUOUS
 62
     7
 10
427.8862753698
 20
163.2956109445
 30
0.0
 11
427.8862753698
 21
166.7075834673
 31
0.0
  0
LINE
  5
172
  8
0
  6
CONTINUOUS
 62
     7
 10
427.0862618276
 20
163.2956109445
 30
0.0
 11
427.0862618276
 21
161.3998732965
 31
0.0
  0
LINE
  5
173
  8
0
  6
CONTINUOUS
 62
     7
 10
427.8862753698
 20
161.3998732965
 30
0.0
 11
427.8862753698
 21
163.2956109445
 31
0.0
  0
LINE
  5
174
  8
0
  6
CONTINUOUS
 62
     7
 10
427.0862618276
 20
159.3998752039
 30
0.0
 11
427.8862753698
 21
159.3998752039
 31
0.0
  0
LINE
  5
175
  8
0
  6
CONTINUOUS
 62
     7
 10
427.0862618276
 20
161.3998732965
 30
0.0
 11
427.0862618276
 21
159.3998752039
 31
0.0
  0
LINE
  5
176
  8
0
  6
CONTINUOUS
 62
     7
 10
427.8862753698
 20
159.3998752039
 30
0.0
 11
427.8862753698
 21
161.3998732965
 31
0.0
  0
ARC
  5
177
  8
0
  6
CONTINUOUS
 62
     7
 10
424.6862707921
 20
154.7998723429
 30
0.0
 40
2.0
 50
180.0
 51
270.0
  0
LINE
  5
178
  8
0
  6
CONTINUOUS
 62
     7
 10
422.6862707921
 20
162.1998749178
 30
0.0
 11
422.6862707921
 21
154.7998748224
 31
0.0
  0
LINE
  5
179
  8
0
  6
CONTINUOUS
 62
     7
 10
432.6862612554
 20
162.1998749178
 30
0.0
 11
432.6862612554
 21
154.7998748224
 31
0.0
  0
ARC
  5
17A
  8
0
  6
CONTINUOUS
 62
     7
 10
430.6862707921
 20
154.7998723429
 30
0.0
 40
2.0
 50
270.0
 51
0.0
  0
LINE
  5
17B
  8
0
  6
CONTINUOUS
 62
     7
 10
424.6862688848
 20
152.7998707693
 30
0.0
 11
430.6862631627
 21
152.7998707693
 31
0.0
  0
LINE
  5
17C
  8
0
  6
CONTINUOUS
 62
     7
 10
427.8862753698
 20
163.1998739641
 30
0.0
 11
432.6862612554
 21
163.1998739641
 31
0.0
  0
LINE
  5
17D
  8
0
  6
CONTINUOUS
 62
     7
 10
432.6862612554
 20
163.1998739641
 30
0.0
 11
432.6862612554
 21
162.1998749178
 31
0.0
  0
LINE
  5
17E
  8
0
  6
CONTINUOUS
 62
     7
 10
422.6862707921
 20
163.1998739641
 30
0.0
 11
427.0862618276
 21
163.1998739641
 31
0.0
  0
LINE
  5
17F
  8
0
  6
CONTINUOUS
 62
     7
 10
422.6862707921
 20
163.1998739641
 30
0.0
 11
422.6862707921
 21
162.1998749178
 31
0.0
  0
ARC
  5
180
  8
0
  6
CONTINUOUS
 62
     7
 10
306.8862707921
 20
177.9026582757
 30
0.0
 40
1.000000000000009
 50
0.0
 51
42.1872028391
  0
LINE
  5
181
  8
0
  6
CONTINUOUS
 62
     7
 10
307.0862689801
 20
176.6515038412
 30
0.0
 11
307.0862689801
 21
177.955295841
 31
0.0
  0
LINE
  5
182
  8
0
  6
CONTINUOUS
 62
     7
 10
307.8862706014
 20
177.9026589792
 30
0.0
 11
307.8862706014
 21
176.6515038412
 31
0.0
  0
LINE
  5
183
  8
0
  6
CONTINUOUS
 62
     7
 10
307.0862689801
 20
176.6515038412
 30
0.0
 11
307.0862689801
 21
174.6867976587
 31
0.0
  0
LINE
  5
184
  8
0
  6
CONTINUOUS
 62
     7
 10
307.8862706014
 20
174.6867976587
 30
0.0
 11
307.8862706014
 21
176.6515038412
 31
0.0
  0
LINE
  5
185
  8
0
  6
CONTINUOUS
 62
     7
 10
307.0862689801
 20
174.6867976587
 30
0.0
 11
307.0862689801
 21
168.8645444315
 31
0.0
  0
LINE
  5
186
  8
0
  6
CONTINUOUS
 62
     7
 10
307.8862706014
 20
168.8645444315
 30
0.0
 11
307.8862706014
 21
174.6867976587
 31
0.0
  0
LINE
  5
187
  8
0
  6
CONTINUOUS
 62
     7
 10
307.0862689801
 20
168.5999534529
 30
0.0
 11
307.0862689801
 21
168.8645444315
 31
0.0
  0
LINE
  5
188
  8
0
  6
CONTINUOUS
 62
     7
 10
307.8862706014
 20
168.8645444315
 30
0.0
 11
307.8862706014
 21
168.5999534529
 31
0.0
  0
LINE
  5
189
  8
0
  6
CONTINUOUS
 62
     7
 10
307.0862689801
 20
168.5999534529
 30
0.0
 11
307.0862689801
 21
166.7075834673
 31
0.0
  0
LINE
  5
18A
  8
0
  6
CONTINUOUS
 62
     7
 10
307.8862706014
 20
166.7075834673
 30
0.0
 11
307.8862706014
 21
168.5999534529
 31
0.0
  0
LINE
  5
18B
  8
0
  6
CONTINUOUS
 62
     7
 10
307.0862689801
 20
166.7075834673
 30
0.0
 11
307.0862689801
 21
163.2956109445
 31
0.0
  0
LINE
  5
18C
  8
0
  6
CONTINUOUS
 62
     7
 10
307.8862706014
 20
163.2956109445
 30
0.0
 11
307.8862706014
 21
166.7075834673
 31
0.0
  0
LINE
  5
18D
  8
0
  6
CONTINUOUS
 62
     7
 10
307.0862689801
 20
163.2956109445
 30
0.0
 11
307.0862689801
 21
161.3998732965
 31
0.0
  0
LINE
  5
18E
  8
0
  6
CONTINUOUS
 62
     7
 10
307.8862706014
 20
161.3998732965
 30
0.0
 11
307.8862706014
 21
163.2956109445
 31
0.0
  0
LINE
  5
18F
  8
0
  6
CONTINUOUS
 62
     7
 10
307.0862689801
 20
159.3998752039
 30
0.0
 11
307.8862706014
 21
159.3998752039
 31
0.0
  0
LINE
  5
190
  8
0
  6
CONTINUOUS
 62
     7
 10
307.0862689801
 20
161.3998732965
 30
0.0
 11
307.0862689801
 21
159.3998752039
 31
0.0
  0
LINE
  5
191
  8
0
  6
CONTINUOUS
 62
     7
 10
307.8862706014
 20
159.3998752039
 30
0.0
 11
307.8862706014
 21
161.3998732965
 31
0.0
  0
ARC
  5
192
  8
0
  6
CONTINUOUS
 62
     7
 10
304.6862707921
 20
154.7998723429
 30
0.0
 40
2.0
 50
180.0
 51
270.0
  0
LINE
  5
193
  8
0
  6
CONTINUOUS
 62
     7
 10
302.6862719842
 20
162.1998749178
 30
0.0
 11
302.6862719842
 21
154.7998748224
 31
0.0
  0
LINE
  5
194
  8
0
  6
CONTINUOUS
 62
     7
 10
312.6862684079
 20
162.1998749178
 30
0.0
 11
312.6862684079
 21
154.7998748224
 31
0.0
  0
ARC
  5
195
  8
0
  6
CONTINUOUS
 62
     7
 10
310.6862707921
 20
154.7998723429
 30
0.0
 40
2.0
 50
270.0
 51
0.0
  0
LINE
  5
196
  8
0
  6
CONTINUOUS
 62
     7
 10
304.6862700769
 20
152.7998707693
 30
0.0
 11
310.6862703153
 21
152.7998707693
 31
0.0
  0
LINE
  5
197
  8
0
  6
CONTINUOUS
 62
     7
 10
307.8862706014
 20
163.1998739641
 30
0.0
 11
312.6862684079
 21
163.1998739641
 31
0.0
  0
LINE
  5
198
  8
0
  6
CONTINUOUS
 62
     7
 10
312.6862684079
 20
163.1998739641
 30
0.0
 11
312.6862684079
 21
162.1998749178
 31
0.0
  0
LINE
  5
199
  8
0
  6
CONTINUOUS
 62
     7
 10
302.6862719842
 20
163.1998739641
 30
0.0
 11
307.0862689801
 21
163.1998739641
 31
0.0
  0
LINE
  5
19A
  8
0
  6
CONTINUOUS
 62
     7
 10
302.6862719842
 20
163.1998739641
 30
0.0
 11
302.6862719842
 21
162.1998749178
 31
0.0
  0
ARC
  5
19B
  8
0
  6
CONTINUOUS
 62
     7
 10
-29.8137292079
 20
203.3998723429
 30
0.0
 40
2.700000000000038
 50
0.0
 51
180.0
  0
ARC
  5
19C
  8
0
  6
CONTINUOUS
 62
     7
 10
-29.8137292079
 20
156.7998723429
 30
0.0
 40
2.700000000000038
 50
180.0
 51
0.0
  0
ARC
  5
19D
  8
0
  6
CONTINUOUS
 62
     7
 10
-25.8137292079
 20
155.5998723429
 30
0.0
 40
2.000000000000004
 50
270.0
 51
0.0
  0
LINE
  5
19E
  8
0
  6
CONTINUOUS
 62
     7
 10
-25.8137187175
 20
153.5998723905
 30
0.0
 11
-33.8137349299
 21
153.5998723905
 31
0.0
  0
ARC
  5
19F
  8
0
  6
CONTINUOUS
 62
     7
 10
-33.8137292079
 20
155.5998723429
 30
0.0
 40
2.000000000000007
 50
180.0
 51
270.0
  0
LINE
  5
1A0
  8
0
  6
CONTINUOUS
 62
     7
 10
-35.8137330226
 20
162.1998749178
 30
0.0
 11
-35.8137330226
 21
155.5998704832
 31
0.0
  0
LINE
  5
1A1
  8
0
  6
CONTINUOUS
 62
     7
 10
-23.8137206248
 20
162.1998749178
 30
0.0
 11
-23.8137206248
 21
155.5998704832
 31
0.0
  0
LINE
  5
1A2
  8
0
  6
CONTINUOUS
 62
     7
 10
-35.8137330226
 20
163.3998713892
 30
0.0
 11
-32.5137337855
 21
163.3998713892
 31
0.0
  0
LINE
  5
1A3
  8
0
  6
CONTINUOUS
 62
     7
 10
-27.1137198619
 20
163.3998713892
 30
0.0
 11
-23.8137206248
 21
163.3998713892
 31
0.0
  0
LINE
  5
1A4
  8
0
  6
CONTINUOUS
 62
     7
 10
-23.8137206248
 20
163.3998713892
 30
0.0
 11
-23.8137206248
 21
162.1998749178
 31
0.0
  0
LINE
  5
1A5
  8
0
  6
CONTINUOUS
 62
     7
 10
-35.8137330226
 20
162.1998749178
 30
0.0
 11
-35.8137330226
 21
163.3998713892
 31
0.0
  0
ARC
  5
1A6
  8
0
  6
CONTINUOUS
 62
     7
 10
90.1862707921
 20
203.3998723429
 30
0.0
 40
2.700000000000003
 50
0.0
 51
180.0
  0
ARC
  5
1A7
  8
0
  6
CONTINUOUS
 62
     7
 10
90.1862707921
 20
156.7998723429
 30
0.0
 40
2.700000000000003
 50
180.0
 51
0.0
  0
ARC
  5
1A8
  8
0
  6
CONTINUOUS
 62
     7
 10
94.1862707921
 20
155.5998723429
 30
0.0
 40
2.0
 50
270.0
 51
0.0
  0
LINE
  5
1A9
  8
0
  6
CONTINUOUS
 62
     7
 10
94.18627413
 20
153.5998723905
 30
0.0
 11
86.1862698384
 21
153.5998723905
 31
0.0
  0
ARC
  5
1AA
  8
0
  6
CONTINUOUS
 62
     7
 10
86.1862707921
 20
155.5998723429
 30
0.0
 40
2.0
 50
180.0
 51
270.0
  0
LINE
  5
1AB
  8
0
  6
CONTINUOUS
 62
     7
 10
84.1862717458
 20
162.1998749178
 30
0.0
 11
84.1862717458
 21
155.5998704832
 31
0.0
  0
LINE
  5
1AC
  8
0
  6
CONTINUOUS
 62
     7
 10
96.1862722226
 20
162.1998749178
 30
0.0
 11
96.1862722226
 21
155.5998704832
 31
0.0
  0
LINE
  5
1AD
  8
0
  6
CONTINUOUS
 62
     7
 10
84.1862717458
 20
162.1998749178
 30
0.0
 11
84.1862717458
 21
163.3998713892
 31
0.0
  0
LINE
  5
1AE
  8
0
  6
CONTINUOUS
 62
     7
 10
84.1862717458
 20
163.3998713892
 30
0.0
 11
87.4862709829
 21
163.3998713892
 31
0.0
  0
LINE
  5
1AF
  8
0
  6
CONTINUOUS
 62
     7
 10
92.8862729856
 20
163.3998713892
 30
0.0
 11
96.1862722226
 21
163.3998713892
 31
0.0
  0
LINE
  5
1B0
  8
0
  6
CONTINUOUS
 62
     7
 10
96.1862722226
 20
163.3998713892
 30
0.0
 11
96.1862722226
 21
162.1998749178
 31
0.0
  0
ARC
  5
1B1
  8
0
  6
CONTINUOUS
 62
     7
 10
450.1862707921
 20
203.3998723429
 30
0.0
 40
2.700000000000045
 50
0.0
 51
180.0
  0
ARC
  5
1B2
  8
0
  6
CONTINUOUS
 62
     7
 10
450.1862707921
 20
156.7998723429
 30
0.0
 40
2.700000000000045
 50
180.0
 51
0.0
  0
ARC
  5
1B3
  8
0
  6
CONTINUOUS
 62
     7
 10
454.1862707921
 20
155.5998723429
 30
0.0
 40
2.0
 50
270.0
 51
0.0
  0
LINE
  5
1B4
  8
0
  6
CONTINUOUS
 62
     7
 10
454.1862765142
 20
153.5998723905
 30
0.0
 11
446.1862603017
 21
153.5998723905
 31
0.0
  0
ARC
  5
1B5
  8
0
  6
CONTINUOUS
 62
     7
 10
446.1862707921
 20
155.5998723429
 30
0.0
 40
2.0
 50
180.0
 51
270.0
  0
LINE
  5
1B6
  8
0
  6
CONTINUOUS
 62
     7
 10
444.186262209
 20
162.1998749178
 30
0.0
 11
444.186262209
 21
155.5998704832
 31
0.0
  0
LINE
  5
1B7
  8
0
  6
CONTINUOUS
 62
     7
 10
456.1862746068
 20
162.1998749178
 30
0.0
 11
456.1862746068
 21
155.5998704832
 31
0.0
  0
LINE
  5
1B8
  8
0
  6
CONTINUOUS
 62
     7
 10
444.186262209
 20
162.1998749178
 30
0.0
 11
444.186262209
 21
163.3998713892
 31
0.0
  0
LINE
  5
1B9
  8
0
  6
CONTINUOUS
 62
     7
 10
444.186262209
 20
163.3998713892
 30
0.0
 11
447.4862614461
 21
163.3998713892
 31
0.0
  0
LINE
  5
1BA
  8
0
  6
CONTINUOUS
 62
     7
 10
452.8862753698
 20
163.3998713892
 30
0.0
 11
456.1862746068
 21
163.3998713892
 31
0.0
  0
LINE
  5
1BB
  8
0
  6
CONTINUOUS
 62
     7
 10
456.1862746068
 20
163.3998713892
 30
0.0
 11
456.1862746068
 21
162.1998749178
 31
0.0
  0
ARC
  5
1BC
  8
0
  6
CONTINUOUS
 62
     7
 10
330.1862707921
 20
203.3998723429
 30
0.0
 40
2.700000000000045
 50
0.0
 51
180.0
  0
ARC
  5
1BD
  8
0
  6
CONTINUOUS
 62
     7
 10
330.1862707921
 20
156.7998723429
 30
0.0
 40
2.700000000000045
 50
180.0
 51
0.0
  0
ARC
  5
1BE
  8
0
  6
CONTINUOUS
 62
     7
 10
334.1862707921
 20
155.5998723429
 30
0.0
 40
2.0
 50
270.0
 51
0.0
  0
LINE
  5
1BF
  8
0
  6
CONTINUOUS
 62
     7
 10
334.1862717458
 20
153.5998723905
 30
0.0
 11
326.1862674543
 21
153.5998723905
 31
0.0
  0
ARC
  5
1C0
  8
0
  6
CONTINUOUS
 62
     7
 10
326.1862707921
 20
155.5998723429
 30
0.0
 40
2.0
 50
180.0
 51
270.0
  0
LINE
  5
1C1
  8
0
  6
CONTINUOUS
 62
     7
 10
324.1862693616
 20
162.1998749178
 30
0.0
 11
324.1862693616
 21
155.5998704832
 31
0.0
  0
LINE
  5
1C2
  8
0
  6
CONTINUOUS
 62
     7
 10
336.1862698384
 20
162.1998749178
 30
0.0
 11
336.1862698384
 21
155.5998704832
 31
0.0
  0
LINE
  5
1C3
  8
0
  6
CONTINUOUS
 62
     7
 10
324.1862693616
 20
162.1998749178
 30
0.0
 11
324.1862693616
 21
163.3998713892
 31
0.0
  0
LINE
  5
1C4
  8
0
  6
CONTINUOUS
 62
     7
 10
324.1862693616
 20
163.3998713892
 30
0.0
 11
327.4862685987
 21
163.3998713892
 31
0.0
  0
LINE
  5
1C5
  8
0
  6
CONTINUOUS
 62
     7
 10
332.8862706014
 20
163.3998713892
 30
0.0
 11
336.1862698384
 21
163.3998713892
 31
0.0
  0
LINE
  5
1C6
  8
0
  6
CONTINUOUS
 62
     7
 10
336.1862698384
 20
163.3998713892
 30
0.0
 11
336.1862698384
 21
162.1998749178
 31
0.0
  0
ARC
  5
1C7
  8
0
  6
CONTINUOUS
 62
     7
 10
210.1862707921
 20
203.3998723429
 30
0.0
 40
2.700000000000017
 50
0.0
 51
180.0
  0
ARC
  5
1C8
  8
0
  6
CONTINUOUS
 62
     7
 10
210.1862707921
 20
156.7998723429
 30
0.0
 40
2.700000000000017
 50
180.0
 51
0.0
  0
ARC
  5
1C9
  8
0
  6
CONTINUOUS
 62
     7
 10
214.1862707921
 20
155.5998723429
 30
0.0
 40
2.0
 50
270.0
 51
0.0
  0
LINE
  5
1CA
  8
0
  6
CONTINUOUS
 62
     7
 10
214.1862707027
 20
153.5998723905
 30
0.0
 11
206.1862708815
 21
153.5998723905
 31
0.0
  0
ARC
  5
1CB
  8
0
  6
CONTINUOUS
 62
     7
 10
206.1862707921
 20
155.5998723429
 30
0.0
 40
2.0
 50
180.0
 51
270.0
  0
LINE
  5
1CC
  8
0
  6
CONTINUOUS
 62
     7
 10
204.1862709262
 20
162.1998749178
 30
0.0
 11
204.1862709262
 21
155.5998704832
 31
0.0
  0
LINE
  5
1CD
  8
0
  6
CONTINUOUS
 62
     7
 10
216.186270658
 20
162.1998749178
 30
0.0
 11
216.186270658
 21
155.5998704832
 31
0.0
  0
LINE
  5
1CE
  8
0
  6
CONTINUOUS
 62
     7
 10
204.1862709262
 20
163.3998713892
 30
0.0
 11
207.4862707221
 21
163.3998713892
 31
0.0
  0
LINE
  5
1CF
  8
0
  6
CONTINUOUS
 62
     7
 10
212.8862708622
 20
163.3998713892
 30
0.0
 11
216.186270658
 21
163.3998713892
 31
0.0
  0
LINE
  5
1D0
  8
0
  6
CONTINUOUS
 62
     7
 10
216.186270658
 20
163.3998713892
 30
0.0
 11
216.186270658
 21
162.1998749178
 31
0.0
  0
LINE
  5
1D1
  8
0
  6
CONTINUOUS
 62
     7
 10
204.1862709262
 20
162.1998749178
 30
0.0
 11
204.1862709262
 21
163.3998713892
 31
0.0
  0
LINE
  5
1D2
  8
0
  6
CONTINUOUS
 62
     7
 10
23.0133453199
 20
88.5998723533
 30
0.0
 11
26.7719903775
 21
88.5998723533
 31
0.0
  0
LINE
  5
1D3
  8
0
  6
CONTINUOUS
 62
     7
 10
26.7719903775
 20
87.3998723429
 30
0.0
 11
23.0133453199
 21
87.3998723429
 31
0.0
  0
LINE
  5
1D4
  8
0
  6
CONTINUOUS
 62
     7
 10
33.6005607434
 20
88.5998723533
 30
0.0
 11
37.3592058011
 21
88.5998723533
 31
0.0
  0
LINE
  5
1D5
  8
0
  6
CONTINUOUS
 62
     7
 10
37.3592058011
 20
87.3998723429
 30
0.0
 11
33.6005607434
 21
87.3998723429
 31
0.0
  0
LINE
  5
1D6
  8
0
  6
CONTINUOUS
 62
     7
 10
26.7719903775
 20
88.5998723533
 30
0.0
 11
33.6005607434
 21
88.5998723533
 31
0.0
  0
LINE
  5
1D7
  8
0
  6
CONTINUOUS
 62
     7
 10
26.7719903775
 20
87.3998723429
 30
0.0
 11
33.6005607434
 21
87.3998723429
 31
0.0
  0
LINE
  5
1D8
  8
0
  6
CONTINUOUS
 62
     7
 10
386.7719808408
 20
88.5998723533
 30
0.0
 11
393.6005512067
 21
88.5998723533
 31
0.0
  0
LINE
  5
1D9
  8
0
  6
CONTINUOUS
 62
     7
 10
386.7719808408
 20
87.3998723429
 30
0.0
 11
393.6005512067
 21
87.3998723429
 31
0.0
  0
LINE
  5
1DA
  8
0
  6
CONTINUOUS
 62
     7
 10
383.0133357831
 20
88.5998723533
 30
0.0
 11
386.7719808408
 21
88.5998723533
 31
0.0
  0
LINE
  5
1DB
  8
0
  6
CONTINUOUS
 62
     7
 10
386.7719808408
 20
87.3998723429
 30
0.0
 11
383.0133357831
 21
87.3998723429
 31
0.0
  0
LINE
  5
1DC
  8
0
  6
CONTINUOUS
 62
     7
 10
393.6005512067
 20
88.5998723533
 30
0.0
 11
397.3591962644
 21
88.5998723533
 31
0.0
  0
LINE
  5
1DD
  8
0
  6
CONTINUOUS
 62
     7
 10
397.3591962644
 20
87.3998723429
 30
0.0
 11
393.6005512067
 21
87.3998723429
 31
0.0
  0
LINE
  5
1DE
  8
0
  6
CONTINUOUS
 62
     7
 10
18.1862750837
 20
87.3998723429
 30
0.0
 11
18.1862750837
 21
88.5998723533
 31
0.0
  0
LINE
  5
1DF
  8
0
  6
CONTINUOUS
 62
     7
 10
23.0133453199
 20
88.5998723533
 30
0.0
 11
18.1862750837
 21
88.5998723533
 31
0.0
  0
LINE
  5
1E0
  8
0
  6
CONTINUOUS
 62
     7
 10
18.1862750837
 20
87.3998723429
 30
0.0
 11
23.0133453199
 21
87.3998723429
 31
0.0
  0
LINE
  5
1E1
  8
0
  6
CONTINUOUS
 62
     7
 10
42.1862760373
 20
87.3998723429
 30
0.0
 11
42.1862760373
 21
88.5998723533
 31
0.0
  0
LINE
  5
1E2
  8
0
  6
CONTINUOUS
 62
     7
 10
42.1862760373
 20
88.5998723533
 30
0.0
 11
37.3592058011
 21
88.5998723533
 31
0.0
  0
LINE
  5
1E3
  8
0
  6
CONTINUOUS
 62
     7
 10
37.3592058011
 20
87.3998723429
 30
0.0
 11
42.1862760373
 21
87.3998723429
 31
0.0
  0
LINE
  5
1E4
  8
0
  6
CONTINUOUS
 62
     7
 10
402.1862665006
 20
87.3998723429
 30
0.0
 11
402.1862665006
 21
88.5998723533
 31
0.0
  0
LINE
  5
1E5
  8
0
  6
CONTINUOUS
 62
     7
 10
402.1862665006
 20
88.5998723533
 30
0.0
 11
397.3591962644
 21
88.5998723533
 31
0.0
  0
LINE
  5
1E6
  8
0
  6
CONTINUOUS
 62
     7
 10
397.3591962644
 20
87.3998723429
 30
0.0
 11
402.1862665006
 21
87.3998723429
 31
0.0
  0
LINE
  5
1E7
  8
0
  6
CONTINUOUS
 62
     7
 10
378.1862655469
 20
87.3998723429
 30
0.0
 11
378.1862655469
 21
88.5998723533
 31
0.0
  0
LINE
  5
1E8
  8
0
  6
CONTINUOUS
 62
     7
 10
383.0133357831
 20
88.5998723533
 30
0.0
 11
378.1862655469
 21
88.5998723533
 31
0.0
  0
LINE
  5
1E9
  8
0
  6
CONTINUOUS
 62
     7
 10
378.1862655469
 20
87.3998723429
 30
0.0
 11
383.0133357831
 21
87.3998723429
 31
0.0
  0
POLYLINE
  5
1EA
  8
0
  6
CONTINUOUS
 62
     7
 66
     1
 10
0.0
 20
0.0
 30
0.0
  0
VERTEX
  5
75B
  8
0
  6
CONTINUOUS
 62
     7
 10
395.1862731763
 20
152.5998733442
 30
0.0
  0
VERTEX
  5
75C
  8
0
  6
CONTINUOUS
 62
     7
 10
395.1670566388
 20
152.6190898817
 30
0.0
  0
VERTEX
  5
75D
  8
0
  6
CONTINUOUS
 62
     7
 10
395.110146124
 20
152.6759944361
 30
0.0
  0
VERTEX
  5
75E
  8
0
  6
CONTINUOUS
 62
     7
 10
395.0177350827
 20
152.7684054773
 30
0.0
  0
VERTEX
  5
75F
  8
0
  6
CONTINUOUS
 62
     7
 10
394.8933759519
 20
152.8927646082
 30
0.0
  0
VERTEX
  5
760
  8
0
  6
CONTINUOUS
 62
     7
 10
394.741837103
 20
153.0443034571
 30
0.0
  0
VERTEX
  5
761
  8
0
  6
CONTINUOUS
 62
     7
 10
394.5689597913
 20
153.2171867292
 30
0.0
  0
VERTEX
  5
762
  8
0
  6
CONTINUOUS
 62
     7
 10
394.3813601323
 20
153.4047804277
 30
0.0
  0
VERTEX
  5
763
  8
0
  6
CONTINUOUS
 62
     7
 10
394.18627413
 20
153.5998723905
 30
0.0
  0
SEQEND
  5
951
  8
0
  6
CONTINUOUS
 62
     7
  0
LINE
  5
1EB
  8
0
  6
CONTINUOUS
 62
     7
 10
395.1862731763
 20
152.5998733442
 30
0.0
 11
395.1862731763
 21
88.5998723533
 31
0.0
  0
LINE
  5
1EC
  8
0
  6
CONTINUOUS
 62
     7
 10
385.1862707921
 20
88.5998723533
 30
0.0
 11
385.1862707921
 21
152.5998733442
 31
0.0
  0
POLYLINE
  5
1ED
  8
0
  6
CONTINUOUS
 62
     7
 66
     1
 10
0.0
 20
0.0
 30
0.0
  0
VERTEX
  5
764
  8
0
  6
CONTINUOUS
 62
     7
 10
386.1862698384
 20
153.5998723905
 30
0.0
  0
VERTEX
  5
765
  8
0
  6
CONTINUOUS
 62
     7
 10
385.9911838361
 20
153.4047804277
 30
0.0
  0
VERTEX
  5
766
  8
0
  6
CONTINUOUS
 62
     7
 10
385.8035841771
 20
153.2171867292
 30
0.0
  0
VERTEX
  5
767
  8
0
  6
CONTINUOUS
 62
     7
 10
385.6306949445
 20
153.0443034571
 30
0.0
  0
VERTEX
  5
768
  8
0
  6
CONTINUOUS
 62
     7
 10
385.4791680165
 20
152.8927646082
 30
0.0
  0
VERTEX
  5
769
  8
0
  6
CONTINUOUS
 62
     7
 10
385.3547969648
 20
152.7684054773
 30
0.0
  0
VERTEX
  5
76A
  8
0
  6
CONTINUOUS
 62
     7
 10
385.2623859235
 20
152.6759944361
 30
0.0
  0
VERTEX
  5
76B
  8
0
  6
CONTINUOUS
 62
     7
 10
385.2054873296
 20
152.6190898817
 30
0.0
  0
VERTEX
  5
76C
  8
0
  6
CONTINUOUS
 62
     7
 10
385.1862707921
 20
152.5998733442
 30
0.0
  0
SEQEND
  5
950
  8
0
  6
CONTINUOUS
 62
     7
  0
LINE
  5
1EE
  8
0
  6
CONTINUOUS
 62
     7
 10
458.9862623998
 20
161.5998707216
 30
0.0
 11
458.9862623998
 21
153.5998723905
 31
0.0
  0
LINE
  5
1EF
  8
0
  6
CONTINUOUS
 62
     7
 10
-38.6137208155
 20
152.9998741548
 30
0.0
 11
-38.6137208155
 21
153.5998723905
 31
0.0
  0
ARC
  5
1F0
  8
0
  6
CONTINUOUS
 62
     7
 10
-38.2137292079
 20
152.9998723429
 30
0.0
 40
0.4000000000000128
 50
180.0
 51
270.0
  0
LINE
  5
1F1
  8
0
  6
CONTINUOUS
 62
     7
 10
25.1862684079
 20
88.5998723533
 30
0.0
 11
25.1862684079
 21
152.5998733442
 31
0.0
  0
POLYLINE
  5
1F2
  8
0
  6
CONTINUOUS
 62
     7
 66
     1
 10
0.0
 20
0.0
 30
0.0
  0
VERTEX
  5
76D
  8
0
  6
CONTINUOUS
 62
     7
 10
25.1862684079
 20
152.5998733442
 30
0.0
  0
VERTEX
  5
76E
  8
0
  6
CONTINUOUS
 62
     7
 10
25.2054849454
 20
152.6190898817
 30
0.0
  0
VERTEX
  5
76F
  8
0
  6
CONTINUOUS
 62
     7
 10
25.2623954602
 20
152.6759944361
 30
0.0
  0
VERTEX
  5
770
  8
0
  6
CONTINUOUS
 62
     7
 10
25.3548065015
 20
152.7684054773
 30
0.0
  0
VERTEX
  5
771
  8
0
  6
CONTINUOUS
 62
     7
 10
25.4791656324
 20
152.8927646082
 30
0.0
  0
VERTEX
  5
772
  8
0
  6
CONTINUOUS
 62
     7
 10
25.6307044812
 20
153.0443034571
 30
0.0
  0
VERTEX
  5
773
  8
0
  6
CONTINUOUS
 62
     7
 10
25.8035817929
 20
153.2171867292
 30
0.0
  0
VERTEX
  5
774
  8
0
  6
CONTINUOUS
 62
     7
 10
25.9911814519
 20
153.4047804277
 30
0.0
  0
VERTEX
  5
775
  8
0
  6
CONTINUOUS
 62
     7
 10
26.1862674543
 20
153.5998723905
 30
0.0
  0
SEQEND
  5
94F
  8
0
  6
CONTINUOUS
 62
     7
  0
LINE
  5
1F3
  8
0
  6
CONTINUOUS
 62
     7
 10
-38.6137208155
 20
153.5998723905
 30
0.0
 11
-38.6137208155
 21
161.5998707216
 31
0.0
  0
LINE
  5
1F4
  8
0
  6
CONTINUOUS
 62
     7
 10
458.5862675496
 20
152.5998733442
 30
0.0
 11
395.1862731763
 21
152.5998733442
 31
0.0
  0
LINE
  5
1F5
  8
0
  6
CONTINUOUS
 62
     7
 10
385.1862707921
 20
152.5998733442
 30
0.0
 11
35.1862707921
 21
152.5998733442
 31
0.0
  0
POLYLINE
  5
1F6
  8
0
  6
CONTINUOUS
 62
     7
 66
     1
 10
0.0
 20
0.0
 30
0.0
  0
VERTEX
  5
776
  8
0
  6
CONTINUOUS
 62
     7
 10
34.1862717458
 20
153.5998723905
 30
0.0
  0
VERTEX
  5
777
  8
0
  6
CONTINUOUS
 62
     7
 10
34.3813577481
 20
153.4047804277
 30
0.0
  0
VERTEX
  5
778
  8
0
  6
CONTINUOUS
 62
     7
 10
34.5689574071
 20
153.2171867292
 30
0.0
  0
VERTEX
  5
779
  8
0
  6
CONTINUOUS
 62
     7
 10
34.7418466397
 20
153.0443034571
 30
0.0
  0
VERTEX
  5
77A
  8
0
  6
CONTINUOUS
 62
     7
 10
34.8933735677
 20
152.8927646082
 30
0.0
  0
VERTEX
  5
77B
  8
0
  6
CONTINUOUS
 62
     7
 10
35.0177446195
 20
152.7684054773
 30
0.0
  0
VERTEX
  5
77C
  8
0
  6
CONTINUOUS
 62
     7
 10
35.1101556607
 20
152.6759944361
 30
0.0
  0
VERTEX
  5
77D
  8
0
  6
CONTINUOUS
 62
     7
 10
35.1670542546
 20
152.6190898817
 30
0.0
  0
VERTEX
  5
77E
  8
0
  6
CONTINUOUS
 62
     7
 10
35.1862707921
 20
152.5998733442
 30
0.0
  0
SEQEND
  5
94E
  8
0
  6
CONTINUOUS
 62
     7
  0
LINE
  5
1F7
  8
0
  6
CONTINUOUS
 62
     7
 10
-38.2137259654
 20
162.5998697679
 30
0.0
 11
-35.8137330226
 21
162.5998697679
 31
0.0
  0
LINE
  5
1F8
  8
0
  6
CONTINUOUS
 62
     7
 10
-23.8137206248
 20
162.5998697679
 30
0.0
 11
-12.3137196711
 21
162.5998697679
 31
0.0
  0
LINE
  5
1F9
  8
0
  6
CONTINUOUS
 62
     7
 10
-2.3137292079
 20
162.5998697679
 30
0.0
 11
62.6862684079
 21
162.5998697679
 31
0.0
  0
LINE
  5
1FA
  8
0
  6
CONTINUOUS
 62
     7
 10
72.6862707921
 20
162.5998697679
 30
0.0
 11
84.1862717458
 21
162.5998697679
 31
0.0
  0
LINE
  5
1FB
  8
0
  6
CONTINUOUS
 62
     7
 10
96.1862722226
 20
162.5998697679
 30
0.0
 11
107.6862731763
 21
162.5998697679
 31
0.0
  0
LINE
  5
1FC
  8
0
  6
CONTINUOUS
 62
     7
 10
117.6862696
 20
162.5998697679
 30
0.0
 11
182.6862701961
 21
162.5998697679
 31
0.0
  0
LINE
  5
1FD
  8
0
  6
CONTINUOUS
 62
     7
 10
192.6862710901
 20
162.5998697679
 30
0.0
 11
204.1862709262
 21
162.5998697679
 31
0.0
  0
LINE
  5
1FE
  8
0
  6
CONTINUOUS
 62
     7
 10
216.186270658
 20
162.5998697679
 30
0.0
 11
227.6862704941
 21
162.5998697679
 31
0.0
  0
LINE
  5
1FF
  8
0
  6
CONTINUOUS
 62
     7
 10
237.6862713882
 20
162.5998697679
 30
0.0
 11
302.6862719842
 21
162.5998697679
 31
0.0
  0
LINE
  5
200
  8
0
  6
CONTINUOUS
 62
     7
 10
312.6862684079
 20
162.5998697679
 30
0.0
 11
324.1862693616
 21
162.5998697679
 31
0.0
  0
LINE
  5
201
  8
0
  6
CONTINUOUS
 62
     7
 10
336.1862698384
 20
162.5998697679
 30
0.0
 11
347.6862707921
 21
162.5998697679
 31
0.0
  0
LINE
  5
202
  8
0
  6
CONTINUOUS
 62
     7
 10
357.6862731763
 20
162.5998697679
 30
0.0
 11
422.6862707921
 21
162.5998697679
 31
0.0
  0
LINE
  5
203
  8
0
  6
CONTINUOUS
 62
     7
 10
432.6862612554
 20
162.5998697679
 30
0.0
 11
444.186262209
 21
162.5998697679
 31
0.0
  0
LINE
  5
204
  8
0
  6
CONTINUOUS
 62
     7
 10
456.1862746068
 20
162.5998697679
 30
0.0
 11
458.5862675496
 21
162.5998697679
 31
0.0
  0
LINE
  5
205
  8
0
  6
CONTINUOUS
 62
     7
 10
458.9862623998
 20
153.5998723905
 30
0.0
 11
458.9862623998
 21
152.9998741548
 31
0.0
  0
ARC
  5
206
  8
0
  6
CONTINUOUS
 62
     7
 10
458.5862707921
 20
152.9998723429
 30
0.0
 40
0.4000000000000057
 50
270.0
 51
0.0
  0
LINE
  5
207
  8
0
  6
CONTINUOUS
 62
     7
 10
-38.6137208155
 20
161.5998707216
 30
0.0
 11
-38.6137208155
 21
162.1998749178
 31
0.0
  0
ARC
  5
208
  8
0
  6
CONTINUOUS
 62
     7
 10
-38.2137292079
 20
162.1998723429
 30
0.0
 40
0.4000000000000128
 50
90.0
 51
180.0
  0
LINE
  5
209
  8
0
  6
CONTINUOUS
 62
     7
 10
25.1862684079
 20
152.5998733442
 30
0.0
 11
-38.2137259654
 21
152.5998733442
 31
0.0
  0
LINE
  5
20A
  8
0
  6
CONTINUOUS
 62
     7
 10
35.1862707921
 20
152.5998733442
 30
0.0
 11
35.1862707921
 21
88.5998723533
 31
0.0
  0
ARC
  5
20B
  8
0
  6
CONTINUOUS
 62
     7
 10
458.5862707921
 20
162.1998723429
 30
0.0
 40
0.3999999999999773
 50
0.0
 51
90.0
  0
LINE
  5
20C
  8
0
  6
CONTINUOUS
 62
     7
 10
458.9862623998
 20
162.1998749178
 30
0.0
 11
458.9862623998
 21
161.5998707216
 31
0.0
  0
POLYLINE
  5
20D
  8
0
  6
CONTINUOUS
 62
     7
 66
     1
 10
0.0
 20
0.0
 30
0.0
  0
VERTEX
  5
77F
  8
0
  6
CONTINUOUS
 62
     7
 10
581.2455098022
 20
177.0281753939
 30
0.0
  0
VERTEX
  5
780
  8
0
  6
CONTINUOUS
 62
     7
 10
583.029524504
 20
177.1244011324
 30
0.0
  0
VERTEX
  5
781
  8
0
  6
CONTINUOUS
 62
     7
 10
585.4506174911
 20
177.2687397402
 30
0.0
  0
VERTEX
  5
782
  8
0
  6
CONTINUOUS
 62
     7
 10
586.642305075
 20
177.2586427133
 30
0.0
  0
VERTEX
  5
783
  8
0
  6
CONTINUOUS
 62
     7
 10
587.7921144355
 20
177.1090886991
 30
0.0
  0
VERTEX
  5
784
  8
0
  6
CONTINUOUS
 62
     7
 10
588.8830105651
 20
176.7714462679
 30
0.0
  0
VERTEX
  5
785
  8
0
  6
CONTINUOUS
 62
     7
 10
589.9199764121
 20
176.2626669805
 30
0.0
  0
VERTEX
  5
786
  8
0
  6
CONTINUOUS
 62
     7
 10
591.2373523105
 20
175.3772459429
 30
0.0
  0
VERTEX
  5
787
  8
0
  6
CONTINUOUS
 62
     7
 10
592.5035993446
 20
174.3295691412
 30
0.0
  0
VERTEX
  5
788
  8
0
  6
CONTINUOUS
 62
     7
 10
593.7442819465
 20
173.200758497
 30
0.0
  0
SEQEND
  5
94D
  8
0
  6
CONTINUOUS
 62
     7
  0
LINE
  5
20E
  8
0
  6
CONTINUOUS
 62
     7
 10
593.7445203651
 20
173.2144258421
 30
0.0
 11
593.77255839
 21
174.8204431932
 31
0.0
  0
LINE
  5
20F
  8
0
  6
CONTINUOUS
 62
     7
 10
581.2455098022
 20
178.9026580255
 30
0.0
 11
567.6455060829
 21
178.9026580255
 31
0.0
  0
LINE
  5
210
  8
0
  6
CONTINUOUS
 62
     7
 10
562.2455070604
 20
178.9026580255
 30
0.0
 11
520.1109780807
 21
178.9026580255
 31
0.0
  0
LINE
  5
211
  8
0
  6
CONTINUOUS
 62
     7
 10
520.9455075551
 20
154.0998719137
 30
0.0
 11
549.9455074657
 21
154.0998719137
 31
0.0
  0
LINE
  5
212
  8
0
  6
CONTINUOUS
 62
     7
 10
549.9455074657
 20
159.4998739164
 30
0.0
 11
520.9455075551
 21
159.4998739164
 31
0.0
  0
LINE
  5
213
  8
0
  6
CONTINUOUS
 62
     7
 10
517.645507573
 20
163.3998713892
 30
0.0
 11
517.645507573
 21
188.3998713892
 31
0.0
  0
LINE
  5
214
  8
0
  6
CONTINUOUS
 62
     7
 10
512.2455076192
 20
188.3998713892
 30
0.0
 11
512.2455076192
 21
163.3998713892
 31
0.0
  0
ARC
  5
215
  8
0
  6
CONTINUOUS
 62
     7
 10
529.9455076564
 20
188.3998723429
 30
0.0
 40
12.30000000000007
 50
90.0
 51
180.0
  0
ARC
  5
216
  8
0
  6
CONTINUOUS
 62
     7
 10
529.9455076564
 20
188.3998723429
 30
0.0
 40
17.70000000000005
 50
90.0
 51
180.0
  0
LINE
  5
217
  8
0
  6
CONTINUOUS
 62
     7
 10
549.9455074657
 20
206.0998759668
 30
0.0
 11
529.9455071677
 21
206.0998759668
 31
0.0
  0
LINE
  5
218
  8
0
  6
CONTINUOUS
 62
     7
 10
529.9455071677
 20
200.6998739641
 30
0.0
 11
549.9455074657
 21
200.6998739641
 31
0.0
  0
ARC
  5
219
  8
0
  6
CONTINUOUS
 62
     7
 10
549.9455076564
 20
171.7998723429
 30
0.0
 40
12.30000000000007
 50
270.0
 51
0.0
  0
ARC
  5
21A
  8
0
  6
CONTINUOUS
 62
     7
 10
549.9455076564
 20
171.7998723429
 30
0.0
 40
17.70000000000005
 50
270.0
 51
0.0
  0
ARC
  5
21B
  8
0
  6
CONTINUOUS
 62
     7
 10
549.9455076564
 20
188.3998723429
 30
0.0
 40
12.30000000000007
 50
360.0
 51
90.0
  0
ARC
  5
21C
  8
0
  6
CONTINUOUS
 62
     7
 10
549.9455076564
 20
188.3998723429
 30
0.0
 40
17.70000000000005
 50
360.0
 51
90.0
  0
LINE
  5
21D
  8
0
  6
CONTINUOUS
 62
     7
 10
567.6455060829
 20
171.7998705309
 30
0.0
 11
567.6455060829
 21
188.3998713892
 31
0.0
  0
LINE
  5
21E
  8
0
  6
CONTINUOUS
 62
     7
 10
562.2455070604
 20
188.3998713892
 30
0.0
 11
562.2455070604
 21
171.7998705309
 31
0.0
  0
LINE
  5
21F
  8
0
  6
CONTINUOUS
 62
     7
 10
526.2012320448
 20
179.4684789579
 30
0.0
 11
524.9889644671
 21
178.9026580255
 31
0.0
  0
POLYLINE
  5
220
  8
0
  6
CONTINUOUS
 62
     7
 66
     1
 10
0.0
 20
0.0
 30
0.0
  0
VERTEX
  5
789
  8
0
  6
CONTINUOUS
 62
     7
 10
530.8339233387
 20
180.0997696321
 30
0.0
  0
VERTEX
  5
78A
  8
0
  6
CONTINUOUS
 62
     7
 10
529.7014440287
 20
180.0917468469
 30
0.0
  0
VERTEX
  5
78B
  8
0
  6
CONTINUOUS
 62
     7
 10
528.6227653612
 20
180.0214968126
 30
0.0
  0
VERTEX
  5
78C
  8
0
  6
CONTINUOUS
 62
     7
 10
527.6889349211
 20
179.8936210077
 30
0.0
  0
VERTEX
  5
78D
  8
0
  6
CONTINUOUS
 62
     7
 10
526.8751407851
 20
179.7088466089
 30
0.0
  0
VERTEX
  5
78E
  8
0
  6
CONTINUOUS
 62
     7
 10
526.2012320448
 20
179.4684789579
 30
0.0
  0
SEQEND
  5
94C
  8
0
  6
CONTINUOUS
 62
     7
  0
POLYLINE
  5
221
  8
0
  6
CONTINUOUS
 62
     7
 66
     1
 10
0.0
 20
0.0
 30
0.0
  0
VERTEX
  5
78F
  8
0
  6
CONTINUOUS
 62
     7
 10
533.8546465028
 20
180.0470195215
 30
0.0
  0
VERTEX
  5
790
  8
0
  6
CONTINUOUS
 62
     7
 10
532.3442826856
 20
180.0734064977
 30
0.0
  0
VERTEX
  5
791
  8
0
  6
CONTINUOUS
 62
     7
 10
530.8339233387
 20
180.0997696321
 30
0.0
  0
SEQEND
  5
94B
  8
0
  6
CONTINUOUS
 62
     7
  0
POLYLINE
  5
222
  8
0
  6
CONTINUOUS
 62
     7
 66
     1
 10
0.0
 20
0.0
 30
0.0
  0
VERTEX
  5
792
  8
0
  6
CONTINUOUS
 62
     7
 10
538.8538847555
 20
179.9597523611
 30
0.0
  0
VERTEX
  5
793
  8
0
  6
CONTINUOUS
 62
     7
 10
536.3507429946
 20
179.9964807432
 30
0.0
  0
VERTEX
  5
794
  8
0
  6
CONTINUOUS
 62
     7
 10
533.8602791417
 20
180.0468705099
 30
0.0
  0
SEQEND
  5
94A
  8
0
  6
CONTINUOUS
 62
     7
  0
LINE
  5
223
  8
0
  6
CONTINUOUS
 62
     7
 10
538.8800050009
 20
179.9592993658
 30
0.0
 11
538.8538847555
 21
179.9597523611
 31
0.0
  0
POLYLINE
  5
224
  8
0
  6
CONTINUOUS
 62
     7
 66
     1
 10
0.0
 20
0.0
 30
0.0
  0
VERTEX
  5
795
  8
0
  6
CONTINUOUS
 62
     7
 10
543.887204944
 20
179.8718831938
 30
0.0
  0
VERTEX
  5
796
  8
0
  6
CONTINUOUS
 62
     7
 10
541.383458196
 20
179.9158714216
 30
0.0
  0
VERTEX
  5
797
  8
0
  6
CONTINUOUS
 62
     7
 10
538.8800377835
 20
179.9592993658
 30
0.0
  0
SEQEND
  5
949
  8
0
  6
CONTINUOUS
 62
     7
  0
LINE
  5
225
  8
0
  6
CONTINUOUS
 62
     7
 10
545.7379112829
 20
179.8323474329
 30
0.0
 11
543.8872198451
 21
179.8718057077
 31
0.0
  0
LINE
  5
226
  8
0
  6
CONTINUOUS
 62
     7
 10
553.8516024936
 20
179.6979687612
 30
0.0
 11
545.7379112829
 21
179.8323474329
 31
0.0
  0
POLYLINE
  5
227
  8
0
  6
CONTINUOUS
 62
     7
 66
     1
 10
0.0
 20
0.0
 30
0.0
  0
VERTEX
  5
798
  8
0
  6
CONTINUOUS
 62
     7
 10
562.2455070604
 20
179.5532308023
 30
0.0
  0
VERTEX
  5
799
  8
0
  6
CONTINUOUS
 62
     7
 10
557.0234785665
 20
179.6502075594
 30
0.0
  0
VERTEX
  5
79A
  8
0
  6
CONTINUOUS
 62
     7
 10
553.8516144145
 20
179.6979687612
 30
0.0
  0
SEQEND
  5
948
  8
0
  6
CONTINUOUS
 62
     7
  0
POLYLINE
  5
228
  8
0
  6
CONTINUOUS
 62
     7
 66
     1
 10
0.0
 20
0.0
 30
0.0
  0
VERTEX
  5
79B
  8
0
  6
CONTINUOUS
 62
     7
 10
573.8493482459
 20
179.3489299219
 30
0.0
  0
VERTEX
  5
79C
  8
0
  6
CONTINUOUS
 62
     7
 10
568.8508133281
 20
179.3937704962
 30
0.0
  0
VERTEX
  5
79D
  8
0
  6
CONTINUOUS
 62
     7
 10
567.6455060829
 20
179.4250271719
 30
0.0
  0
SEQEND
  5
947
  8
0
  6
CONTINUOUS
 62
     7
  0
POLYLINE
  5
229
  8
0
  6
CONTINUOUS
 62
     7
 66
     1
 10
0.0
 20
0.0
 30
0.0
  0
VERTEX
  5
79E
  8
0
  6
CONTINUOUS
 62
     7
 10
585.5050305713
 20
178.9307496946
 30
0.0
  0
VERTEX
  5
79F
  8
0
  6
CONTINUOUS
 62
     7
 10
585.4797045577
 20
178.9354465406
 30
0.0
  0
VERTEX
  5
7A0
  8
0
  6
CONTINUOUS
 62
     7
 10
583.0666939605
 20
179.25394396
 30
0.0
  0
VERTEX
  5
7A1
  8
0
  6
CONTINUOUS
 62
     7
 10
580.678228556
 20
179.3931863706
 30
0.0
  0
VERTEX
  5
7A2
  8
0
  6
CONTINUOUS
 62
     7
 10
578.3123115886
 20
179.4165513914
 30
0.0
  0
VERTEX
  5
7A3
  8
0
  6
CONTINUOUS
 62
     7
 10
575.9574870456
 20
179.3818734091
 30
0.0
  0
VERTEX
  5
7A4
  8
0
  6
CONTINUOUS
 62
     7
 10
573.8493482459
 20
179.3489478033
 30
0.0
  0
SEQEND
  5
946
  8
0
  6
CONTINUOUS
 62
     7
  0
ARC
  5
22A
  8
0
  6
CONTINUOUS
 62
     7
 10
583.2693694992
 20
166.643363251
 30
0.0
 40
12.48911710425698
 50
43.7647639822
 51
79.6879731616
  0
POLYLINE
  5
22B
  8
0
  6
CONTINUOUS
 62
     7
 66
     1
 10
0.0
 20
0.0
 30
0.0
  0
VERTEX
  5
7A5
  8
0
  6
CONTINUOUS
 62
     7
 10
593.7351683963
 20
173.2145867746
 30
0.0
  0
VERTEX
  5
7A6
  8
0
  6
CONTINUOUS
 62
     7
 10
593.737731396
 20
173.210742275
 30
0.0
  0
VERTEX
  5
7A7
  8
0
  6
CONTINUOUS
 62
     7
 10
593.669025122
 20
173.3144126337
 30
0.0
  0
VERTEX
  5
7A8
  8
0
  6
CONTINUOUS
 62
     7
 10
593.5250620235
 20
173.5303483408
 30
0.0
  0
VERTEX
  5
7A9
  8
0
  6
CONTINUOUS
 62
     7
 10
593.3062056888
 20
173.8541028898
 30
0.0
  0
VERTEX
  5
7AA
  8
0
  6
CONTINUOUS
 62
     7
 10
592.8714315284
 20
174.4806549948
 30
0.0
  0
VERTEX
  5
7AB
  8
0
  6
CONTINUOUS
 62
     7
 10
592.2888318885
 20
175.2820752066
 30
0.0
  0
SEQEND
  5
945
  8
0
  6
CONTINUOUS
 62
     7
  0
POLYLINE
  5
22C
  8
0
  6
CONTINUOUS
 62
     7
 66
     1
 10
0.0
 20
0.0
 30
0.0
  0
VERTEX
  5
7AC
  8
0
  6
CONTINUOUS
 62
     7
 10
585.4387621272
 20
180.1566503446
 30
0.0
  0
VERTEX
  5
7AD
  8
0
  6
CONTINUOUS
 62
     7
 10
586.5868667949
 20
179.9174211424
 30
0.0
  0
VERTEX
  5
7AE
  8
0
  6
CONTINUOUS
 62
     7
 10
587.688843428
 20
179.5965872209
 30
0.0
  0
VERTEX
  5
7AF
  8
0
  6
CONTINUOUS
 62
     7
 10
588.7093345512
 20
179.1966102522
 30
0.0
  0
VERTEX
  5
7B0
  8
0
  6
CONTINUOUS
 62
     7
 10
589.6321098197
 20
178.7391386431
 30
0.0
  0
VERTEX
  5
7B1
  8
0
  6
CONTINUOUS
 62
     7
 10
590.4897670139
 20
178.2263181608
 30
0.0
  0
VERTEX
  5
7B2
  8
0
  6
CONTINUOUS
 62
     7
 10
591.2096301902
 20
177.7282975118
 30
0.0
  0
VERTEX
  5
7B3
  8
0
  6
CONTINUOUS
 62
     7
 10
591.7160133708
 20
177.3361645143
 30
0.0
  0
VERTEX
  5
7B4
  8
0
  6
CONTINUOUS
 62
     7
 10
592.0859555591
 20
177.0194313925
 30
0.0
  0
VERTEX
  5
7B5
  8
0
  6
CONTINUOUS
 62
     7
 10
592.2347883571
 20
176.8779955309
 30
0.0
  0
VERTEX
  5
7B6
  8
0
  6
CONTINUOUS
 62
     7
 10
592.3253158916
 20
176.7788253229
 30
0.0
  0
SEQEND
  5
944
  8
0
  6
CONTINUOUS
 62
     7
  0
POLYLINE
  5
22D
  8
0
  6
CONTINUOUS
 62
     7
 66
     1
 10
0.0
 20
0.0
 30
0.0
  0
VERTEX
  5
7B7
  8
0
  6
CONTINUOUS
 62
     7
 10
526.0340231348
 20
180.6146464746
 30
0.0
  0
VERTEX
  5
7B8
  8
0
  6
CONTINUOUS
 62
     7
 10
526.6174415935
 20
180.832292835
 30
0.0
  0
VERTEX
  5
7B9
  8
0
  6
CONTINUOUS
 62
     7
 10
527.3872176994
 20
181.0221038263
 30
0.0
  0
VERTEX
  5
7BA
  8
0
  6
CONTINUOUS
 62
     7
 10
528.2774458516
 20
181.160076658
 30
0.0
  0
VERTEX
  5
7BB
  8
0
  6
CONTINUOUS
 62
     7
 10
529.3121690739
 20
181.2439999979
 30
0.0
  0
VERTEX
  5
7BC
  8
0
  6
CONTINUOUS
 62
     7
 10
529.9837837804
 20
181.2647543352
 30
0.0
  0
VERTEX
  5
7BD
  8
0
  6
CONTINUOUS
 62
     7
 10
530.6888962973
 20
181.2633297842
 30
0.0
  0
SEQEND
  5
943
  8
0
  6
CONTINUOUS
 62
     7
  0
ARC
  5
22E
  8
0
  6
CONTINUOUS
 62
     7
 10
572.6259897858
 20
80.7605741055
 30
0.0
 40
110.1891425010064
 50
115.0137833831
 51
117.0477933463
  0
POLYLINE
  5
22F
  8
0
  6
CONTINUOUS
 62
     7
 66
     1
 10
0.0
 20
0.0
 30
0.0
  0
VERTEX
  5
7BE
  8
0
  6
CONTINUOUS
 62
     7
 10
593.7610964168
 20
174.8206398886
 30
0.0
  0
VERTEX
  5
7BF
  8
0
  6
CONTINUOUS
 62
     7
 10
593.7669078697
 20
174.812098543
 30
0.0
  0
VERTEX
  5
7C0
  8
0
  6
CONTINUOUS
 62
     7
 10
593.6823765624
 20
174.9353728693
 30
0.0
  0
VERTEX
  5
7C1
  8
0
  6
CONTINUOUS
 62
     7
 10
593.4953789104
 20
175.2041421335
 30
0.0
  0
VERTEX
  5
7C2
  8
0
  6
CONTINUOUS
 62
     7
 10
593.2885627139
 20
175.4961572092
 30
0.0
  0
VERTEX
  5
7C3
  8
0
  6
CONTINUOUS
 62
     7
 10
593.0247108329
 20
175.8600554865
 30
0.0
  0
VERTEX
  5
7C4
  8
0
  6
CONTINUOUS
 62
     7
 10
592.703447758
 20
176.290275852
 30
0.0
  0
VERTEX
  5
7C5
  8
0
  6
CONTINUOUS
 62
     7
 10
592.3253158916
 20
176.7788253229
 30
0.0
  0
SEQEND
  5
942
  8
0
  6
CONTINUOUS
 62
     7
  0
POLYLINE
  5
230
  8
0
  6
CONTINUOUS
 62
     7
 66
     1
 10
0.0
 20
0.0
 30
0.0
  0
VERTEX
  5
7C6
  8
0
  6
CONTINUOUS
 62
     7
 10
585.4387621272
 20
180.1566563051
 30
0.0
  0
VERTEX
  5
7C7
  8
0
  6
CONTINUOUS
 62
     7
 10
583.0417374957
 20
180.4529927175
 30
0.0
  0
VERTEX
  5
7C8
  8
0
  6
CONTINUOUS
 62
     7
 10
580.7020465721
 20
180.5832765501
 30
0.0
  0
VERTEX
  5
7C9
  8
0
  6
CONTINUOUS
 62
     7
 10
578.4076432575
 20
180.6065223615
 30
0.0
  0
VERTEX
  5
7CA
  8
0
  6
CONTINUOUS
 62
     7
 10
576.1497716297
 20
180.5746219557
 30
0.0
  0
VERTEX
  5
7CB
  8
0
  6
CONTINUOUS
 62
     7
 10
573.9192406524
 20
180.5382750433
 30
0.0
  0
VERTEX
  5
7CC
  8
0
  6
CONTINUOUS
 62
     7
 10
571.6918031562
 20
180.5368743341
 30
0.0
  0
VERTEX
  5
7CD
  8
0
  6
CONTINUOUS
 62
     7
 10
569.4509009708
 20
180.5687270563
 30
0.0
  0
VERTEX
  5
7CE
  8
0
  6
CONTINUOUS
 62
     7
 10
567.6455060829
 20
180.6128225725
 30
0.0
  0
SEQEND
  5
941
  8
0
  6
CONTINUOUS
 62
     7
  0
POLYLINE
  5
231
  8
0
  6
CONTINUOUS
 62
     7
 66
     1
 10
0.0
 20
0.0
 30
0.0
  0
VERTEX
  5
7CF
  8
0
  6
CONTINUOUS
 62
     7
 10
562.2455070604
 20
180.737330715
 30
0.0
  0
VERTEX
  5
7D0
  8
0
  6
CONTINUOUS
 62
     7
 10
557.0409010042
 20
180.8260164659
 30
0.0
  0
VERTEX
  5
7D1
  8
0
  6
CONTINUOUS
 62
     7
 10
553.7433843006
 20
180.8728776377
 30
0.0
  0
VERTEX
  5
7D2
  8
0
  6
CONTINUOUS
 62
     7
 10
550.4431168426
 20
180.9257290762
 30
0.0
  0
VERTEX
  5
7D3
  8
0
  6
CONTINUOUS
 62
     7
 10
547.1422950614
 20
180.9832833212
 30
0.0
  0
VERTEX
  5
7D4
  8
0
  6
CONTINUOUS
 62
     7
 10
543.8441048253
 20
181.0417137544
 30
0.0
  0
VERTEX
  5
7D5
  8
0
  6
CONTINUOUS
 62
     7
 10
540.5489216436
 20
181.0983262461
 30
0.0
  0
VERTEX
  5
7D6
  8
0
  6
CONTINUOUS
 62
     7
 10
537.2567812789
 20
181.1540565889
 30
0.0
  0
VERTEX
  5
7D7
  8
0
  6
CONTINUOUS
 62
     7
 10
533.9805061806
 20
181.2085948389
 30
0.0
  0
VERTEX
  5
7D8
  8
0
  6
CONTINUOUS
 62
     7
 10
530.6889022578
 20
181.2634072702
 30
0.0
  0
SEQEND
  5
940
  8
0
  6
CONTINUOUS
 62
     7
  0
POLYLINE
  5
232
  8
0
  6
CONTINUOUS
 62
     7
 66
     1
 10
0.0
 20
0.0
 30
0.0
  0
VERTEX
  5
7D9
  8
0
  6
CONTINUOUS
 62
     7
 10
567.6455060829
 20
179.4486782949
 30
0.0
  0
VERTEX
  5
7DA
  8
0
  6
CONTINUOUS
 62
     7
 10
570.0527767528
 20
179.3907723825
 30
0.0
  0
VERTEX
  5
7DB
  8
0
  6
CONTINUOUS
 62
     7
 10
573.8493482459
 20
179.3489478033
 30
0.0
  0
SEQEND
  5
93F
  8
0
  6
CONTINUOUS
 62
     7
  0
POLYLINE
  5
233
  8
0
  6
CONTINUOUS
 62
     7
 66
     1
 10
0.0
 20
0.0
 30
0.0
  0
VERTEX
  5
7DC
  8
0
  6
CONTINUOUS
 62
     7
 10
545.7400749315
 20
179.9562118452
 30
0.0
  0
VERTEX
  5
7DD
  8
0
  6
CONTINUOUS
 62
     7
 10
548.1484602083
 20
180.0139806669
 30
0.0
  0
VERTEX
  5
7DE
  8
0
  6
CONTINUOUS
 62
     7
 10
551.006166159
 20
179.8853836458
 30
0.0
  0
VERTEX
  5
7DF
  8
0
  6
CONTINUOUS
 62
     7
 10
553.8516322959
 20
179.6984575193
 30
0.0
  0
SEQEND
  5
93E
  8
0
  6
CONTINUOUS
 62
     7
  0
LINE
  5
234
  8
0
  6
CONTINUOUS
 62
     7
 10
543.8872198451
 20
179.8718593519
 30
0.0
 11
545.7400749315
 21
179.9562118452
 31
0.0
  0
POLYLINE
  5
235
  8
0
  6
CONTINUOUS
 62
     7
 66
     1
 10
0.0
 20
0.0
 30
0.0
  0
VERTEX
  5
7E0
  8
0
  6
CONTINUOUS
 62
     7
 10
533.8602791417
 20
180.0469181936
 30
0.0
  0
VERTEX
  5
7E1
  8
0
  6
CONTINUOUS
 62
     7
 10
535.0400398363
 20
180.130078594
 30
0.0
  0
VERTEX
  5
7E2
  8
0
  6
CONTINUOUS
 62
     7
 10
536.2345392693
 20
180.1235161226
 30
0.0
  0
VERTEX
  5
7E3
  8
0
  6
CONTINUOUS
 62
     7
 10
537.5551829923
 20
180.0505659979
 30
0.0
  0
VERTEX
  5
7E4
  8
0
  6
CONTINUOUS
 62
     7
 10
538.8800079811
 20
179.9593708914
 30
0.0
  0
SEQEND
  5
93D
  8
0
  6
CONTINUOUS
 62
     7
  0
LINE
  5
236
  8
0
  6
CONTINUOUS
 62
     7
 10
519.7455077309
 20
162.1998749178
 30
0.0
 11
519.7455077309
 21
161.5998707216
 31
0.0
  0
ARC
  5
237
  8
0
  6
CONTINUOUS
 62
     7
 10
519.3455076564
 20
162.1998723429
 30
0.0
 40
0.3999999999999773
 50
0.0
 51
90.0
  0
LINE
  5
238
  8
0
  6
CONTINUOUS
 62
     7
 10
520.3455078293
 20
152.7998707693
 30
0.0
 11
519.7455077309
 21
152.7998707693
 31
0.0
  0
LINE
  5
239
  8
0
  6
CONTINUOUS
 62
     7
 10
519.7455077309
 20
152.7998707693
 30
0.0
 11
519.7455077309
 21
153.5998723905
 31
0.0
  0
LINE
  5
23A
  8
0
  6
CONTINUOUS
 62
     7
 10
520.3455078293
 20
153.5998723905
 30
0.0
 11
520.3455078293
 21
152.7998707693
 31
0.0
  0
LINE
  5
23B
  8
0
  6
CONTINUOUS
 62
     7
 10
509.7455075819
 20
152.7998707693
 30
0.0
 11
509.1455074836
 21
152.7998707693
 31
0.0
  0
LINE
  5
23C
  8
0
  6
CONTINUOUS
 62
     7
 10
509.1455074836
 20
152.7998707693
 30
0.0
 11
509.1455074836
 21
153.5998723905
 31
0.0
  0
LINE
  5
23D
  8
0
  6
CONTINUOUS
 62
     7
 10
509.7455075819
 20
153.5998723905
 30
0.0
 11
509.7455075819
 21
152.7998707693
 31
0.0
  0
ARC
  5
23E
  8
0
  6
CONTINUOUS
 62
     7
 10
579.2455076564
 20
176.651502461
 30
0.0
 40
2.0
 50
280.7804509646
 51
0.0
  0
ARC
  5
23F
  8
0
  6
CONTINUOUS
 62
     7
 10
504.8011390992
 20
567.6272510569
 30
0.0
 40
400.0000000000001
 50
274.5077079787
 51
278.256844918
  0
ARC
  5
240
  8
0
  6
CONTINUOUS
 62
     7
 10
504.8011390992
 20
567.6272510569
 30
0.0
 40
400.0000000000002
 50
279.0392433502
 51
280.7804509646
  0
ARC
  5
241
  8
0
  6
CONTINUOUS
 62
     7
 10
523.6635094786
 20
328.3696263432
 30
0.0
 40
160.0000000000002
 50
273.0746772222
 51
274.5077079787
  0
ARC
  5
242
  8
0
  6
CONTINUOUS
 62
     7
 10
532.9427950084
 20
155.6186643775
 30
0.0
 40
13.00000000000002
 50
93.0746772222
 51
121.4611845106
  0
ARC
  5
243
  8
0
  6
CONTINUOUS
 62
     7
 10
528.2455076564
 20
163.2956098335
 30
0.0
 40
4.000000000000055
 50
121.4611845106
 51
180.0
  0
LINE
  5
244
  8
0
  6
CONTINUOUS
 62
     7
 10
524.2455075372
 20
161.3998732965
 30
0.0
 11
524.2455075372
 21
163.2956109445
 31
0.0
  0
ARC
  5
245
  8
0
  6
CONTINUOUS
 62
     7
 10
522.2455076564
 20
161.3998723429
 30
0.0
 40
2.0
 50
288.1948723388
 51
0.0
  0
LINE
  5
246
  8
0
  6
CONTINUOUS
 62
     7
 10
508.1455076922
 20
159.3998752039
 30
0.0
 11
508.9455078233
 21
159.3998752039
 31
0.0
  0
ARC
  5
247
  8
0
  6
CONTINUOUS
 62
     7
 10
508.1455076564
 20
161.3998723429
 30
0.0
 40
2.0
 50
180.0
 51
270.0
  0
LINE
  5
248
  8
0
  6
CONTINUOUS
 62
     7
 10
506.1455073644
 20
164.4467018049
 30
0.0
 11
506.1455073644
 21
161.3998732965
 31
0.0
  0
ARC
  5
249
  8
0
  6
CONTINUOUS
 62
     7
 10
524.3756826933
 20
158.1742588019
 30
0.0
 40
20.0
 50
102.5040575207
 51
109.6643105065
  0
ARC
  5
24A
  8
0
  6
CONTINUOUS
 62
     7
 10
524.3756826933
 20
158.1742588019
 30
0.0
 40
19.99999999999994
 50
127.337488847
 51
148.4862321611
  0
LINE
  5
24B
  8
0
  6
CONTINUOUS
 62
     7
 10
520.0455075938
 20
177.6998720568
 30
0.0
 11
520.0455075938
 21
177.9026589792
 31
0.0
  0
LINE
  5
24C
  8
0
  6
CONTINUOUS
 62
     7
 10
581.2455098022
 20
177.9026589792
 30
0.0
 11
581.2455098022
 21
176.6515038412
 31
0.0
  0
ARC
  5
24D
  8
0
  6
CONTINUOUS
 62
     7
 10
514.1455076564
 20
164.4467000105
 30
0.0
 40
8.0
 50
148.4862321611
 51
180.0
  0
LINE
  5
24E
  8
0
  6
CONTINUOUS
 62
     7
 10
520.0455075938
 20
178.8947306078
 30
0.0
 11
520.1023268391
 21
178.8947306078
 31
0.0
  0
LINE
  5
24F
  8
0
  6
CONTINUOUS
 62
     7
 10
520.1023268391
 20
178.8947306078
 30
0.0
 11
520.1109780807
 21
178.896620075
 31
0.0
  0
LINE
  5
250
  8
0
  6
CONTINUOUS
 62
     7
 10
581.2455098022
 20
178.9026580255
 30
0.0
 11
581.2455098022
 21
177.9026589792
 31
0.0
  0
LINE
  5
251
  8
0
  6
CONTINUOUS
 62
     7
 10
520.0455075938
 20
177.9026589792
 30
0.0
 11
520.0455075938
 21
178.8947306078
 31
0.0
  0
LINE
  5
252
  8
0
  6
CONTINUOUS
 62
     7
 10
509.7455075819
 20
153.5998723905
 30
0.0
 11
508.9455078233
 21
153.5998723905
 31
0.0
  0
LINE
  5
253
  8
0
  6
CONTINUOUS
 62
     7
 10
508.9455078233
 20
153.5998723905
 30
0.0
 11
508.9455078233
 21
155.5998704832
 31
0.0
  0
LINE
  5
254
  8
0
  6
CONTINUOUS
 62
     7
 10
520.9455075551
 20
155.5998704832
 30
0.0
 11
520.9455075551
 21
153.5998723905
 31
0.0
  0
LINE
  5
255
  8
0
  6
CONTINUOUS
 62
     7
 10
520.9455075551
 20
153.5998723905
 30
0.0
 11
520.1455077965
 21
153.5998723905
 31
0.0
  0
LINE
  5
256
  8
0
  6
CONTINUOUS
 62
     7
 10
520.1455077965
 20
153.5998723905
 30
0.0
 11
520.1455077965
 21
155.5998704832
 31
0.0
  0
LINE
  5
257
  8
0
  6
CONTINUOUS
 62
     7
 10
520.9455075551
 20
162.1998749178
 30
0.0
 11
520.9455075551
 21
155.5998704832
 31
0.0
  0
LINE
  5
258
  8
0
  6
CONTINUOUS
 62
     7
 10
509.7455075819
 20
161.5998707216
 30
0.0
 11
509.7455075819
 21
162.1998749178
 31
0.0
  0
ARC
  5
259
  8
0
  6
CONTINUOUS
 62
     7
 10
510.1455076564
 20
162.1998723429
 30
0.0
 40
0.3999999999999773
 50
90.0
 51
180.0
  0
ARC
  5
25A
  8
0
  6
CONTINUOUS
 62
     7
 10
519.7455076564
 20
162.1998723429
 30
0.0
 40
1.200000000000159
 50
0.0
 51
90.0
  0
LINE
  5
25B
  8
0
  6
CONTINUOUS
 62
     7
 10
508.9455078233
 20
155.5998704832
 30
0.0
 11
508.9455078233
 21
162.1998749178
 31
0.0
  0
ARC
  5
25C
  8
0
  6
CONTINUOUS
 62
     7
 10
510.1455076564
 20
162.1998723429
 30
0.0
 40
1.199999999999989
 50
90.0
 51
180.0
  0
LINE
  5
25D
  8
0
  6
CONTINUOUS
 62
     7
 10
510.1455076475
 20
162.5998697679
 30
0.0
 11
510.7455077458
 21
162.5998697679
 31
0.0
  0
LINE
  5
25E
  8
0
  6
CONTINUOUS
 62
     7
 10
518.745507567
 20
162.5998697679
 30
0.0
 11
519.7455077309
 21
162.5998697679
 31
0.0
  0
ARC
  5
25F
  8
0
  6
CONTINUOUS
 62
     7
 10
519.7455076564
 20
162.1998723429
 30
0.0
 40
0.4000000000000909
 50
0.0
 51
90.0
  0
LINE
  5
260
  8
0
  6
CONTINUOUS
 62
     7
 10
520.1455077965
 20
162.1998749178
 30
0.0
 11
520.1455077965
 21
155.5998704832
 31
0.0
  0
LINE
  5
261
  8
0
  6
CONTINUOUS
 62
     7
 10
510.1455076475
 20
163.3998713892
 30
0.0
 11
519.7455077309
 21
163.3998713892
 31
0.0
  0
ARC
  5
262
  8
0
  6
CONTINUOUS
 62
     7
 10
510.7455076564
 20
161.5998723429
 30
0.0
 40
1.0
 50
90.0
 51
180.0
  0
LINE
  5
263
  8
0
  6
CONTINUOUS
 62
     7
 10
509.7455075819
 20
153.5998723905
 30
0.0
 11
509.7455075819
 21
161.5998707216
 31
0.0
  0
LINE
  5
264
  8
0
  6
CONTINUOUS
 62
     7
 10
510.7455077458
 20
162.5998697679
 30
0.0
 11
518.745507567
 21
162.5998697679
 31
0.0
  0
ARC
  5
265
  8
0
  6
CONTINUOUS
 62
     7
 10
510.7455076564
 20
153.5998723429
 30
0.0
 40
1.0
 50
180.0
 51
270.0
  0
ARC
  5
266
  8
0
  6
CONTINUOUS
 62
     7
 10
518.7455076564
 20
161.5998723429
 30
0.0
 40
1.0
 50
0.0
 51
90.0
  0
LINE
  5
267
  8
0
  6
CONTINUOUS
 62
     7
 10
519.7455077309
 20
161.5998707216
 30
0.0
 11
519.7455077309
 21
153.5998723905
 31
0.0
  0
ARC
  5
268
  8
0
  6
CONTINUOUS
 62
     7
 10
518.7455076564
 20
153.5998723429
 30
0.0
 40
1.0
 50
270.0
 51
0.0
  0
LINE
  5
269
  8
0
  6
CONTINUOUS
 62
     7
 10
518.745507567
 20
152.5998733442
 30
0.0
 11
510.7455077458
 21
152.5998733442
 31
0.0
  0
LINE
  5
26A
  8
0
  6
CONTINUOUS
 62
     7
 10
502.7455079246
 20
87.3998723429
 30
0.0
 11
502.7455079246
 21
88.5998723533
 31
0.0
  0
LINE
  5
26B
  8
0
  6
CONTINUOUS
 62
     7
 10
502.7455079246
 20
88.5998723533
 30
0.0
 11
506.7455078352
 21
88.5998723533
 31
0.0
  0
LINE
  5
26C
  8
0
  6
CONTINUOUS
 62
     7
 10
506.7455078352
 20
87.3998723429
 30
0.0
 11
502.7455079246
 21
87.3998723429
 31
0.0
  0
LINE
  5
26D
  8
0
  6
CONTINUOUS
 62
     7
 10
506.7455078352
 20
88.5998723533
 30
0.0
 11
508.7455077905
 21
88.5998723533
 31
0.0
  0
LINE
  5
26E
  8
0
  6
CONTINUOUS
 62
     7
 10
506.7455078352
 20
87.3998723429
 30
0.0
 11
508.7455077905
 21
87.3998723429
 31
0.0
  0
LINE
  5
26F
  8
0
  6
CONTINUOUS
 62
     7
 10
536.1139292706
 20
88.5998723533
 30
0.0
 11
508.7455077905
 21
88.5998723533
 31
0.0
  0
LINE
  5
270
  8
0
  6
CONTINUOUS
 62
     7
 10
508.7455077905
 20
87.3998723429
 30
0.0
 11
536.1139292706
 21
87.3998723429
 31
0.0
  0
LINE
  5
271
  8
0
  6
CONTINUOUS
 62
     7
 10
538.74550712
 20
88.5998723533
 30
0.0
 11
538.74550712
 21
87.3998723429
 31
0.0
  0
LINE
  5
272
  8
0
  6
CONTINUOUS
 62
     7
 10
536.1139292706
 20
88.5998723533
 30
0.0
 11
538.74550712
 21
88.5998723533
 31
0.0
  0
LINE
  5
273
  8
0
  6
CONTINUOUS
 62
     7
 10
538.74550712
 20
87.3998723429
 30
0.0
 11
536.1139292706
 21
87.3998723429
 31
0.0
  0
LINE
  5
274
  8
0
  6
CONTINUOUS
 62
     7
 10
509.7455075819
 20
88.5998723533
 30
0.0
 11
509.7455075819
 21
152.7998707693
 31
0.0
  0
LINE
  5
275
  8
0
  6
CONTINUOUS
 62
     7
 10
519.7455077309
 20
152.7998707693
 30
0.0
 11
519.7455077309
 21
88.5998723533
 31
0.0
  0
ARC
  5
276
  8
0
  6
CONTINUOUS
 62
     7
 10
180.6129679417
 20
-91.3675723438
 30
0.0
 40
8.129960244911782
 50
287.2568980878
 51
289.6914725678
  0
ARC
  5
277
  8
0
  6
CONTINUOUS
 62
     7
 10
119.8695812766
 20
-91.0004063789
 30
0.0
 40
8.513091866101215
 50
250.4729318556
 51
252.737418923
  0
ARC
  5
278
  8
0
  6
CONTINUOUS
 62
     7
 10
60.6131497229
 20
-91.3681874591
 30
0.0
 40
8.129319246551924
 50
287.2569686965
 51
289.6917152452
  0
ARC
  5
279
  8
0
  6
CONTINUOUS
 62
     7
 10
-0.1271577382
 20
-90.9907461362
 30
0.0
 40
8.523286081592582
 50
250.4739849328
 51
252.7357251967
  0
ARC
  5
27A
  8
0
  6
CONTINUOUS
 62
     7
 10
420.6162864559
 20
-91.377866986
 30
0.0
 40
8.119145626584213
 50
287.2561095499
 51
289.6938275881
  0
ARC
  5
27B
  8
0
  6
CONTINUOUS
 62
     7
 10
359.8681425607
 20
-91.004885126
 30
0.0
 40
8.508388631867145
 50
250.4720046195
 51
252.7377055099
  0
ARC
  5
27C
  8
0
  6
CONTINUOUS
 62
     7
 10
300.6129545235
 20
-91.3674611617
 30
0.0
 40
8.130070049031687
 50
287.2567479278
 51
289.6913094466
  0
ARC
  5
27D
  8
0
  6
CONTINUOUS
 62
     7
 10
239.8688617077
 20
-91.0026464069
 30
0.0
 40
8.510739561372077
 50
250.4724682313
 51
252.7375622255
  0
LINE
  5
27E
  8
0
  6
CONTINUOUS
 62
     7
 10
-32.5137337855
 20
-22.0403715595
 30
0.0
 11
-32.5137337855
 21
-37.0403710613
 31
0.0
  0
LINE
  5
27F
  8
0
  6
CONTINUOUS
 62
     7
 10
-27.1137198619
 20
-37.0403710613
 30
0.0
 11
-27.1137198619
 21
-22.0403715595
 31
0.0
  0
LINE
  5
280
  8
0
  6
CONTINUOUS
 62
     7
 10
-27.1137198619
 20
-57.0403713593
 30
0.0
 11
-27.1137198619
 21
-37.0403710613
 31
0.0
  0
LINE
  5
281
  8
0
  6
CONTINUOUS
 62
     7
 10
-32.5137337855
 20
-37.0403710613
 30
0.0
 11
-32.5137337855
 21
-57.0403713593
 31
0.0
  0
LINE
  5
282
  8
0
  6
CONTINUOUS
 62
     7
 10
-32.5137337855
 20
-57.0403713593
 30
0.0
 11
-32.5137337855
 21
-72.0403689751
 31
0.0
  0
LINE
  5
283
  8
0
  6
CONTINUOUS
 62
     7
 10
-27.1137198619
 20
-72.0403689751
 30
0.0
 11
-27.1137198619
 21
-57.0403713593
 31
0.0
  0
LINE
  5
284
  8
0
  6
CONTINUOUS
 62
     7
 10
87.4862709829
 20
-22.0403715595
 30
0.0
 11
87.4862709829
 21
-37.0403710613
 31
0.0
  0
LINE
  5
285
  8
0
  6
CONTINUOUS
 62
     7
 10
92.8862729856
 20
-37.0403710613
 30
0.0
 11
92.8862729856
 21
-22.0403715595
 31
0.0
  0
LINE
  5
286
  8
0
  6
CONTINUOUS
 62
     7
 10
92.8862729856
 20
-57.0403713593
 30
0.0
 11
92.8862729856
 21
-37.0403710613
 31
0.0
  0
LINE
  5
287
  8
0
  6
CONTINUOUS
 62
     7
 10
87.4862709829
 20
-37.0403710613
 30
0.0
 11
87.4862709829
 21
-57.0403713593
 31
0.0
  0
LINE
  5
288
  8
0
  6
CONTINUOUS
 62
     7
 10
87.4862709829
 20
-57.0403713593
 30
0.0
 11
87.4862709829
 21
-72.0403689751
 31
0.0
  0
LINE
  5
289
  8
0
  6
CONTINUOUS
 62
     7
 10
92.8862729856
 20
-72.0403689751
 30
0.0
 11
92.8862729856
 21
-57.0403713593
 31
0.0
  0
LINE
  5
28A
  8
0
  6
CONTINUOUS
 62
     7
 10
447.4862614461
 20
-22.0403715595
 30
0.0
 11
447.4862614461
 21
-37.0403710613
 31
0.0
  0
LINE
  5
28B
  8
0
  6
CONTINUOUS
 62
     7
 10
452.8862753698
 20
-37.0403710613
 30
0.0
 11
452.8862753698
 21
-22.0403715595
 31
0.0
  0
LINE
  5
28C
  8
0
  6
CONTINUOUS
 62
     7
 10
452.8862753698
 20
-57.0403713593
 30
0.0
 11
452.8862753698
 21
-37.0403710613
 31
0.0
  0
LINE
  5
28D
  8
0
  6
CONTINUOUS
 62
     7
 10
447.4862614461
 20
-37.0403710613
 30
0.0
 11
447.4862614461
 21
-57.0403713593
 31
0.0
  0
LINE
  5
28E
  8
0
  6
CONTINUOUS
 62
     7
 10
447.4862614461
 20
-57.0403713593
 30
0.0
 11
447.4862614461
 21
-72.0403689751
 31
0.0
  0
LINE
  5
28F
  8
0
  6
CONTINUOUS
 62
     7
 10
452.8862753698
 20
-72.0403689751
 30
0.0
 11
452.8862753698
 21
-57.0403713593
 31
0.0
  0
LINE
  5
290
  8
0
  6
CONTINUOUS
 62
     7
 10
327.4862685987
 20
-22.0403715595
 30
0.0
 11
327.4862685987
 21
-37.0403710613
 31
0.0
  0
LINE
  5
291
  8
0
  6
CONTINUOUS
 62
     7
 10
332.8862706014
 20
-37.0403710613
 30
0.0
 11
332.8862706014
 21
-22.0403715595
 31
0.0
  0
LINE
  5
292
  8
0
  6
CONTINUOUS
 62
     7
 10
332.8862706014
 20
-57.0403713593
 30
0.0
 11
332.8862706014
 21
-37.0403710613
 31
0.0
  0
LINE
  5
293
  8
0
  6
CONTINUOUS
 62
     7
 10
327.4862685987
 20
-37.0403710613
 30
0.0
 11
327.4862685987
 21
-57.0403713593
 31
0.0
  0
LINE
  5
294
  8
0
  6
CONTINUOUS
 62
     7
 10
327.4862685987
 20
-57.0403713593
 30
0.0
 11
327.4862685987
 21
-72.0403689751
 31
0.0
  0
LINE
  5
295
  8
0
  6
CONTINUOUS
 62
     7
 10
332.8862706014
 20
-72.0403689751
 30
0.0
 11
332.8862706014
 21
-57.0403713593
 31
0.0
  0
LINE
  5
296
  8
0
  6
CONTINUOUS
 62
     7
 10
207.4862707221
 20
-22.0403715595
 30
0.0
 11
207.4862707221
 21
-37.0403710613
 31
0.0
  0
LINE
  5
297
  8
0
  6
CONTINUOUS
 62
     7
 10
212.8862708622
 20
-37.0403710613
 30
0.0
 11
212.8862708622
 21
-22.0403715595
 31
0.0
  0
LINE
  5
298
  8
0
  6
CONTINUOUS
 62
     7
 10
212.8862708622
 20
-57.0403713593
 30
0.0
 11
212.8862708622
 21
-37.0403710613
 31
0.0
  0
LINE
  5
299
  8
0
  6
CONTINUOUS
 62
     7
 10
207.4862707221
 20
-37.0403710613
 30
0.0
 11
207.4862707221
 21
-57.0403713593
 31
0.0
  0
LINE
  5
29A
  8
0
  6
CONTINUOUS
 62
     7
 10
207.4862707221
 20
-57.0403713593
 30
0.0
 11
207.4862707221
 21
-72.0403689751
 31
0.0
  0
LINE
  5
29B
  8
0
  6
CONTINUOUS
 62
     7
 10
212.8862708622
 20
-72.0403689751
 30
0.0
 11
212.8862708622
 21
-57.0403713593
 31
0.0
  0
ARC
  5
29C
  8
0
  6
CONTINUOUS
 62
     7
 10
122.0640336052
 20
-39.739832274
 30
0.0
 40
7.349220536149663
 50
115.9018429008
 51
164.5640797475
  0
ARC
  5
29D
  8
0
  6
CONTINUOUS
 62
     7
 10
150.186269898
 20
-99.4291465146
 30
0.0
 40
73.33114162064598
 50
64.7052184116
 51
115.2947815884
  0
ARC
  5
29E
  8
0
  6
CONTINUOUS
 62
     7
 10
178.324544247
 20
-39.7264877557
 30
0.0
 40
7.330215684938342
 50
15.3687394777
 51
64.1653595472
  0
POLYLINE
  5
29F
  8
0
  6
CONTINUOUS
 62
     7
 66
     1
 10
0.0
 20
0.0
 30
0.0
  0
VERTEX
  5
7E5
  8
0
  6
CONTINUOUS
 62
     7
 10
185.3926146217
 20
-37.7837661514
 30
0.0
  0
VERTEX
  5
7E6
  8
0
  6
CONTINUOUS
 62
     7
 10
186.3096812555
 20
-41.0753700742
 30
0.0
  0
VERTEX
  5
7E7
  8
0
  6
CONTINUOUS
 62
     7
 10
186.9108551928
 20
-44.3516451725
 30
0.0
  0
VERTEX
  5
7E8
  8
0
  6
CONTINUOUS
 62
     7
 10
187.2683772632
 20
-47.6437855372
 30
0.0
  0
VERTEX
  5
7E9
  8
0
  6
CONTINUOUS
 62
     7
 10
187.4831357785
 20
-50.9389687189
 30
0.0
  0
VERTEX
  5
7EA
  8
0
  6
CONTINUOUS
 62
     7
 10
187.5648820587
 20
-54.237158955
 30
0.0
  0
VERTEX
  5
7EB
  8
0
  6
CONTINUOUS
 62
     7
 10
187.5617170521
 20
-57.5379807362
 30
0.0
  0
VERTEX
  5
7EC
  8
0
  6
CONTINUOUS
 62
     7
 10
187.5346163102
 20
-60.8382481941
 30
0.0
  0
VERTEX
  5
7ED
  8
0
  6
CONTINUOUS
 62
     7
 10
187.5324586221
 20
-64.1357648978
 30
0.0
  0
VERTEX
  5
7EE
  8
0
  6
CONTINUOUS
 62
     7
 10
187.5793957897
 20
-70.4559136042
 30
0.0
  0
VERTEX
  5
7EF
  8
0
  6
CONTINUOUS
 62
     7
 10
187.6134851762
 20
-76.7766434559
 30
0.0
  0
VERTEX
  5
7F0
  8
0
  6
CONTINUOUS
 62
     7
 10
187.6224884578
 20
-83.0298740277
 30
0.0
  0
VERTEX
  5
7F1
  8
0
  6
CONTINUOUS
 62
     7
 10
187.6243049093
 20
-84.8745960602
 30
0.0
  0
VERTEX
  5
7F2
  8
0
  6
CONTINUOUS
 62
     7
 10
187.6287946292
 20
-86.7421228298
 30
0.0
  0
VERTEX
  5
7F3
  8
0
  6
CONTINUOUS
 62
     7
 10
187.6379901358
 20
-88.6374849686
 30
0.0
  0
VERTEX
  5
7F4
  8
0
  6
CONTINUOUS
 62
     7
 10
187.6539790817
 20
-90.5650514969
 30
0.0
  0
VERTEX
  5
7F5
  8
0
  6
CONTINUOUS
 62
     7
 10
187.6780742594
 20
-92.5336260208
 30
0.0
  0
SEQEND
  5
93C
  8
0
  6
CONTINUOUS
 62
     7
  0
ARC
  5
2A0
  8
0
  6
CONTINUOUS
 62
     7
 10
180.9579297612
 20
-92.7269795437
 30
0.0
 40
6.722925528500869
 50
275.3899117811
 51
1.648072493
  0
ARC
  5
2A1
  8
0
  6
CONTINUOUS
 62
     7
 10
150.1862713882
 20
240.510754919
 30
0.0
 40
341.3783810085735
 50
264.7219387681
 51
275.2780612319
  0
ARC
  5
2A2
  8
0
  6
CONTINUOUS
 62
     7
 10
119.4046128796
 20
-92.7358224606
 30
0.0
 40
6.713188569510126
 50
178.2740310627
 51
264.6879707465
  0
POLYLINE
  5
2A3
  8
0
  6
CONTINUOUS
 62
     7
 66
     1
 10
0.0
 20
0.0
 30
0.0
  0
VERTEX
  5
7F6
  8
0
  6
CONTINUOUS
 62
     7
 10
112.6944700071
 20
-92.5336260208
 30
0.0
  0
VERTEX
  5
7F7
  8
0
  6
CONTINUOUS
 62
     7
 10
112.7227881738
 20
-90.1366013893
 30
0.0
  0
VERTEX
  5
7F8
  8
0
  6
CONTINUOUS
 62
     7
 10
112.7393225022
 20
-87.7969104656
 30
0.0
  0
VERTEX
  5
7F9
  8
0
  6
CONTINUOUS
 62
     7
 10
112.7471187898
 20
-85.5025071511
 30
0.0
  0
VERTEX
  5
7FA
  8
0
  6
CONTINUOUS
 62
     7
 10
112.7499142476
 20
-83.2446355233
 30
0.0
  0
VERTEX
  5
7FB
  8
0
  6
CONTINUOUS
 62
     7
 10
112.7513149568
 20
-81.014104546
 30
0.0
  0
VERTEX
  5
7FC
  8
0
  6
CONTINUOUS
 62
     7
 10
112.7542236634
 20
-78.7866670498
 30
0.0
  0
VERTEX
  5
7FD
  8
0
  6
CONTINUOUS
 62
     7
 10
112.7597668954
 20
-76.5457648644
 30
0.0
  0
VERTEX
  5
7FE
  8
0
  6
CONTINUOUS
 62
     7
 10
112.7940932103
 20
-70.3397054085
 30
0.0
  0
VERTEX
  5
7FF
  8
0
  6
CONTINUOUS
 62
     7
 10
112.8400841542
 20
-64.1357648978
 30
0.0
  0
VERTEX
  5
800
  8
0
  6
CONTINUOUS
 62
     7
 10
112.8379264661
 20
-60.8382481941
 30
0.0
  0
VERTEX
  5
801
  8
0
  6
CONTINUOUS
 62
     7
 10
112.8108242341
 20
-57.5379807362
 30
0.0
  0
VERTEX
  5
802
  8
0
  6
CONTINUOUS
 62
     7
 10
112.8076592275
 20
-54.237158955
 30
0.0
  0
VERTEX
  5
803
  8
0
  6
CONTINUOUS
 62
     7
 10
112.8894069978
 20
-50.9389687189
 30
0.0
  0
VERTEX
  5
804
  8
0
  6
CONTINUOUS
 62
     7
 10
113.1041625329
 20
-47.6437855372
 30
0.0
  0
VERTEX
  5
805
  8
0
  6
CONTINUOUS
 62
     7
 10
113.4616890737
 20
-44.3516451725
 30
0.0
  0
VERTEX
  5
806
  8
0
  6
CONTINUOUS
 62
     7
 10
114.0628615209
 20
-41.0753700742
 30
0.0
  0
VERTEX
  5
807
  8
0
  6
CONTINUOUS
 62
     7
 10
114.9799266645
 20
-37.7837661514
 30
0.0
  0
SEQEND
  5
93B
  8
0
  6
CONTINUOUS
 62
     7
  0
ARC
  5
2A4
  8
0
  6
CONTINUOUS
 62
     7
 10
150.186269898
 20
-99.4168667926
 30
0.0
 40
73.33969775843532
 50
64.3650289101
 51
115.6349710899
  0
ARC
  5
2A5
  8
0
  6
CONTINUOUS
 62
     7
 10
178.6600634494
 20
-39.9025262173
 30
0.0
 40
7.365046171547802
 50
15.544535697
 51
63.7662063664
  0
ARC
  5
2A6
  8
0
  6
CONTINUOUS
 62
     7
 10
121.6946371629
 20
-39.8877370227
 30
0.0
 40
7.343900851565483
 50
116.1599543402
 51
164.5293254441
  0
LINE
  5
2A7
  8
0
  6
CONTINUOUS
 62
     7
 10
112.5862696954
 20
-70.9463674435
 30
0.0
 11
112.5862696954
 21
-80.9442121395
 31
0.0
  0
POLYLINE
  5
2A8
  8
0
  6
CONTINUOUS
 62
     7
 66
     1
 10
0.0
 20
0.0
 30
0.0
  0
VERTEX
  5
808
  8
0
  6
CONTINUOUS
 62
     7
 10
112.5862696954
 20
-70.9463674435
 30
0.0
  0
VERTEX
  5
809
  8
0
  6
CONTINUOUS
 62
     7
 10
112.6009801217
 20
-64.1183424601
 30
0.0
  0
VERTEX
  5
80A
  8
0
  6
CONTINUOUS
 62
     7
 10
112.5862696954
 20
-60.9464783081
 30
0.0
  0
SEQEND
  5
93A
  8
0
  6
CONTINUOUS
 62
     7
  0
LINE
  5
2A9
  8
0
  6
CONTINUOUS
 62
     7
 10
112.5862696954
 20
-52.8349388251
 30
0.0
 11
112.5862696954
 21
-60.9464961895
 31
0.0
  0
LINE
  5
2AA
  8
0
  6
CONTINUOUS
 62
     7
 10
112.6150945016
 20
-50.9820837387
 30
0.0
 11
112.5862696954
 21
-52.8349388251
 31
0.0
  0
POLYLINE
  5
2AB
  8
0
  6
CONTINUOUS
 62
     7
 66
     1
 10
0.0
 20
0.0
 30
0.0
  0
VERTEX
  5
80B
  8
0
  6
CONTINUOUS
 62
     7
 10
112.6147487947
 20
-50.9820688376
 30
0.0
  0
VERTEX
  5
80C
  8
0
  6
CONTINUOUS
 62
     7
 10
112.7592542955
 20
-48.4783220896
 30
0.0
  0
VERTEX
  5
80D
  8
0
  6
CONTINUOUS
 62
     7
 10
112.9835167714
 20
-45.9749016771
 30
0.0
  0
SEQEND
  5
939
  8
0
  6
CONTINUOUS
 62
     7
  0
ARC
  5
2AC
  8
0
  6
CONTINUOUS
 62
     7
 10
172.3862848409
 20
-52.8904697906
 30
0.0
 40
59.80425017892703
 50
168.4879968058
 51
173.3596190667
  0
POLYLINE
  5
2AD
  8
0
  6
CONTINUOUS
 62
     7
 66
     1
 10
0.0
 20
0.0
 30
0.0
  0
VERTEX
  5
80E
  8
0
  6
CONTINUOUS
 62
     7
 10
113.7862721273
 20
-40.9495103964
 30
0.0
  0
VERTEX
  5
80F
  8
0
  6
CONTINUOUS
 62
     7
 10
114.1836980172
 20
-39.4391465792
 30
0.0
  0
VERTEX
  5
810
  8
0
  6
CONTINUOUS
 62
     7
 10
114.6168270894
 20
-37.9287872323
 30
0.0
  0
SEQEND
  5
938
  8
0
  6
CONTINUOUS
 62
     7
  0
POLYLINE
  5
2AE
  8
0
  6
CONTINUOUS
 62
     7
 66
     1
 10
0.0
 20
0.0
 30
0.0
  0
VERTEX
  5
811
  8
0
  6
CONTINUOUS
 62
     7
 10
112.5861981698
 20
-92.5998944649
 30
0.0
  0
VERTEX
  5
812
  8
0
  6
CONTINUOUS
 62
     7
 10
112.5861981698
 20
-92.5745684513
 30
0.0
  0
VERTEX
  5
813
  8
0
  6
CONTINUOUS
 62
     7
 10
112.5863710233
 20
-90.1615578541
 30
0.0
  0
VERTEX
  5
814
  8
0
  6
CONTINUOUS
 62
     7
 10
112.5868359395
 20
-87.7730924496
 30
0.0
  0
VERTEX
  5
815
  8
0
  6
CONTINUOUS
 62
     7
 10
112.5872233697
 20
-85.4071754822
 30
0.0
  0
VERTEX
  5
816
  8
0
  6
CONTINUOUS
 62
     7
 10
112.5871160813
 20
-83.0523509392
 30
0.0
  0
VERTEX
  5
817
  8
0
  6
CONTINUOUS
 62
     7
 10
112.5862696954
 20
-80.9442121395
 30
0.0
  0
SEQEND
  5
937
  8
0
  6
CONTINUOUS
 62
     7
  0
POLYLINE
  5
2AF
  8
0
  6
CONTINUOUS
 62
     7
 66
     1
 10
0.0
 20
0.0
 30
0.0
  0
VERTEX
  5
818
  8
0
  6
CONTINUOUS
 62
     7
 10
185.7557141968
 20
-37.9287872323
 30
0.0
  0
VERTEX
  5
819
  8
0
  6
CONTINUOUS
 62
     7
 10
186.1896315404
 20
-39.441942037
 30
0.0
  0
VERTEX
  5
81A
  8
0
  6
CONTINUOUS
 62
     7
 10
186.587604303
 20
-40.955099822
 30
0.0
  0
SEQEND
  5
936
  8
0
  6
CONTINUOUS
 62
     7
  0
ARC
  5
2B0
  8
0
  6
CONTINUOUS
 62
     7
 10
127.9431321796
 20
-52.897358801
 30
0.0
 40
59.84788180094755
 50
6.6421578114
 51
11.510226316
  0
POLYLINE
  5
2B1
  8
0
  6
CONTINUOUS
 62
     7
 66
     1
 10
0.0
 20
0.0
 30
0.0
  0
VERTEX
  5
81B
  8
0
  6
CONTINUOUS
 62
     7
 10
187.3890245148
 20
-45.9749016771
 30
0.0
  0
VERTEX
  5
81C
  8
0
  6
CONTINUOUS
 62
     7
 10
187.613289971
 20
-48.4783220896
 30
0.0
  0
VERTEX
  5
81D
  8
0
  6
CONTINUOUS
 62
     7
 10
187.7577954718
 20
-50.9820688376
 30
0.0
  0
SEQEND
  5
935
  8
0
  6
CONTINUOUS
 62
     7
  0
LINE
  5
2B2
  8
0
  6
CONTINUOUS
 62
     7
 10
187.7862701007
 20
-52.8349388251
 30
0.0
 11
187.7574482747
 21
-50.9820837387
 31
0.0
  0
LINE
  5
2B3
  8
0
  6
CONTINUOUS
 62
     7
 10
187.7862701007
 20
-60.9464961895
 30
0.0
 11
187.7862701007
 21
-52.8349388251
 31
0.0
  0
POLYLINE
  5
2B4
  8
0
  6
CONTINUOUS
 62
     7
 66
     1
 10
0.0
 20
0.0
 30
0.0
  0
VERTEX
  5
81E
  8
0
  6
CONTINUOUS
 62
     7
 10
187.7862701007
 20
-60.9464783081
 30
0.0
  0
VERTEX
  5
81F
  8
0
  6
CONTINUOUS
 62
     7
 10
187.7715611645
 20
-64.1183424601
 30
0.0
  0
VERTEX
  5
820
  8
0
  6
CONTINUOUS
 62
     7
 10
187.7862745711
 20
-70.9463674435
 30
0.0
  0
SEQEND
  5
934
  8
0
  6
CONTINUOUS
 62
     7
  0
POLYLINE
  5
2B5
  8
0
  6
CONTINUOUS
 62
     7
 66
     1
 10
0.0
 20
0.0
 30
0.0
  0
VERTEX
  5
821
  8
0
  6
CONTINUOUS
 62
     7
 10
187.7863416263
 20
-92.6008421788
 30
0.0
  0
VERTEX
  5
822
  8
0
  6
CONTINUOUS
 62
     7
 10
187.7863401362
 20
-92.292900742
 30
0.0
  0
VERTEX
  5
823
  8
0
  6
CONTINUOUS
 62
     7
 10
187.7861255594
 20
-89.8810524353
 30
0.0
  0
VERTEX
  5
824
  8
0
  6
CONTINUOUS
 62
     7
 10
187.7856487223
 20
-87.4964970955
 30
0.0
  0
VERTEX
  5
825
  8
0
  6
CONTINUOUS
 62
     7
 10
187.785298545
 20
-85.1331490883
 30
0.0
  0
VERTEX
  5
826
  8
0
  6
CONTINUOUS
 62
     7
 10
187.7866172978
 20
-80.4242987046
 30
0.0
  0
VERTEX
  5
827
  8
0
  6
CONTINUOUS
 62
     7
 10
187.7900922486
 20
-75.6903964886
 30
0.0
  0
VERTEX
  5
828
  8
0
  6
CONTINUOUS
 62
     7
 10
187.7862701007
 20
-70.9463674435
 30
0.0
  0
SEQEND
  5
933
  8
0
  6
CONTINUOUS
 62
     7
  0
ARC
  5
2B6
  8
0
  6
CONTINUOUS
 62
     7
 10
181.1418580824
 20
-92.7374851499
 30
0.0
 40
6.645888418137608
 50
292.5444045557
 51
1.1781144618
  0
ARC
  5
2B7
  8
0
  6
CONTINUOUS
 62
     7
 10
119.2337325651
 20
-92.7334958049
 30
0.0
 40
6.64887681148825
 50
178.848631378
 51
250.6417809594
  0
LINE
  5
2B8
  8
0
  6
CONTINUOUS
 62
     7
 10
187.3862707802
 20
-45.9487486491
 30
0.0
 11
187.3893106171
 21
-45.9748688945
 31
0.0
  0
POLYLINE
  5
2B9
  8
0
  6
CONTINUOUS
 62
     7
 66
     1
 10
0.0
 20
0.0
 30
0.0
  0
VERTEX
  5
829
  8
0
  6
CONTINUOUS
 62
     7
 10
186.5874195286
 20
-40.9551430353
 30
0.0
  0
VERTEX
  5
82A
  8
0
  6
CONTINUOUS
 62
     7
 10
187.0396056958
 20
-43.4410083899
 30
0.0
  0
VERTEX
  5
82B
  8
0
  6
CONTINUOUS
 62
     7
 10
187.3862707802
 20
-45.9487486491
 30
0.0
  0
SEQEND
  5
932
  8
0
  6
CONTINUOUS
 62
     7
  0
POLYLINE
  5
2BA
  8
0
  6
CONTINUOUS
 62
     7
 66
     1
 10
0.0
 20
0.0
 30
0.0
  0
VERTEX
  5
82C
  8
0
  6
CONTINUOUS
 62
     7
 10
112.986270506
 20
-45.9487486491
 30
0.0
  0
VERTEX
  5
82D
  8
0
  6
CONTINUOUS
 62
     7
 10
113.3321979829
 20
-43.4456068882
 30
0.0
  0
VERTEX
  5
82E
  8
0
  6
CONTINUOUS
 62
     7
 10
113.7851217576
 20
-40.9551430353
 30
0.0
  0
SEQEND
  5
931
  8
0
  6
CONTINUOUS
 62
     7
  0
LINE
  5
2BB
  8
0
  6
CONTINUOUS
 62
     7
 10
112.9832306691
 20
-45.9748688945
 30
0.0
 11
112.986270506
 21
-45.9487486491
 31
0.0
  0
LINE
  5
2BC
  8
0
  6
CONTINUOUS
 62
     7
 10
187.7574482747
 20
-50.9820837387
 30
0.0
 11
187.7862701007
 21
-52.8327751765
 31
0.0
  0
LINE
  5
2BD
  8
0
  6
CONTINUOUS
 62
     7
 10
112.5862696954
 20
-52.8327751765
 30
0.0
 11
112.6150945016
 21
-50.9820837387
 31
0.0
  0
ARC
  5
2BE
  8
0
  6
CONTINUOUS
 62
     7
 10
2.0640960174
 20
-39.7398791101
 30
0.0
 40
7.349292013990758
 50
115.9021545295
 51
164.5638548118
  0
ARC
  5
2BF
  8
0
  6
CONTINUOUS
 62
     7
 10
30.1862696
 20
-99.4291737939
 30
0.0
 40
73.33116819455027
 50
64.7052243607
 51
115.2947756393
  0
ARC
  5
2C0
  8
0
  6
CONTINUOUS
 62
     7
 10
58.3245585401
 20
-39.7264680201
 30
0.0
 40
7.330193511455176
 50
15.3686271333
 51
64.1653635254
  0
POLYLINE
  5
2C1
  8
0
  6
CONTINUOUS
 62
     7
 66
     1
 10
0.0
 20
0.0
 30
0.0
  0
VERTEX
  5
82F
  8
0
  6
CONTINUOUS
 62
     7
 10
65.392617304
 20
-37.7837661514
 30
0.0
  0
VERTEX
  5
830
  8
0
  6
CONTINUOUS
 62
     7
 10
66.3096824475
 20
-41.0753700742
 30
0.0
  0
VERTEX
  5
831
  8
0
  6
CONTINUOUS
 62
     7
 10
66.9108548947
 20
-44.3516451725
 30
0.0
  0
VERTEX
  5
832
  8
0
  6
CONTINUOUS
 62
     7
 10
67.268375475
 20
-47.6437855372
 30
0.0
  0
VERTEX
  5
833
  8
0
  6
CONTINUOUS
 62
     7
 10
67.4831310102
 20
-50.9389687189
 30
0.0
  0
VERTEX
  5
834
  8
0
  6
CONTINUOUS
 62
     7
 10
67.5648847409
 20
-54.237158955
 30
0.0
  0
VERTEX
  5
835
  8
0
  6
CONTINUOUS
 62
     7
 10
67.5617137738
 20
-57.5379807362
 30
0.0
  0
VERTEX
  5
836
  8
0
  6
CONTINUOUS
 62
     7
 10
67.5346175023
 20
-60.8382481941
 30
0.0
  0
VERTEX
  5
837
  8
0
  6
CONTINUOUS
 62
     7
 10
67.5324598142
 20
-64.1357648978
 30
0.0
  0
VERTEX
  5
838
  8
0
  6
CONTINUOUS
 62
     7
 10
67.5793925115
 20
-70.4559136042
 30
0.0
  0
VERTEX
  5
839
  8
0
  6
CONTINUOUS
 62
     7
 10
67.6134863683
 20
-76.7766434559
 30
0.0
  0
VERTEX
  5
83A
  8
0
  6
CONTINUOUS
 62
     7
 10
67.6224866697
 20
-83.0298740277
 30
0.0
  0
VERTEX
  5
83B
  8
0
  6
CONTINUOUS
 62
     7
 10
67.6242986509
 20
-84.8745960602
 30
0.0
  0
VERTEX
  5
83C
  8
0
  6
CONTINUOUS
 62
     7
 10
67.6287928411
 20
-86.7421228298
 30
0.0
  0
VERTEX
  5
83D
  8
0
  6
CONTINUOUS
 62
     7
 10
67.6379838773
 20
-88.6374849686
 30
0.0
  0
VERTEX
  5
83E
  8
0
  6
CONTINUOUS
 62
     7
 10
67.653981764
 20
-90.5650514969
 30
0.0
  0
VERTEX
  5
83F
  8
0
  6
CONTINUOUS
 62
     7
 10
67.6780739614
 20
-92.5336260208
 30
0.0
  0
SEQEND
  5
930
  8
0
  6
CONTINUOUS
 62
     7
  0
ARC
  5
2C2
  8
0
  6
CONTINUOUS
 62
     7
 10
60.9579226109
 20
-92.726973622
 30
0.0
 40
6.722932207627577
 50
275.3899778237
 51
1.6480203672
  0
ARC
  5
2C3
  8
0
  6
CONTINUOUS
 62
     7
 10
30.1862755605
 20
240.5106399498
 30
0.0
 40
341.3782662526385
 50
264.7219374911
 51
275.2780625089
  0
ARC
  5
2C4
  8
0
  6
CONTINUOUS
 62
     7
 10
-0.5953992033
 20
-92.7358394672
 30
0.0
 40
6.713169855086925
 50
178.2738810347
 51
264.6881207745
  0
POLYLINE
  5
2C5
  8
0
  6
CONTINUOUS
 62
     7
 66
     1
 10
0.0
 20
0.0
 30
0.0
  0
VERTEX
  5
840
  8
0
  6
CONTINUOUS
 62
     7
 10
-7.3055228404
 20
-92.5336260208
 30
0.0
  0
VERTEX
  5
841
  8
0
  6
CONTINUOUS
 62
     7
 10
-7.277222555
 20
-90.1366013893
 30
0.0
  0
VERTEX
  5
842
  8
0
  6
CONTINUOUS
 62
     7
 10
-7.2606763057
 20
-87.7969104656
 30
0.0
  0
VERTEX
  5
843
  8
0
  6
CONTINUOUS
 62
     7
 10
-7.2528800181
 20
-85.5025071511
 30
0.0
  0
VERTEX
  5
844
  8
0
  6
CONTINUOUS
 62
     7
 10
-7.2500905207
 20
-83.2446355233
 30
0.0
  0
VERTEX
  5
845
  8
0
  6
CONTINUOUS
 62
     7
 10
-7.2486838511
 20
-81.014104546
 30
0.0
  0
VERTEX
  5
846
  8
0
  6
CONTINUOUS
 62
     7
 10
-7.2457751445
 20
-78.7866670498
 30
0.0
  0
VERTEX
  5
847
  8
0
  6
CONTINUOUS
 62
     7
 10
-7.2402438334
 20
-76.5457648644
 30
0.0
  0
VERTEX
  5
848
  8
0
  6
CONTINUOUS
 62
     7
 10
-7.205911558
 20
-70.3397054085
 30
0.0
  0
VERTEX
  5
849
  8
0
  6
CONTINUOUS
 62
     7
 10
-7.1599206141
 20
-64.1357648978
 30
0.0
  0
VERTEX
  5
84A
  8
0
  6
CONTINUOUS
 62
     7
 10
-7.1620663813
 20
-60.8382481941
 30
0.0
  0
VERTEX
  5
84B
  8
0
  6
CONTINUOUS
 62
     7
 10
-7.1891745738
 20
-57.5379807362
 30
0.0
  0
VERTEX
  5
84C
  8
0
  6
CONTINUOUS
 62
     7
 10
-7.1923455409
 20
-54.237158955
 30
0.0
  0
VERTEX
  5
84D
  8
0
  6
CONTINUOUS
 62
     7
 10
-7.1105918101
 20
-50.9389687189
 30
0.0
  0
VERTEX
  5
84E
  8
0
  6
CONTINUOUS
 62
     7
 10
-6.8958481959
 20
-47.6437855372
 30
0.0
  0
VERTEX
  5
84F
  8
0
  6
CONTINUOUS
 62
     7
 10
-6.5383156947
 20
-44.3516451725
 30
0.0
  0
VERTEX
  5
850
  8
0
  6
CONTINUOUS
 62
     7
 10
-5.9371432475
 20
-41.0753700742
 30
0.0
  0
VERTEX
  5
851
  8
0
  6
CONTINUOUS
 62
     7
 10
-5.020066183
 20
-37.7837661514
 30
0.0
  0
SEQEND
  5
92F
  8
0
  6
CONTINUOUS
 62
     7
  0
ARC
  5
2C6
  8
0
  6
CONTINUOUS
 62
     7
 10
30.1862696
 20
-99.4168931235
 30
0.0
 40
73.33972343160004
 50
64.3650346611
 51
115.6349653389
  0
ARC
  5
2C7
  8
0
  6
CONTINUOUS
 62
     7
 10
58.6599953125
 20
-39.9025838721
 30
0.0
 40
7.365129851134868
 50
15.5448201664
 51
63.7659000493
  0
ARC
  5
2C8
  8
0
  6
CONTINUOUS
 62
     7
 10
1.6946496355
 20
-39.8877513137
 30
0.0
 40
7.343921279927226
 50
116.1600259162
 51
164.529253868
  0
LINE
  5
2C9
  8
0
  6
CONTINUOUS
 62
     7
 10
-7.4137410334
 20
-70.9463674435
 30
0.0
 11
-7.4137410334
 21
-80.9442121395
 31
0.0
  0
POLYLINE
  5
2CA
  8
0
  6
CONTINUOUS
 62
     7
 66
     1
 10
0.0
 20
0.0
 30
0.0
  0
VERTEX
  5
852
  8
0
  6
CONTINUOUS
 62
     7
 10
-7.4137410334
 20
-70.9463674435
 30
0.0
  0
VERTEX
  5
853
  8
0
  6
CONTINUOUS
 62
     7
 10
-7.3990306071
 20
-64.1183424601
 30
0.0
  0
VERTEX
  5
854
  8
0
  6
CONTINUOUS
 62
     7
 10
-7.4137171916
 20
-60.9464783081
 30
0.0
  0
SEQEND
  5
92E
  8
0
  6
CONTINUOUS
 62
     7
  0
LINE
  5
2CB
  8
0
  6
CONTINUOUS
 62
     7
 10
-7.4137410334
 20
-52.8349388251
 30
0.0
 11
-7.4137410334
 21
-60.9464961895
 31
0.0
  0
LINE
  5
2CC
  8
0
  6
CONTINUOUS
 62
     7
 10
-7.3849162272
 20
-50.9820837387
 30
0.0
 11
-7.4137410334
 21
-52.8349388251
 31
0.0
  0
POLYLINE
  5
2CD
  8
0
  6
CONTINUOUS
 62
     7
 66
     1
 10
0.0
 20
0.0
 30
0.0
  0
VERTEX
  5
855
  8
0
  6
CONTINUOUS
 62
     7
 10
-7.3852500132
 20
-50.9820688376
 30
0.0
  0
VERTEX
  5
856
  8
0
  6
CONTINUOUS
 62
     7
 10
-7.2407445124
 20
-48.4783220896
 30
0.0
  0
VERTEX
  5
857
  8
0
  6
CONTINUOUS
 62
     7
 10
-7.0164879969
 20
-45.9749016771
 30
0.0
  0
SEQEND
  5
92D
  8
0
  6
CONTINUOUS
 62
     7
  0
ARC
  5
2CE
  8
0
  6
CONTINUOUS
 62
     7
 10
52.3827847983
 20
-52.8899810072
 30
0.0
 40
59.80072183118416
 50
168.4877862107
 51
173.3596969809
  0
POLYLINE
  5
2CF
  8
0
  6
CONTINUOUS
 62
     7
 66
     1
 10
0.0
 20
0.0
 30
0.0
  0
VERTEX
  5
858
  8
0
  6
CONTINUOUS
 62
     7
 10
-6.2137326411
 20
-40.9495103964
 30
0.0
  0
VERTEX
  5
859
  8
0
  6
CONTINUOUS
 62
     7
 10
-5.8163127116
 20
-39.4391465792
 30
0.0
  0
VERTEX
  5
85A
  8
0
  6
CONTINUOUS
 62
     7
 10
-5.383177679
 20
-37.9287872323
 30
0.0
  0
SEQEND
  5
92C
  8
0
  6
CONTINUOUS
 62
     7
  0
POLYLINE
  5
2D0
  8
0
  6
CONTINUOUS
 62
     7
 66
     1
 10
0.0
 20
0.0
 30
0.0
  0
VERTEX
  5
85B
  8
0
  6
CONTINUOUS
 62
     7
 10
-7.4137887172
 20
-92.5998944649
 30
0.0
  0
VERTEX
  5
85C
  8
0
  6
CONTINUOUS
 62
     7
 10
-7.4137887172
 20
-92.5745684513
 30
0.0
  0
VERTEX
  5
85D
  8
0
  6
CONTINUOUS
 62
     7
 10
-7.4136218242
 20
-90.1615578541
 30
0.0
  0
VERTEX
  5
85E
  8
0
  6
CONTINUOUS
 62
     7
 10
-7.4131688289
 20
-87.7730924496
 30
0.0
  0
VERTEX
  5
85F
  8
0
  6
CONTINUOUS
 62
     7
 10
-7.4127873591
 20
-85.4071754822
 30
0.0
  0
VERTEX
  5
860
  8
0
  6
CONTINUOUS
 62
     7
 10
-7.4128827266
 20
-83.0523509392
 30
0.0
  0
VERTEX
  5
861
  8
0
  6
CONTINUOUS
 62
     7
 10
-7.4137410334
 20
-80.9442121395
 30
0.0
  0
SEQEND
  5
92B
  8
0
  6
CONTINUOUS
 62
     7
  0
POLYLINE
  5
2D1
  8
0
  6
CONTINUOUS
 62
     7
 66
     1
 10
0.0
 20
0.0
 30
0.0
  0
VERTEX
  5
862
  8
0
  6
CONTINUOUS
 62
     7
 10
65.755716879
 20
-37.9287872323
 30
0.0
  0
VERTEX
  5
863
  8
0
  6
CONTINUOUS
 62
     7
 10
66.189626772
 20
-39.441942037
 30
0.0
  0
VERTEX
  5
864
  8
0
  6
CONTINUOUS
 62
     7
 10
66.5876069852
 20
-40.955099822
 30
0.0
  0
SEQEND
  5
92A
  8
0
  6
CONTINUOUS
 62
     7
  0
ARC
  5
2D2
  8
0
  6
CONTINUOUS
 62
     7
 10
7.9463001642
 20
-52.8969227815
 30
0.0
 40
59.84468731090473
 50
6.6420936952
 51
11.5104231132
  0
POLYLINE
  5
2D3
  8
0
  6
CONTINUOUS
 62
     7
 66
     1
 10
0.0
 20
0.0
 30
0.0
  0
VERTEX
  5
865
  8
0
  6
CONTINUOUS
 62
     7
 10
67.389027197
 20
-45.9749016771
 30
0.0
  0
VERTEX
  5
866
  8
0
  6
CONTINUOUS
 62
     7
 10
67.6132837125
 20
-48.4783220896
 30
0.0
  0
VERTEX
  5
867
  8
0
  6
CONTINUOUS
 62
     7
 10
67.7577892133
 20
-50.9820688376
 30
0.0
  0
SEQEND
  5
929
  8
0
  6
CONTINUOUS
 62
     7
  0
LINE
  5
2D4
  8
0
  6
CONTINUOUS
 62
     7
 10
67.7862683126
 20
-52.8349388251
 30
0.0
 11
67.7574435064
 21
-50.9820837387
 31
0.0
  0
LINE
  5
2D5
  8
0
  6
CONTINUOUS
 62
     7
 10
67.7862683126
 20
-60.9464961895
 30
0.0
 11
67.7862683126
 21
-52.8349388251
 31
0.0
  0
POLYLINE
  5
2D6
  8
0
  6
CONTINUOUS
 62
     7
 66
     1
 10
0.0
 20
0.0
 30
0.0
  0
VERTEX
  5
868
  8
0
  6
CONTINUOUS
 62
     7
 10
67.7862683126
 20
-60.9464783081
 30
0.0
  0
VERTEX
  5
869
  8
0
  6
CONTINUOUS
 62
     7
 10
67.7715578862
 20
-64.1183424601
 30
0.0
  0
VERTEX
  5
86A
  8
0
  6
CONTINUOUS
 62
     7
 10
67.7862683126
 20
-70.9463674435
 30
0.0
  0
SEQEND
  5
928
  8
0
  6
CONTINUOUS
 62
     7
  0
POLYLINE
  5
2D7
  8
0
  6
CONTINUOUS
 62
     7
 66
     1
 10
0.0
 20
0.0
 30
0.0
  0
VERTEX
  5
86B
  8
0
  6
CONTINUOUS
 62
     7
 10
67.7863398381
 20
-92.6008421788
 30
0.0
  0
VERTEX
  5
86C
  8
0
  6
CONTINUOUS
 62
     7
 10
67.7863398381
 20
-92.292900742
 30
0.0
  0
VERTEX
  5
86D
  8
0
  6
CONTINUOUS
 62
     7
 10
67.7861252614
 20
-89.8810524353
 30
0.0
  0
VERTEX
  5
86E
  8
0
  6
CONTINUOUS
 62
     7
 10
67.7856484243
 20
-87.4964970955
 30
0.0
  0
VERTEX
  5
86F
  8
0
  6
CONTINUOUS
 62
     7
 10
67.7853027173
 20
-85.1331490883
 30
0.0
  0
VERTEX
  5
870
  8
0
  6
CONTINUOUS
 62
     7
 10
67.7866140195
 20
-80.4242987046
 30
0.0
  0
VERTEX
  5
871
  8
0
  6
CONTINUOUS
 62
     7
 10
67.7900949308
 20
-75.6903964886
 30
0.0
  0
VERTEX
  5
872
  8
0
  6
CONTINUOUS
 62
     7
 10
67.7862683126
 20
-70.9463674435
 30
0.0
  0
SEQEND
  5
927
  8
0
  6
CONTINUOUS
 62
     7
  0
ARC
  5
2D8
  8
0
  6
CONTINUOUS
 62
     7
 10
61.141855202
 20
-92.7374868573
 30
0.0
 40
6.645889545294303
 50
292.5444663561
 51
1.1781289845
  0
ARC
  5
2D9
  8
0
  6
CONTINUOUS
 62
     7
 10
-0.7663220443
 20
-92.733546878
 30
0.0
 40
6.648810129240294
 50
178.8481796205
 51
250.6420887517
  0
LINE
  5
2DA
  8
0
  6
CONTINUOUS
 62
     7
 10
67.3862734624
 20
-45.9487486491
 30
0.0
 11
67.3893132993
 21
-45.9748688945
 31
0.0
  0
POLYLINE
  5
2DB
  8
0
  6
CONTINUOUS
 62
     7
 66
     1
 10
0.0
 20
0.0
 30
0.0
  0
VERTEX
  5
873
  8
0
  6
CONTINUOUS
 62
     7
 10
66.5874162503
 20
-40.9551430353
 30
0.0
  0
VERTEX
  5
874
  8
0
  6
CONTINUOUS
 62
     7
 10
67.0396009275
 20
-43.4410083899
 30
0.0
  0
VERTEX
  5
875
  8
0
  6
CONTINUOUS
 62
     7
 10
67.3862734624
 20
-45.9487486491
 30
0.0
  0
SEQEND
  5
926
  8
0
  6
CONTINUOUS
 62
     7
  0
POLYLINE
  5
2DC
  8
0
  6
CONTINUOUS
 62
     7
 66
     1
 10
0.0
 20
0.0
 30
0.0
  0
VERTEX
  5
876
  8
0
  6
CONTINUOUS
 62
     7
 10
-7.0137223414
 20
-45.9487486491
 30
0.0
  0
VERTEX
  5
877
  8
0
  6
CONTINUOUS
 62
     7
 10
-6.667800825
 20
-43.4456068882
 30
0.0
  0
VERTEX
  5
878
  8
0
  6
CONTINUOUS
 62
     7
 10
-6.2148770503
 20
-40.9551430353
 30
0.0
  0
SEQEND
  5
925
  8
0
  6
CONTINUOUS
 62
     7
  0
LINE
  5
2DD
  8
0
  6
CONTINUOUS
 62
     7
 10
-7.0167740992
 20
-45.9748688945
 30
0.0
 11
-7.0137223414
 21
-45.9487486491
 31
0.0
  0
LINE
  5
2DE
  8
0
  6
CONTINUOUS
 62
     7
 10
67.7574435064
 20
-50.9820837387
 30
0.0
 11
67.7862683126
 21
-52.8327751765
 31
0.0
  0
LINE
  5
2DF
  8
0
  6
CONTINUOUS
 62
     7
 10
-7.4137410334
 20
-52.8327751765
 30
0.0
 11
-7.3849162272
 21
-50.9820837387
 31
0.0
  0
ARC
  5
2E0
  8
0
  6
CONTINUOUS
 62
     7
 10
390.1862719842
 20
-99.4168931235
 30
0.0
 40
73.33972343159996
 50
64.3650346611
 51
115.6349653389
  0
ARC
  5
2E1
  8
0
  6
CONTINUOUS
 62
     7
 10
390.1862719842
 20
-99.4291737939
 30
0.0
 40
73.33116819455044
 50
64.7052243607
 51
115.2947756393
  0
ARC
  5
2E2
  8
0
  6
CONTINUOUS
 62
     7
 10
362.0640386875
 20
-39.7398294165
 30
0.0
 40
7.349221227327547
 50
115.9019049949
 51
164.5641043464
  0
ARC
  5
2E3
  8
0
  6
CONTINUOUS
 62
     7
 10
418.3244804579
 20
-39.7265349837
 30
0.0
 40
7.330288847780738
 50
15.3689651349
 51
64.1650255237
  0
POLYLINE
  5
2E4
  8
0
  6
CONTINUOUS
 62
     7
 66
     1
 10
0.0
 20
0.0
 30
0.0
  0
VERTEX
  5
879
  8
0
  6
CONTINUOUS
 62
     7
 10
425.3926077672
 20
-37.7837661514
 30
0.0
  0
VERTEX
  5
87A
  8
0
  6
CONTINUOUS
 62
     7
 10
426.3096848317
 20
-41.0753700742
 30
0.0
  0
VERTEX
  5
87B
  8
0
  6
CONTINUOUS
 62
     7
 10
426.9108572789
 20
-44.3516451725
 30
0.0
  0
VERTEX
  5
87C
  8
0
  6
CONTINUOUS
 62
     7
 10
427.2683897802
 20
-47.6437855372
 30
0.0
  0
VERTEX
  5
87D
  8
0
  6
CONTINUOUS
 62
     7
 10
427.4831333944
 20
-50.9389687189
 30
0.0
  0
VERTEX
  5
87E
  8
0
  6
CONTINUOUS
 62
     7
 10
427.5648871251
 20
-54.237158955
 30
0.0
  0
VERTEX
  5
87F
  8
0
  6
CONTINUOUS
 62
     7
 10
427.561716158
 20
-57.5379807362
 30
0.0
  0
VERTEX
  5
880
  8
0
  6
CONTINUOUS
 62
     7
 10
427.5346079656
 20
-60.8382481941
 30
0.0
  0
VERTEX
  5
881
  8
0
  6
CONTINUOUS
 62
     7
 10
427.5324621984
 20
-64.1357648978
 30
0.0
  0
VERTEX
  5
882
  8
0
  6
CONTINUOUS
 62
     7
 10
427.5794068166
 20
-70.4559136042
 30
0.0
  0
VERTEX
  5
883
  8
0
  6
CONTINUOUS
 62
     7
 10
427.6134768315
 20
-76.7766434559
 30
0.0
  0
VERTEX
  5
884
  8
0
  6
CONTINUOUS
 62
     7
 10
427.6224890538
 20
-83.0298740277
 30
0.0
  0
VERTEX
  5
885
  8
0
  6
CONTINUOUS
 62
     7
 10
427.624301035
 20
-84.8745960602
 30
0.0
  0
VERTEX
  5
886
  8
0
  6
CONTINUOUS
 62
     7
 10
427.6287833043
 20
-86.7421228298
 30
0.0
  0
VERTEX
  5
887
  8
0
  6
CONTINUOUS
 62
     7
 10
427.6379862615
 20
-88.6374849686
 30
0.0
  0
VERTEX
  5
888
  8
0
  6
CONTINUOUS
 62
     7
 10
427.6539841481
 20
-90.5650514969
 30
0.0
  0
VERTEX
  5
889
  8
0
  6
CONTINUOUS
 62
     7
 10
427.6780644246
 20
-92.5336260208
 30
0.0
  0
SEQEND
  5
924
  8
0
  6
CONTINUOUS
 62
     7
  0
ARC
  5
2E5
  8
0
  6
CONTINUOUS
 62
     7
 10
420.9579748095
 20
-92.7270282044
 30
0.0
 40
6.722872067803909
 50
275.3894977057
 51
1.6485004851
  0
ARC
  5
2E6
  8
0
  6
CONTINUOUS
 62
     7
 10
390.1862660237
 20
240.5106652199
 30
0.0
 40
341.37829141557
 50
264.7219378813
 51
275.2780621187
  0
ARC
  5
2E7
  8
0
  6
CONTINUOUS
 62
     7
 10
359.4046143066
 20
-92.7358190909
 30
0.0
 40
6.713192277529895
 50
178.2740607887
 51
264.6879410205
  0
POLYLINE
  5
2E8
  8
0
  6
CONTINUOUS
 62
     7
 66
     1
 10
0.0
 20
0.0
 30
0.0
  0
VERTEX
  5
88A
  8
0
  6
CONTINUOUS
 62
     7
 10
352.6944676229
 20
-92.5336260208
 30
0.0
  0
VERTEX
  5
88B
  8
0
  6
CONTINUOUS
 62
     7
 10
352.7227798291
 20
-90.1366013893
 30
0.0
  0
VERTEX
  5
88C
  8
0
  6
CONTINUOUS
 62
     7
 10
352.7393260785
 20
-87.7969104656
 30
0.0
  0
VERTEX
  5
88D
  8
0
  6
CONTINUOUS
 62
     7
 10
352.7471223661
 20
-85.5025071511
 30
0.0
  0
VERTEX
  5
88E
  8
0
  6
CONTINUOUS
 62
     7
 10
352.7499118634
 20
-83.2446355233
 30
0.0
  0
VERTEX
  5
88F
  8
0
  6
CONTINUOUS
 62
     7
 10
352.7513185331
 20
-81.014104546
 30
0.0
  0
VERTEX
  5
890
  8
0
  6
CONTINUOUS
 62
     7
 10
352.7542272397
 20
-78.7866670498
 30
0.0
  0
VERTEX
  5
891
  8
0
  6
CONTINUOUS
 62
     7
 10
352.7597704717
 20
-76.5457648644
 30
0.0
  0
VERTEX
  5
892
  8
0
  6
CONTINUOUS
 62
     7
 10
352.7940908261
 20
-70.3397054085
 30
0.0
  0
VERTEX
  5
893
  8
0
  6
CONTINUOUS
 62
     7
 10
352.8400817701
 20
-64.1357648978
 30
0.0
  0
VERTEX
  5
894
  8
0
  6
CONTINUOUS
 62
     7
 10
352.8379240819
 20
-60.8382481941
 30
0.0
  0
VERTEX
  5
895
  8
0
  6
CONTINUOUS
 62
     7
 10
352.8108278104
 20
-57.5379807362
 30
0.0
  0
VERTEX
  5
896
  8
0
  6
CONTINUOUS
 62
     7
 10
352.8076568433
 20
-54.237158955
 30
0.0
  0
VERTEX
  5
897
  8
0
  6
CONTINUOUS
 62
     7
 10
352.8894105741
 20
-50.9389687189
 30
0.0
  0
VERTEX
  5
898
  8
0
  6
CONTINUOUS
 62
     7
 10
353.1041661092
 20
-47.6437855372
 30
0.0
  0
VERTEX
  5
899
  8
0
  6
CONTINUOUS
 62
     7
 10
353.4616866895
 20
-44.3516451725
 30
0.0
  0
VERTEX
  5
89A
  8
0
  6
CONTINUOUS
 62
     7
 10
354.0628591367
 20
-41.0753700742
 30
0.0
  0
VERTEX
  5
89B
  8
0
  6
CONTINUOUS
 62
     7
 10
354.9799242803
 20
-37.7837661514
 30
0.0
  0
SEQEND
  5
923
  8
0
  6
CONTINUOUS
 62
     7
  0
ARC
  5
2E9
  8
0
  6
CONTINUOUS
 62
     7
 10
418.6600479842
 20
-39.9025421888
 30
0.0
 40
7.365070232349813
 50
15.544612597
 51
63.7661076188
  0
ARC
  5
2EA
  8
0
  6
CONTINUOUS
 62
     7
 10
361.6946736442
 20
-39.8877692383
 30
0.0
 40
7.343946902241141
 50
116.16011569
 51
164.5291640942
  0
POLYLINE
  5
2EB
  8
0
  6
CONTINUOUS
 62
     7
 66
     1
 10
0.0
 20
0.0
 30
0.0
  0
VERTEX
  5
89C
  8
0
  6
CONTINUOUS
 62
     7
 10
425.7557192632
 20
-37.9287872323
 30
0.0
  0
VERTEX
  5
89D
  8
0
  6
CONTINUOUS
 62
     7
 10
426.1896410772
 20
-39.441942037
 30
0.0
  0
VERTEX
  5
89E
  8
0
  6
CONTINUOUS
 62
     7
 10
426.5876093694
 20
-40.955099822
 30
0.0
  0
SEQEND
  5
922
  8
0
  6
CONTINUOUS
 62
     7
  0
ARC
  5
2EC
  8
0
  6
CONTINUOUS
 62
     7
 10
367.9463025484
 20
-52.8969227815
 30
0.0
 40
59.84468731082693
 50
6.6420936952
 51
11.5104231132
  0
POLYLINE
  5
2ED
  8
0
  6
CONTINUOUS
 62
     7
 66
     1
 10
0.0
 20
0.0
 30
0.0
  0
VERTEX
  5
89F
  8
0
  6
CONTINUOUS
 62
     7
 10
427.3890295812
 20
-45.9749016771
 30
0.0
  0
VERTEX
  5
8A0
  8
0
  6
CONTINUOUS
 62
     7
 10
427.6132860967
 20
-48.4783220896
 30
0.0
  0
VERTEX
  5
8A1
  8
0
  6
CONTINUOUS
 62
     7
 10
427.7577915975
 20
-50.9820688376
 30
0.0
  0
SEQEND
  5
921
  8
0
  6
CONTINUOUS
 62
     7
  0
LINE
  5
2EE
  8
0
  6
CONTINUOUS
 62
     7
 10
427.7862826177
 20
-52.8349388251
 30
0.0
 11
427.7574578115
 21
-50.9820837387
 31
0.0
  0
LINE
  5
2EF
  8
0
  6
CONTINUOUS
 62
     7
 10
427.7862826177
 20
-60.9464961895
 30
0.0
 11
427.7862826177
 21
-52.8349388251
 31
0.0
  0
POLYLINE
  5
2F0
  8
0
  6
CONTINUOUS
 62
     7
 66
     1
 10
0.0
 20
0.0
 30
0.0
  0
VERTEX
  5
8A2
  8
0
  6
CONTINUOUS
 62
     7
 10
427.7862587758
 20
-60.9464783081
 30
0.0
  0
VERTEX
  5
8A3
  8
0
  6
CONTINUOUS
 62
     7
 10
427.7715721913
 20
-64.1183424601
 30
0.0
  0
VERTEX
  5
8A4
  8
0
  6
CONTINUOUS
 62
     7
 10
427.7862826177
 20
-70.9463674435
 30
0.0
  0
SEQEND
  5
920
  8
0
  6
CONTINUOUS
 62
     7
  0
POLYLINE
  5
2F1
  8
0
  6
CONTINUOUS
 62
     7
 66
     1
 10
0.0
 20
0.0
 30
0.0
  0
VERTEX
  5
8A5
  8
0
  6
CONTINUOUS
 62
     7
 10
427.7863303014
 20
-92.6008421788
 30
0.0
  0
VERTEX
  5
8A6
  8
0
  6
CONTINUOUS
 62
     7
 10
427.7863303014
 20
-92.292900742
 30
0.0
  0
VERTEX
  5
8A7
  8
0
  6
CONTINUOUS
 62
     7
 10
427.7861157247
 20
-89.8810524353
 30
0.0
  0
VERTEX
  5
8A8
  8
0
  6
CONTINUOUS
 62
     7
 10
427.7856388875
 20
-87.4964970955
 30
0.0
  0
VERTEX
  5
8A9
  8
0
  6
CONTINUOUS
 62
     7
 10
427.7853051015
 20
-85.1331490883
 30
0.0
  0
VERTEX
  5
8AA
  8
0
  6
CONTINUOUS
 62
     7
 10
427.7866164037
 20
-80.4242987046
 30
0.0
  0
VERTEX
  5
8AB
  8
0
  6
CONTINUOUS
 62
     7
 10
427.7900973149
 20
-75.6903964886
 30
0.0
  0
VERTEX
  5
8AC
  8
0
  6
CONTINUOUS
 62
     7
 10
427.7862826177
 20
-70.9463674435
 30
0.0
  0
SEQEND
  5
91F
  8
0
  6
CONTINUOUS
 62
     7
  0
LINE
  5
2F2
  8
0
  6
CONTINUOUS
 62
     7
 10
352.5862732717
 20
-70.9463674435
 30
0.0
 11
352.5862732717
 21
-80.9442121395
 31
0.0
  0
POLYLINE
  5
2F3
  8
0
  6
CONTINUOUS
 62
     7
 66
     1
 10
0.0
 20
0.0
 30
0.0
  0
VERTEX
  5
8AD
  8
0
  6
CONTINUOUS
 62
     7
 10
352.5862732717
 20
-70.9463674435
 30
0.0
  0
VERTEX
  5
8AE
  8
0
  6
CONTINUOUS
 62
     7
 10
352.600983698
 20
-64.1183424601
 30
0.0
  0
VERTEX
  5
8AF
  8
0
  6
CONTINUOUS
 62
     7
 10
352.5862732717
 20
-60.9464783081
 30
0.0
  0
SEQEND
  5
91E
  8
0
  6
CONTINUOUS
 62
     7
  0
LINE
  5
2F4
  8
0
  6
CONTINUOUS
 62
     7
 10
352.5862732717
 20
-52.8349388251
 30
0.0
 11
352.5862732717
 21
-60.9464961895
 31
0.0
  0
LINE
  5
2F5
  8
0
  6
CONTINUOUS
 62
     7
 10
352.6150980779
 20
-50.9820837387
 30
0.0
 11
352.5862732717
 21
-52.8349388251
 31
0.0
  0
POLYLINE
  5
2F6
  8
0
  6
CONTINUOUS
 62
     7
 66
     1
 10
0.0
 20
0.0
 30
0.0
  0
VERTEX
  5
8B0
  8
0
  6
CONTINUOUS
 62
     7
 10
352.6147523709
 20
-50.9820688376
 30
0.0
  0
VERTEX
  5
8B1
  8
0
  6
CONTINUOUS
 62
     7
 10
352.7592578717
 20
-48.4783220896
 30
0.0
  0
VERTEX
  5
8B2
  8
0
  6
CONTINUOUS
 62
     7
 10
352.9835143872
 20
-45.9749016771
 30
0.0
  0
SEQEND
  5
91D
  8
0
  6
CONTINUOUS
 62
     7
  0
ARC
  5
2F7
  8
0
  6
CONTINUOUS
 62
     7
 10
412.3827871825
 20
-52.8899810072
 30
0.0
 40
59.80072183120888
 50
168.4877862107
 51
173.3596969809
  0
POLYLINE
  5
2F8
  8
0
  6
CONTINUOUS
 62
     7
 66
     1
 10
0.0
 20
0.0
 30
0.0
  0
VERTEX
  5
8B3
  8
0
  6
CONTINUOUS
 62
     7
 10
353.7862697431
 20
-40.9495103964
 30
0.0
  0
VERTEX
  5
8B4
  8
0
  6
CONTINUOUS
 62
     7
 10
354.1837015935
 20
-39.4391465792
 30
0.0
  0
VERTEX
  5
8B5
  8
0
  6
CONTINUOUS
 62
     7
 10
354.6168247052
 20
-37.9287872323
 30
0.0
  0
SEQEND
  5
91C
  8
0
  6
CONTINUOUS
 62
     7
  0
POLYLINE
  5
2F9
  8
0
  6
CONTINUOUS
 62
     7
 66
     1
 10
0.0
 20
0.0
 30
0.0
  0
VERTEX
  5
8B6
  8
0
  6
CONTINUOUS
 62
     7
 10
352.5862017461
 20
-92.5998944649
 30
0.0
  0
VERTEX
  5
8B7
  8
0
  6
CONTINUOUS
 62
     7
 10
352.5862017461
 20
-92.5745684513
 30
0.0
  0
VERTEX
  5
8B8
  8
0
  6
CONTINUOUS
 62
     7
 10
352.5863686391
 20
-90.1615578541
 30
0.0
  0
VERTEX
  5
8B9
  8
0
  6
CONTINUOUS
 62
     7
 10
352.5868335553
 20
-87.7730924496
 30
0.0
  0
VERTEX
  5
8BA
  8
0
  6
CONTINUOUS
 62
     7
 10
352.587226946
 20
-85.4071754822
 30
0.0
  0
VERTEX
  5
8BB
  8
0
  6
CONTINUOUS
 62
     7
 10
352.5871196576
 20
-83.0523509392
 30
0.0
  0
VERTEX
  5
8BC
  8
0
  6
CONTINUOUS
 62
     7
 10
352.5862732717
 20
-80.9442121395
 30
0.0
  0
SEQEND
  5
91B
  8
0
  6
CONTINUOUS
 62
     7
  0
ARC
  5
2FA
  8
0
  6
CONTINUOUS
 62
     7
 10
421.141867832
 20
-92.7375061698
 30
0.0
 40
6.645867780291759
 50
292.5444486095
 51
1.1782993772
  0
ARC
  5
2FB
  8
0
  6
CONTINUOUS
 62
     7
 10
359.2337214113
 20
-92.7335060217
 30
0.0
 40
6.648862289679419
 50
178.8485408031
 51
250.6418715343
  0
LINE
  5
2FC
  8
0
  6
CONTINUOUS
 62
     7
 10
427.3862639257
 20
-45.9487486491
 30
0.0
 11
427.3893156835
 21
-45.9748688945
 31
0.0
  0
POLYLINE
  5
2FD
  8
0
  6
CONTINUOUS
 62
     7
 66
     1
 10
0.0
 20
0.0
 30
0.0
  0
VERTEX
  5
8BD
  8
0
  6
CONTINUOUS
 62
     7
 10
426.5874186345
 20
-40.9551430353
 30
0.0
  0
VERTEX
  5
8BE
  8
0
  6
CONTINUOUS
 62
     7
 10
427.0396033116
 20
-43.4410083899
 30
0.0
  0
VERTEX
  5
8BF
  8
0
  6
CONTINUOUS
 62
     7
 10
427.3862639257
 20
-45.9487486491
 30
0.0
  0
SEQEND
  5
91A
  8
0
  6
CONTINUOUS
 62
     7
  0
POLYLINE
  5
2FE
  8
0
  6
CONTINUOUS
 62
     7
 66
     1
 10
0.0
 20
0.0
 30
0.0
  0
VERTEX
  5
8C0
  8
0
  6
CONTINUOUS
 62
     7
 10
352.9862681218
 20
-45.9487486491
 30
0.0
  0
VERTEX
  5
8C1
  8
0
  6
CONTINUOUS
 62
     7
 10
353.3322015592
 20
-43.4456068882
 30
0.0
  0
VERTEX
  5
8C2
  8
0
  6
CONTINUOUS
 62
     7
 10
353.7851253339
 20
-40.9551430353
 30
0.0
  0
SEQEND
  5
919
  8
0
  6
CONTINUOUS
 62
     7
  0
LINE
  5
2FF
  8
0
  6
CONTINUOUS
 62
     7
 10
352.9832282849
 20
-45.9748688945
 30
0.0
 11
352.9862681218
 21
-45.9487486491
 31
0.0
  0
LINE
  5
300
  8
0
  6
CONTINUOUS
 62
     7
 10
427.7574578115
 20
-50.9820837387
 30
0.0
 11
427.7862826177
 21
-52.8327751765
 31
0.0
  0
LINE
  5
301
  8
0
  6
CONTINUOUS
 62
     7
 10
352.5862732717
 20
-52.8327751765
 30
0.0
 11
352.6150980779
 21
-50.9820837387
 31
0.0
  0
ARC
  5
302
  8
0
  6
CONTINUOUS
 62
     7
 10
242.0640469341
 20
-39.739844146
 30
0.0
 40
7.349236256921748
 50
115.9018834053
 51
164.5640175698
  0
ARC
  5
303
  8
0
  6
CONTINUOUS
 62
     7
 10
270.1862716862
 20
-99.4291506902
 30
0.0
 40
73.33114539593397
 50
64.7052198057
 51
115.2947801943
  0
ARC
  5
304
  8
0
  6
CONTINUOUS
 62
     7
 10
298.3245534845
 20
-39.7264792937
 30
0.0
 40
7.330204822448015
 50
15.3686942198
 51
64.1653831319
  0
POLYLINE
  5
305
  8
0
  6
CONTINUOUS
 62
     7
 66
     1
 10
0.0
 20
0.0
 30
0.0
  0
VERTEX
  5
8C3
  8
0
  6
CONTINUOUS
 62
     7
 10
305.3926149198
 20
-37.7837661514
 30
0.0
  0
VERTEX
  5
8C4
  8
0
  6
CONTINUOUS
 62
     7
 10
306.3096800634
 20
-41.0753700742
 30
0.0
  0
VERTEX
  5
8C5
  8
0
  6
CONTINUOUS
 62
     7
 10
306.9108525106
 20
-44.3516451725
 30
0.0
  0
VERTEX
  5
8C6
  8
0
  6
CONTINUOUS
 62
     7
 10
307.2683790513
 20
-47.6437855372
 30
0.0
  0
VERTEX
  5
8C7
  8
0
  6
CONTINUOUS
 62
     7
 10
307.4831345864
 20
-50.9389687189
 30
0.0
  0
VERTEX
  5
8C8
  8
0
  6
CONTINUOUS
 62
     7
 10
307.5648823568
 20
-54.237158955
 30
0.0
  0
VERTEX
  5
8C9
  8
0
  6
CONTINUOUS
 62
     7
 10
307.5617173501
 20
-57.5379807362
 30
0.0
  0
VERTEX
  5
8CA
  8
0
  6
CONTINUOUS
 62
     7
 10
307.5346151181
 20
-60.8382481941
 30
0.0
  0
VERTEX
  5
8CB
  8
0
  6
CONTINUOUS
 62
     7
 10
307.53245743
 20
-64.1357648978
 30
0.0
  0
VERTEX
  5
8CC
  8
0
  6
CONTINUOUS
 62
     7
 10
307.5793960878
 20
-70.4559136042
 30
0.0
  0
VERTEX
  5
8CD
  8
0
  6
CONTINUOUS
 62
     7
 10
307.6134839841
 20
-76.7766434559
 30
0.0
  0
VERTEX
  5
8CE
  8
0
  6
CONTINUOUS
 62
     7
 10
307.6224902459
 20
-83.0298740277
 30
0.0
  0
VERTEX
  5
8CF
  8
0
  6
CONTINUOUS
 62
     7
 10
307.6243022271
 20
-84.8745960602
 30
0.0
  0
VERTEX
  5
8D0
  8
0
  6
CONTINUOUS
 62
     7
 10
307.6287964173
 20
-86.7421228298
 30
0.0
  0
VERTEX
  5
8D1
  8
0
  6
CONTINUOUS
 62
     7
 10
307.6379874536
 20
-88.6374849686
 30
0.0
  0
VERTEX
  5
8D2
  8
0
  6
CONTINUOUS
 62
     7
 10
307.6539793798
 20
-90.5650514969
 30
0.0
  0
VERTEX
  5
8D3
  8
0
  6
CONTINUOUS
 62
     7
 10
307.6780715772
 20
-92.5336260208
 30
0.0
  0
SEQEND
  5
918
  8
0
  6
CONTINUOUS
 62
     7
  0
ARC
  5
306
  8
0
  6
CONTINUOUS
 62
     7
 10
300.9579397992
 20
-92.7269909268
 30
0.0
 40
6.72291314089338
 50
275.3898256084
 51
1.6481725825
  0
ARC
  5
307
  8
0
  6
CONTINUOUS
 62
     7
 10
270.1862701961
 20
240.5107599164
 30
0.0
 40
341.3783859847036
 50
264.7219388452
 51
275.2780611548
  0
ARC
  5
308
  8
0
  6
CONTINUOUS
 62
     7
 10
239.4046173838
 20
-92.7358159723
 30
0.0
 40
6.713195557275394
 50
178.274088261
 51
264.687927465
  0
POLYLINE
  5
309
  8
0
  6
CONTINUOUS
 62
     7
 66
     1
 10
0.0
 20
0.0
 30
0.0
  0
VERTEX
  5
8D4
  8
0
  6
CONTINUOUS
 62
     7
 10
232.6944673248
 20
-92.5336260208
 30
0.0
  0
VERTEX
  5
8D5
  8
0
  6
CONTINUOUS
 62
     7
 10
232.7227854916
 20
-90.1366013893
 30
0.0
  0
VERTEX
  5
8D6
  8
0
  6
CONTINUOUS
 62
     7
 10
232.7393242904
 20
-87.7969104656
 30
0.0
  0
VERTEX
  5
8D7
  8
0
  6
CONTINUOUS
 62
     7
 10
232.7471205779
 20
-85.5025071511
 30
0.0
  0
VERTEX
  5
8D8
  8
0
  6
CONTINUOUS
 62
     7
 10
232.7499130555
 20
-83.2446355233
 30
0.0
  0
VERTEX
  5
8D9
  8
0
  6
CONTINUOUS
 62
     7
 10
232.7513152548
 20
-81.014104546
 30
0.0
  0
VERTEX
  5
8DA
  8
0
  6
CONTINUOUS
 62
     7
 10
232.7542254516
 20
-78.7866670498
 30
0.0
  0
VERTEX
  5
8DB
  8
0
  6
CONTINUOUS
 62
     7
 10
232.7597671934
 20
-76.5457648644
 30
0.0
  0
VERTEX
  5
8DC
  8
0
  6
CONTINUOUS
 62
     7
 10
232.7940920182
 20
-70.3397054085
 30
0.0
  0
VERTEX
  5
8DD
  8
0
  6
CONTINUOUS
 62
     7
 10
232.8400829621
 20
-64.1357648978
 30
0.0
  0
VERTEX
  5
8DE
  8
0
  6
CONTINUOUS
 62
     7
 10
232.837925274
 20
-60.8382481941
 30
0.0
  0
VERTEX
  5
8DF
  8
0
  6
CONTINUOUS
 62
     7
 10
232.8108245321
 20
-57.5379807362
 30
0.0
  0
VERTEX
  5
8E0
  8
0
  6
CONTINUOUS
 62
     7
 10
232.8076595255
 20
-54.237158955
 30
0.0
  0
VERTEX
  5
8E1
  8
0
  6
CONTINUOUS
 62
     7
 10
232.8894058057
 20
-50.9389687189
 30
0.0
  0
VERTEX
  5
8E2
  8
0
  6
CONTINUOUS
 62
     7
 10
233.1041643211
 20
-47.6437855372
 30
0.0
  0
VERTEX
  5
8E3
  8
0
  6
CONTINUOUS
 62
     7
 10
233.4616863915
 20
-44.3516451725
 30
0.0
  0
VERTEX
  5
8E4
  8
0
  6
CONTINUOUS
 62
     7
 10
234.0628603288
 20
-41.0753700742
 30
0.0
  0
VERTEX
  5
8E5
  8
0
  6
CONTINUOUS
 62
     7
 10
234.9799269625
 20
-37.7837661514
 30
0.0
  0
SEQEND
  5
917
  8
0
  6
CONTINUOUS
 62
     7
  0
ARC
  5
30A
  8
0
  6
CONTINUOUS
 62
     7
 10
270.1862716862
 20
-99.4168707587
 30
0.0
 40
73.33970133414101
 50
64.3650302506
 51
115.6349697494
  0
ARC
  5
30B
  8
0
  6
CONTINUOUS
 62
     7
 10
298.660048658
 20
-39.9025376778
 30
0.0
 40
7.365063780397015
 50
15.5445901336
 51
63.7661300822
  0
ARC
  5
30C
  8
0
  6
CONTINUOUS
 62
     7
 10
241.6946335126
 20
-39.8877347913
 30
0.0
 40
7.34389645102958
 50
116.1599239314
 51
164.5293340052
  0
LINE
  5
30D
  8
0
  6
CONTINUOUS
 62
     7
 10
232.5862714835
 20
-70.9463674435
 30
0.0
 11
232.5862714835
 21
-80.9442121395
 31
0.0
  0
POLYLINE
  5
30E
  8
0
  6
CONTINUOUS
 62
     7
 66
     1
 10
0.0
 20
0.0
 30
0.0
  0
VERTEX
  5
8E6
  8
0
  6
CONTINUOUS
 62
     7
 10
232.5862670132
 20
-70.9463674435
 30
0.0
  0
VERTEX
  5
8E7
  8
0
  6
CONTINUOUS
 62
     7
 10
232.6009804197
 20
-64.1183424601
 30
0.0
  0
VERTEX
  5
8E8
  8
0
  6
CONTINUOUS
 62
     7
 10
232.5862714835
 20
-60.9464783081
 30
0.0
  0
SEQEND
  5
916
  8
0
  6
CONTINUOUS
 62
     7
  0
LINE
  5
30F
  8
0
  6
CONTINUOUS
 62
     7
 10
232.5862714835
 20
-52.8349388251
 30
0.0
 11
232.5862714835
 21
-60.9464961895
 31
0.0
  0
LINE
  5
310
  8
0
  6
CONTINUOUS
 62
     7
 10
232.6150933095
 20
-50.9820837387
 30
0.0
 11
232.5862714835
 21
-52.8349388251
 31
0.0
  0
POLYLINE
  5
311
  8
0
  6
CONTINUOUS
 62
     7
 66
     1
 10
0.0
 20
0.0
 30
0.0
  0
VERTEX
  5
8E9
  8
0
  6
CONTINUOUS
 62
     7
 10
232.6147461125
 20
-50.9820688376
 30
0.0
  0
VERTEX
  5
8EA
  8
0
  6
CONTINUOUS
 62
     7
 10
232.7592516133
 20
-48.4783220896
 30
0.0
  0
VERTEX
  5
8EB
  8
0
  6
CONTINUOUS
 62
     7
 10
232.9835170695
 20
-45.9749016771
 30
0.0
  0
SEQEND
  5
915
  8
0
  6
CONTINUOUS
 62
     7
  0
ARC
  5
312
  8
0
  6
CONTINUOUS
 62
     7
 10
292.3851585288
 20
-52.890289817
 30
0.0
 40
59.80311031507771
 50
168.4879503506
 51
173.359665522
  0
POLYLINE
  5
313
  8
0
  6
CONTINUOUS
 62
     7
 66
     1
 10
0.0
 20
0.0
 30
0.0
  0
VERTEX
  5
8EC
  8
0
  6
CONTINUOUS
 62
     7
 10
233.7862709352
 20
-40.9495103964
 30
0.0
  0
VERTEX
  5
8ED
  8
0
  6
CONTINUOUS
 62
     7
 10
234.1836968251
 20
-39.4391465792
 30
0.0
  0
VERTEX
  5
8EE
  8
0
  6
CONTINUOUS
 62
     7
 10
234.6168273874
 20
-37.9287872323
 30
0.0
  0
SEQEND
  5
914
  8
0
  6
CONTINUOUS
 62
     7
  0
POLYLINE
  5
314
  8
0
  6
CONTINUOUS
 62
     7
 66
     1
 10
0.0
 20
0.0
 30
0.0
  0
VERTEX
  5
8EF
  8
0
  6
CONTINUOUS
 62
     7
 10
232.586199958
 20
-92.5998944649
 30
0.0
  0
VERTEX
  5
8F0
  8
0
  6
CONTINUOUS
 62
     7
 10
232.586199958
 20
-92.5745684513
 30
0.0
  0
VERTEX
  5
8F1
  8
0
  6
CONTINUOUS
 62
     7
 10
232.5863698312
 20
-90.1615578541
 30
0.0
  0
VERTEX
  5
8F2
  8
0
  6
CONTINUOUS
 62
     7
 10
232.5868347474
 20
-87.7730924496
 30
0.0
  0
VERTEX
  5
8F3
  8
0
  6
CONTINUOUS
 62
     7
 10
232.5872206875
 20
-85.4071754822
 30
0.0
  0
VERTEX
  5
8F4
  8
0
  6
CONTINUOUS
 62
     7
 10
232.5871163794
 20
-83.0523509392
 30
0.0
  0
VERTEX
  5
8F5
  8
0
  6
CONTINUOUS
 62
     7
 10
232.5862714835
 20
-80.9442121395
 30
0.0
  0
SEQEND
  5
913
  8
0
  6
CONTINUOUS
 62
     7
  0
POLYLINE
  5
315
  8
0
  6
CONTINUOUS
 62
     7
 66
     1
 10
0.0
 20
0.0
 30
0.0
  0
VERTEX
  5
8F6
  8
0
  6
CONTINUOUS
 62
     7
 10
305.7557144948
 20
-37.9287872323
 30
0.0
  0
VERTEX
  5
8F7
  8
0
  6
CONTINUOUS
 62
     7
 10
306.1896303483
 20
-39.441942037
 30
0.0
  0
VERTEX
  5
8F8
  8
0
  6
CONTINUOUS
 62
     7
 10
306.587604601
 20
-40.955099822
 30
0.0
  0
SEQEND
  5
912
  8
0
  6
CONTINUOUS
 62
     7
  0
ARC
  5
316
  8
0
  6
CONTINUOUS
 62
     7
 10
247.9449724864
 20
-52.8970648635
 30
0.0
 40
59.84602014338833
 50
6.6420820492
 51
11.5103020782
  0
POLYLINE
  5
317
  8
0
  6
CONTINUOUS
 62
     7
 66
     1
 10
0.0
 20
0.0
 30
0.0
  0
VERTEX
  5
8F9
  8
0
  6
CONTINUOUS
 62
     7
 10
307.3890248128
 20
-45.9749016771
 30
0.0
  0
VERTEX
  5
8FA
  8
0
  6
CONTINUOUS
 62
     7
 10
307.6132872888
 20
-48.4783220896
 30
0.0
  0
VERTEX
  5
8FB
  8
0
  6
CONTINUOUS
 62
     7
 10
307.7577927896
 20
-50.9820688376
 30
0.0
  0
SEQEND
  5
911
  8
0
  6
CONTINUOUS
 62
     7
  0
LINE
  5
318
  8
0
  6
CONTINUOUS
 62
     7
 10
307.7862718888
 20
-52.8349388251
 30
0.0
 11
307.7574470826
 21
-50.9820837387
 31
0.0
  0
LINE
  5
319
  8
0
  6
CONTINUOUS
 62
     7
 10
307.7862718888
 20
-60.9464961895
 30
0.0
 11
307.7862718888
 21
-52.8349388251
 31
0.0
  0
POLYLINE
  5
31A
  8
0
  6
CONTINUOUS
 62
     7
 66
     1
 10
0.0
 20
0.0
 30
0.0
  0
VERTEX
  5
8FC
  8
0
  6
CONTINUOUS
 62
     7
 10
307.7862718888
 20
-60.9464783081
 30
0.0
  0
VERTEX
  5
8FD
  8
0
  6
CONTINUOUS
 62
     7
 10
307.7715614625
 20
-64.1183424601
 30
0.0
  0
VERTEX
  5
8FE
  8
0
  6
CONTINUOUS
 62
     7
 10
307.7862718888
 20
-70.9463674435
 30
0.0
  0
SEQEND
  5
910
  8
0
  6
CONTINUOUS
 62
     7
  0
POLYLINE
  5
31B
  8
0
  6
CONTINUOUS
 62
     7
 66
     1
 10
0.0
 20
0.0
 30
0.0
  0
VERTEX
  5
8FF
  8
0
  6
CONTINUOUS
 62
     7
 10
307.7863434144
 20
-92.6008421788
 30
0.0
  0
VERTEX
  5
900
  8
0
  6
CONTINUOUS
 62
     7
 10
307.786337454
 20
-92.292900742
 30
0.0
  0
VERTEX
  5
901
  8
0
  6
CONTINUOUS
 62
     7
 10
307.7861228772
 20
-89.8810524353
 30
0.0
  0
VERTEX
  5
902
  8
0
  6
CONTINUOUS
 62
     7
 10
307.7856460401
 20
-87.4964970955
 30
0.0
  0
VERTEX
  5
903
  8
0
  6
CONTINUOUS
 62
     7
 10
307.7853003331
 20
-85.1331490883
 30
0.0
  0
VERTEX
  5
904
  8
0
  6
CONTINUOUS
 62
     7
 10
307.7866175958
 20
-80.4242987046
 30
0.0
  0
VERTEX
  5
905
  8
0
  6
CONTINUOUS
 62
     7
 10
307.7900925466
 20
-75.6903964886
 30
0.0
  0
VERTEX
  5
906
  8
0
  6
CONTINUOUS
 62
     7
 10
307.7862718888
 20
-70.9463674435
 30
0.0
  0
SEQEND
  5
90F
  8
0
  6
CONTINUOUS
 62
     7
  0
ARC
  5
31C
  8
0
  6
CONTINUOUS
 62
     7
 10
301.1418493384
 20
-92.7374782739
 30
0.0
 40
6.645898806713677
 50
292.5444656896
 51
1.178053328
  0
ARC
  5
31D
  8
0
  6
CONTINUOUS
 62
     7
 10
239.2337286604
 20
-92.7335007787
 30
0.0
 40
6.648871219741785
 50
178.84858754
 51
250.6417888062
  0
LINE
  5
31E
  8
0
  6
CONTINUOUS
 62
     7
 10
307.3862710782
 20
-45.9487486491
 30
0.0
 11
307.3893109151
 21
-45.9748688945
 31
0.0
  0
POLYLINE
  5
31F
  8
0
  6
CONTINUOUS
 62
     7
 66
     1
 10
0.0
 20
0.0
 30
0.0
  0
VERTEX
  5
907
  8
0
  6
CONTINUOUS
 62
     7
 10
306.5874198266
 20
-40.9551430353
 30
0.0
  0
VERTEX
  5
908
  8
0
  6
CONTINUOUS
 62
     7
 10
307.0396045037
 20
-43.4410083899
 30
0.0
  0
VERTEX
  5
909
  8
0
  6
CONTINUOUS
 62
     7
 10
307.3862710782
 20
-45.9487486491
 30
0.0
  0
SEQEND
  5
90E
  8
0
  6
CONTINUOUS
 62
     7
  0
POLYLINE
  5
320
  8
0
  6
CONTINUOUS
 62
     7
 66
     1
 10
0.0
 20
0.0
 30
0.0
  0
VERTEX
  5
90A
  8
0
  6
CONTINUOUS
 62
     7
 10
232.986270804
 20
-45.9487486491
 30
0.0
  0
VERTEX
  5
90B
  8
0
  6
CONTINUOUS
 62
     7
 10
233.3322012612
 20
-43.4456068882
 30
0.0
  0
VERTEX
  5
90C
  8
0
  6
CONTINUOUS
 62
     7
 10
233.7851220556
 20
-40.9551430353
 30
0.0
  0
SEQEND
  5
90D
  8
0
  6
CONTINUOUS
 62
     7
  0
LINE
  5
321
  8
0
  6
CONTINUOUS
 62
     7
 10
232.9832309672
 20
-45.9748688945
 30
0.0
 11
232.986270804
 21
-45.9487486491
 31
0.0
  0
LINE
  5
322
  8
0
  6
CONTINUOUS
 62
     7
 10
307.7574470826
 20
-50.9820837387
 30
0.0
 11
307.7862718888
 21
-52.8327751765
 31
0.0
  0
LINE
  5
323
  8
0
  6
CONTINUOUS
 62
     7
 10
232.5862714835
 20
-52.8327751765
 30
0.0
 11
232.6150933095
 21
-50.9820837387
 31
0.0
  0
LINE
  5
324
  8
0
  6
CONTINUOUS
 62
     7
 10
353.3605972119
 20
-27.1403714874
 30
0.0
 11
353.3605972119
 21
-27.1971907326
 31
0.0
  0
LINE
  5
325
  8
0
  6
CONTINUOUS
 62
     7
 10
352.5828519651
 20
-88.3403736958
 30
0.0
 11
352.4862685987
 21
-88.3403736958
 31
0.0
  0
LINE
  5
326
  8
0
  6
CONTINUOUS
 62
     7
 10
352.4862685987
 20
-88.3403736958
 30
0.0
 11
352.4862685987
 21
-27.1403714874
 31
0.0
  0
LINE
  5
327
  8
0
  6
CONTINUOUS
 62
     7
 10
352.4862685987
 20
-27.1403714874
 30
0.0
 11
353.3605972119
 21
-27.1403714874
 31
0.0
  0
LINE
  5
328
  8
0
  6
CONTINUOUS
 62
     7
 10
353.3605972119
 20
-27.1971907326
 30
0.0
 11
353.5821119138
 21
-27.2124286601
 31
0.0
  0
ARC
  5
329
  8
0
  6
CONTINUOUS
 62
     7
 10
354.1502277834
 20
-29.2519612527
 30
0.0
 40
1.996151849803633
 50
359.8800339019
 51
86.0293913405
  0
LINE
  5
32A
  8
0
  6
CONTINUOUS
 62
     7
 10
356.1463752576
 20
-29.2561407992
 30
0.0
 11
356.1463752576
 21
-33.6586620518
 31
0.0
  0
ARC
  5
32B
  8
0
  6
CONTINUOUS
 62
     7
 10
357.3481305941
 20
-33.6594636522
 30
0.0
 40
1.201755603831109
 50
179.9617823106
 51
232.2503066851
  0
LINE
  5
32C
  8
0
  6
CONTINUOUS
 62
     7
 10
354.2884507962
 20
-27.2606007615
 30
0.0
 11
353.5821119138
 21
-27.2124286601
 31
0.0
  0
LINE
  5
32D
  8
0
  6
CONTINUOUS
 62
     7
 10
352.4862685987
 20
-27.1403714874
 30
0.0
 11
352.4862685987
 21
-14.420254887
 31
0.0
  0
LINE
  5
32E
  8
0
  6
CONTINUOUS
 62
     7
 10
353.2862702199
 20
-14.420254887
 30
0.0
 11
353.2862702199
 21
-27.1403714874
 31
0.0
  0
LINE
  5
32F
  8
0
  6
CONTINUOUS
 62
     7
 10
352.4862685987
 20
-13.240371258
 30
0.0
 11
353.2862702199
 21
-13.240371258
 31
0.0
  0
LINE
  5
330
  8
0
  6
CONTINUOUS
 62
     7
 10
352.4862685987
 20
-14.420254887
 30
0.0
 11
352.4862685987
 21
-13.240371258
 31
0.0
  0
LINE
  5
331
  8
0
  6
CONTINUOUS
 62
     7
 10
353.2862702199
 20
-13.240371258
 30
0.0
 11
353.2862702199
 21
-14.420254887
 31
0.0
  0
LINE
  5
332
  8
0
  6
CONTINUOUS
 62
     7
 10
352.4862685987
 20
-16.2403713772
 30
0.0
 11
347.6862707921
 21
-16.2403713772
 31
0.0
  0
LINE
  5
333
  8
0
  6
CONTINUOUS
 62
     7
 10
347.6862707921
 20
-16.2403713772
 30
0.0
 11
347.6862707921
 21
-17.2403715411
 31
0.0
  0
LINE
  5
334
  8
0
  6
CONTINUOUS
 62
     7
 10
357.6862731763
 20
-16.2403713772
 30
0.0
 11
353.2862702199
 21
-16.2403713772
 31
0.0
  0
LINE
  5
335
  8
0
  6
CONTINUOUS
 62
     7
 10
357.6862731763
 20
-16.2403713772
 30
0.0
 11
357.6862731763
 21
-17.2403715411
 31
0.0
  0
LINE
  5
336
  8
0
  6
CONTINUOUS
 62
     7
 10
357.6862731763
 20
-17.2403715411
 30
0.0
 11
357.6862731763
 21
-26.440371559
 31
0.0
  0
LINE
  5
337
  8
0
  6
CONTINUOUS
 62
     7
 10
347.6862707921
 20
-17.2403715411
 30
0.0
 11
347.6862707921
 21
-26.440371559
 31
0.0
  0
LINE
  5
338
  8
0
  6
CONTINUOUS
 62
     7
 10
352.4862685987
 20
-27.4403717229
 30
0.0
 11
347.6862707921
 21
-27.4403717229
 31
0.0
  0
LINE
  5
339
  8
0
  6
CONTINUOUS
 62
     7
 10
347.6862707921
 20
-26.440371559
 30
0.0
 11
347.6862707921
 21
-27.4403717229
 31
0.0
  0
LINE
  5
33A
  8
0
  6
CONTINUOUS
 62
     7
 10
357.6862731763
 20
-27.4403717229
 30
0.0
 11
354.9901643582
 21
-27.4403717229
 31
0.0
  0
LINE
  5
33B
  8
0
  6
CONTINUOUS
 62
     7
 10
357.6862731763
 20
-26.440371559
 30
0.0
 11
357.6862731763
 21
-27.4403717229
 31
0.0
  0
LINE
  5
33C
  8
0
  6
CONTINUOUS
 62
     7
 10
-6.6394051722
 20
-27.1403714874
 30
0.0
 11
-6.6394051722
 21
-27.1971907326
 31
0.0
  0
LINE
  5
33D
  8
0
  6
CONTINUOUS
 62
     7
 10
-7.4171504191
 20
-88.3403736958
 30
0.0
 11
-7.5137337855
 21
-88.3403736958
 31
0.0
  0
LINE
  5
33E
  8
0
  6
CONTINUOUS
 62
     7
 10
-7.5137337855
 20
-88.3403736958
 30
0.0
 11
-7.5137337855
 21
-27.1403714874
 31
0.0
  0
LINE
  5
33F
  8
0
  6
CONTINUOUS
 62
     7
 10
-7.5137337855
 20
-27.1403714874
 30
0.0
 11
-6.6394051722
 21
-27.1403714874
 31
0.0
  0
LINE
  5
340
  8
0
  6
CONTINUOUS
 62
     7
 10
-6.6394051722
 20
-27.1971907326
 30
0.0
 11
-6.4178904704
 21
-27.2124286601
 31
0.0
  0
ARC
  5
341
  8
0
  6
CONTINUOUS
 62
     7
 10
-5.849761035
 20
-29.2519486225
 30
0.0
 40
1.996138310537436
 50
359.879670557
 51
86.0297546854
  0
LINE
  5
342
  8
0
  6
CONTINUOUS
 62
     7
 10
-3.8536271266
 20
-29.2561407992
 30
0.0
 11
-3.8536271266
 21
-33.6586620518
 31
0.0
  0
ARC
  5
343
  8
0
  6
CONTINUOUS
 62
     7
 10
-2.6519210568
 20
-33.6594785726
 30
0.0
 40
1.201706347214626
 50
179.9610693616
 51
232.252177891
  0
LINE
  5
344
  8
0
  6
CONTINUOUS
 62
     7
 10
-5.7115515879
 20
-27.2606007615
 30
0.0
 11
-6.4178904704
 21
-27.2124286601
 31
0.0
  0
LINE
  5
345
  8
0
  6
CONTINUOUS
 62
     7
 10
-7.5137337855
 20
-27.1403714874
 30
0.0
 11
-7.5137337855
 21
-14.420254887
 31
0.0
  0
LINE
  5
346
  8
0
  6
CONTINUOUS
 62
     7
 10
-6.7137202433
 20
-14.420254887
 30
0.0
 11
-6.7137202433
 21
-27.1403714874
 31
0.0
  0
LINE
  5
347
  8
0
  6
CONTINUOUS
 62
     7
 10
-7.5137337855
 20
-13.240371258
 30
0.0
 11
-6.7137202433
 21
-13.240371258
 31
0.0
  0
LINE
  5
348
  8
0
  6
CONTINUOUS
 62
     7
 10
-7.5137337855
 20
-14.420254887
 30
0.0
 11
-7.5137337855
 21
-13.240371258
 31
0.0
  0
LINE
  5
349
  8
0
  6
CONTINUOUS
 62
     7
 10
-6.7137202433
 20
-13.240371258
 30
0.0
 11
-6.7137202433
 21
-14.420254887
 31
0.0
  0
LINE
  5
34A
  8
0
  6
CONTINUOUS
 62
     7
 10
-2.3137292079
 20
-16.2403713772
 30
0.0
 11
-2.3137292079
 21
-17.2403715411
 31
0.0
  0
LINE
  5
34B
  8
0
  6
CONTINUOUS
 62
     7
 10
-2.3137292079
 20
-16.2403713772
 30
0.0
 11
-6.7137202433
 21
-16.2403713772
 31
0.0
  0
LINE
  5
34C
  8
0
  6
CONTINUOUS
 62
     7
 10
-12.3137196711
 20
-16.2403713772
 30
0.0
 11
-12.3137196711
 21
-17.2403715411
 31
0.0
  0
LINE
  5
34D
  8
0
  6
CONTINUOUS
 62
     7
 10
-7.5137337855
 20
-16.2403713772
 30
0.0
 11
-12.3137196711
 21
-16.2403713772
 31
0.0
  0
LINE
  5
34E
  8
0
  6
CONTINUOUS
 62
     7
 10
-12.3137196711
 20
-17.2403715411
 30
0.0
 11
-12.3137196711
 21
-26.440371559
 31
0.0
  0
LINE
  5
34F
  8
0
  6
CONTINUOUS
 62
     7
 10
-2.3137292079
 20
-17.2403715411
 30
0.0
 11
-2.3137292079
 21
-26.440371559
 31
0.0
  0
LINE
  5
350
  8
0
  6
CONTINUOUS
 62
     7
 10
-7.5137337855
 20
-27.4403717229
 30
0.0
 11
-12.3137196711
 21
-27.4403717229
 31
0.0
  0
LINE
  5
351
  8
0
  6
CONTINUOUS
 62
     7
 10
-12.3137196711
 20
-26.440371559
 30
0.0
 11
-12.3137196711
 21
-27.4403717229
 31
0.0
  0
LINE
  5
352
  8
0
  6
CONTINUOUS
 62
     7
 10
-2.3137292079
 20
-27.4403717229
 30
0.0
 11
-5.0098380259
 21
-27.4403717229
 31
0.0
  0
LINE
  5
353
  8
0
  6
CONTINUOUS
 62
     7
 10
-2.3137292079
 20
-26.440371559
 30
0.0
 11
-2.3137292079
 21
-27.4403717229
 31
0.0
  0
LINE
  5
354
  8
0
  6
CONTINUOUS
 62
     7
 10
233.3605954238
 20
-27.1403714874
 30
0.0
 11
233.3605954238
 21
-27.1971907326
 31
0.0
  0
LINE
  5
355
  8
0
  6
CONTINUOUS
 62
     7
 10
233.3605954238
 20
-27.1971907326
 30
0.0
 11
233.5821160861
 21
-27.2124286601
 31
0.0
  0
LINE
  5
356
  8
0
  6
CONTINUOUS
 62
     7
 10
232.5828486868
 20
-88.3403736958
 30
0.0
 11
232.4862712809
 21
-88.3403736958
 31
0.0
  0
LINE
  5
357
  8
0
  6
CONTINUOUS
 62
     7
 10
232.4862712809
 20
-88.3403736958
 30
0.0
 11
232.4862712809
 21
-27.1403714874
 31
0.0
  0
LINE
  5
358
  8
0
  6
CONTINUOUS
 62
     7
 10
232.4862712809
 20
-27.1403714874
 30
0.0
 11
233.3605954238
 21
-27.1403714874
 31
0.0
  0
ARC
  5
359
  8
0
  6
CONTINUOUS
 62
     7
 10
234.150230994
 20
-29.2519564955
 30
0.0
 40
1.996146860999659
 50
359.879897053
 51
86.0294823533
  0
LINE
  5
35A
  8
0
  6
CONTINUOUS
 62
     7
 10
236.1463734695
 20
-29.2561407992
 30
0.0
 11
236.1463734695
 21
-33.6586620518
 31
0.0
  0
ARC
  5
35B
  8
0
  6
CONTINUOUS
 62
     7
 10
237.3481660452
 20
-33.659445404
 30
0.0
 40
1.201792831047207
 50
179.9626534821
 51
232.2494355137
  0
LINE
  5
35C
  8
0
  6
CONTINUOUS
 62
     7
 10
234.2884504982
 20
-27.2606007615
 30
0.0
 11
233.5821160861
 21
-27.2124286601
 31
0.0
  0
LINE
  5
35D
  8
0
  6
CONTINUOUS
 62
     7
 10
232.4862712809
 20
-27.1403714874
 30
0.0
 11
232.4862712809
 21
-14.420254887
 31
0.0
  0
LINE
  5
35E
  8
0
  6
CONTINUOUS
 62
     7
 10
233.286271412
 20
-14.420254887
 30
0.0
 11
233.286271412
 21
-27.1403714874
 31
0.0
  0
LINE
  5
35F
  8
0
  6
CONTINUOUS
 62
     7
 10
232.4862712809
 20
-13.240371258
 30
0.0
 11
233.286271412
 21
-13.240371258
 31
0.0
  0
LINE
  5
360
  8
0
  6
CONTINUOUS
 62
     7
 10
232.4862712809
 20
-14.420254887
 30
0.0
 11
232.4862712809
 21
-13.240371258
 31
0.0
  0
LINE
  5
361
  8
0
  6
CONTINUOUS
 62
     7
 10
233.286271412
 20
-13.240371258
 30
0.0
 11
233.286271412
 21
-14.420254887
 31
0.0
  0
LINE
  5
362
  8
0
  6
CONTINUOUS
 62
     7
 10
237.6862713882
 20
-16.2403713772
 30
0.0
 11
237.6862713882
 21
-17.2403715411
 31
0.0
  0
LINE
  5
363
  8
0
  6
CONTINUOUS
 62
     7
 10
237.6862713882
 20
-16.2403713772
 30
0.0
 11
233.286271412
 21
-16.2403713772
 31
0.0
  0
LINE
  5
364
  8
0
  6
CONTINUOUS
 62
     7
 10
227.6862704941
 20
-16.2403713772
 30
0.0
 11
227.6862704941
 21
-17.2403715411
 31
0.0
  0
LINE
  5
365
  8
0
  6
CONTINUOUS
 62
     7
 10
232.4862712809
 20
-16.2403713772
 30
0.0
 11
227.6862704941
 21
-16.2403713772
 31
0.0
  0
LINE
  5
366
  8
0
  6
CONTINUOUS
 62
     7
 10
237.6862713882
 20
-17.2403715411
 30
0.0
 11
237.6862713882
 21
-26.440371559
 31
0.0
  0
LINE
  5
367
  8
0
  6
CONTINUOUS
 62
     7
 10
227.6862704941
 20
-17.2403715411
 30
0.0
 11
227.6862704941
 21
-26.440371559
 31
0.0
  0
LINE
  5
368
  8
0
  6
CONTINUOUS
 62
     7
 10
237.6862713882
 20
-27.4403717229
 30
0.0
 11
234.99016108
 21
-27.4403717229
 31
0.0
  0
LINE
  5
369
  8
0
  6
CONTINUOUS
 62
     7
 10
237.6862713882
 20
-26.440371559
 30
0.0
 11
237.6862713882
 21
-27.4403717229
 31
0.0
  0
LINE
  5
36A
  8
0
  6
CONTINUOUS
 62
     7
 10
232.4862712809
 20
-27.4403717229
 30
0.0
 11
227.6862704941
 21
-27.4403717229
 31
0.0
  0
LINE
  5
36B
  8
0
  6
CONTINUOUS
 62
     7
 10
227.6862704941
 20
-26.440371559
 30
0.0
 11
227.6862704941
 21
-27.4403717229
 31
0.0
  0
LINE
  5
36C
  8
0
  6
CONTINUOUS
 62
     7
 10
113.3605936357
 20
-27.1403714874
 30
0.0
 11
113.3605936357
 21
-27.1971907326
 31
0.0
  0
LINE
  5
36D
  8
0
  6
CONTINUOUS
 62
     7
 10
112.5828483888
 20
-88.3403736958
 30
0.0
 11
112.4862709829
 21
-88.3403736958
 31
0.0
  0
LINE
  5
36E
  8
0
  6
CONTINUOUS
 62
     7
 10
112.4862709829
 20
-88.3403736958
 30
0.0
 11
112.4862709829
 21
-27.1403714874
 31
0.0
  0
LINE
  5
36F
  8
0
  6
CONTINUOUS
 62
     7
 10
112.4862709829
 20
-27.1403714874
 30
0.0
 11
113.3605936357
 21
-27.1403714874
 31
0.0
  0
LINE
  5
370
  8
0
  6
CONTINUOUS
 62
     7
 10
113.3605936357
 20
-27.1971907326
 30
0.0
 11
113.582114298
 21
-27.2124286601
 31
0.0
  0
ARC
  5
371
  8
0
  6
CONTINUOUS
 62
     7
 10
114.150230097
 20
-29.2519553561
 30
0.0
 40
1.996145972237536
 50
359.8798642969
 51
86.0293776011
  0
LINE
  5
372
  8
0
  6
CONTINUOUS
 62
     7
 10
116.1463716813
 20
-29.2561407992
 30
0.0
 11
116.1463716813
 21
-33.6586620518
 31
0.0
  0
ARC
  5
373
  8
0
  6
CONTINUOUS
 62
     7
 10
117.3481642571
 20
-33.659445404
 30
0.0
 40
1.201792831047203
 50
179.9626534821
 51
232.2494355137
  0
LINE
  5
374
  8
0
  6
CONTINUOUS
 62
     7
 10
114.2884531804
 20
-27.2606007615
 30
0.0
 11
113.582114298
 21
-27.2124286601
 31
0.0
  0
LINE
  5
375
  8
0
  6
CONTINUOUS
 62
     7
 10
112.4862709829
 20
-27.1403714874
 30
0.0
 11
112.4862709829
 21
-14.420254887
 31
0.0
  0
LINE
  5
376
  8
0
  6
CONTINUOUS
 62
     7
 10
113.2862726041
 20
-14.420254887
 30
0.0
 11
113.2862726041
 21
-27.1403714874
 31
0.0
  0
LINE
  5
377
  8
0
  6
CONTINUOUS
 62
     7
 10
112.4862709829
 20
-13.240371258
 30
0.0
 11
113.2862726041
 21
-13.240371258
 31
0.0
  0
LINE
  5
378
  8
0
  6
CONTINUOUS
 62
     7
 10
112.4862709829
 20
-14.420254887
 30
0.0
 11
112.4862709829
 21
-13.240371258
 31
0.0
  0
LINE
  5
379
  8
0
  6
CONTINUOUS
 62
     7
 10
113.2862726041
 20
-13.240371258
 30
0.0
 11
113.2862726041
 21
-14.420254887
 31
0.0
  0
LINE
  5
37A
  8
0
  6
CONTINUOUS
 62
     7
 10
112.4862709829
 20
-16.2403713772
 30
0.0
 11
107.6862731763
 21
-16.2403713772
 31
0.0
  0
LINE
  5
37B
  8
0
  6
CONTINUOUS
 62
     7
 10
107.6862731763
 20
-16.2403713772
 30
0.0
 11
107.6862731763
 21
-17.2403715411
 31
0.0
  0
LINE
  5
37C
  8
0
  6
CONTINUOUS
 62
     7
 10
117.6862696
 20
-16.2403713772
 30
0.0
 11
117.6862696
 21
-17.2403715411
 31
0.0
  0
LINE
  5
37D
  8
0
  6
CONTINUOUS
 62
     7
 10
117.6862696
 20
-16.2403713772
 30
0.0
 11
113.2862726041
 21
-16.2403713772
 31
0.0
  0
LINE
  5
37E
  8
0
  6
CONTINUOUS
 62
     7
 10
117.6862696
 20
-17.2403715411
 30
0.0
 11
117.6862696
 21
-26.440371559
 31
0.0
  0
LINE
  5
37F
  8
0
  6
CONTINUOUS
 62
     7
 10
107.6862731763
 20
-17.2403715411
 30
0.0
 11
107.6862731763
 21
-26.440371559
 31
0.0
  0
LINE
  5
380
  8
0
  6
CONTINUOUS
 62
     7
 10
112.4862709829
 20
-27.4403717229
 30
0.0
 11
107.6862731763
 21
-27.4403717229
 31
0.0
  0
LINE
  5
381
  8
0
  6
CONTINUOUS
 62
     7
 10
107.6862731763
 20
-26.440371559
 30
0.0
 11
107.6862731763
 21
-27.4403717229
 31
0.0
  0
LINE
  5
382
  8
0
  6
CONTINUOUS
 62
     7
 10
117.6862696
 20
-27.4403717229
 30
0.0
 11
114.990160782
 21
-27.4403717229
 31
0.0
  0
LINE
  5
383
  8
0
  6
CONTINUOUS
 62
     7
 10
117.6862696
 20
-26.440371559
 30
0.0
 11
117.6862696
 21
-27.4403717229
 31
0.0
  0
LINE
  5
384
  8
0
  6
CONTINUOUS
 62
     7
 10
67.8862729856
 20
-88.3403736958
 30
0.0
 11
67.8862729856
 21
-27.1403714874
 31
0.0
  0
LINE
  5
385
  8
0
  6
CONTINUOUS
 62
     7
 10
67.7896896192
 20
-88.3403736958
 30
0.0
 11
67.8862729856
 21
-88.3403736958
 31
0.0
  0
LINE
  5
386
  8
0
  6
CONTINUOUS
 62
     7
 10
67.0119443723
 20
-27.1971907326
 30
0.0
 11
66.7904296704
 21
-27.2124286601
 31
0.0
  0
LINE
  5
387
  8
0
  6
CONTINUOUS
 62
     7
 10
67.0119443723
 20
-27.1403714874
 30
0.0
 11
67.0119443723
 21
-27.1971907326
 31
0.0
  0
LINE
  5
388
  8
0
  6
CONTINUOUS
 62
     7
 10
67.8862729856
 20
-27.1403714874
 30
0.0
 11
67.0119443723
 21
-27.1403714874
 31
0.0
  0
ARC
  5
389
  8
0
  6
CONTINUOUS
 62
     7
 10
63.0243696814
 20
-33.6594531787
 30
0.0
 40
1.20179690560201
 50
308.241064846
 51
0.0377170493
  0
LINE
  5
38A
  8
0
  6
CONTINUOUS
 62
     7
 10
64.2261663266
 20
-29.2561407992
 30
0.0
 11
64.2261663266
 21
-33.6586620518
 31
0.0
  0
ARC
  5
38B
  8
0
  6
CONTINUOUS
 62
     7
 10
66.2223138009
 20
-29.2519612527
 30
0.0
 40
1.996151849803406
 50
93.9706086595
 51
180.1199660981
  0
LINE
  5
38C
  8
0
  6
CONTINUOUS
 62
     7
 10
66.084090788
 20
-27.2606007615
 30
0.0
 11
66.7904296704
 21
-27.2124286601
 31
0.0
  0
LINE
  5
38D
  8
0
  6
CONTINUOUS
 62
     7
 10
67.8862729856
 20
-27.1403714874
 30
0.0
 11
67.8862729856
 21
-14.420254887
 31
0.0
  0
LINE
  5
38E
  8
0
  6
CONTINUOUS
 62
     7
 10
67.0862713643
 20
-14.420254887
 30
0.0
 11
67.0862713643
 21
-27.1403714874
 31
0.0
  0
LINE
  5
38F
  8
0
  6
CONTINUOUS
 62
     7
 10
67.8862729856
 20
-13.240371258
 30
0.0
 11
67.0862713643
 21
-13.240371258
 31
0.0
  0
LINE
  5
390
  8
0
  6
CONTINUOUS
 62
     7
 10
67.8862729856
 20
-14.420254887
 30
0.0
 11
67.8862729856
 21
-13.240371258
 31
0.0
  0
LINE
  5
391
  8
0
  6
CONTINUOUS
 62
     7
 10
67.0862713643
 20
-13.240371258
 30
0.0
 11
67.0862713643
 21
-14.420254887
 31
0.0
  0
LINE
  5
392
  8
0
  6
CONTINUOUS
 62
     7
 10
62.6862684079
 20
-16.2403713772
 30
0.0
 11
62.6862684079
 21
-17.2403715411
 31
0.0
  0
LINE
  5
393
  8
0
  6
CONTINUOUS
 62
     7
 10
62.6862684079
 20
-16.2403713772
 30
0.0
 11
67.0862713643
 21
-16.2403713772
 31
0.0
  0
LINE
  5
394
  8
0
  6
CONTINUOUS
 62
     7
 10
67.8862729856
 20
-16.2403713772
 30
0.0
 11
72.6862707921
 21
-16.2403713772
 31
0.0
  0
LINE
  5
395
  8
0
  6
CONTINUOUS
 62
     7
 10
72.6862707921
 20
-16.2403713772
 30
0.0
 11
72.6862707921
 21
-17.2403715411
 31
0.0
  0
LINE
  5
396
  8
0
  6
CONTINUOUS
 62
     7
 10
62.6862684079
 20
-17.2403715411
 30
0.0
 11
62.6862684079
 21
-26.440371559
 31
0.0
  0
LINE
  5
397
  8
0
  6
CONTINUOUS
 62
     7
 10
72.6862707921
 20
-17.2403715411
 30
0.0
 11
72.6862707921
 21
-26.440371559
 31
0.0
  0
LINE
  5
398
  8
0
  6
CONTINUOUS
 62
     7
 10
62.6862684079
 20
-27.4403717229
 30
0.0
 11
65.382377226
 21
-27.4403717229
 31
0.0
  0
LINE
  5
399
  8
0
  6
CONTINUOUS
 62
     7
 10
62.6862684079
 20
-26.440371559
 30
0.0
 11
62.6862684079
 21
-27.4403717229
 31
0.0
  0
LINE
  5
39A
  8
0
  6
CONTINUOUS
 62
     7
 10
67.8862729856
 20
-27.4403717229
 30
0.0
 11
72.6862707921
 21
-27.4403717229
 31
0.0
  0
LINE
  5
39B
  8
0
  6
CONTINUOUS
 62
     7
 10
72.6862707921
 20
-26.440371559
 30
0.0
 11
72.6862707921
 21
-27.4403717229
 31
0.0
  0
LINE
  5
39C
  8
0
  6
CONTINUOUS
 62
     7
 10
187.8862703034
 20
-88.3403736958
 30
0.0
 11
187.8862703034
 21
-27.1403714874
 31
0.0
  0
LINE
  5
39D
  8
0
  6
CONTINUOUS
 62
     7
 10
187.7896928974
 20
-88.3403736958
 30
0.0
 11
187.8862703034
 21
-88.3403736958
 31
0.0
  0
LINE
  5
39E
  8
0
  6
CONTINUOUS
 62
     7
 10
187.0119461604
 20
-27.1403714874
 30
0.0
 11
187.0119461604
 21
-27.1971907326
 31
0.0
  0
LINE
  5
39F
  8
0
  6
CONTINUOUS
 62
     7
 10
187.8862703034
 20
-27.1403714874
 30
0.0
 11
187.0119461604
 21
-27.1403714874
 31
0.0
  0
LINE
  5
3A0
  8
0
  6
CONTINUOUS
 62
     7
 10
187.0119461604
 20
-27.1971907326
 30
0.0
 11
186.7904254981
 21
-27.2124286601
 31
0.0
  0
ARC
  5
3A1
  8
0
  6
CONTINUOUS
 62
     7
 10
183.0243335647
 20
-33.6594348053
 30
0.0
 40
1.201834798489466
 50
308.2419419619
 51
0.0368399334
  0
LINE
  5
3A2
  8
0
  6
CONTINUOUS
 62
     7
 10
184.2261681148
 20
-29.2561407992
 30
0.0
 11
184.2261681148
 21
-33.6586620518
 31
0.0
  0
ARC
  5
3A3
  8
0
  6
CONTINUOUS
 62
     7
 10
186.2223105902
 20
-29.2519564955
 30
0.0
 40
1.996146860999627
 50
93.9705176467
 51
180.120102947
  0
LINE
  5
3A4
  8
0
  6
CONTINUOUS
 62
     7
 10
186.084091086
 20
-27.2606007615
 30
0.0
 11
186.7904254981
 21
-27.2124286601
 31
0.0
  0
LINE
  5
3A5
  8
0
  6
CONTINUOUS
 62
     7
 10
187.8862703034
 20
-27.1403714874
 30
0.0
 11
187.8862703034
 21
-14.420254887
 31
0.0
  0
LINE
  5
3A6
  8
0
  6
CONTINUOUS
 62
     7
 10
187.0862701722
 20
-14.420254887
 30
0.0
 11
187.0862701722
 21
-27.1403714874
 31
0.0
  0
LINE
  5
3A7
  8
0
  6
CONTINUOUS
 62
     7
 10
187.8862703034
 20
-13.240371258
 30
0.0
 11
187.0862701722
 21
-13.240371258
 31
0.0
  0
LINE
  5
3A8
  8
0
  6
CONTINUOUS
 62
     7
 10
187.8862703034
 20
-14.420254887
 30
0.0
 11
187.8862703034
 21
-13.240371258
 31
0.0
  0
LINE
  5
3A9
  8
0
  6
CONTINUOUS
 62
     7
 10
187.0862701722
 20
-13.240371258
 30
0.0
 11
187.0862701722
 21
-14.420254887
 31
0.0
  0
LINE
  5
3AA
  8
0
  6
CONTINUOUS
 62
     7
 10
187.8862703034
 20
-16.2403713772
 30
0.0
 11
192.6862710901
 21
-16.2403713772
 31
0.0
  0
LINE
  5
3AB
  8
0
  6
CONTINUOUS
 62
     7
 10
192.6862710901
 20
-16.2403713772
 30
0.0
 11
192.6862710901
 21
-17.2403715411
 31
0.0
  0
LINE
  5
3AC
  8
0
  6
CONTINUOUS
 62
     7
 10
182.6862701961
 20
-16.2403713772
 30
0.0
 11
182.6862701961
 21
-17.2403715411
 31
0.0
  0
LINE
  5
3AD
  8
0
  6
CONTINUOUS
 62
     7
 10
182.6862701961
 20
-16.2403713772
 30
0.0
 11
187.0862701722
 21
-16.2403713772
 31
0.0
  0
LINE
  5
3AE
  8
0
  6
CONTINUOUS
 62
     7
 10
182.6862701961
 20
-17.2403715411
 30
0.0
 11
182.6862701961
 21
-26.440371559
 31
0.0
  0
LINE
  5
3AF
  8
0
  6
CONTINUOUS
 62
     7
 10
192.6862710901
 20
-17.2403715411
 30
0.0
 11
192.6862710901
 21
-26.440371559
 31
0.0
  0
LINE
  5
3B0
  8
0
  6
CONTINUOUS
 62
     7
 10
182.6862701961
 20
-27.4403717229
 30
0.0
 11
185.3823805042
 21
-27.4403717229
 31
0.0
  0
LINE
  5
3B1
  8
0
  6
CONTINUOUS
 62
     7
 10
182.6862701961
 20
-26.440371559
 30
0.0
 11
182.6862701961
 21
-27.4403717229
 31
0.0
  0
LINE
  5
3B2
  8
0
  6
CONTINUOUS
 62
     7
 10
187.8862703034
 20
-27.4403717229
 30
0.0
 11
192.6862710901
 21
-27.4403717229
 31
0.0
  0
LINE
  5
3B3
  8
0
  6
CONTINUOUS
 62
     7
 10
192.6862710901
 20
-26.440371559
 30
0.0
 11
192.6862710901
 21
-27.4403717229
 31
0.0
  0
LINE
  5
3B4
  8
0
  6
CONTINUOUS
 62
     7
 10
427.8862753698
 20
-88.3403736958
 30
0.0
 11
427.8862753698
 21
-27.1403714874
 31
0.0
  0
LINE
  5
3B5
  8
0
  6
CONTINUOUS
 62
     7
 10
427.7896920034
 20
-88.3403736958
 30
0.0
 11
427.8862753698
 21
-88.3403736958
 31
0.0
  0
LINE
  5
3B6
  8
0
  6
CONTINUOUS
 62
     7
 10
427.0119467565
 20
-27.1971907326
 30
0.0
 11
426.7904320546
 21
-27.2124286601
 31
0.0
  0
LINE
  5
3B7
  8
0
  6
CONTINUOUS
 62
     7
 10
427.0119467565
 20
-27.1403714874
 30
0.0
 11
427.0119467565
 21
-27.1971907326
 31
0.0
  0
LINE
  5
3B8
  8
0
  6
CONTINUOUS
 62
     7
 10
427.8862753698
 20
-27.1403714874
 30
0.0
 11
427.0119467565
 21
-27.1403714874
 31
0.0
  0
ARC
  5
3B9
  8
0
  6
CONTINUOUS
 62
     7
 10
423.0244240961
 20
-33.6594690131
 30
0.0
 40
1.201744885649526
 50
308.239137388
 51
0.0384736198
  0
LINE
  5
3BA
  8
0
  6
CONTINUOUS
 62
     7
 10
424.2261687108
 20
-29.2561407992
 30
0.0
 11
424.2261687108
 21
-33.6586620518
 31
0.0
  0
ARC
  5
3BB
  8
0
  6
CONTINUOUS
 62
     7
 10
426.2223026193
 20
-29.2519486225
 30
0.0
 40
1.996138310537412
 50
93.9702453146
 51
180.120329443
  0
LINE
  5
3BC
  8
0
  6
CONTINUOUS
 62
     7
 10
426.0840931722
 20
-27.2606007615
 30
0.0
 11
426.7904320546
 21
-27.2124286601
 31
0.0
  0
LINE
  5
3BD
  8
0
  6
CONTINUOUS
 62
     7
 10
427.8862753698
 20
-27.1403714874
 30
0.0
 11
427.8862753698
 21
-14.420254887
 31
0.0
  0
LINE
  5
3BE
  8
0
  6
CONTINUOUS
 62
     7
 10
427.0862618276
 20
-14.420254887
 30
0.0
 11
427.0862618276
 21
-27.1403714874
 31
0.0
  0
LINE
  5
3BF
  8
0
  6
CONTINUOUS
 62
     7
 10
427.8862753698
 20
-13.240371258
 30
0.0
 11
427.0862618276
 21
-13.240371258
 31
0.0
  0
LINE
  5
3C0
  8
0
  6
CONTINUOUS
 62
     7
 10
427.8862753698
 20
-14.420254887
 30
0.0
 11
427.8862753698
 21
-13.240371258
 31
0.0
  0
LINE
  5
3C1
  8
0
  6
CONTINUOUS
 62
     7
 10
427.0862618276
 20
-13.240371258
 30
0.0
 11
427.0862618276
 21
-14.420254887
 31
0.0
  0
LINE
  5
3C2
  8
0
  6
CONTINUOUS
 62
     7
 10
427.8862753698
 20
-16.2403713772
 30
0.0
 11
432.6862612554
 21
-16.2403713772
 31
0.0
  0
LINE
  5
3C3
  8
0
  6
CONTINUOUS
 62
     7
 10
432.6862612554
 20
-16.2403713772
 30
0.0
 11
432.6862612554
 21
-17.2403715411
 31
0.0
  0
LINE
  5
3C4
  8
0
  6
CONTINUOUS
 62
     7
 10
422.6862707921
 20
-16.2403713772
 30
0.0
 11
422.6862707921
 21
-17.2403715411
 31
0.0
  0
LINE
  5
3C5
  8
0
  6
CONTINUOUS
 62
     7
 10
422.6862707921
 20
-16.2403713772
 30
0.0
 11
427.0862618276
 21
-16.2403713772
 31
0.0
  0
LINE
  5
3C6
  8
0
  6
CONTINUOUS
 62
     7
 10
432.6862612554
 20
-17.2403715411
 30
0.0
 11
432.6862612554
 21
-26.440371559
 31
0.0
  0
LINE
  5
3C7
  8
0
  6
CONTINUOUS
 62
     7
 10
422.6862707921
 20
-17.2403715411
 30
0.0
 11
422.6862707921
 21
-26.440371559
 31
0.0
  0
LINE
  5
3C8
  8
0
  6
CONTINUOUS
 62
     7
 10
422.6862707921
 20
-27.4403717229
 30
0.0
 11
425.3823796102
 21
-27.4403717229
 31
0.0
  0
LINE
  5
3C9
  8
0
  6
CONTINUOUS
 62
     7
 10
422.6862707921
 20
-26.440371559
 30
0.0
 11
422.6862707921
 21
-27.4403717229
 31
0.0
  0
LINE
  5
3CA
  8
0
  6
CONTINUOUS
 62
     7
 10
427.8862753698
 20
-27.4403717229
 30
0.0
 11
432.6862612554
 21
-27.4403717229
 31
0.0
  0
LINE
  5
3CB
  8
0
  6
CONTINUOUS
 62
     7
 10
432.6862612554
 20
-26.440371559
 30
0.0
 11
432.6862612554
 21
-27.4403717229
 31
0.0
  0
LINE
  5
3CC
  8
0
  6
CONTINUOUS
 62
     7
 10
307.8862706014
 20
-88.3403736958
 30
0.0
 11
307.8862706014
 21
-27.1403714874
 31
0.0
  0
LINE
  5
3CD
  8
0
  6
CONTINUOUS
 62
     7
 10
307.7896931955
 20
-88.3403736958
 30
0.0
 11
307.8862706014
 21
-88.3403736958
 31
0.0
  0
LINE
  5
3CE
  8
0
  6
CONTINUOUS
 62
     7
 10
307.0119479486
 20
-27.1971907326
 30
0.0
 11
306.7904272863
 21
-27.2124286601
 31
0.0
  0
LINE
  5
3CF
  8
0
  6
CONTINUOUS
 62
     7
 10
307.0119479486
 20
-27.1403714874
 30
0.0
 11
307.0119479486
 21
-27.1971907326
 31
0.0
  0
LINE
  5
3D0
  8
0
  6
CONTINUOUS
 62
     7
 10
307.8862706014
 20
-27.1403714874
 30
0.0
 11
307.0119479486
 21
-27.1403714874
 31
0.0
  0
ARC
  5
3D1
  8
0
  6
CONTINUOUS
 62
     7
 10
303.0243353529
 20
-33.6594348053
 30
0.0
 40
1.201834798489716
 50
308.2419419619
 51
0.0368399334
  0
LINE
  5
3D2
  8
0
  6
CONTINUOUS
 62
     7
 10
304.2261699029
 20
-29.2561407992
 30
0.0
 11
304.2261699029
 21
-33.6586620518
 31
0.0
  0
ARC
  5
3D3
  8
0
  6
CONTINUOUS
 62
     7
 10
306.2223114872
 20
-29.2519553561
 30
0.0
 40
1.996145972237359
 50
93.9706223989
 51
180.1201357031
  0
LINE
  5
3D4
  8
0
  6
CONTINUOUS
 62
     7
 10
306.0840884038
 20
-27.2606007615
 30
0.0
 11
306.7904272863
 21
-27.2124286601
 31
0.0
  0
LINE
  5
3D5
  8
0
  6
CONTINUOUS
 62
     7
 10
307.8862706014
 20
-27.1403714874
 30
0.0
 11
307.8862706014
 21
-14.420254887
 31
0.0
  0
LINE
  5
3D6
  8
0
  6
CONTINUOUS
 62
     7
 10
307.0862689801
 20
-14.420254887
 30
0.0
 11
307.0862689801
 21
-27.1403714874
 31
0.0
  0
LINE
  5
3D7
  8
0
  6
CONTINUOUS
 62
     7
 10
307.8862706014
 20
-13.240371258
 30
0.0
 11
307.0862689801
 21
-13.240371258
 31
0.0
  0
LINE
  5
3D8
  8
0
  6
CONTINUOUS
 62
     7
 10
307.8862706014
 20
-14.420254887
 30
0.0
 11
307.8862706014
 21
-13.240371258
 31
0.0
  0
LINE
  5
3D9
  8
0
  6
CONTINUOUS
 62
     7
 10
307.0862689801
 20
-13.240371258
 30
0.0
 11
307.0862689801
 21
-14.420254887
 31
0.0
  0
LINE
  5
3DA
  8
0
  6
CONTINUOUS
 62
     7
 10
307.8862706014
 20
-16.2403713772
 30
0.0
 11
312.6862684079
 21
-16.2403713772
 31
0.0
  0
LINE
  5
3DB
  8
0
  6
CONTINUOUS
 62
     7
 10
312.6862684079
 20
-16.2403713772
 30
0.0
 11
312.6862684079
 21
-17.2403715411
 31
0.0
  0
LINE
  5
3DC
  8
0
  6
CONTINUOUS
 62
     7
 10
302.6862719842
 20
-16.2403713772
 30
0.0
 11
307.0862689801
 21
-16.2403713772
 31
0.0
  0
LINE
  5
3DD
  8
0
  6
CONTINUOUS
 62
     7
 10
302.6862719842
 20
-16.2403713772
 30
0.0
 11
302.6862719842
 21
-17.2403715411
 31
0.0
  0
LINE
  5
3DE
  8
0
  6
CONTINUOUS
 62
     7
 10
302.6862719842
 20
-17.2403715411
 30
0.0
 11
302.6862719842
 21
-26.440371559
 31
0.0
  0
LINE
  5
3DF
  8
0
  6
CONTINUOUS
 62
     7
 10
312.6862684079
 20
-17.2403715411
 30
0.0
 11
312.6862684079
 21
-26.440371559
 31
0.0
  0
LINE
  5
3E0
  8
0
  6
CONTINUOUS
 62
     7
 10
307.8862706014
 20
-27.4403717229
 30
0.0
 11
312.6862684079
 21
-27.4403717229
 31
0.0
  0
LINE
  5
3E1
  8
0
  6
CONTINUOUS
 62
     7
 10
312.6862684079
 20
-26.440371559
 30
0.0
 11
312.6862684079
 21
-27.4403717229
 31
0.0
  0
LINE
  5
3E2
  8
0
  6
CONTINUOUS
 62
     7
 10
302.6862719842
 20
-27.4403717229
 30
0.0
 11
305.3823808023
 21
-27.4403717229
 31
0.0
  0
LINE
  5
3E3
  8
0
  6
CONTINUOUS
 62
     7
 10
302.6862719842
 20
-26.440371559
 30
0.0
 11
302.6862719842
 21
-27.4403717229
 31
0.0
  0
ARC
  5
3E4
  8
0
  6
CONTINUOUS
 62
     7
 10
-29.8137292079
 20
-22.04037155
 30
0.0
 40
2.700000000000038
 50
0.0
 51
180.0
  0
ARC
  5
3E5
  8
0
  6
CONTINUOUS
 62
     7
 10
-29.8137292079
 20
-72.04037155
 30
0.0
 40
2.700000000000038
 50
180.0
 51
0.0
  0
LINE
  5
3E6
  8
0
  6
CONTINUOUS
 62
     7
 10
-35.8137330226
 20
-16.0403717169
 30
0.0
 11
-23.8137206248
 21
-16.0403717169
 31
0.0
  0
LINE
  5
3E7
  8
0
  6
CONTINUOUS
 62
     7
 10
-35.8137330226
 20
-17.2403715411
 30
0.0
 11
-35.8137330226
 21
-16.0403717169
 31
0.0
  0
LINE
  5
3E8
  8
0
  6
CONTINUOUS
 62
     7
 10
-23.8137206248
 20
-16.0403717169
 30
0.0
 11
-23.8137206248
 21
-17.2403715411
 31
0.0
  0
LINE
  5
3E9
  8
0
  6
CONTINUOUS
 62
     7
 10
-35.8137330226
 20
-17.2403715411
 30
0.0
 11
-35.8137330226
 21
-26.8403716245
 31
0.0
  0
LINE
  5
3EA
  8
0
  6
CONTINUOUS
 62
     7
 10
-23.8137206248
 20
-17.2403715411
 30
0.0
 11
-23.8137206248
 21
-26.8403716245
 31
0.0
  0
LINE
  5
3EB
  8
0
  6
CONTINUOUS
 62
     7
 10
-23.8137206248
 20
-28.0403714487
 30
0.0
 11
-27.1137198619
 21
-28.0403714487
 31
0.0
  0
LINE
  5
3EC
  8
0
  6
CONTINUOUS
 62
     7
 10
-32.5137337855
 20
-28.0403714487
 30
0.0
 11
-35.8137330226
 21
-28.0403714487
 31
0.0
  0
LINE
  5
3ED
  8
0
  6
CONTINUOUS
 62
     7
 10
-35.8137330226
 20
-28.0403714487
 30
0.0
 11
-35.8137330226
 21
-26.8403716245
 31
0.0
  0
LINE
  5
3EE
  8
0
  6
CONTINUOUS
 62
     7
 10
-23.8137206248
 20
-26.8403716245
 30
0.0
 11
-23.8137206248
 21
-28.0403714487
 31
0.0
  0
ARC
  5
3EF
  8
0
  6
CONTINUOUS
 62
     7
 10
90.1862707921
 20
-22.04037155
 30
0.0
 40
2.700000000000003
 50
0.0
 51
180.0
  0
ARC
  5
3F0
  8
0
  6
CONTINUOUS
 62
     7
 10
90.1862707921
 20
-72.04037155
 30
0.0
 40
2.700000000000003
 50
180.0
 51
0.0
  0
LINE
  5
3F1
  8
0
  6
CONTINUOUS
 62
     7
 10
84.1862717458
 20
-17.2403715411
 30
0.0
 11
84.1862717458
 21
-16.0403717169
 31
0.0
  0
LINE
  5
3F2
  8
0
  6
CONTINUOUS
 62
     7
 10
84.1862717458
 20
-16.0403717169
 30
0.0
 11
96.1862722226
 21
-16.0403717169
 31
0.0
  0
LINE
  5
3F3
  8
0
  6
CONTINUOUS
 62
     7
 10
96.1862722226
 20
-16.0403717169
 30
0.0
 11
96.1862722226
 21
-17.2403715411
 31
0.0
  0
LINE
  5
3F4
  8
0
  6
CONTINUOUS
 62
     7
 10
84.1862717458
 20
-17.2403715411
 30
0.0
 11
84.1862717458
 21
-26.8403716245
 31
0.0
  0
LINE
  5
3F5
  8
0
  6
CONTINUOUS
 62
     7
 10
96.1862722226
 20
-17.2403715411
 30
0.0
 11
96.1862722226
 21
-26.8403716245
 31
0.0
  0
LINE
  5
3F6
  8
0
  6
CONTINUOUS
 62
     7
 10
96.1862722226
 20
-28.0403714487
 30
0.0
 11
92.8862729856
 21
-28.0403714487
 31
0.0
  0
LINE
  5
3F7
  8
0
  6
CONTINUOUS
 62
     7
 10
87.4862709829
 20
-28.0403714487
 30
0.0
 11
84.1862717458
 21
-28.0403714487
 31
0.0
  0
LINE
  5
3F8
  8
0
  6
CONTINUOUS
 62
     7
 10
84.1862717458
 20
-28.0403714487
 30
0.0
 11
84.1862717458
 21
-26.8403716245
 31
0.0
  0
LINE
  5
3F9
  8
0
  6
CONTINUOUS
 62
     7
 10
96.1862722226
 20
-26.8403716245
 30
0.0
 11
96.1862722226
 21
-28.0403714487
 31
0.0
  0
ARC
  5
3FA
  8
0
  6
CONTINUOUS
 62
     7
 10
450.1862707921
 20
-22.04037155
 30
0.0
 40
2.700000000000045
 50
0.0
 51
180.0
  0
ARC
  5
3FB
  8
0
  6
CONTINUOUS
 62
     7
 10
450.1862707921
 20
-72.04037155
 30
0.0
 40
2.700000000000045
 50
180.0
 51
0.0
  0
LINE
  5
3FC
  8
0
  6
CONTINUOUS
 62
     7
 10
444.186262209
 20
-17.2403715411
 30
0.0
 11
444.186262209
 21
-16.0403717169
 31
0.0
  0
LINE
  5
3FD
  8
0
  6
CONTINUOUS
 62
     7
 10
444.186262209
 20
-16.0403717169
 30
0.0
 11
456.1862746068
 21
-16.0403717169
 31
0.0
  0
LINE
  5
3FE
  8
0
  6
CONTINUOUS
 62
     7
 10
456.1862746068
 20
-16.0403717169
 30
0.0
 11
456.1862746068
 21
-17.2403715411
 31
0.0
  0
LINE
  5
3FF
  8
0
  6
CONTINUOUS
 62
     7
 10
456.1862746068
 20
-17.2403715411
 30
0.0
 11
456.1862746068
 21
-26.8403716245
 31
0.0
  0
LINE
  5
400
  8
0
  6
CONTINUOUS
 62
     7
 10
444.186262209
 20
-17.2403715411
 30
0.0
 11
444.186262209
 21
-26.8403716245
 31
0.0
  0
LINE
  5
401
  8
0
  6
CONTINUOUS
 62
     7
 10
456.1862746068
 20
-28.0403714487
 30
0.0
 11
452.8862753698
 21
-28.0403714487
 31
0.0
  0
LINE
  5
402
  8
0
  6
CONTINUOUS
 62
     7
 10
447.4862614461
 20
-28.0403714487
 30
0.0
 11
444.186262209
 21
-28.0403714487
 31
0.0
  0
LINE
  5
403
  8
0
  6
CONTINUOUS
 62
     7
 10
456.1862746068
 20
-26.8403716245
 30
0.0
 11
456.1862746068
 21
-28.0403714487
 31
0.0
  0
LINE
  5
404
  8
0
  6
CONTINUOUS
 62
     7
 10
444.186262209
 20
-28.0403714487
 30
0.0
 11
444.186262209
 21
-26.8403716245
 31
0.0
  0
ARC
  5
405
  8
0
  6
CONTINUOUS
 62
     7
 10
330.1862707921
 20
-22.04037155
 30
0.0
 40
2.700000000000045
 50
0.0
 51
180.0
  0
ARC
  5
406
  8
0
  6
CONTINUOUS
 62
     7
 10
330.1862707921
 20
-72.04037155
 30
0.0
 40
2.700000000000045
 50
180.0
 51
0.0
  0
LINE
  5
407
  8
0
  6
CONTINUOUS
 62
     7
 10
324.1862693616
 20
-16.0403717169
 30
0.0
 11
336.1862698384
 21
-16.0403717169
 31
0.0
  0
LINE
  5
408
  8
0
  6
CONTINUOUS
 62
     7
 10
336.1862698384
 20
-16.0403717169
 30
0.0
 11
336.1862698384
 21
-17.2403715411
 31
0.0
  0
LINE
  5
409
  8
0
  6
CONTINUOUS
 62
     7
 10
324.1862693616
 20
-17.2403715411
 30
0.0
 11
324.1862693616
 21
-16.0403717169
 31
0.0
  0
LINE
  5
40A
  8
0
  6
CONTINUOUS
 62
     7
 10
336.1862698384
 20
-17.2403715411
 30
0.0
 11
336.1862698384
 21
-26.8403716245
 31
0.0
  0
LINE
  5
40B
  8
0
  6
CONTINUOUS
 62
     7
 10
324.1862693616
 20
-17.2403715411
 30
0.0
 11
324.1862693616
 21
-26.8403716245
 31
0.0
  0
LINE
  5
40C
  8
0
  6
CONTINUOUS
 62
     7
 10
336.1862698384
 20
-28.0403714487
 30
0.0
 11
332.8862706014
 21
-28.0403714487
 31
0.0
  0
LINE
  5
40D
  8
0
  6
CONTINUOUS
 62
     7
 10
327.4862685987
 20
-28.0403714487
 30
0.0
 11
324.1862693616
 21
-28.0403714487
 31
0.0
  0
LINE
  5
40E
  8
0
  6
CONTINUOUS
 62
     7
 10
336.1862698384
 20
-26.8403716245
 30
0.0
 11
336.1862698384
 21
-28.0403714487
 31
0.0
  0
LINE
  5
40F
  8
0
  6
CONTINUOUS
 62
     7
 10
324.1862693616
 20
-28.0403714487
 30
0.0
 11
324.1862693616
 21
-26.8403716245
 31
0.0
  0
ARC
  5
410
  8
0
  6
CONTINUOUS
 62
     7
 10
210.1862707921
 20
-22.04037155
 30
0.0
 40
2.700000000000017
 50
0.0
 51
180.0
  0
ARC
  5
411
  8
0
  6
CONTINUOUS
 62
     7
 10
210.1862707921
 20
-72.04037155
 30
0.0
 40
2.700000000000017
 50
180.0
 51
0.0
  0
LINE
  5
412
  8
0
  6
CONTINUOUS
 62
     7
 10
204.1862709262
 20
-16.0403717169
 30
0.0
 11
216.186270658
 21
-16.0403717169
 31
0.0
  0
LINE
  5
413
  8
0
  6
CONTINUOUS
 62
     7
 10
204.1862709262
 20
-17.2403715411
 30
0.0
 11
204.1862709262
 21
-16.0403717169
 31
0.0
  0
LINE
  5
414
  8
0
  6
CONTINUOUS
 62
     7
 10
216.186270658
 20
-16.0403717169
 30
0.0
 11
216.186270658
 21
-17.2403715411
 31
0.0
  0
LINE
  5
415
  8
0
  6
CONTINUOUS
 62
     7
 10
204.1862709262
 20
-17.2403715411
 30
0.0
 11
204.1862709262
 21
-26.8403716245
 31
0.0
  0
LINE
  5
416
  8
0
  6
CONTINUOUS
 62
     7
 10
216.186270658
 20
-17.2403715411
 30
0.0
 11
216.186270658
 21
-26.8403716245
 31
0.0
  0
LINE
  5
417
  8
0
  6
CONTINUOUS
 62
     7
 10
216.186270658
 20
-28.0403714487
 30
0.0
 11
212.8862708622
 21
-28.0403714487
 31
0.0
  0
LINE
  5
418
  8
0
  6
CONTINUOUS
 62
     7
 10
207.4862707221
 20
-28.0403714487
 30
0.0
 11
204.1862709262
 21
-28.0403714487
 31
0.0
  0
LINE
  5
419
  8
0
  6
CONTINUOUS
 62
     7
 10
204.1862709262
 20
-28.0403714487
 30
0.0
 11
204.1862709262
 21
-26.8403716245
 31
0.0
  0
LINE
  5
41A
  8
0
  6
CONTINUOUS
 62
     7
 10
216.186270658
 20
-26.8403716245
 30
0.0
 11
216.186270658
 21
-28.0403714487
 31
0.0
  0
LINE
  5
41B
  8
0
  6
CONTINUOUS
 62
     7
 10
-38.2137259654
 20
-16.8403714755
 30
0.0
 11
-35.8137330226
 21
-16.8403714755
 31
0.0
  0
LINE
  5
41C
  8
0
  6
CONTINUOUS
 62
     7
 10
-23.8137206248
 20
-16.8403714755
 30
0.0
 11
-12.3137196711
 21
-16.8403714755
 31
0.0
  0
LINE
  5
41D
  8
0
  6
CONTINUOUS
 62
     7
 10
-2.3137292079
 20
-16.8403714755
 30
0.0
 11
62.6862684079
 21
-16.8403714755
 31
0.0
  0
LINE
  5
41E
  8
0
  6
CONTINUOUS
 62
     7
 10
72.6862707921
 20
-16.8403714755
 30
0.0
 11
84.1862717458
 21
-16.8403714755
 31
0.0
  0
LINE
  5
41F
  8
0
  6
CONTINUOUS
 62
     7
 10
96.1862722226
 20
-16.8403714755
 30
0.0
 11
107.6862731763
 21
-16.8403714755
 31
0.0
  0
LINE
  5
420
  8
0
  6
CONTINUOUS
 62
     7
 10
117.6862696
 20
-16.8403714755
 30
0.0
 11
182.6862701961
 21
-16.8403714755
 31
0.0
  0
LINE
  5
421
  8
0
  6
CONTINUOUS
 62
     7
 10
192.6862710901
 20
-16.8403714755
 30
0.0
 11
204.1862709262
 21
-16.8403714755
 31
0.0
  0
LINE
  5
422
  8
0
  6
CONTINUOUS
 62
     7
 10
216.186270658
 20
-16.8403714755
 30
0.0
 11
227.6862704941
 21
-16.8403714755
 31
0.0
  0
LINE
  5
423
  8
0
  6
CONTINUOUS
 62
     7
 10
237.6862713882
 20
-16.8403714755
 30
0.0
 11
302.6862719842
 21
-16.8403714755
 31
0.0
  0
LINE
  5
424
  8
0
  6
CONTINUOUS
 62
     7
 10
312.6862684079
 20
-16.8403714755
 30
0.0
 11
324.1862693616
 21
-16.8403714755
 31
0.0
  0
LINE
  5
425
  8
0
  6
CONTINUOUS
 62
     7
 10
336.1862698384
 20
-16.8403714755
 30
0.0
 11
347.6862707921
 21
-16.8403714755
 31
0.0
  0
LINE
  5
426
  8
0
  6
CONTINUOUS
 62
     7
 10
357.6862731763
 20
-16.8403714755
 30
0.0
 11
422.6862707921
 21
-16.8403714755
 31
0.0
  0
LINE
  5
427
  8
0
  6
CONTINUOUS
 62
     7
 10
432.6862612554
 20
-16.8403714755
 30
0.0
 11
444.186262209
 21
-16.8403714755
 31
0.0
  0
LINE
  5
428
  8
0
  6
CONTINUOUS
 62
     7
 10
456.1862746068
 20
-16.8403714755
 30
0.0
 11
458.5862675496
 21
-16.8403714755
 31
0.0
  0
LINE
  5
429
  8
0
  6
CONTINUOUS
 62
     7
 10
458.9862623998
 20
-17.2403715411
 30
0.0
 11
458.9862623998
 21
-17.8403716394
 31
0.0
  0
ARC
  5
42A
  8
0
  6
CONTINUOUS
 62
     7
 10
458.5862707921
 20
-17.24037155
 30
0.0
 40
0.3999999999999986
 50
0.0
 51
90.0
  0
LINE
  5
42B
  8
0
  6
CONTINUOUS
 62
     7
 10
458.9862623998
 20
-17.8403716394
 30
0.0
 11
458.9862623998
 21
-25.8403714606
 31
0.0
  0
LINE
  5
42C
  8
0
  6
CONTINUOUS
 62
     7
 10
-38.6137208155
 20
-17.8403716394
 30
0.0
 11
-38.6137208155
 21
-17.2403715411
 31
0.0
  0
ARC
  5
42D
  8
0
  6
CONTINUOUS
 62
     7
 10
-38.2137292079
 20
-17.24037155
 30
0.0
 40
0.4000000000000128
 50
90.0
 51
180.0
  0
LINE
  5
42E
  8
0
  6
CONTINUOUS
 62
     7
 10
-38.6137208155
 20
-25.8403714606
 30
0.0
 11
-38.6137208155
 21
-17.8403716394
 31
0.0
  0
LINE
  5
42F
  8
0
  6
CONTINUOUS
 62
     7
 10
458.5862675496
 20
-26.8403716245
 30
0.0
 11
456.1862746068
 21
-26.8403716245
 31
0.0
  0
LINE
  5
430
  8
0
  6
CONTINUOUS
 62
     7
 10
444.186262209
 20
-26.8403716245
 30
0.0
 11
432.6862612554
 21
-26.8403716245
 31
0.0
  0
LINE
  5
431
  8
0
  6
CONTINUOUS
 62
     7
 10
422.6862707921
 20
-26.8403716245
 30
0.0
 11
400.5490699598
 21
-26.8403716245
 31
0.0
  0
LINE
  5
432
  8
0
  6
CONTINUOUS
 62
     7
 10
379.7887841054
 20
-26.8403716245
 30
0.0
 11
357.6862731763
 21
-26.8403716245
 31
0.0
  0
LINE
  5
433
  8
0
  6
CONTINUOUS
 62
     7
 10
347.6862707921
 20
-26.8403716245
 30
0.0
 11
336.1862698384
 21
-26.8403716245
 31
0.0
  0
LINE
  5
434
  8
0
  6
CONTINUOUS
 62
     7
 10
324.1862693616
 20
-26.8403716245
 30
0.0
 11
312.6862684079
 21
-26.8403716245
 31
0.0
  0
LINE
  5
435
  8
0
  6
CONTINUOUS
 62
     7
 10
302.6862719842
 20
-26.8403716245
 30
0.0
 11
280.5490711518
 21
-26.8403716245
 31
0.0
  0
LINE
  5
436
  8
0
  6
CONTINUOUS
 62
     7
 10
259.7887823173
 20
-26.8403716245
 30
0.0
 11
237.6862713882
 21
-26.8403716245
 31
0.0
  0
LINE
  5
437
  8
0
  6
CONTINUOUS
 62
     7
 10
227.6862704941
 20
-26.8403716245
 30
0.0
 11
216.186270658
 21
-26.8403716245
 31
0.0
  0
LINE
  5
438
  8
0
  6
CONTINUOUS
 62
     7
 10
204.1862709262
 20
-26.8403716245
 30
0.0
 11
192.6862710901
 21
-26.8403716245
 31
0.0
  0
LINE
  5
439
  8
0
  6
CONTINUOUS
 62
     7
 10
182.6862701961
 20
-26.8403716245
 30
0.0
 11
160.5490723439
 21
-26.8403716245
 31
0.0
  0
LINE
  5
43A
  8
0
  6
CONTINUOUS
 62
     7
 10
139.7887805291
 20
-26.8403716245
 30
0.0
 11
117.6862696
 21
-26.8403716245
 31
0.0
  0
LINE
  5
43B
  8
0
  6
CONTINUOUS
 62
     7
 10
107.6862731763
 20
-26.8403716245
 30
0.0
 11
96.1862722226
 21
-26.8403716245
 31
0.0
  0
LINE
  5
43C
  8
0
  6
CONTINUOUS
 62
     7
 10
84.1862717458
 20
-26.8403716245
 30
0.0
 11
72.6862707921
 21
-26.8403716245
 31
0.0
  0
LINE
  5
43D
  8
0
  6
CONTINUOUS
 62
     7
 10
62.6862684079
 20
-26.8403716245
 30
0.0
 11
40.5490675756
 21
-26.8403716245
 31
0.0
  0
LINE
  5
43E
  8
0
  6
CONTINUOUS
 62
     7
 10
19.7887817212
 20
-26.8403716245
 30
0.0
 11
-2.3137292079
 21
-26.8403716245
 31
0.0
  0
LINE
  5
43F
  8
0
  6
CONTINUOUS
 62
     7
 10
-12.3137196711
 20
-26.8403716245
 30
0.0
 11
-23.8137206248
 21
-26.8403716245
 31
0.0
  0
LINE
  5
440
  8
0
  6
CONTINUOUS
 62
     7
 10
-35.8137330226
 20
-26.8403716245
 30
0.0
 11
-38.2137259654
 21
-26.8403716245
 31
0.0
  0
LINE
  5
441
  8
0
  6
CONTINUOUS
 62
     7
 10
458.9862623998
 20
-25.8403714606
 30
0.0
 11
458.9862623998
 21
-26.440371559
 31
0.0
  0
ARC
  5
442
  8
0
  6
CONTINUOUS
 62
     7
 10
458.5862707921
 20
-26.44037155
 30
0.0
 40
0.3999999999999986
 50
270.0
 51
0.0
  0
ARC
  5
443
  8
0
  6
CONTINUOUS
 62
     7
 10
-38.2137292079
 20
-26.44037155
 30
0.0
 40
0.4000000000000128
 50
180.0
 51
270.0
  0
LINE
  5
444
  8
0
  6
CONTINUOUS
 62
     7
 10
-38.6137208155
 20
-26.440371559
 30
0.0
 11
-38.6137208155
 21
-25.8403714606
 31
0.0
  0
LINE
  5
445
  8
0
  6
CONTINUOUS
 62
     7
 10
18.9616242238
 20
-26.9514471152
 30
0.0
 11
18.9461270162
 21
-26.8403716245
 31
0.0
  0
LINE
  5
446
  8
0
  6
CONTINUOUS
 62
     7
 10
18.1925216504
 20
-16.8403714755
 30
0.0
 11
18.1862750837
 21
-15.8403716841
 31
0.0
  0
LINE
  5
447
  8
0
  6
CONTINUOUS
 62
     7
 10
18.1862750837
 20
-13.8403717288
 30
0.0
 11
18.1862750837
 21
-15.8403716841
 31
0.0
  0
ARC
  5
448
  8
0
  6
CONTINUOUS
 62
     7
 10
22.1862707921
 20
-13.84037155
 30
0.0
 40
4.000000000000004
 50
90.0
 51
180.0
  0
LINE
  5
449
  8
0
  6
CONTINUOUS
 62
     7
 10
38.1862679311
 20
-9.8403718182
 30
0.0
 11
22.186271269
 21
-9.8403718182
 31
0.0
  0
ARC
  5
44A
  8
0
  6
CONTINUOUS
 62
     7
 10
38.1862707921
 20
-13.84037155
 30
0.0
 40
4.000000000000004
 50
0.0
 51
90.0
  0
LINE
  5
44B
  8
0
  6
CONTINUOUS
 62
     7
 10
42.1862760373
 20
-15.8403716841
 30
0.0
 11
42.1862760373
 21
-13.8403717288
 31
0.0
  0
LINE
  5
44C
  8
0
  6
CONTINUOUS
 62
     7
 10
42.1862760373
 20
-15.8403716841
 30
0.0
 11
42.1800175496
 21
-16.8403714755
 31
0.0
  0
LINE
  5
44D
  8
0
  6
CONTINUOUS
 62
     7
 10
41.4264121839
 20
-26.8403716245
 30
0.0
 11
41.409448702
 21
-26.9618678698
 31
0.0
  0
CIRCLE
  5
44E
  8
0
  6
CONTINUOUS
 62
     7
 10
22.1862707921
 20
-13.84037155
 30
0.0
 40
1.500000000000016
  0
CIRCLE
  5
44F
  8
0
  6
CONTINUOUS
 62
     7
 10
38.1862707921
 20
-13.84037155
 30
0.0
 40
1.500000000000009
  0
ARC
  5
450
  8
0
  6
CONTINUOUS
 62
     7
 10
398.1862707921
 20
-13.84037155
 30
0.0
 40
4.000000000000004
 50
0.0
 51
90.0
  0
LINE
  5
451
  8
0
  6
CONTINUOUS
 62
     7
 10
402.1862665006
 20
-15.8403716841
 30
0.0
 11
402.1862665006
 21
-13.8403717288
 31
0.0
  0
LINE
  5
452
  8
0
  6
CONTINUOUS
 62
     7
 10
402.1862665006
 20
-15.8403716841
 30
0.0
 11
402.1800199338
 21
-16.8403714755
 31
0.0
  0
LINE
  5
453
  8
0
  6
CONTINUOUS
 62
     7
 10
401.4264145681
 20
-26.8403716245
 30
0.0
 11
401.4094510862
 21
-26.9618678698
 31
0.0
  0
LINE
  5
454
  8
0
  6
CONTINUOUS
 62
     7
 10
378.961626608
 20
-26.9514471152
 30
0.0
 11
378.9461294004
 21
-26.8403716245
 31
0.0
  0
LINE
  5
455
  8
0
  6
CONTINUOUS
 62
     7
 10
378.1925240346
 20
-16.8403714755
 30
0.0
 11
378.1862655469
 21
-15.8403716841
 31
0.0
  0
LINE
  5
456
  8
0
  6
CONTINUOUS
 62
     7
 10
378.1862655469
 20
-13.8403717288
 30
0.0
 11
378.1862655469
 21
-15.8403716841
 31
0.0
  0
ARC
  5
457
  8
0
  6
CONTINUOUS
 62
     7
 10
382.1862707921
 20
-13.84037155
 30
0.0
 40
4.000000000000004
 50
90.0
 51
180.0
  0
LINE
  5
458
  8
0
  6
CONTINUOUS
 62
     7
 10
398.1862703153
 20
-9.8403718182
 30
0.0
 11
382.1862736531
 21
-9.8403718182
 31
0.0
  0
CIRCLE
  5
459
  8
0
  6
CONTINUOUS
 62
     7
 10
398.1862707921
 20
-13.84037155
 30
0.0
 40
1.500000000000009
  0
CIRCLE
  5
45A
  8
0
  6
CONTINUOUS
 62
     7
 10
382.1862707921
 20
-13.84037155
 30
0.0
 40
1.500000000000016
  0
ENDSEC
  0
EOF
