  0
SECTION
  2
HEADER
  9
$ACADVER
  1
AC1009
  9
$DWGCODEPAGE
  3
ansi_1252
  9
$INSBASE
 10
0.0
 20
0.0
 30
0.0
  9
$EXTMIN
 10
0.0
 20
0.0
 30
0.0
  9
$EXTMAX
 10
420.0
 20
297.0
 30
0.0
  9
$LIMMIN
 10
0.0
 20
0.0
  9
$LIMMAX
 10
420.0
 20
297.0
  9
$ORTHOMODE
 70
     0
  9
$REGENMODE
 70
     1
  9
$FILLMODE
 70
     1
  9
$QTEXTMODE
 70
     0
  9
$MIRRTEXT
 70
     1
  9
$DRAGMODE
 70
     2
  9
$LTSCALE
 40
1.0
  9
$OSMODE
 70
    37
  9
$ATTMODE
 70
     1
  9
$TEXTSIZE
 40
3.5
  9
$TRACEWID
 40
1.0
  9
$TEXTSTYLE
  7
STANDARD
  9
$CLAYER
  8
0
  9
$CELTYPE
  6
BYLAYER
  9
$CECOLOR
 62
   256
  9
$DIMSCALE
 40
1.0
  9
$DIMASZ
 40
4.0
  9
$DIMEXO
 40
0.0
  9
$DIMDLI
 40
3.75
  9
$DIMRND
 40
0.0
  9
$DIMDLE
 40
0.0
  9
$DIMEXE
 40
2.0
  9
$DIMTP
 40
0.0
  9
$DIMTM
 40
0.0
  9
$DIMTXT
 40
3.5
  9
$DIMCEN
 40
2.5
  9
$DIMTSZ
 40
0.0
  9
$DIMTOL
 70
     0
  9
$DIMLIM
 70
     0
  9
$DIMTIH
 70
     1
  9
$DIMTOH
 70
     1
  9
$DIMSE1
 70
     0
  9
$DIMSE2
 70
     0
  9
$DIMTAD
 70
     1
  9
$DIMZIN
 70
     0
  9
$DIMBLK
  1

  9
$DIMASO
 70
     1
  9
$DIMSHO
 70
     1
  9
$DIMPOST
  1

  9
$DIMAPOST
  1

  9
$DIMALT
 70
     0
  9
$DIMALTD
 70
     3
  9
$DIMALTF
 40
0.0393700787
  9
$DIMLFAC
 40
5.0
  9
$DIMTOFL
 70
     1
  9
$DIMTVP
 40
0.0
  9
$DIMTIX
 70
     0
  9
$DIMSOXD
 70
     0
  9
$DIMSAH
 70
     0
  9
$DIMBLK1
  1

  9
$DIMBLK2
  1

  9
$DIMSTYLE
  2
ISO-25
  9
$DIMCLRD
 70
     0
  9
$DIMCLRE
 70
     0
  9
$DIMCLRT
 70
     0
  9
$DIMTFAC
 40
1.0
  9
$DIMGAP
 40
1.524
  9
$LUNITS
 70
     2
  9
$LUPREC
 70
     2
  9
$SKETCHINC
 40
1.0
  9
$FILLETRAD
 40
10.0
  9
$AUNITS
 70
     0
  9
$AUPREC
 70
     2
  9
$MENU
  1
.
  9
$ELEVATION
 40
0.0
  9
$PELEVATION
 40
0.0
  9
$THICKNESS
 40
0.0
  9
$LIMCHECK
 70
     0
  9
$CHAMFERA
 40
10.0
  9
$CHAMFERB
 40
10.0
  9
$SKPOLY
 70
     0
  9
$TDCREATE
 40
2457802.494782951
  9
$TDUPDATE
 40
2457802.494783171
  9
$TDINDWG
 40
0.0000000116
  9
$TDUSRTIMER
 40
0.0000000116
  9
$USRTIMER
 70
     1
  9
$ANGBASE
 50
0.0
  9
$ANGDIR
 70
     0
  9
$PDMODE
 70
     0
  9
$PDSIZE
 40
-1.0
  9
$PLINEWID
 40
0.0
  9
$COORDS
 70
     1
  9
$SPLFRAME
 70
     0
  9
$SPLINETYPE
 70
     6
  9
$SPLINESEGS
 70
     8
  9
$ATTDIA
 70
     0
  9
$ATTREQ
 70
     1
  9
$HANDLING
 70
     1
  9
$HANDSEED
  5
6FD
  9
$SURFTAB1
 70
     6
  9
$SURFTAB2
 70
     6
  9
$SURFTYPE
 70
     6
  9
$SURFU
 70
     6
  9
$SURFV
 70
     6
  9
$UCSNAME
  2

  9
$UCSORG
 10
0.0
 20
0.0
 30
0.0
  9
$UCSXDIR
 10
1.0
 20
0.0
 30
0.0
  9
$UCSYDIR
 10
0.0
 20
1.0
 30
0.0
  9
$PUCSNAME
  2

  9
$PUCSORG
 10
0.0
 20
0.0
 30
0.0
  9
$PUCSXDIR
 10
1.0
 20
0.0
 30
0.0
  9
$PUCSYDIR
 10
0.0
 20
1.0
 30
0.0
  9
$USERI1
 70
     0
  9
$USERI2
 70
     0
  9
$USERI3
 70
     0
  9
$USERI4
 70
     0
  9
$USERI5
 70
     0
  9
$USERR1
 40
0.0
  9
$USERR2
 40
0.0
  9
$USERR3
 40
0.0
  9
$USERR4
 40
0.0
  9
$USERR5
 40
0.0
  9
$WORLDVIEW
 70
     1
  9
$SHADEDGE
 70
     3
  9
$SHADEDIF
 70
    70
  9
$TILEMODE
 70
     1
  9
$MAXACTVP
 70
    64
  9
$PLIMCHECK
 70
     0
  9
$PEXTMIN
 10
1.0000000000E+20
 20
1.0000000000E+20
 30
1.0000000000E+20
  9
$PEXTMAX
 10
-1.0000000000E+20
 20
-1.0000000000E+20
 30
-1.0000000000E+20
  9
$PLIMMIN
 10
0.0
 20
0.0
  9
$PLIMMAX
 10
420.0
 20
297.0
  9
$UNITMODE
 70
     0
  9
$VISRETAIN
 70
     1
  9
$PLINEGEN
 70
     0
  9
$PSLTSCALE
 70
     1
  0
ENDSEC
  0
SECTION
  2
TABLES
  0
TABLE
  2
VPORT
 70
     1
  0
VPORT
  2
*ACTIVE
 70
     0
 10
0.0
 20
0.0
 11
1.0
 21
1.0
 12
210.0
 22
148.5
 13
0.0
 23
0.0
 14
10.0
 24
10.0
 15
10.0
 25
10.0
 16
0.0
 26
0.0
 36
1.0
 17
0.0
 27
0.0
 37
0.0
 40
297.0
 41
1.4141414141
 42
50.0
 43
0.0
 44
0.0
 50
0.0
 51
0.0
 71
     0
 72
  2000
 73
     1
 74
     3
 75
     0
 76
     0
 77
     0
 78
     0
  0
ENDTAB
  0
TABLE
  2
LTYPE
 70
     6
  0
LTYPE
  2
CONTINUOUS
 70
     0
  3
Solid line
 72
    65
 73
     0
 40
0.0
  0
LTYPE
  2
HIDDEN
 70
     0
  3
Hidden __ __ __ __ __ __ __ __ __ __ __ __ __ __
 72
    65
 73
     2
 40
1.905
 49
1.27
 49
-0.635
  0
LTYPE
  2
PHANTOM
 70
     0
  3
Phantom ______  __  __  ______  __  __  ______
 72
    65
 73
     6
 40
12.7
 49
6.35
 49
-1.27
 49
1.27
 49
-1.27
 49
1.27
 49
-1.27
  0
LTYPE
  2
CENTER
 70
     0
  3
Center ____ _ ____ _ ____ _ ____ _ ____ _ ____
 72
    65
 73
     4
 40
10.16
 49
6.35
 49
-1.27
 49
1.27
 49
-1.27
  0
LTYPE
  2
CENTERX2
 70
     0
  3
Center (2x) ________  __  ________  __  _____
 72
    65
 73
     4
 40
20.32
 49
12.7
 49
-2.54
 49
2.54
 49
-2.54
  0
LTYPE
  2
DOT2
 70
     0
  3
Dot (.5x) ........................................
 72
    65
 73
     2
 40
0.635
 49
0.0
 49
-0.635
  0
ENDTAB
  0
TABLE
  2
LAYER
 70
     2
  0
LAYER
  2
0
 70
     0
 62
     7
  6
CONTINUOUS
  0
LAYER
  2
FORMAT
 70
     0
 62
     7
  6
CONTINUOUS
  0
ENDTAB
  0
TABLE
  2
STYLE
 70
     1
  0
STYLE
  2
STANDARD
 70
     0
 40
0.0
 41
1.0
 50
0.0
 71
     0
 42
3.5
  3
txt
  4

  0
ENDTAB
  0
TABLE
  2
VIEW
 70
     0
  0
ENDTAB
  0
TABLE
  2
UCS
 70
     0
  0
ENDTAB
  0
TABLE
  2
APPID
 70
     1
  0
APPID
  2
ACAD
 70
     0
  0
ENDTAB
  0
TABLE
  2
DIMSTYLE
 70
     1
  0
DIMSTYLE
  2
ISO-25
 70
     0
  3

  4

  5

  6

  7

 40
1.0
 41
2.5
 42
0.625
 43
3.75
 44
1.25
 45
0.0
 46
0.0
 47
0.0
 48
0.0
140
2.5
141
2.5
142
0.0
143
0.0393700787
144
1.0
145
0.0
146
1.0
147
0.625
 71
     0
 72
     0
 73
     0
 74
     0
 75
     0
 76
     0
 77
     1
 78
     8
170
     0
171
     3
172
     1
173
     0
174
     0
175
     0
176
     0
177
     0
178
     0
  0
ENDTAB
  0
ENDSEC
  0
SECTION
  2
BLOCKS
  0
BLOCK
  8
0
  2
$MODEL_SPACE
 70
     0
 10
0.0
 20
0.0
 30
0.0
  3
$MODEL_SPACE
  1

  0
ENDBLK
  5
21
  8
0
  0
BLOCK
 67
     1
  8
0
  2
$PAPER_SPACE
 70
     0
 10
0.0
 20
0.0
 30
0.0
  3
$PAPER_SPACE
  1

  0
ENDBLK
  5
1D
 67
     1
  8
0
  0
ENDSEC
  0
SECTION
  2
ENTITIES
  0
POLYLINE
  5
45
  8
0
  6
CONTINUOUS
 62
     7
 66
     1
 10
0.0
 20
0.0
 30
0.0
  0
VERTEX
  5
2DF
  8
0
  6
CONTINUOUS
 62
     7
 10
128.4131743053
 20
269.2996580705
 30
0.0
  0
VERTEX
  5
2E0
  8
0
  6
CONTINUOUS
 62
     7
 10
127.1383144
 20
269.1294450864
 30
0.0
  0
VERTEX
  5
2E1
  8
0
  6
CONTINUOUS
 62
     7
 10
126.045475159
 20
268.9883787737
 30
0.0
  0
VERTEX
  5
2E2
  8
0
  6
CONTINUOUS
 62
     7
 10
125.1349486449
 20
268.8742477998
 30
0.0
  0
VERTEX
  5
2E3
  8
0
  6
CONTINUOUS
 62
     7
 10
124.406967316
 20
268.7852163419
 30
0.0
  0
VERTEX
  5
2E4
  8
0
  6
CONTINUOUS
 62
     7
 10
123.8085784057
 20
268.7135000333
 30
0.0
  0
VERTEX
  5
2E5
  8
0
  6
CONTINUOUS
 62
     7
 10
123.387531195
 20
268.6639089689
 30
0.0
  0
VERTEX
  5
2E6
  8
0
  6
CONTINUOUS
 62
     7
 10
122.951350365
 20
268.6136801347
 30
0.0
  0
VERTEX
  5
2E7
  8
0
  6
CONTINUOUS
 62
     7
 10
122.4819995502
 20
268.5608763799
 30
0.0
  0
VERTEX
  5
2E8
  8
0
  6
CONTINUOUS
 62
     7
 10
121.9794668296
 20
268.5056943998
 30
0.0
  0
VERTEX
  5
2E9
  8
0
  6
CONTINUOUS
 62
     7
 10
121.4437343219
 20
268.4483249292
 30
0.0
  0
VERTEX
  5
2EA
  8
0
  6
CONTINUOUS
 62
     7
 10
120.0494267085
 20
268.3057088956
 30
0.0
  0
VERTEX
  5
2EB
  8
0
  6
CONTINUOUS
 62
     7
 10
118.4702612498
 20
268.1552131281
 30
0.0
  0
VERTEX
  5
2EC
  8
0
  6
CONTINUOUS
 62
     7
 10
117.150697861
 20
268.0380900011
 30
0.0
  0
VERTEX
  5
2ED
  8
0
  6
CONTINUOUS
 62
     7
 10
115.8239878753
 20
267.9289121732
 30
0.0
  0
VERTEX
  5
2EE
  8
0
  6
CONTINUOUS
 62
     7
 10
114.5904280284
 20
267.836244832
 30
0.0
  0
VERTEX
  5
2EF
  8
0
  6
CONTINUOUS
 62
     7
 10
113.4501792529
 20
267.7589674101
 30
0.0
  0
VERTEX
  5
2F0
  8
0
  6
CONTINUOUS
 62
     7
 10
112.4034024814
 20
267.696138154
 30
0.0
  0
VERTEX
  5
2F1
  8
0
  6
CONTINUOUS
 62
     7
 10
111.4502467254
 20
267.6470179662
 30
0.0
  0
VERTEX
  5
2F2
  8
0
  6
CONTINUOUS
 62
     7
 10
110.5908550361
 20
267.611070405
 30
0.0
  0
VERTEX
  5
2F3
  8
0
  6
CONTINUOUS
 62
     7
 10
109.8246373275
 20
267.5878067121
 30
0.0
  0
VERTEX
  5
2F4
  8
0
  6
CONTINUOUS
 62
     7
 10
109.4640292266
 20
267.5783593759
 30
0.0
  0
VERTEX
  5
2F5
  8
0
  6
CONTINUOUS
 62
     7
 10
109.1103591064
 20
267.567606698
 30
0.0
  0
VERTEX
  5
2F6
  8
0
  6
CONTINUOUS
 62
     7
 10
108.7636150458
 20
267.5551493272
 30
0.0
  0
VERTEX
  5
2F7
  8
0
  6
CONTINUOUS
 62
     7
 10
108.423808966
 20
267.5416011915
 30
0.0
  0
VERTEX
  5
2F8
  8
0
  6
CONTINUOUS
 62
     7
 10
107.8681506255
 20
267.5185639963
 30
0.0
  0
VERTEX
  5
2F9
  8
0
  6
CONTINUOUS
 62
     7
 10
107.2529830077
 20
267.4936790571
 30
0.0
  0
VERTEX
  5
2FA
  8
0
  6
CONTINUOUS
 62
     7
 10
106.5201081374
 20
267.4654145345
 30
0.0
  0
VERTEX
  5
2FB
  8
0
  6
CONTINUOUS
 62
     7
 10
105.6695021728
 20
267.4344618425
 30
0.0
  0
VERTEX
  5
2FC
  8
0
  6
CONTINUOUS
 62
     7
 10
104.6520747283
 20
267.399974595
 30
0.0
  0
VERTEX
  5
2FD
  8
0
  6
CONTINUOUS
 62
     7
 10
103.5053886512
 20
267.3643548593
 30
0.0
  0
VERTEX
  5
2FE
  8
0
  6
CONTINUOUS
 62
     7
 10
102.2295750716
 20
267.3286993608
 30
0.0
  0
VERTEX
  5
2FF
  8
0
  6
CONTINUOUS
 62
     7
 10
96.1820282081
 20
267.2140438661
 30
0.0
  0
VERTEX
  5
300
  8
0
  6
CONTINUOUS
 62
     7
 10
90.1649750808
 20
267.184539567
 30
0.0
  0
VERTEX
  5
301
  8
0
  6
CONTINUOUS
 62
     7
 10
87.7904333213
 20
267.1954829797
 30
0.0
  0
VERTEX
  5
302
  8
0
  6
CONTINUOUS
 62
     7
 10
85.5553783515
 20
267.2175128564
 30
0.0
  0
VERTEX
  5
303
  8
0
  6
CONTINUOUS
 62
     7
 10
83.474151049
 20
267.2483403787
 30
0.0
  0
VERTEX
  5
304
  8
0
  6
CONTINUOUS
 62
     7
 10
81.5467633346
 20
267.2858972654
 30
0.0
  0
VERTEX
  5
305
  8
0
  6
CONTINUOUS
 62
     7
 10
79.7634996512
 20
267.3285324678
 30
0.0
  0
VERTEX
  5
306
  8
0
  6
CONTINUOUS
 62
     7
 10
78.8540758231
 20
267.3532564745
 30
0.0
  0
VERTEX
  5
307
  8
0
  6
CONTINUOUS
 62
     7
 10
77.9019273856
 20
267.3813719854
 30
0.0
  0
VERTEX
  5
308
  8
0
  6
CONTINUOUS
 62
     7
 10
76.9070901015
 20
267.4132664308
 30
0.0
  0
VERTEX
  5
309
  8
0
  6
CONTINUOUS
 62
     7
 10
75.8695878127
 20
267.4493689642
 30
0.0
  0
VERTEX
  5
30A
  8
0
  6
CONTINUOUS
 62
     7
 10
74.8452223876
 20
267.4879570112
 30
0.0
  0
VERTEX
  5
30B
  8
0
  6
CONTINUOUS
 62
     7
 10
74.1769112685
 20
267.5147552595
 30
0.0
  0
VERTEX
  5
30C
  8
0
  6
CONTINUOUS
 62
     7
 10
73.6962355712
 20
267.5348360643
 30
0.0
  0
VERTEX
  5
30D
  8
0
  6
CONTINUOUS
 62
     7
 10
73.3821906188
 20
267.5483126745
 30
0.0
  0
VERTEX
  5
30E
  8
0
  6
CONTINUOUS
 62
     7
 10
72.9013122657
 20
267.569120656
 30
0.0
  0
VERTEX
  5
30F
  8
0
  6
CONTINUOUS
 62
     7
 10
72.3454035857
 20
267.5921876535
 30
0.0
  0
VERTEX
  5
310
  8
0
  6
CONTINUOUS
 62
     7
 10
71.7145241836
 20
267.6163156137
 30
0.0
  0
VERTEX
  5
311
  8
0
  6
CONTINUOUS
 62
     7
 10
71.0086740592
 20
267.6437218294
 30
0.0
  0
VERTEX
  5
312
  8
0
  6
CONTINUOUS
 62
     7
 10
70.226947222
 20
267.6779408559
 30
0.0
  0
VERTEX
  5
313
  8
0
  6
CONTINUOUS
 62
     7
 10
69.3647898772
 20
267.7227754697
 30
0.0
  0
VERTEX
  5
314
  8
0
  6
CONTINUOUS
 62
     7
 10
68.421653662
 20
267.7791257009
 30
0.0
  0
VERTEX
  5
315
  8
0
  6
CONTINUOUS
 62
     7
 10
67.3976220229
 20
267.8475518331
 30
0.0
  0
VERTEX
  5
316
  8
0
  6
CONTINUOUS
 62
     7
 10
66.2928380111
 20
267.9287512407
 30
0.0
  0
VERTEX
  5
317
  8
0
  6
CONTINUOUS
 62
     7
 10
65.1074327567
 20
268.0235405073
 30
0.0
  0
VERTEX
  5
318
  8
0
  6
CONTINUOUS
 62
     7
 10
63.0434550384
 20
268.2059068784
 30
0.0
  0
VERTEX
  5
319
  8
0
  6
CONTINUOUS
 62
     7
 10
60.788194094
 20
268.4286017522
 30
0.0
  0
VERTEX
  5
31A
  8
0
  6
CONTINUOUS
 62
     7
 10
58.4423460105
 20
268.6849970922
 30
0.0
  0
VERTEX
  5
31B
  8
0
  6
CONTINUOUS
 62
     7
 10
56.0259260276
 20
268.9748485193
 30
0.0
  0
VERTEX
  5
31C
  8
0
  6
CONTINUOUS
 62
     7
 10
53.5392679313
 20
269.2996580705
 30
0.0
  0
SEQEND
  5
6FC
  8
0
  6
CONTINUOUS
 62
     7
  0
POLYLINE
  5
46
  8
0
  6
CONTINUOUS
 62
     7
 66
     1
 10
0.0
 20
0.0
 30
0.0
  0
VERTEX
  5
31D
  8
0
  6
CONTINUOUS
 62
     7
 10
128.5762883761
 20
268.7159021005
 30
0.0
  0
VERTEX
  5
31E
  8
0
  6
CONTINUOUS
 62
     7
 10
128.4940697291
 20
269.0768976316
 30
0.0
  0
VERTEX
  5
31F
  8
0
  6
CONTINUOUS
 62
     7
 10
128.3600546458
 20
269.665880929
 30
0.0
  0
SEQEND
  5
6FB
  8
0
  6
CONTINUOUS
 62
     7
  0
POLYLINE
  5
47
  8
0
  6
CONTINUOUS
 62
     7
 66
     1
 10
0.0
 20
0.0
 30
0.0
  0
VERTEX
  5
320
  8
0
  6
CONTINUOUS
 62
     7
 10
53.5923875907
 20
269.665880929
 30
0.0
  0
VERTEX
  5
321
  8
0
  6
CONTINUOUS
 62
     7
 10
53.4597076514
 20
269.0827329263
 30
0.0
  0
VERTEX
  5
322
  8
0
  6
CONTINUOUS
 62
     7
 10
53.3739484885
 20
268.7062103853
 30
0.0
  0
SEQEND
  5
6FA
  8
0
  6
CONTINUOUS
 62
     7
  0
POLYLINE
  5
48
  8
0
  6
CONTINUOUS
 62
     7
 66
     1
 10
0.0
 20
0.0
 30
0.0
  0
VERTEX
  5
323
  8
0
  6
CONTINUOUS
 62
     7
 10
248.4131731132
 20
269.2996580705
 30
0.0
  0
VERTEX
  5
324
  8
0
  6
CONTINUOUS
 62
     7
 10
247.1383132079
 20
269.1294450864
 30
0.0
  0
VERTEX
  5
325
  8
0
  6
CONTINUOUS
 62
     7
 10
246.0454709867
 20
268.9883787737
 30
0.0
  0
VERTEX
  5
326
  8
0
  6
CONTINUOUS
 62
     7
 10
245.1349444726
 20
268.8742477998
 30
0.0
  0
VERTEX
  5
327
  8
0
  6
CONTINUOUS
 62
     7
 10
244.4069691041
 20
268.7852163419
 30
0.0
  0
VERTEX
  5
328
  8
0
  6
CONTINUOUS
 62
     7
 10
243.8085772136
 20
268.7135000333
 30
0.0
  0
VERTEX
  5
329
  8
0
  6
CONTINUOUS
 62
     7
 10
243.3875300029
 20
268.6639089689
 30
0.0
  0
VERTEX
  5
32A
  8
0
  6
CONTINUOUS
 62
     7
 10
242.9513491729
 20
268.6136801347
 30
0.0
  0
VERTEX
  5
32B
  8
0
  6
CONTINUOUS
 62
     7
 10
242.4820013383
 20
268.5608763799
 30
0.0
  0
VERTEX
  5
32C
  8
0
  6
CONTINUOUS
 62
     7
 10
241.9794686177
 20
268.5056943998
 30
0.0
  0
VERTEX
  5
32D
  8
0
  6
CONTINUOUS
 62
     7
 10
241.4437331298
 20
268.4483249292
 30
0.0
  0
VERTEX
  5
32E
  8
0
  6
CONTINUOUS
 62
     7
 10
240.0494284967
 20
268.3057088956
 30
0.0
  0
VERTEX
  5
32F
  8
0
  6
CONTINUOUS
 62
     7
 10
238.4702600577
 20
268.1552131281
 30
0.0
  0
VERTEX
  5
330
  8
0
  6
CONTINUOUS
 62
     7
 10
237.1506996491
 20
268.0380900011
 30
0.0
  0
VERTEX
  5
331
  8
0
  6
CONTINUOUS
 62
     7
 10
235.8239911535
 20
267.9289121732
 30
0.0
  0
VERTEX
  5
332
  8
0
  6
CONTINUOUS
 62
     7
 10
234.5904268363
 20
267.836244832
 30
0.0
  0
VERTEX
  5
333
  8
0
  6
CONTINUOUS
 62
     7
 10
233.4501795509
 20
267.7589674101
 30
0.0
  0
VERTEX
  5
334
  8
0
  6
CONTINUOUS
 62
     7
 10
232.4034042695
 20
267.696138154
 30
0.0
  0
VERTEX
  5
335
  8
0
  6
CONTINUOUS
 62
     7
 10
231.4502485135
 20
267.6470179662
 30
0.0
  0
VERTEX
  5
336
  8
0
  6
CONTINUOUS
 62
     7
 10
230.5908508637
 20
267.611070405
 30
0.0
  0
VERTEX
  5
337
  8
0
  6
CONTINUOUS
 62
     7
 10
229.8246420959
 20
267.5878067121
 30
0.0
  0
VERTEX
  5
338
  8
0
  6
CONTINUOUS
 62
     7
 10
229.4640295246
 20
267.5783593759
 30
0.0
  0
VERTEX
  5
339
  8
0
  6
CONTINUOUS
 62
     7
 10
229.1103608945
 20
267.567606698
 30
0.0
  0
VERTEX
  5
33A
  8
0
  6
CONTINUOUS
 62
     7
 10
228.7636198142
 20
267.5551493272
 30
0.0
  0
VERTEX
  5
33B
  8
0
  6
CONTINUOUS
 62
     7
 10
228.4238122442
 20
267.5416011915
 30
0.0
  0
VERTEX
  5
33C
  8
0
  6
CONTINUOUS
 62
     7
 10
227.8681479433
 20
267.5185639963
 30
0.0
  0
VERTEX
  5
33D
  8
0
  6
CONTINUOUS
 62
     7
 10
227.2529833057
 20
267.4936790571
 30
0.0
  0
VERTEX
  5
33E
  8
0
  6
CONTINUOUS
 62
     7
 10
226.5201084354
 20
267.4654145345
 30
0.0
  0
VERTEX
  5
33F
  8
0
  6
CONTINUOUS
 62
     7
 10
225.6694980004
 20
267.4344618425
 30
0.0
  0
VERTEX
  5
340
  8
0
  6
CONTINUOUS
 62
     7
 10
224.6520765164
 20
267.399974595
 30
0.0
  0
VERTEX
  5
341
  8
0
  6
CONTINUOUS
 62
     7
 10
223.5053844789
 20
267.3643548593
 30
0.0
  0
VERTEX
  5
342
  8
0
  6
CONTINUOUS
 62
     7
 10
222.2295805851
 20
267.3286993608
 30
0.0
  0
VERTEX
  5
343
  8
0
  6
CONTINUOUS
 62
     7
 10
216.1820262709
 20
267.2140438661
 30
0.0
  0
VERTEX
  5
344
  8
0
  6
CONTINUOUS
 62
     7
 10
210.1649745406
 20
267.184539567
 30
0.0
  0
VERTEX
  5
345
  8
0
  6
CONTINUOUS
 62
     7
 10
207.7904336193
 20
267.1954829797
 30
0.0
  0
VERTEX
  5
346
  8
0
  6
CONTINUOUS
 62
     7
 10
205.5553805122
 20
267.2175128564
 30
0.0
  0
VERTEX
  5
347
  8
0
  6
CONTINUOUS
 62
     7
 10
203.4741483667
 20
267.2483403787
 30
0.0
  0
VERTEX
  5
348
  8
0
  6
CONTINUOUS
 62
     7
 10
201.5467613974
 20
267.2858972654
 30
0.0
  0
VERTEX
  5
349
  8
0
  6
CONTINUOUS
 62
     7
 10
199.7634954789
 20
267.3285324678
 30
0.0
  0
VERTEX
  5
34A
  8
0
  6
CONTINUOUS
 62
     7
 10
198.8540723959
 20
267.3532564745
 30
0.0
  0
VERTEX
  5
34B
  8
0
  6
CONTINUOUS
 62
     7
 10
197.9019306639
 20
267.3813719854
 30
0.0
  0
VERTEX
  5
34C
  8
0
  6
CONTINUOUS
 62
     7
 10
196.9070933798
 20
267.4132664308
 30
0.0
  0
VERTEX
  5
34D
  8
0
  6
CONTINUOUS
 62
     7
 10
195.8695821503
 20
267.4493689642
 30
0.0
  0
VERTEX
  5
34E
  8
0
  6
CONTINUOUS
 62
     7
 10
194.845227156
 20
267.4879570112
 30
0.0
  0
VERTEX
  5
34F
  8
0
  6
CONTINUOUS
 62
     7
 10
194.1769056061
 20
267.5147552595
 30
0.0
  0
VERTEX
  5
350
  8
0
  6
CONTINUOUS
 62
     7
 10
193.6962358692
 20
267.5348360643
 30
0.0
  0
VERTEX
  5
351
  8
0
  6
CONTINUOUS
 62
     7
 10
193.3821968773
 20
267.5483126745
 30
0.0
  0
VERTEX
  5
352
  8
0
  6
CONTINUOUS
 62
     7
 10
192.9013155439
 20
267.569120656
 30
0.0
  0
VERTEX
  5
353
  8
0
  6
CONTINUOUS
 62
     7
 10
192.3454038837
 20
267.5921876535
 30
0.0
  0
VERTEX
  5
354
  8
0
  6
CONTINUOUS
 62
     7
 10
191.7145229915
 20
267.6163156137
 30
0.0
  0
VERTEX
  5
355
  8
0
  6
CONTINUOUS
 62
     7
 10
191.0086758473
 20
267.6437218294
 30
0.0
  0
VERTEX
  5
356
  8
0
  6
CONTINUOUS
 62
     7
 10
190.22694603
 20
267.6779408559
 30
0.0
  0
VERTEX
  5
357
  8
0
  6
CONTINUOUS
 62
     7
 10
189.3647946456
 20
267.7227754697
 30
0.0
  0
VERTEX
  5
358
  8
0
  6
CONTINUOUS
 62
     7
 10
188.4216494897
 20
267.7791257009
 30
0.0
  0
VERTEX
  5
359
  8
0
  6
CONTINUOUS
 62
     7
 10
187.3976253012
 20
267.8475518331
 30
0.0
  0
VERTEX
  5
35A
  8
0
  6
CONTINUOUS
 62
     7
 10
186.2928442696
 20
267.9287512407
 30
0.0
  0
VERTEX
  5
35B
  8
0
  6
CONTINUOUS
 62
     7
 10
185.1074375251
 20
268.0235405073
 30
0.0
  0
VERTEX
  5
35C
  8
0
  6
CONTINUOUS
 62
     7
 10
183.0434538463
 20
268.2059068784
 30
0.0
  0
VERTEX
  5
35D
  8
0
  6
CONTINUOUS
 62
     7
 10
180.7881929019
 20
268.4286017522
 30
0.0
  0
VERTEX
  5
35E
  8
0
  6
CONTINUOUS
 62
     7
 10
178.4423507789
 20
268.6849970922
 30
0.0
  0
VERTEX
  5
35F
  8
0
  6
CONTINUOUS
 62
     7
 10
176.025918875
 20
268.9748485193
 30
0.0
  0
VERTEX
  5
360
  8
0
  6
CONTINUOUS
 62
     7
 10
173.5392726996
 20
269.2996580705
 30
0.0
  0
SEQEND
  5
6F9
  8
0
  6
CONTINUOUS
 62
     7
  0
POLYLINE
  5
49
  8
0
  6
CONTINUOUS
 62
     7
 66
     1
 10
0.0
 20
0.0
 30
0.0
  0
VERTEX
  5
361
  8
0
  6
CONTINUOUS
 62
     7
 10
248.5762871841
 20
268.7159021005
 30
0.0
  0
VERTEX
  5
362
  8
0
  6
CONTINUOUS
 62
     7
 10
248.4940715173
 20
269.0768976316
 30
0.0
  0
VERTEX
  5
363
  8
0
  6
CONTINUOUS
 62
     7
 10
248.360056434
 20
269.665880929
 30
0.0
  0
SEQEND
  5
6F8
  8
0
  6
CONTINUOUS
 62
     7
  0
POLYLINE
  5
4A
  8
0
  6
CONTINUOUS
 62
     7
 66
     1
 10
0.0
 20
0.0
 30
0.0
  0
VERTEX
  5
364
  8
0
  6
CONTINUOUS
 62
     7
 10
173.5923893788
 20
269.665880929
 30
0.0
  0
VERTEX
  5
365
  8
0
  6
CONTINUOUS
 62
     7
 10
173.4597004989
 20
269.0827329263
 30
0.0
  0
VERTEX
  5
366
  8
0
  6
CONTINUOUS
 62
     7
 10
173.3739502767
 20
268.7062103853
 30
0.0
  0
SEQEND
  5
6F7
  8
0
  6
CONTINUOUS
 62
     7
  0
POLYLINE
  5
4B
  8
0
  6
CONTINUOUS
 62
     7
 66
     1
 10
0.0
 20
0.0
 30
0.0
  0
VERTEX
  5
367
  8
0
  6
CONTINUOUS
 62
     7
 10
368.4131778815
 20
269.2996580705
 30
0.0
  0
VERTEX
  5
368
  8
0
  6
CONTINUOUS
 62
     7
 10
367.1383179763
 20
269.1294450864
 30
0.0
  0
VERTEX
  5
369
  8
0
  6
CONTINUOUS
 62
     7
 10
366.0454668143
 20
268.9883787737
 30
0.0
  0
VERTEX
  5
36A
  8
0
  6
CONTINUOUS
 62
     7
 10
365.1349462607
 20
268.8742477998
 30
0.0
  0
VERTEX
  5
36B
  8
0
  6
CONTINUOUS
 62
     7
 10
364.4069708922
 20
268.7852163419
 30
0.0
  0
VERTEX
  5
36C
  8
0
  6
CONTINUOUS
 62
     7
 10
363.8085760215
 20
268.7135000333
 30
0.0
  0
VERTEX
  5
36D
  8
0
  6
CONTINUOUS
 62
     7
 10
363.3875288108
 20
268.6639089689
 30
0.0
  0
VERTEX
  5
36E
  8
0
  6
CONTINUOUS
 62
     7
 10
362.9513539413
 20
268.6136801347
 30
0.0
  0
VERTEX
  5
36F
  8
0
  6
CONTINUOUS
 62
     7
 10
362.4820031264
 20
268.5608763799
 30
0.0
  0
VERTEX
  5
370
  8
0
  6
CONTINUOUS
 62
     7
 10
361.9794644454
 20
268.5056943998
 30
0.0
  0
VERTEX
  5
371
  8
0
  6
CONTINUOUS
 62
     7
 10
361.4437378982
 20
268.4483249292
 30
0.0
  0
VERTEX
  5
372
  8
0
  6
CONTINUOUS
 62
     7
 10
360.0494302848
 20
268.3057088956
 30
0.0
  0
VERTEX
  5
373
  8
0
  6
CONTINUOUS
 62
     7
 10
358.4702648261
 20
268.1552131281
 30
0.0
  0
VERTEX
  5
374
  8
0
  6
CONTINUOUS
 62
     7
 10
357.1507014373
 20
268.0380900011
 30
0.0
  0
VERTEX
  5
375
  8
0
  6
CONTINUOUS
 62
     7
 10
355.8239854911
 20
267.9289121732
 30
0.0
  0
VERTEX
  5
376
  8
0
  6
CONTINUOUS
 62
     7
 10
354.5904316047
 20
267.836244832
 30
0.0
  0
VERTEX
  5
377
  8
0
  6
CONTINUOUS
 62
     7
 10
353.4501828292
 20
267.7589674101
 30
0.0
  0
VERTEX
  5
378
  8
0
  6
CONTINUOUS
 62
     7
 10
352.4034060576
 20
267.696138154
 30
0.0
  0
VERTEX
  5
379
  8
0
  6
CONTINUOUS
 62
     7
 10
351.4502443412
 20
267.6470179662
 30
0.0
  0
VERTEX
  5
37A
  8
0
  6
CONTINUOUS
 62
     7
 10
350.5908526519
 20
267.611070405
 30
0.0
  0
VERTEX
  5
37B
  8
0
  6
CONTINUOUS
 62
     7
 10
349.8246468642
 20
267.5878067121
 30
0.0
  0
VERTEX
  5
37C
  8
0
  6
CONTINUOUS
 62
     7
 10
349.4640268424
 20
267.5783593759
 30
0.0
  0
VERTEX
  5
37D
  8
0
  6
CONTINUOUS
 62
     7
 10
349.1103567222
 20
267.567606698
 30
0.0
  0
VERTEX
  5
37E
  8
0
  6
CONTINUOUS
 62
     7
 10
348.7636245826
 20
267.5551493272
 30
0.0
  0
VERTEX
  5
37F
  8
0
  6
CONTINUOUS
 62
     7
 10
348.4238065818
 20
267.5416011915
 30
0.0
  0
VERTEX
  5
380
  8
0
  6
CONTINUOUS
 62
     7
 10
347.8681482413
 20
267.5185639963
 30
0.0
  0
VERTEX
  5
381
  8
0
  6
CONTINUOUS
 62
     7
 10
347.2529806235
 20
267.4936790571
 30
0.0
  0
VERTEX
  5
382
  8
0
  6
CONTINUOUS
 62
     7
 10
346.5201057532
 20
267.4654145345
 30
0.0
  0
VERTEX
  5
383
  8
0
  6
CONTINUOUS
 62
     7
 10
345.6694997886
 20
267.4344618425
 30
0.0
  0
VERTEX
  5
384
  8
0
  6
CONTINUOUS
 62
     7
 10
344.6520723441
 20
267.399974595
 30
0.0
  0
VERTEX
  5
385
  8
0
  6
CONTINUOUS
 62
     7
 10
343.505386267
 20
267.3643548593
 30
0.0
  0
VERTEX
  5
386
  8
0
  6
CONTINUOUS
 62
     7
 10
342.2295846084
 20
267.3286993608
 30
0.0
  0
VERTEX
  5
387
  8
0
  6
CONTINUOUS
 62
     7
 10
336.1820258239
 20
267.2140438661
 30
0.0
  0
VERTEX
  5
388
  8
0
  6
CONTINUOUS
 62
     7
 10
330.1649726966
 20
267.184539567
 30
0.0
  0
VERTEX
  5
389
  8
0
  6
CONTINUOUS
 62
     7
 10
327.7904309371
 20
267.1954829797
 30
0.0
  0
VERTEX
  5
38A
  8
0
  6
CONTINUOUS
 62
     7
 10
325.5553759673
 20
267.2175128564
 30
0.0
  0
VERTEX
  5
38B
  8
0
  6
CONTINUOUS
 62
     7
 10
323.4741486648
 20
267.2483403787
 30
0.0
  0
VERTEX
  5
38C
  8
0
  6
CONTINUOUS
 62
     7
 10
321.5467609504
 20
267.2858972654
 30
0.0
  0
VERTEX
  5
38D
  8
0
  6
CONTINUOUS
 62
     7
 10
319.7634972671
 20
267.3285324678
 30
0.0
  0
VERTEX
  5
38E
  8
0
  6
CONTINUOUS
 62
     7
 10
318.8540734389
 20
267.3532564745
 30
0.0
  0
VERTEX
  5
38F
  8
0
  6
CONTINUOUS
 62
     7
 10
317.9019369224
 20
267.3813719854
 30
0.0
  0
VERTEX
  5
390
  8
0
  6
CONTINUOUS
 62
     7
 10
316.9070877173
 20
267.4132664308
 30
0.0
  0
VERTEX
  5
391
  8
0
  6
CONTINUOUS
 62
     7
 10
315.8695854285
 20
267.4493689642
 30
0.0
  0
VERTEX
  5
392
  8
0
  6
CONTINUOUS
 62
     7
 10
314.8452319243
 20
267.4879570112
 30
0.0
  0
VERTEX
  5
393
  8
0
  6
CONTINUOUS
 62
     7
 10
314.1769088843
 20
267.5147552595
 30
0.0
  0
VERTEX
  5
394
  8
0
  6
CONTINUOUS
 62
     7
 10
313.696233187
 20
267.5348360643
 30
0.0
  0
VERTEX
  5
395
  8
0
  6
CONTINUOUS
 62
     7
 10
313.3822001555
 20
267.5483126745
 30
0.0
  0
VERTEX
  5
396
  8
0
  6
CONTINUOUS
 62
     7
 10
312.9013098815
 20
267.569120656
 30
0.0
  0
VERTEX
  5
397
  8
0
  6
CONTINUOUS
 62
     7
 10
312.3454012015
 20
267.5921876535
 30
0.0
  0
VERTEX
  5
398
  8
0
  6
CONTINUOUS
 62
     7
 10
311.7145217994
 20
267.6163156137
 30
0.0
  0
VERTEX
  5
399
  8
0
  6
CONTINUOUS
 62
     7
 10
311.008671675
 20
267.6437218294
 30
0.0
  0
VERTEX
  5
39A
  8
0
  6
CONTINUOUS
 62
     7
 10
310.2269448379
 20
267.6779408559
 30
0.0
  0
VERTEX
  5
39B
  8
0
  6
CONTINUOUS
 62
     7
 10
309.3647934535
 20
267.7227754697
 30
0.0
  0
VERTEX
  5
39C
  8
0
  6
CONTINUOUS
 62
     7
 10
308.4216512778
 20
267.7791257009
 30
0.0
  0
VERTEX
  5
39D
  8
0
  6
CONTINUOUS
 62
     7
 10
307.3976255992
 20
267.8475518331
 30
0.0
  0
VERTEX
  5
39E
  8
0
  6
CONTINUOUS
 62
     7
 10
306.2928415874
 20
267.9287512407
 30
0.0
  0
VERTEX
  5
39F
  8
0
  6
CONTINUOUS
 62
     7
 10
305.107436333
 20
268.0235405073
 30
0.0
  0
VERTEX
  5
3A0
  8
0
  6
CONTINUOUS
 62
     7
 10
303.0434526542
 20
268.2059068784
 30
0.0
  0
VERTEX
  5
3A1
  8
0
  6
CONTINUOUS
 62
     7
 10
300.7881917098
 20
268.4286017522
 30
0.0
  0
VERTEX
  5
3A2
  8
0
  6
CONTINUOUS
 62
     7
 10
298.4423495868
 20
268.6849970922
 30
0.0
  0
VERTEX
  5
3A3
  8
0
  6
CONTINUOUS
 62
     7
 10
296.0259176829
 20
268.9748485193
 30
0.0
  0
VERTEX
  5
3A4
  8
0
  6
CONTINUOUS
 62
     7
 10
293.5392715076
 20
269.2996580705
 30
0.0
  0
SEQEND
  5
6F6
  8
0
  6
CONTINUOUS
 62
     7
  0
POLYLINE
  5
4C
  8
0
  6
CONTINUOUS
 62
     7
 66
     1
 10
0.0
 20
0.0
 30
0.0
  0
VERTEX
  5
3A5
  8
0
  6
CONTINUOUS
 62
     7
 10
368.5762919524
 20
268.7159021005
 30
0.0
  0
VERTEX
  5
3A6
  8
0
  6
CONTINUOUS
 62
     7
 10
368.4940733054
 20
269.0768976316
 30
0.0
  0
VERTEX
  5
3A7
  8
0
  6
CONTINUOUS
 62
     7
 10
368.3600582221
 20
269.665880929
 30
0.0
  0
SEQEND
  5
6F5
  8
0
  6
CONTINUOUS
 62
     7
  0
POLYLINE
  5
4D
  8
0
  6
CONTINUOUS
 62
     7
 66
     1
 10
0.0
 20
0.0
 30
0.0
  0
VERTEX
  5
3A8
  8
0
  6
CONTINUOUS
 62
     7
 10
293.592391167
 20
269.665880929
 30
0.0
  0
VERTEX
  5
3A9
  8
0
  6
CONTINUOUS
 62
     7
 10
293.4596993068
 20
269.0827329263
 30
0.0
  0
VERTEX
  5
3AA
  8
0
  6
CONTINUOUS
 62
     7
 10
293.3739520648
 20
268.7062103853
 30
0.0
  0
SEQEND
  5
6F4
  8
0
  6
CONTINUOUS
 62
     7
  0
LINE
  5
4E
  8
0
  6
CONTINUOUS
 62
     7
 10
72.5619353393
 20
177.3116047114
 30
0.0
 11
79.3905057052
 21
177.3116047114
 31
0.0
  0
LINE
  5
4F
  8
0
  6
CONTINUOUS
 62
     7
 10
72.5619353393
 20
176.111604701
 30
0.0
 11
79.3905057052
 21
176.111604701
 31
0.0
  0
LINE
  5
50
  8
0
  6
CONTINUOUS
 62
     7
 10
68.8032902816
 20
177.3116047114
 30
0.0
 11
72.5619353393
 21
177.3116047114
 31
0.0
  0
LINE
  5
51
  8
0
  6
CONTINUOUS
 62
     7
 10
72.5619353393
 20
176.111604701
 30
0.0
 11
68.8032902816
 21
176.111604701
 31
0.0
  0
LINE
  5
52
  8
0
  6
CONTINUOUS
 62
     7
 10
79.3905057052
 20
177.3116047114
 30
0.0
 11
83.1491507628
 21
177.3116047114
 31
0.0
  0
LINE
  5
53
  8
0
  6
CONTINUOUS
 62
     7
 10
83.1491507628
 20
176.111604701
 30
0.0
 11
79.3905057052
 21
176.111604701
 31
0.0
  0
LINE
  5
54
  8
0
  6
CONTINUOUS
 62
     7
 10
338.80329505
 20
177.3116047114
 30
0.0
 11
342.5619401076
 21
177.3116047114
 31
0.0
  0
LINE
  5
55
  8
0
  6
CONTINUOUS
 62
     7
 10
342.5619401076
 20
176.111604701
 30
0.0
 11
338.80329505
 21
176.111604701
 31
0.0
  0
LINE
  5
56
  8
0
  6
CONTINUOUS
 62
     7
 10
342.5619401076
 20
176.111604701
 30
0.0
 11
349.3905104735
 21
176.111604701
 31
0.0
  0
LINE
  5
57
  8
0
  6
CONTINUOUS
 62
     7
 10
342.5619401076
 20
177.3116047114
 30
0.0
 11
349.3905104735
 21
177.3116047114
 31
0.0
  0
LINE
  5
58
  8
0
  6
CONTINUOUS
 62
     7
 10
353.1491555312
 20
176.111604701
 30
0.0
 11
349.3905104735
 21
176.111604701
 31
0.0
  0
LINE
  5
59
  8
0
  6
CONTINUOUS
 62
     7
 10
349.3905104735
 20
177.3116047114
 30
0.0
 11
353.1491555312
 21
177.3116047114
 31
0.0
  0
LINE
  5
5A
  8
0
  6
CONTINUOUS
 62
     7
 10
87.9762209991
 20
176.111604701
 30
0.0
 11
87.9762209991
 21
177.3116047114
 31
0.0
  0
LINE
  5
5B
  8
0
  6
CONTINUOUS
 62
     7
 10
87.9762209991
 20
177.3116047114
 30
0.0
 11
83.1491507628
 21
177.3116047114
 31
0.0
  0
LINE
  5
5C
  8
0
  6
CONTINUOUS
 62
     7
 10
83.1491507628
 20
176.111604701
 30
0.0
 11
87.9762209991
 21
176.111604701
 31
0.0
  0
LINE
  5
5D
  8
0
  6
CONTINUOUS
 62
     7
 10
63.9762200454
 20
176.111604701
 30
0.0
 11
63.9762200454
 21
177.3116047114
 31
0.0
  0
LINE
  5
5E
  8
0
  6
CONTINUOUS
 62
     7
 10
68.8032902816
 20
177.3116047114
 30
0.0
 11
63.9762200454
 21
177.3116047114
 31
0.0
  0
LINE
  5
5F
  8
0
  6
CONTINUOUS
 62
     7
 10
63.9762200454
 20
176.111604701
 30
0.0
 11
68.8032902816
 21
176.111604701
 31
0.0
  0
LINE
  5
60
  8
0
  6
CONTINUOUS
 62
     7
 10
357.9762257674
 20
176.111604701
 30
0.0
 11
357.9762257674
 21
177.3116047114
 31
0.0
  0
LINE
  5
61
  8
0
  6
CONTINUOUS
 62
     7
 10
353.1491555312
 20
176.111604701
 30
0.0
 11
357.9762257674
 21
176.111604701
 31
0.0
  0
LINE
  5
62
  8
0
  6
CONTINUOUS
 62
     7
 10
357.9762257674
 20
177.3116047114
 30
0.0
 11
353.1491555312
 21
177.3116047114
 31
0.0
  0
LINE
  5
63
  8
0
  6
CONTINUOUS
 62
     7
 10
333.9762248138
 20
176.111604701
 30
0.0
 11
333.9762248138
 21
177.3116047114
 31
0.0
  0
LINE
  5
64
  8
0
  6
CONTINUOUS
 62
     7
 10
333.9762248138
 20
176.111604701
 30
0.0
 11
338.80329505
 21
176.111604701
 31
0.0
  0
LINE
  5
65
  8
0
  6
CONTINUOUS
 62
     7
 10
338.80329505
 20
177.3116047114
 30
0.0
 11
333.9762248138
 21
177.3116047114
 31
0.0
  0
LINE
  5
66
  8
0
  6
CONTINUOUS
 62
     7
 10
47.3762191871
 20
241.711606513
 30
0.0
 11
47.3762191871
 21
242.3116047487
 31
0.0
  0
ARC
  5
67
  8
0
  6
CONTINUOUS
 62
     7
 10
47.7762229064
 20
241.711604701
 30
0.0
 40
0.3999999999999844
 50
180.0
 51
270.0
  0
POLYLINE
  5
68
  8
0
  6
CONTINUOUS
 62
     7
 66
     1
 10
0.0
 20
0.0
 30
0.0
  0
VERTEX
  5
3AB
  8
0
  6
CONTINUOUS
 62
     7
 10
79.9762286284
 20
242.3116047487
 30
0.0
  0
VERTEX
  5
3AC
  8
0
  6
CONTINUOUS
 62
     7
 10
80.1713146308
 20
242.1165127859
 30
0.0
  0
VERTEX
  5
3AD
  8
0
  6
CONTINUOUS
 62
     7
 10
80.3589023688
 20
241.9289190874
 30
0.0
  0
VERTEX
  5
3AE
  8
0
  6
CONTINUOUS
 62
     7
 10
80.5317916015
 20
241.7560358152
 30
0.0
  0
VERTEX
  5
3AF
  8
0
  6
CONTINUOUS
 62
     7
 10
80.6833304503
 20
241.6044969663
 30
0.0
  0
VERTEX
  5
3B0
  8
0
  6
CONTINUOUS
 62
     7
 10
80.8076895812
 20
241.4801378355
 30
0.0
  0
VERTEX
  5
3B1
  8
0
  6
CONTINUOUS
 62
     7
 10
80.9001006225
 20
241.3877267942
 30
0.0
  0
VERTEX
  5
3B2
  8
0
  6
CONTINUOUS
 62
     7
 10
80.9570111373
 20
241.3308222398
 30
0.0
  0
VERTEX
  5
3B3
  8
0
  6
CONTINUOUS
 62
     7
 10
80.9762276748
 20
241.3116057024
 30
0.0
  0
SEQEND
  5
6F3
  8
0
  6
CONTINUOUS
 62
     7
  0
LINE
  5
69
  8
0
  6
CONTINUOUS
 62
     7
 10
80.9762276748
 20
241.3116057024
 30
0.0
 11
80.9762276748
 21
177.3116047114
 31
0.0
  0
POLYLINE
  5
6A
  8
0
  6
CONTINUOUS
 62
     7
 66
     1
 10
0.0
 20
0.0
 30
0.0
  0
VERTEX
  5
3B4
  8
0
  6
CONTINUOUS
 62
     7
 10
350.9762205222
 20
241.3116057024
 30
0.0
  0
VERTEX
  5
3B5
  8
0
  6
CONTINUOUS
 62
     7
 10
350.9570039847
 20
241.3308222398
 30
0.0
  0
VERTEX
  5
3B6
  8
0
  6
CONTINUOUS
 62
     7
 10
350.9001053908
 20
241.3877267942
 30
0.0
  0
VERTEX
  5
3B7
  8
0
  6
CONTINUOUS
 62
     7
 10
350.8076943496
 20
241.4801378355
 30
0.0
  0
VERTEX
  5
3B8
  8
0
  6
CONTINUOUS
 62
     7
 10
350.6833352187
 20
241.6044969663
 30
0.0
  0
VERTEX
  5
3B9
  8
0
  6
CONTINUOUS
 62
     7
 10
350.5317963698
 20
241.7560358152
 30
0.0
  0
VERTEX
  5
3BA
  8
0
  6
CONTINUOUS
 62
     7
 10
350.3589071372
 20
241.9289190874
 30
0.0
  0
VERTEX
  5
3BB
  8
0
  6
CONTINUOUS
 62
     7
 10
350.1713074782
 20
242.1165127859
 30
0.0
  0
VERTEX
  5
3BC
  8
0
  6
CONTINUOUS
 62
     7
 10
349.9762214759
 20
242.3116047487
 30
0.0
  0
SEQEND
  5
6F2
  8
0
  6
CONTINUOUS
 62
     7
  0
LINE
  5
6B
  8
0
  6
CONTINUOUS
 62
     7
 10
350.9762205222
 20
241.3116057024
 30
0.0
 11
350.9762205222
 21
177.3116047114
 31
0.0
  0
LINE
  5
6C
  8
0
  6
CONTINUOUS
 62
     7
 10
374.5762266257
 20
242.3116047487
 30
0.0
 11
374.5762266257
 21
241.711606513
 31
0.0
  0
ARC
  5
6D
  8
0
  6
CONTINUOUS
 62
     7
 10
374.1762229064
 20
241.711604701
 30
0.0
 40
0.4000000000000341
 50
270.0
 51
0.0
  0
LINE
  5
6E
  8
0
  6
CONTINUOUS
 62
     7
 10
47.3762191871
 20
242.3116047487
 30
0.0
 11
47.3762191871
 21
250.3116030798
 31
0.0
  0
POLYLINE
  5
6F
  8
0
  6
CONTINUOUS
 62
     7
 66
     1
 10
0.0
 20
0.0
 30
0.0
  0
VERTEX
  5
3BD
  8
0
  6
CONTINUOUS
 62
     7
 10
341.9762171844
 20
242.3116047487
 30
0.0
  0
VERTEX
  5
3BE
  8
0
  6
CONTINUOUS
 62
     7
 10
341.781131182
 20
242.1165127859
 30
0.0
  0
VERTEX
  5
3BF
  8
0
  6
CONTINUOUS
 62
     7
 10
341.593543444
 20
241.9289190874
 30
0.0
  0
VERTEX
  5
3C0
  8
0
  6
CONTINUOUS
 62
     7
 10
341.4206542113
 20
241.7560358152
 30
0.0
  0
VERTEX
  5
3C1
  8
0
  6
CONTINUOUS
 62
     7
 10
341.2691153625
 20
241.6044969663
 30
0.0
  0
VERTEX
  5
3C2
  8
0
  6
CONTINUOUS
 62
     7
 10
341.1447562316
 20
241.4801378355
 30
0.0
  0
VERTEX
  5
3C3
  8
0
  6
CONTINUOUS
 62
     7
 10
341.0523451903
 20
241.3877267942
 30
0.0
  0
VERTEX
  5
3C4
  8
0
  6
CONTINUOUS
 62
     7
 10
340.9954346755
 20
241.3308222398
 30
0.0
  0
VERTEX
  5
3C5
  8
0
  6
CONTINUOUS
 62
     7
 10
340.976218138
 20
241.3116057024
 30
0.0
  0
SEQEND
  5
6F1
  8
0
  6
CONTINUOUS
 62
     7
  0
LINE
  5
70
  8
0
  6
CONTINUOUS
 62
     7
 10
340.976218138
 20
241.3116057024
 30
0.0
 11
80.9762276748
 21
241.3116057024
 31
0.0
  0
LINE
  5
71
  8
0
  6
CONTINUOUS
 62
     7
 10
374.1762198546
 20
241.3116057024
 30
0.0
 11
350.9762205222
 21
241.3116057024
 31
0.0
  0
POLYLINE
  5
72
  8
0
  6
CONTINUOUS
 62
     7
 66
     1
 10
0.0
 20
0.0
 30
0.0
  0
VERTEX
  5
3C6
  8
0
  6
CONTINUOUS
 62
     7
 10
70.9762252906
 20
241.3116057024
 30
0.0
  0
VERTEX
  5
3C7
  8
0
  6
CONTINUOUS
 62
     7
 10
70.9954418281
 20
241.3308222398
 30
0.0
  0
VERTEX
  5
3C8
  8
0
  6
CONTINUOUS
 62
     7
 10
71.052340422
 20
241.3877267942
 30
0.0
  0
VERTEX
  5
3C9
  8
0
  6
CONTINUOUS
 62
     7
 10
71.1447514632
 20
241.4801378355
 30
0.0
  0
VERTEX
  5
3CA
  8
0
  6
CONTINUOUS
 62
     7
 10
71.2691105941
 20
241.6044969663
 30
0.0
  0
VERTEX
  5
3CB
  8
0
  6
CONTINUOUS
 62
     7
 10
71.420649443
 20
241.7560358152
 30
0.0
  0
VERTEX
  5
3CC
  8
0
  6
CONTINUOUS
 62
     7
 10
71.5935386756
 20
241.9289190874
 30
0.0
  0
VERTEX
  5
3CD
  8
0
  6
CONTINUOUS
 62
     7
 10
71.7811383346
 20
242.1165127859
 30
0.0
  0
VERTEX
  5
3CE
  8
0
  6
CONTINUOUS
 62
     7
 10
71.9762243369
 20
242.3116047487
 30
0.0
  0
SEQEND
  5
6F0
  8
0
  6
CONTINUOUS
 62
     7
  0
LINE
  5
73
  8
0
  6
CONTINUOUS
 62
     7
 10
70.9762252906
 20
241.3116057024
 30
0.0
 11
47.7762259582
 21
241.3116057024
 31
0.0
  0
LINE
  5
74
  8
0
  6
CONTINUOUS
 62
     7
 10
70.9762252906
 20
177.3116047114
 30
0.0
 11
70.9762252906
 21
241.3116057024
 31
0.0
  0
LINE
  5
75
  8
0
  6
CONTINUOUS
 62
     7
 10
374.5762266257
 20
250.3116030798
 30
0.0
 11
374.5762266257
 21
242.3116047487
 31
0.0
  0
LINE
  5
76
  8
0
  6
CONTINUOUS
 62
     7
 10
340.976218138
 20
177.3116047114
 30
0.0
 11
340.976218138
 21
241.3116057024
 31
0.0
  0
LINE
  5
77
  8
0
  6
CONTINUOUS
 62
     7
 10
47.7762259582
 20
251.3116021261
 30
0.0
 11
48.4762229064
 21
251.3116021261
 31
0.0
  0
LINE
  5
78
  8
0
  6
CONTINUOUS
 62
     7
 10
58.4762252906
 20
251.3116021261
 30
0.0
 11
123.4762229064
 21
251.3116021261
 31
0.0
  0
LINE
  5
79
  8
0
  6
CONTINUOUS
 62
     7
 10
133.4762252906
 20
251.3116021261
 30
0.0
 11
168.4762217143
 21
251.3116021261
 31
0.0
  0
LINE
  5
7A
  8
0
  6
CONTINUOUS
 62
     7
 10
178.4762240985
 20
251.3116021261
 30
0.0
 11
243.4762217143
 21
251.3116021261
 31
0.0
  0
LINE
  5
7B
  8
0
  6
CONTINUOUS
 62
     7
 10
253.4762240985
 20
251.3116021261
 30
0.0
 11
288.4762205222
 21
251.3116021261
 31
0.0
  0
LINE
  5
7C
  8
0
  6
CONTINUOUS
 62
     7
 10
298.4762229064
 20
251.3116021261
 30
0.0
 11
363.4762205222
 21
251.3116021261
 31
0.0
  0
LINE
  5
7D
  8
0
  6
CONTINUOUS
 62
     7
 10
373.4762229064
 20
251.3116021261
 30
0.0
 11
374.1762198546
 21
251.3116021261
 31
0.0
  0
LINE
  5
7E
  8
0
  6
CONTINUOUS
 62
     7
 10
47.3762191871
 20
250.3116030798
 30
0.0
 11
47.3762191871
 21
250.9116072759
 31
0.0
  0
ARC
  5
7F
  8
0
  6
CONTINUOUS
 62
     7
 10
47.7762229064
 20
250.911604701
 30
0.0
 40
0.4000000000000057
 50
90.0
 51
180.0
  0
ARC
  5
80
  8
0
  6
CONTINUOUS
 62
     7
 10
374.1762229064
 20
250.911604701
 30
0.0
 40
0.4000000000000341
 50
0.0
 51
90.0
  0
LINE
  5
81
  8
0
  6
CONTINUOUS
 62
     7
 10
374.5762266257
 20
250.9116072759
 30
0.0
 11
374.5762266257
 21
250.3116030798
 31
0.0
  0
POLYLINE
  5
82
  8
0
  6
CONTINUOUS
 62
     7
 66
     1
 10
0.0
 20
0.0
 30
0.0
  0
VERTEX
  5
3CF
  8
0
  6
CONTINUOUS
 62
     7
 10
128.5762943366
 20
267.6423032388
 30
0.0
  0
VERTEX
  5
3D0
  8
0
  6
CONTINUOUS
 62
     7
 10
128.4884192088
 20
267.3882145986
 30
0.0
  0
VERTEX
  5
3D1
  8
0
  6
CONTINUOUS
 62
     7
 10
128.223107014
 20
267.0332033739
 30
0.0
  0
VERTEX
  5
3D2
  8
0
  6
CONTINUOUS
 62
     7
 10
127.814105902
 20
266.6014571294
 30
0.0
  0
VERTEX
  5
3D3
  8
0
  6
CONTINUOUS
 62
     7
 10
127.255693827
 20
266.0995204553
 30
0.0
  0
VERTEX
  5
3D4
  8
0
  6
CONTINUOUS
 62
     7
 10
126.5197314361
 20
265.5440409288
 30
0.0
  0
VERTEX
  5
3D5
  8
0
  6
CONTINUOUS
 62
     7
 10
125.6176509002
 20
264.9958391294
 30
0.0
  0
VERTEX
  5
3D6
  8
0
  6
CONTINUOUS
 62
     7
 10
124.7512735465
 20
264.5880122289
 30
0.0
  0
VERTEX
  5
3D7
  8
0
  6
CONTINUOUS
 62
     7
 10
123.7676002124
 20
264.2505307302
 30
0.0
  0
VERTEX
  5
3D8
  8
0
  6
CONTINUOUS
 62
     7
 10
123.1425322631
 20
264.1002614603
 30
0.0
  0
VERTEX
  5
3D9
  8
0
  6
CONTINUOUS
 62
     7
 10
122.4887229541
 20
263.9938075647
 30
0.0
  0
SEQEND
  5
6EF
  8
0
  6
CONTINUOUS
 62
     7
  0
POLYLINE
  5
83
  8
0
  6
CONTINUOUS
 62
     7
 66
     1
 10
0.0
 20
0.0
 30
0.0
  0
VERTEX
  5
3DA
  8
0
  6
CONTINUOUS
 62
     7
 10
128.5762943366
 20
267.6423032388
 30
0.0
  0
VERTEX
  5
3DB
  8
0
  6
CONTINUOUS
 62
     7
 10
128.5762943366
 20
267.6970918283
 30
0.0
  0
VERTEX
  5
3DC
  8
0
  6
CONTINUOUS
 62
     7
 10
128.5760797599
 20
267.9897863969
 30
0.0
  0
VERTEX
  5
3DD
  8
0
  6
CONTINUOUS
 62
     7
 10
128.5756029227
 20
268.1124944791
 30
0.0
  0
VERTEX
  5
3DE
  8
0
  6
CONTINUOUS
 62
     7
 10
128.5752512553
 20
268.1261260614
 30
0.0
  0
VERTEX
  5
3DF
  8
0
  6
CONTINUOUS
 62
     7
 10
128.5754956344
 20
268.1132693395
 30
0.0
  0
SEQEND
  5
6EE
  8
0
  6
CONTINUOUS
 62
     7
  0
POLYLINE
  5
84
  8
0
  6
CONTINUOUS
 62
     7
 66
     1
 10
0.0
 20
0.0
 30
0.0
  0
VERTEX
  5
3E0
  8
0
  6
CONTINUOUS
 62
     7
 10
128.576222811
 20
268.4097011194
 30
0.0
  0
VERTEX
  5
3E1
  8
0
  6
CONTINUOUS
 62
     7
 10
128.5615123847
 20
268.3619399175
 30
0.0
  0
VERTEX
  5
3E2
  8
0
  6
CONTINUOUS
 62
     7
 10
128.5762287715
 20
268.2351429567
 30
0.0
  0
SEQEND
  5
6ED
  8
0
  6
CONTINUOUS
 62
     7
  0
POLYLINE
  5
85
  8
0
  6
CONTINUOUS
 62
     7
 66
     1
 10
0.0
 20
0.0
 30
0.0
  0
VERTEX
  5
3E3
  8
0
  6
CONTINUOUS
 62
     7
 10
53.376225386
 20
268.2351429567
 30
0.0
  0
VERTEX
  5
3E4
  8
0
  6
CONTINUOUS
 62
     7
 10
53.3909358123
 20
268.3619399175
 30
0.0
  0
VERTEX
  5
3E5
  8
0
  6
CONTINUOUS
 62
     7
 10
53.376225386
 20
268.4097011194
 30
0.0
  0
SEQEND
  5
6EC
  8
0
  6
CONTINUOUS
 62
     7
  0
POLYLINE
  5
86
  8
0
  6
CONTINUOUS
 62
     7
 66
     1
 10
0.0
 20
0.0
 30
0.0
  0
VERTEX
  5
3E6
  8
0
  6
CONTINUOUS
 62
     7
 10
53.3761538604
 20
267.6424820528
 30
0.0
  0
VERTEX
  5
3E7
  8
0
  6
CONTINUOUS
 62
     7
 10
53.3761538604
 20
267.6471788988
 30
0.0
  0
VERTEX
  5
3E8
  8
0
  6
CONTINUOUS
 62
     7
 10
53.3763207534
 20
267.9656763181
 30
0.0
  0
VERTEX
  5
3E9
  8
0
  6
CONTINUOUS
 62
     7
 10
53.3767856696
 20
268.1049187288
 30
0.0
  0
VERTEX
  5
3EA
  8
0
  6
CONTINUOUS
 62
     7
 10
53.3771790603
 20
268.1282837495
 30
0.0
  0
VERTEX
  5
3EB
  8
0
  6
CONTINUOUS
 62
     7
 10
53.3771194556
 20
268.1108732328
 30
0.0
  0
SEQEND
  5
6EB
  8
0
  6
CONTINUOUS
 62
     7
  0
POLYLINE
  5
87
  8
0
  6
CONTINUOUS
 62
     7
 66
     1
 10
0.0
 20
0.0
 30
0.0
  0
VERTEX
  5
3EC
  8
0
  6
CONTINUOUS
 62
     7
 10
59.4637192824
 20
263.9938075647
 30
0.0
  0
VERTEX
  5
3ED
  8
0
  6
CONTINUOUS
 62
     7
 10
58.4496773818
 20
264.1809721098
 30
0.0
  0
VERTEX
  5
3EE
  8
0
  6
CONTINUOUS
 62
     7
 10
57.46436492
 20
264.4851524934
 30
0.0
  0
VERTEX
  5
3EF
  8
0
  6
CONTINUOUS
 62
     7
 10
56.5955318549
 20
264.8615439043
 30
0.0
  0
VERTEX
  5
3F0
  8
0
  6
CONTINUOUS
 62
     7
 10
55.8022536376
 20
265.3031129942
 30
0.0
  0
VERTEX
  5
3F1
  8
0
  6
CONTINUOUS
 62
     7
 10
55.0447858909
 20
265.8234794244
 30
0.0
  0
VERTEX
  5
3F2
  8
0
  6
CONTINUOUS
 62
     7
 10
54.4034875968
 20
266.3530368909
 30
0.0
  0
VERTEX
  5
3F3
  8
0
  6
CONTINUOUS
 62
     7
 10
53.8572587112
 20
266.8900449381
 30
0.0
  0
VERTEX
  5
3F4
  8
0
  6
CONTINUOUS
 62
     7
 10
53.6491192916
 20
267.1286661729
 30
0.0
  0
VERTEX
  5
3F5
  8
0
  6
CONTINUOUS
 62
     7
 10
53.4969963172
 20
267.3346955881
 30
0.0
  0
VERTEX
  5
3F6
  8
0
  6
CONTINUOUS
 62
     7
 10
53.3761538604
 20
267.6424820528
 30
0.0
  0
SEQEND
  5
6EA
  8
0
  6
CONTINUOUS
 62
     7
  0
POLYLINE
  5
88
  8
0
  6
CONTINUOUS
 62
     7
 66
     1
 10
0.0
 20
0.0
 30
0.0
  0
VERTEX
  5
3F7
  8
0
  6
CONTINUOUS
 62
     7
 10
122.4887229541
 20
263.9938075647
 30
0.0
  0
VERTEX
  5
3F8
  8
0
  6
CONTINUOUS
 62
     7
 10
115.3993941882
 20
263.1928939924
 30
0.0
  0
VERTEX
  5
3F9
  8
0
  6
CONTINUOUS
 62
     7
 10
108.2823313811
 20
262.5654537782
 30
0.0
  0
VERTEX
  5
3FA
  8
0
  6
CONTINUOUS
 62
     7
 10
101.1094249824
 20
262.1388871774
 30
0.0
  0
VERTEX
  5
3FB
  8
0
  6
CONTINUOUS
 62
     7
 10
93.9224995711
 20
261.9316716299
 30
0.0
  0
VERTEX
  5
3FC
  8
0
  6
CONTINUOUS
 62
     7
 10
88.8594545463
 20
261.9224746332
 30
0.0
  0
VERTEX
  5
3FD
  8
0
  6
CONTINUOUS
 62
     7
 10
83.7979354003
 20
262.0261449918
 30
0.0
  0
VERTEX
  5
3FE
  8
0
  6
CONTINUOUS
 62
     7
 10
78.7272729018
 20
262.2420806989
 30
0.0
  0
VERTEX
  5
3FF
  8
0
  6
CONTINUOUS
 62
     7
 10
73.6649908164
 20
262.565835248
 30
0.0
  0
VERTEX
  5
400
  8
0
  6
CONTINUOUS
 62
     7
 10
66.554109011
 20
263.1923873529
 30
0.0
  0
VERTEX
  5
401
  8
0
  6
CONTINUOUS
 62
     7
 10
59.4637192824
 20
263.9938075647
 30
0.0
  0
SEQEND
  5
6E9
  8
0
  6
CONTINUOUS
 62
     7
  0
POLYLINE
  5
89
  8
0
  6
CONTINUOUS
 62
     7
 66
     1
 10
0.0
 20
0.0
 30
0.0
  0
VERTEX
  5
402
  8
0
  6
CONTINUOUS
 62
     7
 10
59.6436180213
 20
269.3263788328
 30
0.0
  0
VERTEX
  5
403
  8
0
  6
CONTINUOUS
 62
     7
 10
58.6371459106
 20
269.5440251932
 30
0.0
  0
VERTEX
  5
404
  8
0
  6
CONTINUOUS
 62
     7
 10
57.7125586608
 20
269.7338361845
 30
0.0
  0
VERTEX
  5
405
  8
0
  6
CONTINUOUS
 62
     7
 10
56.9450654128
 20
269.8718090162
 30
0.0
  0
VERTEX
  5
406
  8
0
  6
CONTINUOUS
 62
     7
 10
56.3095845321
 20
269.955732356
 30
0.0
  0
VERTEX
  5
407
  8
0
  6
CONTINUOUS
 62
     7
 10
56.0078538993
 20
269.9764866933
 30
0.0
  0
VERTEX
  5
408
  8
0
  6
CONTINUOUS
 62
     7
 10
55.7698644736
 20
269.9750621423
 30
0.0
  0
SEQEND
  5
6E8
  8
0
  6
CONTINUOUS
 62
     7
  0
ARC
  5
8A
  8
0
  6
CONTINUOUS
 62
     7
 10
90.8606052829
 20
408.562335008
 30
0.0
 40
142.6925078120919
 50
257.3631399214
 51
260.3830426002
  0
ARC
  5
8B
  8
0
  6
CONTINUOUS
 62
     7
 10
90.3746755164
 20
412.1880475462
 30
0.0
 40
146.3873158463804
 50
279.6013439636
 51
282.6002988363
  0
POLYLINE
  5
8C
  8
0
  6
CONTINUOUS
 62
     7
 66
     1
 10
0.0
 20
0.0
 30
0.0
  0
VERTEX
  5
409
  8
0
  6
CONTINUOUS
 62
     7
 10
126.1825837234
 20
269.9750621423
 30
0.0
  0
VERTEX
  5
40A
  8
0
  6
CONTINUOUS
 62
     7
 10
125.7634975055
 20
269.9661512479
 30
0.0
  0
VERTEX
  5
40B
  8
0
  6
CONTINUOUS
 62
     7
 10
125.1538671592
 20
269.8944349393
 30
0.0
  0
VERTEX
  5
40C
  8
0
  6
CONTINUOUS
 62
     7
 10
124.4026221374
 20
269.7651763067
 30
0.0
  0
VERTEX
  5
40D
  8
0
  6
CONTINUOUS
 62
     7
 10
123.4852470496
 20
269.5799846754
 30
0.0
  0
VERTEX
  5
40E
  8
0
  6
CONTINUOUS
 62
     7
 10
122.3088242152
 20
269.3263788328
 30
0.0
  0
SEQEND
  5
6E7
  8
0
  6
CONTINUOUS
 62
     7
  0
POLYLINE
  5
8D
  8
0
  6
CONTINUOUS
 62
     7
 66
     1
 10
0.0
 20
0.0
 30
0.0
  0
VERTEX
  5
40F
  8
0
  6
CONTINUOUS
 62
     7
 10
126.182565842
 20
269.9751396284
 30
0.0
  0
VERTEX
  5
410
  8
0
  6
CONTINUOUS
 62
     7
 10
127.0996309856
 20
269.920327197
 30
0.0
  0
VERTEX
  5
411
  8
0
  6
CONTINUOUS
 62
     7
 10
127.7008093932
 20
269.8657889471
 30
0.0
  0
VERTEX
  5
412
  8
0
  6
CONTINUOUS
 62
     7
 10
128.0583299735
 20
269.8100586042
 30
0.0
  0
VERTEX
  5
413
  8
0
  6
CONTINUOUS
 62
     7
 10
128.2730855086
 20
269.7534461126
 30
0.0
  0
VERTEX
  5
414
  8
0
  6
CONTINUOUS
 62
     7
 10
128.3548332789
 20
269.6950156793
 30
0.0
  0
VERTEX
  5
415
  8
0
  6
CONTINUOUS
 62
     7
 10
128.3516682723
 20
269.6374614343
 30
0.0
  0
VERTEX
  5
416
  8
0
  6
CONTINUOUS
 62
     7
 10
128.3245660403
 20
269.5846099958
 30
0.0
  0
VERTEX
  5
417
  8
0
  6
CONTINUOUS
 62
     7
 10
128.3224083522
 20
269.5377488241
 30
0.0
  0
VERTEX
  5
418
  8
0
  6
CONTINUOUS
 62
     7
 10
128.36934701
 20
269.429453145
 30
0.0
  0
VERTEX
  5
419
  8
0
  6
CONTINUOUS
 62
     7
 10
128.3785797694
 20
269.3878967867
 30
0.0
  0
SEQEND
  5
6E6
  8
0
  6
CONTINUOUS
 62
     7
  0
ARC
  5
8E
  8
0
  6
CONTINUOUS
 62
     7
 10
123.5312049836
 20
268.558925602
 30
0.0
 40
4.946513259019895
 50
3.5868728639
 51
8.4287436192
  0
POLYLINE
  5
8F
  8
0
  6
CONTINUOUS
 62
     7
 66
     1
 10
0.0
 20
0.0
 30
0.0
  0
VERTEX
  5
41A
  8
0
  6
CONTINUOUS
 62
     7
 10
122.3793841937
 20
265.490557681
 30
0.0
  0
VERTEX
  5
41B
  8
0
  6
CONTINUOUS
 62
     7
 10
123.4030820468
 20
265.6694848642
 30
0.0
  0
VERTEX
  5
41C
  8
0
  6
CONTINUOUS
 62
     7
 10
124.3990637401
 20
265.9602661237
 30
0.0
  0
VERTEX
  5
41D
  8
0
  6
CONTINUOUS
 62
     7
 10
125.2793110946
 20
266.319211255
 30
0.0
  0
VERTEX
  5
41E
  8
0
  6
CONTINUOUS
 62
     7
 10
126.0839439967
 20
266.7380173311
 30
0.0
  0
VERTEX
  5
41F
  8
0
  6
CONTINUOUS
 62
     7
 10
126.843664799
 20
267.2217209444
 30
0.0
  0
VERTEX
  5
420
  8
0
  6
CONTINUOUS
 62
     7
 10
127.485064421
 20
267.7082975015
 30
0.0
  0
VERTEX
  5
421
  8
0
  6
CONTINUOUS
 62
     7
 10
128.0127860644
 20
268.1815941438
 30
0.0
  0
VERTEX
  5
422
  8
0
  6
CONTINUOUS
 62
     7
 10
128.3560194114
 20
268.5747225389
 30
0.0
  0
VERTEX
  5
423
  8
0
  6
CONTINUOUS
 62
     7
 10
128.444097195
 20
268.7353868589
 30
0.0
  0
VERTEX
  5
424
  8
0
  6
CONTINUOUS
 62
     7
 10
128.4680284598
 20
268.8683827028
 30
0.0
  0
SEQEND
  5
6E5
  8
0
  6
CONTINUOUS
 62
     7
  0
POLYLINE
  5
90
  8
0
  6
CONTINUOUS
 62
     7
 66
     1
 10
0.0
 20
0.0
 30
0.0
  0
VERTEX
  5
425
  8
0
  6
CONTINUOUS
 62
     7
 10
122.3793841937
 20
265.490557681
 30
0.0
  0
VERTEX
  5
426
  8
0
  6
CONTINUOUS
 62
     7
 10
117.0285619834
 20
264.90396453
 30
0.0
  0
VERTEX
  5
427
  8
0
  6
CONTINUOUS
 62
     7
 10
111.662403498
 20
264.4059617624
 30
0.0
  0
VERTEX
  5
428
  8
0
  6
CONTINUOUS
 62
     7
 10
106.2701500991
 20
264.0088100538
 30
0.0
  0
VERTEX
  5
429
  8
0
  6
CONTINUOUS
 62
     7
 10
100.8670605758
 20
263.7238283262
 30
0.0
  0
VERTEX
  5
42A
  8
0
  6
CONTINUOUS
 62
     7
 10
94.9655689338
 20
263.5501642332
 30
0.0
  0
VERTEX
  5
42B
  8
0
  6
CONTINUOUS
 62
     7
 10
89.0604175666
 20
263.5238309011
 30
0.0
  0
VERTEX
  5
42C
  8
0
  6
CONTINUOUS
 62
     7
 10
83.1352509597
 20
263.6471052274
 30
0.0
  0
VERTEX
  5
42D
  8
0
  6
CONTINUOUS
 62
     7
 10
77.2172130683
 20
263.9158744917
 30
0.0
  0
VERTEX
  5
42E
  8
0
  6
CONTINUOUS
 62
     7
 10
72.7959193328
 20
264.2078895673
 30
0.0
  0
VERTEX
  5
42F
  8
0
  6
CONTINUOUS
 62
     7
 10
68.3829821685
 20
264.5717878446
 30
0.0
  0
VERTEX
  5
430
  8
0
  6
CONTINUOUS
 62
     7
 10
63.9727391341
 20
265.0020082101
 30
0.0
  0
VERTEX
  5
431
  8
0
  6
CONTINUOUS
 62
     7
 10
59.5730580428
 20
265.490557681
 30
0.0
  0
SEQEND
  5
6E4
  8
0
  6
CONTINUOUS
 62
     7
  0
POLYLINE
  5
91
  8
0
  6
CONTINUOUS
 62
     7
 66
     1
 10
0.0
 20
0.0
 30
0.0
  0
VERTEX
  5
432
  8
0
  6
CONTINUOUS
 62
     7
 10
53.4844197372
 20
268.8683827028
 30
0.0
  0
VERTEX
  5
433
  8
0
  6
CONTINUOUS
 62
     7
 10
53.5587586501
 20
268.6337251768
 30
0.0
  0
VERTEX
  5
434
  8
0
  6
CONTINUOUS
 62
     7
 10
53.816000376
 20
268.3083195791
 30
0.0
  0
VERTEX
  5
435
  8
0
  6
CONTINUOUS
 62
     7
 10
54.225758467
 20
267.914690505
 30
0.0
  0
VERTEX
  5
436
  8
0
  6
CONTINUOUS
 62
     7
 10
54.7935165504
 20
267.4508710012
 30
0.0
  0
VERTEX
  5
437
  8
0
  6
CONTINUOUS
 62
     7
 10
55.5262483695
 20
266.9446308717
 30
0.0
  0
VERTEX
  5
438
  8
0
  6
CONTINUOUS
 62
     7
 10
56.4224399665
 20
266.44002987
 30
0.0
  0
VERTEX
  5
439
  8
0
  6
CONTINUOUS
 62
     7
 10
57.3025502303
 20
266.0524864301
 30
0.0
  0
VERTEX
  5
43A
  8
0
  6
CONTINUOUS
 62
     7
 10
58.3002843001
 20
265.7311637506
 30
0.0
  0
VERTEX
  5
43B
  8
0
  6
CONTINUOUS
 62
     7
 10
58.9230932334
 20
265.590395461
 30
0.0
  0
VERTEX
  5
43C
  8
0
  6
CONTINUOUS
 62
     7
 10
59.5730580428
 20
265.490557681
 30
0.0
  0
SEQEND
  5
6E3
  8
0
  6
CONTINUOUS
 62
     7
  0
POLYLINE
  5
92
  8
0
  6
CONTINUOUS
 62
     7
 66
     1
 10
0.0
 20
0.0
 30
0.0
  0
VERTEX
  5
43D
  8
0
  6
CONTINUOUS
 62
     7
 10
53.4844197372
 20
268.8683886633
 30
0.0
  0
VERTEX
  5
43E
  8
0
  6
CONTINUOUS
 62
     7
 10
53.5127319434
 20
269.1647250757
 30
0.0
  0
VERTEX
  5
43F
  8
0
  6
CONTINUOUS
 62
     7
 10
53.5285629371
 20
269.2894001112
 30
0.0
  0
SEQEND
  5
6E2
  8
0
  6
CONTINUOUS
 62
     7
  0
POLYLINE
  5
93
  8
0
  6
CONTINUOUS
 62
     7
 66
     1
 10
0.0
 20
0.0
 30
0.0
  0
VERTEX
  5
440
  8
0
  6
CONTINUOUS
 62
     7
 10
53.5739339927
 20
269.3873901472
 30
0.0
  0
VERTEX
  5
441
  8
0
  6
CONTINUOUS
 62
     7
 10
53.5840429404
 20
269.4320340261
 30
0.0
  0
VERTEX
  5
442
  8
0
  6
CONTINUOUS
 62
     7
 10
53.6300338843
 20
269.5377488241
 30
0.0
  0
VERTEX
  5
443
  8
0
  6
CONTINUOUS
 62
     7
 10
53.6278761962
 20
269.5846099958
 30
0.0
  0
VERTEX
  5
444
  8
0
  6
CONTINUOUS
 62
     7
 10
53.6007799247
 20
269.6374614343
 30
0.0
  0
VERTEX
  5
445
  8
0
  6
CONTINUOUS
 62
     7
 10
53.5976089576
 20
269.6950156793
 30
0.0
  0
VERTEX
  5
446
  8
0
  6
CONTINUOUS
 62
     7
 10
53.6793626884
 20
269.7534461126
 30
0.0
  0
VERTEX
  5
447
  8
0
  6
CONTINUOUS
 62
     7
 10
53.8941182235
 20
269.8100586042
 30
0.0
  0
VERTEX
  5
448
  8
0
  6
CONTINUOUS
 62
     7
 10
54.2516388038
 20
269.8657889471
 30
0.0
  0
VERTEX
  5
449
  8
0
  6
CONTINUOUS
 62
     7
 10
54.852811251
 20
269.920327197
 30
0.0
  0
VERTEX
  5
44A
  8
0
  6
CONTINUOUS
 62
     7
 10
55.7698763946
 20
269.9751396284
 30
0.0
  0
SEQEND
  5
6E1
  8
0
  6
CONTINUOUS
 62
     7
  0
LINE
  5
94
  8
0
  6
CONTINUOUS
 62
     7
 10
128.576222811
 20
268.4101898775
 30
0.0
 11
128.576222811
 21
268.7158901796
 31
0.0
  0
LINE
  5
95
  8
0
  6
CONTINUOUS
 62
     7
 10
53.376225386
 20
268.2351429567
 30
0.0
 11
53.376225386
 21
268.0606801614
 31
0.0
  0
LINE
  5
96
  8
0
  6
CONTINUOUS
 62
     7
 10
53.376225386
 20
268.7056977853
 30
0.0
 11
53.376225386
 21
268.4101898775
 31
0.0
  0
POLYLINE
  5
97
  8
0
  6
CONTINUOUS
 62
     7
 66
     1
 10
0.0
 20
0.0
 30
0.0
  0
VERTEX
  5
44B
  8
0
  6
CONTINUOUS
 62
     7
 10
248.5762931445
 20
267.6423032388
 30
0.0
  0
VERTEX
  5
44C
  8
0
  6
CONTINUOUS
 62
     7
 10
248.488420997
 20
267.3882145986
 30
0.0
  0
VERTEX
  5
44D
  8
0
  6
CONTINUOUS
 62
     7
 10
248.2231058219
 20
267.0332033739
 30
0.0
  0
VERTEX
  5
44E
  8
0
  6
CONTINUOUS
 62
     7
 10
247.8141076901
 20
266.6014571294
 30
0.0
  0
VERTEX
  5
44F
  8
0
  6
CONTINUOUS
 62
     7
 10
247.2556926349
 20
266.0995204553
 30
0.0
  0
VERTEX
  5
450
  8
0
  6
CONTINUOUS
 62
     7
 10
246.519730244
 20
265.5440409288
 30
0.0
  0
VERTEX
  5
451
  8
0
  6
CONTINUOUS
 62
     7
 10
245.6176526883
 20
264.9958391294
 30
0.0
  0
VERTEX
  5
452
  8
0
  6
CONTINUOUS
 62
     7
 10
244.7512723544
 20
264.5880122289
 30
0.0
  0
VERTEX
  5
453
  8
0
  6
CONTINUOUS
 62
     7
 10
243.7675990203
 20
264.2505307302
 30
0.0
  0
VERTEX
  5
454
  8
0
  6
CONTINUOUS
 62
     7
 10
243.142531071
 20
264.1002614603
 30
0.0
  0
VERTEX
  5
455
  8
0
  6
CONTINUOUS
 62
     7
 10
242.4887247422
 20
263.9938075647
 30
0.0
  0
SEQEND
  5
6E0
  8
0
  6
CONTINUOUS
 62
     7
  0
POLYLINE
  5
98
  8
0
  6
CONTINUOUS
 62
     7
 66
     1
 10
0.0
 20
0.0
 30
0.0
  0
VERTEX
  5
456
  8
0
  6
CONTINUOUS
 62
     7
 10
248.5762931445
 20
267.6423032388
 30
0.0
  0
VERTEX
  5
457
  8
0
  6
CONTINUOUS
 62
     7
 10
248.5762931445
 20
267.6970918283
 30
0.0
  0
VERTEX
  5
458
  8
0
  6
CONTINUOUS
 62
     7
 10
248.5760785678
 20
267.9897863969
 30
0.0
  0
VERTEX
  5
459
  8
0
  6
CONTINUOUS
 62
     7
 10
248.5756017306
 20
268.1124944791
 30
0.0
  0
VERTEX
  5
45A
  8
0
  6
CONTINUOUS
 62
     7
 10
248.5752500632
 20
268.1261260614
 30
0.0
  0
VERTEX
  5
45B
  8
0
  6
CONTINUOUS
 62
     7
 10
248.5754974225
 20
268.1132693395
 30
0.0
  0
SEQEND
  5
6DF
  8
0
  6
CONTINUOUS
 62
     7
  0
POLYLINE
  5
99
  8
0
  6
CONTINUOUS
 62
     7
 66
     1
 10
0.0
 20
0.0
 30
0.0
  0
VERTEX
  5
45C
  8
0
  6
CONTINUOUS
 62
     7
 10
248.5762216189
 20
268.4097011194
 30
0.0
  0
VERTEX
  5
45D
  8
0
  6
CONTINUOUS
 62
     7
 10
248.5615141728
 20
268.3619399175
 30
0.0
  0
VERTEX
  5
45E
  8
0
  6
CONTINUOUS
 62
     7
 10
248.5762275794
 20
268.2351429567
 30
0.0
  0
SEQEND
  5
6DE
  8
0
  6
CONTINUOUS
 62
     7
  0
POLYLINE
  5
9A
  8
0
  6
CONTINUOUS
 62
     7
 66
     1
 10
0.0
 20
0.0
 30
0.0
  0
VERTEX
  5
45F
  8
0
  6
CONTINUOUS
 62
     7
 10
173.3762182334
 20
268.2351429567
 30
0.0
  0
VERTEX
  5
460
  8
0
  6
CONTINUOUS
 62
     7
 10
173.39093164
 20
268.3619399175
 30
0.0
  0
VERTEX
  5
461
  8
0
  6
CONTINUOUS
 62
     7
 10
173.3762241939
 20
268.4097011194
 30
0.0
  0
SEQEND
  5
6DD
  8
0
  6
CONTINUOUS
 62
     7
  0
POLYLINE
  5
9B
  8
0
  6
CONTINUOUS
 62
     7
 66
     1
 10
0.0
 20
0.0
 30
0.0
  0
VERTEX
  5
462
  8
0
  6
CONTINUOUS
 62
     7
 10
173.3761526683
 20
267.6424820528
 30
0.0
  0
VERTEX
  5
463
  8
0
  6
CONTINUOUS
 62
     7
 10
173.3761526683
 20
267.6471788988
 30
0.0
  0
VERTEX
  5
464
  8
0
  6
CONTINUOUS
 62
     7
 10
173.3763225415
 20
267.9656763181
 30
0.0
  0
VERTEX
  5
465
  8
0
  6
CONTINUOUS
 62
     7
 10
173.3767874578
 20
268.1049187288
 30
0.0
  0
VERTEX
  5
466
  8
0
  6
CONTINUOUS
 62
     7
 10
173.3771719077
 20
268.1282837495
 30
0.0
  0
VERTEX
  5
467
  8
0
  6
CONTINUOUS
 62
     7
 10
173.3771212438
 20
268.1108732328
 30
0.0
  0
SEQEND
  5
6DC
  8
0
  6
CONTINUOUS
 62
     7
  0
POLYLINE
  5
9C
  8
0
  6
CONTINUOUS
 62
     7
 66
     1
 10
0.0
 20
0.0
 30
0.0
  0
VERTEX
  5
468
  8
0
  6
CONTINUOUS
 62
     7
 10
179.4637210706
 20
263.9938075647
 30
0.0
  0
VERTEX
  5
469
  8
0
  6
CONTINUOUS
 62
     7
 10
178.4496732095
 20
264.1809721098
 30
0.0
  0
VERTEX
  5
46A
  8
0
  6
CONTINUOUS
 62
     7
 10
177.4643667081
 20
264.4851524934
 30
0.0
  0
VERTEX
  5
46B
  8
0
  6
CONTINUOUS
 62
     7
 10
176.5955276826
 20
264.8615439043
 30
0.0
  0
VERTEX
  5
46C
  8
0
  6
CONTINUOUS
 62
     7
 10
175.802258406
 20
265.3031129942
 30
0.0
  0
VERTEX
  5
46D
  8
0
  6
CONTINUOUS
 62
     7
 10
175.044787679
 20
265.8234794244
 30
0.0
  0
VERTEX
  5
46E
  8
0
  6
CONTINUOUS
 62
     7
 10
174.4034923652
 20
266.3530368909
 30
0.0
  0
VERTEX
  5
46F
  8
0
  6
CONTINUOUS
 62
     7
 10
173.8572575191
 20
266.8900449381
 30
0.0
  0
VERTEX
  5
470
  8
0
  6
CONTINUOUS
 62
     7
 10
173.6491151193
 20
267.1286661729
 30
0.0
  0
VERTEX
  5
471
  8
0
  6
CONTINUOUS
 62
     7
 10
173.4970010856
 20
267.3346955881
 30
0.0
  0
VERTEX
  5
472
  8
0
  6
CONTINUOUS
 62
     7
 10
173.3761526683
 20
267.6424820528
 30
0.0
  0
SEQEND
  5
6DB
  8
0
  6
CONTINUOUS
 62
     7
  0
POLYLINE
  5
9D
  8
0
  6
CONTINUOUS
 62
     7
 66
     1
 10
0.0
 20
0.0
 30
0.0
  0
VERTEX
  5
473
  8
0
  6
CONTINUOUS
 62
     7
 10
242.4887247422
 20
263.9938075647
 30
0.0
  0
VERTEX
  5
474
  8
0
  6
CONTINUOUS
 62
     7
 10
235.3993944862
 20
263.1928939924
 30
0.0
  0
VERTEX
  5
475
  8
0
  6
CONTINUOUS
 62
     7
 10
228.2823286989
 20
262.5654537782
 30
0.0
  0
VERTEX
  5
476
  8
0
  6
CONTINUOUS
 62
     7
 10
221.10942081
 20
262.1388871774
 30
0.0
  0
VERTEX
  5
477
  8
0
  6
CONTINUOUS
 62
     7
 10
213.9224967027
 20
261.9316716299
 30
0.0
  0
VERTEX
  5
478
  8
0
  6
CONTINUOUS
 62
     7
 10
208.8594600597
 20
261.9224746332
 30
0.0
  0
VERTEX
  5
479
  8
0
  6
CONTINUOUS
 62
     7
 10
203.7979334631
 20
262.0261449918
 30
0.0
  0
VERTEX
  5
47A
  8
0
  6
CONTINUOUS
 62
     7
 10
198.7272679844
 20
262.2420806989
 30
0.0
  0
VERTEX
  5
47B
  8
0
  6
CONTINUOUS
 62
     7
 10
193.6649911144
 20
262.565835248
 30
0.0
  0
VERTEX
  5
47C
  8
0
  6
CONTINUOUS
 62
     7
 10
186.5541107991
 20
263.1923873529
 30
0.0
  0
VERTEX
  5
47D
  8
0
  6
CONTINUOUS
 62
     7
 10
179.4637210706
 20
263.9938075647
 30
0.0
  0
SEQEND
  5
6DA
  8
0
  6
CONTINUOUS
 62
     7
  0
POLYLINE
  5
9E
  8
0
  6
CONTINUOUS
 62
     7
 66
     1
 10
0.0
 20
0.0
 30
0.0
  0
VERTEX
  5
47E
  8
0
  6
CONTINUOUS
 62
     7
 10
179.6436227897
 20
269.3263788328
 30
0.0
  0
VERTEX
  5
47F
  8
0
  6
CONTINUOUS
 62
     7
 10
178.6371476987
 20
269.5440251932
 30
0.0
  0
VERTEX
  5
480
  8
0
  6
CONTINUOUS
 62
     7
 10
177.7125544885
 20
269.7338361845
 30
0.0
  0
VERTEX
  5
481
  8
0
  6
CONTINUOUS
 62
     7
 10
176.9450642207
 20
269.8718090162
 30
0.0
  0
VERTEX
  5
482
  8
0
  6
CONTINUOUS
 62
     7
 10
176.3095803598
 20
269.955732356
 30
0.0
  0
VERTEX
  5
483
  8
0
  6
CONTINUOUS
 62
     7
 10
176.0078527072
 20
269.9764866933
 30
0.0
  0
VERTEX
  5
484
  8
0
  6
CONTINUOUS
 62
     7
 10
175.7698603013
 20
269.9750621423
 30
0.0
  0
SEQEND
  5
6D9
  8
0
  6
CONTINUOUS
 62
     7
  0
ARC
  5
9F
  8
0
  6
CONTINUOUS
 62
     7
 10
210.8598427948
 20
408.5583360633
 30
0.0
 40
142.6884378835875
 50
257.3630892534
 51
260.3830757402
  0
ARC
  5
A0
  8
0
  6
CONTINUOUS
 62
     7
 10
210.3746743243
 20
412.1880475462
 30
0.0
 40
146.3873158463709
 50
279.6013439636
 51
282.6002988363
  0
POLYLINE
  5
A1
  8
0
  6
CONTINUOUS
 62
     7
 66
     1
 10
0.0
 20
0.0
 30
0.0
  0
VERTEX
  5
485
  8
0
  6
CONTINUOUS
 62
     7
 10
246.1825855115
 20
269.9750621423
 30
0.0
  0
VERTEX
  5
486
  8
0
  6
CONTINUOUS
 62
     7
 10
245.7634963134
 20
269.9661512479
 30
0.0
  0
VERTEX
  5
487
  8
0
  6
CONTINUOUS
 62
     7
 10
245.1538659671
 20
269.8944349393
 30
0.0
  0
VERTEX
  5
488
  8
0
  6
CONTINUOUS
 62
     7
 10
244.4026209453
 20
269.7651763067
 30
0.0
  0
VERTEX
  5
489
  8
0
  6
CONTINUOUS
 62
     7
 10
243.4852458575
 20
269.5799846754
 30
0.0
  0
VERTEX
  5
48A
  8
0
  6
CONTINUOUS
 62
     7
 10
242.3088230231
 20
269.3263788328
 30
0.0
  0
SEQEND
  5
6D8
  8
0
  6
CONTINUOUS
 62
     7
  0
POLYLINE
  5
A2
  8
0
  6
CONTINUOUS
 62
     7
 66
     1
 10
0.0
 20
0.0
 30
0.0
  0
VERTEX
  5
48B
  8
0
  6
CONTINUOUS
 62
     7
 10
246.1825676301
 20
269.9751396284
 30
0.0
  0
VERTEX
  5
48C
  8
0
  6
CONTINUOUS
 62
     7
 10
247.0996327737
 20
269.920327197
 30
0.0
  0
VERTEX
  5
48D
  8
0
  6
CONTINUOUS
 62
     7
 10
247.7008082011
 20
269.8657889471
 30
0.0
  0
VERTEX
  5
48E
  8
0
  6
CONTINUOUS
 62
     7
 10
248.0583287814
 20
269.8100586042
 30
0.0
  0
VERTEX
  5
48F
  8
0
  6
CONTINUOUS
 62
     7
 10
248.2730872968
 20
269.7534461126
 30
0.0
  0
VERTEX
  5
490
  8
0
  6
CONTINUOUS
 62
     7
 10
248.3548350671
 20
269.6950156793
 30
0.0
  0
VERTEX
  5
491
  8
0
  6
CONTINUOUS
 62
     7
 10
248.3516700604
 20
269.6374614343
 30
0.0
  0
VERTEX
  5
492
  8
0
  6
CONTINUOUS
 62
     7
 10
248.3245678285
 20
269.5846099958
 30
0.0
  0
VERTEX
  5
493
  8
0
  6
CONTINUOUS
 62
     7
 10
248.3224101403
 20
269.5377488241
 30
0.0
  0
VERTEX
  5
494
  8
0
  6
CONTINUOUS
 62
     7
 10
248.3693458179
 20
269.429453145
 30
0.0
  0
VERTEX
  5
495
  8
0
  6
CONTINUOUS
 62
     7
 10
248.3785815576
 20
269.3878967867
 30
0.0
  0
SEQEND
  5
6D7
  8
0
  6
CONTINUOUS
 62
     7
  0
ARC
  5
A3
  8
0
  6
CONTINUOUS
 62
     7
 10
243.5312037915
 20
268.558925602
 30
0.0
 40
4.946513259019922
 50
3.5868728639
 51
8.4287436192
  0
POLYLINE
  5
A4
  8
0
  6
CONTINUOUS
 62
     7
 66
     1
 10
0.0
 20
0.0
 30
0.0
  0
VERTEX
  5
496
  8
0
  6
CONTINUOUS
 62
     7
 10
242.3793859819
 20
265.490557681
 30
0.0
  0
VERTEX
  5
497
  8
0
  6
CONTINUOUS
 62
     7
 10
243.4030808547
 20
265.6694848642
 30
0.0
  0
VERTEX
  5
498
  8
0
  6
CONTINUOUS
 62
     7
 10
244.399062548
 20
265.9602661237
 30
0.0
  0
VERTEX
  5
499
  8
0
  6
CONTINUOUS
 62
     7
 10
245.2793128827
 20
266.319211255
 30
0.0
  0
VERTEX
  5
49A
  8
0
  6
CONTINUOUS
 62
     7
 10
246.0839428046
 20
266.7380173311
 30
0.0
  0
VERTEX
  5
49B
  8
0
  6
CONTINUOUS
 62
     7
 10
246.8436636069
 20
267.2217209444
 30
0.0
  0
VERTEX
  5
49C
  8
0
  6
CONTINUOUS
 62
     7
 10
247.4850662091
 20
267.7082975015
 30
0.0
  0
VERTEX
  5
49D
  8
0
  6
CONTINUOUS
 62
     7
 10
248.0127848723
 20
268.1815941438
 30
0.0
  0
VERTEX
  5
49E
  8
0
  6
CONTINUOUS
 62
     7
 10
248.3560182193
 20
268.5747225389
 30
0.0
  0
VERTEX
  5
49F
  8
0
  6
CONTINUOUS
 62
     7
 10
248.4440989831
 20
268.7353868589
 30
0.0
  0
VERTEX
  5
4A0
  8
0
  6
CONTINUOUS
 62
     7
 10
248.4680272677
 20
268.8683827028
 30
0.0
  0
SEQEND
  5
6D6
  8
0
  6
CONTINUOUS
 62
     7
  0
POLYLINE
  5
A5
  8
0
  6
CONTINUOUS
 62
     7
 66
     1
 10
0.0
 20
0.0
 30
0.0
  0
VERTEX
  5
4A1
  8
0
  6
CONTINUOUS
 62
     7
 10
242.3793859819
 20
265.490557681
 30
0.0
  0
VERTEX
  5
4A2
  8
0
  6
CONTINUOUS
 62
     7
 10
237.0285607913
 20
264.90396453
 30
0.0
  0
VERTEX
  5
4A3
  8
0
  6
CONTINUOUS
 62
     7
 10
231.662403796
 20
264.4059617624
 30
0.0
  0
VERTEX
  5
4A4
  8
0
  6
CONTINUOUS
 62
     7
 10
226.270148907
 20
264.0088100538
 30
0.0
  0
VERTEX
  5
4A5
  8
0
  6
CONTINUOUS
 62
     7
 10
220.8670556584
 20
263.7238283262
 30
0.0
  0
VERTEX
  5
4A6
  8
0
  6
CONTINUOUS
 62
     7
 10
214.965565879
 20
263.5501642332
 30
0.0
  0
VERTEX
  5
4A7
  8
0
  6
CONTINUOUS
 62
     7
 10
209.0604171196
 20
263.5238309011
 30
0.0
  0
VERTEX
  5
4A8
  8
0
  6
CONTINUOUS
 62
     7
 10
203.1352542379
 20
263.6471052274
 30
0.0
  0
VERTEX
  5
4A9
  8
0
  6
CONTINUOUS
 62
     7
 10
197.217208896
 20
263.9158744917
 30
0.0
  0
VERTEX
  5
4AA
  8
0
  6
CONTINUOUS
 62
     7
 10
192.7959226111
 20
264.2078895673
 30
0.0
  0
VERTEX
  5
4AB
  8
0
  6
CONTINUOUS
 62
     7
 10
188.3829794863
 20
264.5717878446
 30
0.0
  0
VERTEX
  5
4AC
  8
0
  6
CONTINUOUS
 62
     7
 10
183.972737942
 20
265.0020082101
 30
0.0
  0
VERTEX
  5
4AD
  8
0
  6
CONTINUOUS
 62
     7
 10
179.573059831
 20
265.490557681
 30
0.0
  0
SEQEND
  5
6D5
  8
0
  6
CONTINUOUS
 62
     7
  0
POLYLINE
  5
A6
  8
0
  6
CONTINUOUS
 62
     7
 66
     1
 10
0.0
 20
0.0
 30
0.0
  0
VERTEX
  5
4AE
  8
0
  6
CONTINUOUS
 62
     7
 10
173.4844185451
 20
268.8683827028
 30
0.0
  0
VERTEX
  5
4AF
  8
0
  6
CONTINUOUS
 62
     7
 10
173.5587604383
 20
268.6337251768
 30
0.0
  0
VERTEX
  5
4B0
  8
0
  6
CONTINUOUS
 62
     7
 10
173.8160051444
 20
268.3083195791
 30
0.0
  0
VERTEX
  5
4B1
  8
0
  6
CONTINUOUS
 62
     7
 10
174.2257572749
 20
267.914690505
 30
0.0
  0
VERTEX
  5
4B2
  8
0
  6
CONTINUOUS
 62
     7
 10
174.7935183385
 20
267.4508710012
 30
0.0
  0
VERTEX
  5
4B3
  8
0
  6
CONTINUOUS
 62
     7
 10
175.5262441972
 20
266.9446308717
 30
0.0
  0
VERTEX
  5
4B4
  8
0
  6
CONTINUOUS
 62
     7
 10
176.4224357942
 20
266.44002987
 30
0.0
  0
VERTEX
  5
4B5
  8
0
  6
CONTINUOUS
 62
     7
 10
177.3025490382
 20
266.0524864301
 30
0.0
  0
VERTEX
  5
4B6
  8
0
  6
CONTINUOUS
 62
     7
 10
178.3002860883
 20
265.7311637506
 30
0.0
  0
VERTEX
  5
4B7
  8
0
  6
CONTINUOUS
 62
     7
 10
178.9230950215
 20
265.590395461
 30
0.0
  0
VERTEX
  5
4B8
  8
0
  6
CONTINUOUS
 62
     7
 10
179.573059831
 20
265.490557681
 30
0.0
  0
SEQEND
  5
6D4
  8
0
  6
CONTINUOUS
 62
     7
  0
POLYLINE
  5
A7
  8
0
  6
CONTINUOUS
 62
     7
 66
     1
 10
0.0
 20
0.0
 30
0.0
  0
VERTEX
  5
4B9
  8
0
  6
CONTINUOUS
 62
     7
 10
173.4844185451
 20
268.8683886633
 30
0.0
  0
VERTEX
  5
4BA
  8
0
  6
CONTINUOUS
 62
     7
 10
173.5127367118
 20
269.1647250757
 30
0.0
  0
VERTEX
  5
4BB
  8
0
  6
CONTINUOUS
 62
     7
 10
173.5285647252
 20
269.2894001112
 30
0.0
  0
SEQEND
  5
6D3
  8
0
  6
CONTINUOUS
 62
     7
  0
POLYLINE
  5
A8
  8
0
  6
CONTINUOUS
 62
     7
 66
     1
 10
0.0
 20
0.0
 30
0.0
  0
VERTEX
  5
4BC
  8
0
  6
CONTINUOUS
 62
     7
 10
173.5739328006
 20
269.3873901472
 30
0.0
  0
VERTEX
  5
4BD
  8
0
  6
CONTINUOUS
 62
     7
 10
173.5840447286
 20
269.4320340261
 30
0.0
  0
VERTEX
  5
4BE
  8
0
  6
CONTINUOUS
 62
     7
 10
173.6300356725
 20
269.5377488241
 30
0.0
  0
VERTEX
  5
4BF
  8
0
  6
CONTINUOUS
 62
     7
 10
173.6278779843
 20
269.5846099958
 30
0.0
  0
VERTEX
  5
4C0
  8
0
  6
CONTINUOUS
 62
     7
 10
173.6007757524
 20
269.6374614343
 30
0.0
  0
VERTEX
  5
4C1
  8
0
  6
CONTINUOUS
 62
     7
 10
173.5976107457
 20
269.6950156793
 30
0.0
  0
VERTEX
  5
4C2
  8
0
  6
CONTINUOUS
 62
     7
 10
173.679358516
 20
269.7534461126
 30
0.0
  0
VERTEX
  5
4C3
  8
0
  6
CONTINUOUS
 62
     7
 10
173.8941170314
 20
269.8100586042
 30
0.0
  0
VERTEX
  5
4C4
  8
0
  6
CONTINUOUS
 62
     7
 10
174.2516376117
 20
269.8657889471
 30
0.0
  0
VERTEX
  5
4C5
  8
0
  6
CONTINUOUS
 62
     7
 10
174.8528130391
 20
269.920327197
 30
0.0
  0
VERTEX
  5
4C6
  8
0
  6
CONTINUOUS
 62
     7
 10
175.7698781827
 20
269.9751396284
 30
0.0
  0
SEQEND
  5
6D2
  8
0
  6
CONTINUOUS
 62
     7
  0
LINE
  5
A9
  8
0
  6
CONTINUOUS
 62
     7
 10
248.5762216189
 20
268.4101898775
 30
0.0
 11
248.5762216189
 21
268.7158901796
 31
0.0
  0
LINE
  5
AA
  8
0
  6
CONTINUOUS
 62
     7
 10
173.3762241939
 20
268.2351429567
 30
0.0
 11
173.3762241939
 21
268.0606801614
 31
0.0
  0
LINE
  5
AB
  8
0
  6
CONTINUOUS
 62
     7
 10
173.3762241939
 20
268.7056977853
 30
0.0
 11
173.3762241939
 21
268.4101898775
 31
0.0
  0
POLYLINE
  5
AC
  8
0
  6
CONTINUOUS
 62
     7
 66
     1
 10
0.0
 20
0.0
 30
0.0
  0
VERTEX
  5
4C7
  8
0
  6
CONTINUOUS
 62
     7
 10
368.5762919524
 20
267.6423032388
 30
0.0
  0
VERTEX
  5
4C8
  8
0
  6
CONTINUOUS
 62
     7
 10
368.4884227851
 20
267.3882145986
 30
0.0
  0
VERTEX
  5
4C9
  8
0
  6
CONTINUOUS
 62
     7
 10
368.2231105903
 20
267.0332033739
 30
0.0
  0
VERTEX
  5
4CA
  8
0
  6
CONTINUOUS
 62
     7
 10
367.8141035178
 20
266.6014571294
 30
0.0
  0
VERTEX
  5
4CB
  8
0
  6
CONTINUOUS
 62
     7
 10
367.2556914428
 20
266.0995204553
 30
0.0
  0
VERTEX
  5
4CC
  8
0
  6
CONTINUOUS
 62
     7
 10
366.5197290519
 20
265.5440409288
 30
0.0
  0
VERTEX
  5
4CD
  8
0
  6
CONTINUOUS
 62
     7
 10
365.617648516
 20
264.9958391294
 30
0.0
  0
VERTEX
  5
4CE
  8
0
  6
CONTINUOUS
 62
     7
 10
364.7512711623
 20
264.5880122289
 30
0.0
  0
VERTEX
  5
4CF
  8
0
  6
CONTINUOUS
 62
     7
 10
363.7676037887
 20
264.2505307302
 30
0.0
  0
VERTEX
  5
4D0
  8
0
  6
CONTINUOUS
 62
     7
 10
363.1425298789
 20
264.1002614603
 30
0.0
  0
VERTEX
  5
4D1
  8
0
  6
CONTINUOUS
 62
     7
 10
362.4887265304
 20
263.9938075647
 30
0.0
  0
SEQEND
  5
6D1
  8
0
  6
CONTINUOUS
 62
     7
  0
POLYLINE
  5
AD
  8
0
  6
CONTINUOUS
 62
     7
 66
     1
 10
0.0
 20
0.0
 30
0.0
  0
VERTEX
  5
4D2
  8
0
  6
CONTINUOUS
 62
     7
 10
368.5762919524
 20
267.6423032388
 30
0.0
  0
VERTEX
  5
4D3
  8
0
  6
CONTINUOUS
 62
     7
 10
368.5762919524
 20
267.6970918283
 30
0.0
  0
VERTEX
  5
4D4
  8
0
  6
CONTINUOUS
 62
     7
 10
368.5760773757
 20
267.9897863969
 30
0.0
  0
VERTEX
  5
4D5
  8
0
  6
CONTINUOUS
 62
     7
 10
368.5756005385
 20
268.1124944791
 30
0.0
  0
VERTEX
  5
4D6
  8
0
  6
CONTINUOUS
 62
     7
 10
368.5752548316
 20
268.1261260614
 30
0.0
  0
VERTEX
  5
4D7
  8
0
  6
CONTINUOUS
 62
     7
 10
368.5754932502
 20
268.1132693395
 30
0.0
  0
SEQEND
  5
6D0
  8
0
  6
CONTINUOUS
 62
     7
  0
POLYLINE
  5
AE
  8
0
  6
CONTINUOUS
 62
     7
 66
     1
 10
0.0
 20
0.0
 30
0.0
  0
VERTEX
  5
4D8
  8
0
  6
CONTINUOUS
 62
     7
 10
368.5762204269
 20
268.4097011194
 30
0.0
  0
VERTEX
  5
4D9
  8
0
  6
CONTINUOUS
 62
     7
 10
368.5615100005
 20
268.3619399175
 30
0.0
  0
VERTEX
  5
4DA
  8
0
  6
CONTINUOUS
 62
     7
 10
368.5762204269
 20
268.2351429567
 30
0.0
  0
SEQEND
  5
6CF
  8
0
  6
CONTINUOUS
 62
     7
  0
POLYLINE
  5
AF
  8
0
  6
CONTINUOUS
 62
     7
 66
     1
 10
0.0
 20
0.0
 30
0.0
  0
VERTEX
  5
4DB
  8
0
  6
CONTINUOUS
 62
     7
 10
293.3762170413
 20
268.2351429567
 30
0.0
  0
VERTEX
  5
4DC
  8
0
  6
CONTINUOUS
 62
     7
 10
293.3909334281
 20
268.3619399175
 30
0.0
  0
VERTEX
  5
4DD
  8
0
  6
CONTINUOUS
 62
     7
 10
293.3762230018
 20
268.4097011194
 30
0.0
  0
SEQEND
  5
6CE
  8
0
  6
CONTINUOUS
 62
     7
  0
POLYLINE
  5
B0
  8
0
  6
CONTINUOUS
 62
     7
 66
     1
 10
0.0
 20
0.0
 30
0.0
  0
VERTEX
  5
4DE
  8
0
  6
CONTINUOUS
 62
     7
 10
293.3761514762
 20
267.6424820528
 30
0.0
  0
VERTEX
  5
4DF
  8
0
  6
CONTINUOUS
 62
     7
 10
293.3761514762
 20
267.6471788988
 30
0.0
  0
VERTEX
  5
4E0
  8
0
  6
CONTINUOUS
 62
     7
 10
293.3763243297
 20
267.9656763181
 30
0.0
  0
VERTEX
  5
4E1
  8
0
  6
CONTINUOUS
 62
     7
 10
293.3767892459
 20
268.1049187288
 30
0.0
  0
VERTEX
  5
4E2
  8
0
  6
CONTINUOUS
 62
     7
 10
293.3771707156
 20
268.1282837495
 30
0.0
  0
VERTEX
  5
4E3
  8
0
  6
CONTINUOUS
 62
     7
 10
293.3771230319
 20
268.1108732328
 30
0.0
  0
SEQEND
  5
6CD
  8
0
  6
CONTINUOUS
 62
     7
  0
POLYLINE
  5
B1
  8
0
  6
CONTINUOUS
 62
     7
 66
     1
 10
0.0
 20
0.0
 30
0.0
  0
VERTEX
  5
4E4
  8
0
  6
CONTINUOUS
 62
     7
 10
299.4637228587
 20
263.9938075647
 30
0.0
  0
VERTEX
  5
4E5
  8
0
  6
CONTINUOUS
 62
     7
 10
298.4496749976
 20
264.1809721098
 30
0.0
  0
VERTEX
  5
4E6
  8
0
  6
CONTINUOUS
 62
     7
 10
297.4643684962
 20
264.4851524934
 30
0.0
  0
VERTEX
  5
4E7
  8
0
  6
CONTINUOUS
 62
     7
 10
296.5955294707
 20
264.8615439043
 30
0.0
  0
VERTEX
  5
4E8
  8
0
  6
CONTINUOUS
 62
     7
 10
295.8022572139
 20
265.3031129942
 30
0.0
  0
VERTEX
  5
4E9
  8
0
  6
CONTINUOUS
 62
     7
 10
295.0447894671
 20
265.8234794244
 30
0.0
  0
VERTEX
  5
4EA
  8
0
  6
CONTINUOUS
 62
     7
 10
294.4034911731
 20
266.3530368909
 30
0.0
  0
VERTEX
  5
4EB
  8
0
  6
CONTINUOUS
 62
     7
 10
293.857256327
 20
266.8900449381
 30
0.0
  0
VERTEX
  5
4EC
  8
0
  6
CONTINUOUS
 62
     7
 10
293.6491169074
 20
267.1286661729
 30
0.0
  0
VERTEX
  5
4ED
  8
0
  6
CONTINUOUS
 62
     7
 10
293.4969998935
 20
267.3346955881
 30
0.0
  0
VERTEX
  5
4EE
  8
0
  6
CONTINUOUS
 62
     7
 10
293.3761514762
 20
267.6424820528
 30
0.0
  0
SEQEND
  5
6CC
  8
0
  6
CONTINUOUS
 62
     7
  0
POLYLINE
  5
B2
  8
0
  6
CONTINUOUS
 62
     7
 66
     1
 10
0.0
 20
0.0
 30
0.0
  0
VERTEX
  5
4EF
  8
0
  6
CONTINUOUS
 62
     7
 10
362.4887265304
 20
263.9938075647
 30
0.0
  0
VERTEX
  5
4F0
  8
0
  6
CONTINUOUS
 62
     7
 10
355.3993977645
 20
263.1928939924
 30
0.0
  0
VERTEX
  5
4F1
  8
0
  6
CONTINUOUS
 62
     7
 10
348.2823289969
 20
262.5654537782
 30
0.0
  0
VERTEX
  5
4F2
  8
0
  6
CONTINUOUS
 62
     7
 10
341.1094225982
 20
262.1388871774
 30
0.0
  0
VERTEX
  5
4F3
  8
0
  6
CONTINUOUS
 62
     7
 10
333.922497187
 20
261.9316716299
 30
0.0
  0
VERTEX
  5
4F4
  8
0
  6
CONTINUOUS
 62
     7
 10
328.859464083
 20
261.9224746332
 30
0.0
  0
VERTEX
  5
4F5
  8
0
  6
CONTINUOUS
 62
     7
 10
323.7979330161
 20
262.0261449918
 30
0.0
  0
VERTEX
  5
4F6
  8
0
  6
CONTINUOUS
 62
     7
 10
318.7272705176
 20
262.2420806989
 30
0.0
  0
VERTEX
  5
4F7
  8
0
  6
CONTINUOUS
 62
     7
 10
313.6649884322
 20
262.565835248
 30
0.0
  0
VERTEX
  5
4F8
  8
0
  6
CONTINUOUS
 62
     7
 10
306.5541125873
 20
263.1923873529
 30
0.0
  0
VERTEX
  5
4F9
  8
0
  6
CONTINUOUS
 62
     7
 10
299.4637228587
 20
263.9938075647
 30
0.0
  0
SEQEND
  5
6CB
  8
0
  6
CONTINUOUS
 62
     7
  0
POLYLINE
  5
B3
  8
0
  6
CONTINUOUS
 62
     7
 66
     1
 10
0.0
 20
0.0
 30
0.0
  0
VERTEX
  5
4FA
  8
0
  6
CONTINUOUS
 62
     7
 10
299.6436215976
 20
269.3263788328
 30
0.0
  0
VERTEX
  5
4FB
  8
0
  6
CONTINUOUS
 62
     7
 10
298.6371494868
 20
269.5440251932
 30
0.0
  0
VERTEX
  5
4FC
  8
0
  6
CONTINUOUS
 62
     7
 10
297.7125562766
 20
269.7338361845
 30
0.0
  0
VERTEX
  5
4FD
  8
0
  6
CONTINUOUS
 62
     7
 10
296.9450630286
 20
269.8718090162
 30
0.0
  0
VERTEX
  5
4FE
  8
0
  6
CONTINUOUS
 62
     7
 10
296.3095821479
 20
269.955732356
 30
0.0
  0
VERTEX
  5
4FF
  8
0
  6
CONTINUOUS
 62
     7
 10
296.0078515151
 20
269.9764866933
 30
0.0
  0
VERTEX
  5
500
  8
0
  6
CONTINUOUS
 62
     7
 10
295.7698620894
 20
269.9750621423
 30
0.0
  0
SEQEND
  5
6CA
  8
0
  6
CONTINUOUS
 62
     7
  0
ARC
  5
B4
  8
0
  6
CONTINUOUS
 62
     7
 10
330.8602758994
 20
408.5605442009
 30
0.0
 40
142.6906875431735
 50
257.3631130655
 51
260.3830519281
  0
ARC
  5
B5
  8
0
  6
CONTINUOUS
 62
     7
 10
330.3742928904
 20
412.1900158863
 30
0.0
 40
146.3893210296029
 50
279.6013645076
 51
282.6002782923
  0
POLYLINE
  5
B6
  8
0
  6
CONTINUOUS
 62
     7
 66
     1
 10
0.0
 20
0.0
 30
0.0
  0
VERTEX
  5
501
  8
0
  6
CONTINUOUS
 62
     7
 10
366.1825813392
 20
269.9750621423
 30
0.0
  0
VERTEX
  5
502
  8
0
  6
CONTINUOUS
 62
     7
 10
365.7635010818
 20
269.9661512479
 30
0.0
  0
VERTEX
  5
503
  8
0
  6
CONTINUOUS
 62
     7
 10
365.153864775
 20
269.8944349393
 30
0.0
  0
VERTEX
  5
504
  8
0
  6
CONTINUOUS
 62
     7
 10
364.4026197532
 20
269.7651763067
 30
0.0
  0
VERTEX
  5
505
  8
0
  6
CONTINUOUS
 62
     7
 10
363.4852446654
 20
269.5799846754
 30
0.0
  0
VERTEX
  5
506
  8
0
  6
CONTINUOUS
 62
     7
 10
362.3088277915
 20
269.3263788328
 30
0.0
  0
SEQEND
  5
6C9
  8
0
  6
CONTINUOUS
 62
     7
  0
POLYLINE
  5
B7
  8
0
  6
CONTINUOUS
 62
     7
 66
     1
 10
0.0
 20
0.0
 30
0.0
  0
VERTEX
  5
507
  8
0
  6
CONTINUOUS
 62
     7
 10
366.1825694182
 20
269.9751396284
 30
0.0
  0
VERTEX
  5
508
  8
0
  6
CONTINUOUS
 62
     7
 10
367.0996345618
 20
269.920327197
 30
0.0
  0
VERTEX
  5
509
  8
0
  6
CONTINUOUS
 62
     7
 10
367.700807009
 20
269.8657889471
 30
0.0
  0
VERTEX
  5
50A
  8
0
  6
CONTINUOUS
 62
     7
 10
368.0583275893
 20
269.8100586042
 30
0.0
  0
VERTEX
  5
50B
  8
0
  6
CONTINUOUS
 62
     7
 10
368.2730831245
 20
269.7534461126
 30
0.0
  0
VERTEX
  5
50C
  8
0
  6
CONTINUOUS
 62
     7
 10
368.3548368552
 20
269.6950156793
 30
0.0
  0
VERTEX
  5
50D
  8
0
  6
CONTINUOUS
 62
     7
 10
368.3516658881
 20
269.6374614343
 30
0.0
  0
VERTEX
  5
50E
  8
0
  6
CONTINUOUS
 62
     7
 10
368.3245696166
 20
269.5846099958
 30
0.0
  0
VERTEX
  5
50F
  8
0
  6
CONTINUOUS
 62
     7
 10
368.3224119285
 20
269.5377488241
 30
0.0
  0
VERTEX
  5
510
  8
0
  6
CONTINUOUS
 62
     7
 10
368.3693446258
 20
269.429453145
 30
0.0
  0
VERTEX
  5
511
  8
0
  6
CONTINUOUS
 62
     7
 10
368.3785833457
 20
269.3878967867
 30
0.0
  0
SEQEND
  5
6C8
  8
0
  6
CONTINUOUS
 62
     7
  0
ARC
  5
B8
  8
0
  6
CONTINUOUS
 62
     7
 10
363.5321859911
 20
268.5590290961
 30
0.0
 40
4.945525319096155
 50
3.5863889591
 51
8.429227524
  0
POLYLINE
  5
B9
  8
0
  6
CONTINUOUS
 62
     7
 66
     1
 10
0.0
 20
0.0
 30
0.0
  0
VERTEX
  5
512
  8
0
  6
CONTINUOUS
 62
     7
 10
362.37938777
 20
265.490557681
 30
0.0
  0
VERTEX
  5
513
  8
0
  6
CONTINUOUS
 62
     7
 10
363.4030856231
 20
265.6694848642
 30
0.0
  0
VERTEX
  5
514
  8
0
  6
CONTINUOUS
 62
     7
 10
364.3990553954
 20
265.9602661237
 30
0.0
  0
VERTEX
  5
515
  8
0
  6
CONTINUOUS
 62
     7
 10
365.2793087104
 20
266.319211255
 30
0.0
  0
VERTEX
  5
516
  8
0
  6
CONTINUOUS
 62
     7
 10
366.083947573
 20
266.7380173311
 30
0.0
  0
VERTEX
  5
517
  8
0
  6
CONTINUOUS
 62
     7
 10
366.8436683753
 20
267.2217209444
 30
0.0
  0
VERTEX
  5
518
  8
0
  6
CONTINUOUS
 62
     7
 10
367.4850620368
 20
267.7082975015
 30
0.0
  0
VERTEX
  5
519
  8
0
  6
CONTINUOUS
 62
     7
 10
368.0127896407
 20
268.1815941438
 30
0.0
  0
VERTEX
  5
51A
  8
0
  6
CONTINUOUS
 62
     7
 10
368.3560170272
 20
268.5747225389
 30
0.0
  0
VERTEX
  5
51B
  8
0
  6
CONTINUOUS
 62
     7
 10
368.4441007712
 20
268.7353868589
 30
0.0
  0
VERTEX
  5
51C
  8
0
  6
CONTINUOUS
 62
     7
 10
368.4680260757
 20
268.8683827028
 30
0.0
  0
SEQEND
  5
6C7
  8
0
  6
CONTINUOUS
 62
     7
  0
POLYLINE
  5
BA
  8
0
  6
CONTINUOUS
 62
     7
 66
     1
 10
0.0
 20
0.0
 30
0.0
  0
VERTEX
  5
51D
  8
0
  6
CONTINUOUS
 62
     7
 10
362.37938777
 20
265.490557681
 30
0.0
  0
VERTEX
  5
51E
  8
0
  6
CONTINUOUS
 62
     7
 10
357.0285595992
 20
264.90396453
 30
0.0
  0
VERTEX
  5
51F
  8
0
  6
CONTINUOUS
 62
     7
 10
351.6624011138
 20
264.4059617624
 30
0.0
  0
VERTEX
  5
520
  8
0
  6
CONTINUOUS
 62
     7
 10
346.2701477149
 20
264.0088100538
 30
0.0
  0
VERTEX
  5
521
  8
0
  6
CONTINUOUS
 62
     7
 10
340.8670581916
 20
263.7238283262
 30
0.0
  0
VERTEX
  5
522
  8
0
  6
CONTINUOUS
 62
     7
 10
334.9655665496
 20
263.5501642332
 30
0.0
  0
VERTEX
  5
523
  8
0
  6
CONTINUOUS
 62
     7
 10
329.0604151824
 20
263.5238309011
 30
0.0
  0
VERTEX
  5
524
  8
0
  6
CONTINUOUS
 62
     7
 10
323.1352485755
 20
263.6471052274
 30
0.0
  0
VERTEX
  5
525
  8
0
  6
CONTINUOUS
 62
     7
 10
317.2172106841
 20
263.9158744917
 30
0.0
  0
VERTEX
  5
526
  8
0
  6
CONTINUOUS
 62
     7
 10
312.7959169486
 20
264.2078895673
 30
0.0
  0
VERTEX
  5
527
  8
0
  6
CONTINUOUS
 62
     7
 10
308.3829797843
 20
264.5717878446
 30
0.0
  0
VERTEX
  5
528
  8
0
  6
CONTINUOUS
 62
     7
 10
303.9727367499
 20
265.0020082101
 30
0.0
  0
VERTEX
  5
529
  8
0
  6
CONTINUOUS
 62
     7
 10
299.5730616191
 20
265.490557681
 30
0.0
  0
SEQEND
  5
6C6
  8
0
  6
CONTINUOUS
 62
     7
  0
POLYLINE
  5
BB
  8
0
  6
CONTINUOUS
 62
     7
 66
     1
 10
0.0
 20
0.0
 30
0.0
  0
VERTEX
  5
52A
  8
0
  6
CONTINUOUS
 62
     7
 10
293.484417353
 20
268.8683827028
 30
0.0
  0
VERTEX
  5
52B
  8
0
  6
CONTINUOUS
 62
     7
 10
293.5587622264
 20
268.6337251768
 30
0.0
  0
VERTEX
  5
52C
  8
0
  6
CONTINUOUS
 62
     7
 10
293.8160039523
 20
268.3083195791
 30
0.0
  0
VERTEX
  5
52D
  8
0
  6
CONTINUOUS
 62
     7
 10
294.2257560828
 20
267.914690505
 30
0.0
  0
VERTEX
  5
52E
  8
0
  6
CONTINUOUS
 62
     7
 10
294.7935201266
 20
267.4508710012
 30
0.0
  0
VERTEX
  5
52F
  8
0
  6
CONTINUOUS
 62
     7
 10
295.5262400249
 20
266.9446308717
 30
0.0
  0
VERTEX
  5
530
  8
0
  6
CONTINUOUS
 62
     7
 10
296.4224375823
 20
266.44002987
 30
0.0
  0
VERTEX
  5
531
  8
0
  6
CONTINUOUS
 62
     7
 10
297.3025478461
 20
266.0524864301
 30
0.0
  0
VERTEX
  5
532
  8
0
  6
CONTINUOUS
 62
     7
 10
298.3002878764
 20
265.7311637506
 30
0.0
  0
VERTEX
  5
533
  8
0
  6
CONTINUOUS
 62
     7
 10
298.9230968097
 20
265.590395461
 30
0.0
  0
VERTEX
  5
534
  8
0
  6
CONTINUOUS
 62
     7
 10
299.5730616191
 20
265.490557681
 30
0.0
  0
SEQEND
  5
6C5
  8
0
  6
CONTINUOUS
 62
     7
  0
POLYLINE
  5
BC
  8
0
  6
CONTINUOUS
 62
     7
 66
     1
 10
0.0
 20
0.0
 30
0.0
  0
VERTEX
  5
535
  8
0
  6
CONTINUOUS
 62
     7
 10
293.484417353
 20
268.8683886633
 30
0.0
  0
VERTEX
  5
536
  8
0
  6
CONTINUOUS
 62
     7
 10
293.5127355197
 20
269.1647250757
 30
0.0
  0
VERTEX
  5
537
  8
0
  6
CONTINUOUS
 62
     7
 10
293.5285665134
 20
269.2894001112
 30
0.0
  0
SEQEND
  5
6C4
  8
0
  6
CONTINUOUS
 62
     7
  0
POLYLINE
  5
BD
  8
0
  6
CONTINUOUS
 62
     7
 66
     1
 10
0.0
 20
0.0
 30
0.0
  0
VERTEX
  5
538
  8
0
  6
CONTINUOUS
 62
     7
 10
293.5739316085
 20
269.3873901472
 30
0.0
  0
VERTEX
  5
539
  8
0
  6
CONTINUOUS
 62
     7
 10
293.5840465167
 20
269.4320340261
 30
0.0
  0
VERTEX
  5
53A
  8
0
  6
CONTINUOUS
 62
     7
 10
293.6300374606
 20
269.5377488241
 30
0.0
  0
VERTEX
  5
53B
  8
0
  6
CONTINUOUS
 62
     7
 10
293.6278797725
 20
269.5846099958
 30
0.0
  0
VERTEX
  5
53C
  8
0
  6
CONTINUOUS
 62
     7
 10
293.6007775405
 20
269.6374614343
 30
0.0
  0
VERTEX
  5
53D
  8
0
  6
CONTINUOUS
 62
     7
 10
293.5976125339
 20
269.6950156793
 30
0.0
  0
VERTEX
  5
53E
  8
0
  6
CONTINUOUS
 62
     7
 10
293.6793603042
 20
269.7534461126
 30
0.0
  0
VERTEX
  5
53F
  8
0
  6
CONTINUOUS
 62
     7
 10
293.8941158393
 20
269.8100586042
 30
0.0
  0
VERTEX
  5
540
  8
0
  6
CONTINUOUS
 62
     7
 10
294.2516364196
 20
269.8657889471
 30
0.0
  0
VERTEX
  5
541
  8
0
  6
CONTINUOUS
 62
     7
 10
294.8528148273
 20
269.920327197
 30
0.0
  0
VERTEX
  5
542
  8
0
  6
CONTINUOUS
 62
     7
 10
295.7698799708
 20
269.9751396284
 30
0.0
  0
SEQEND
  5
6C3
  8
0
  6
CONTINUOUS
 62
     7
  0
LINE
  5
BE
  8
0
  6
CONTINUOUS
 62
     7
 10
368.5762204269
 20
268.4101898775
 30
0.0
 11
368.5762204269
 21
268.7158901796
 31
0.0
  0
LINE
  5
BF
  8
0
  6
CONTINUOUS
 62
     7
 10
293.3762230018
 20
268.2351429567
 30
0.0
 11
293.3762230018
 21
268.0606801614
 31
0.0
  0
LINE
  5
C0
  8
0
  6
CONTINUOUS
 62
     7
 10
293.3762230018
 20
268.7056977853
 30
0.0
 11
293.3762230018
 21
268.4101898775
 31
0.0
  0
ARC
  5
C1
  8
0
  6
CONTINUOUS
 62
     7
 10
294.2762229064
 20
266.6143906339
 30
0.0
 40
1.0
 50
138.1768700679
 51
180.0
  0
LINE
  5
C2
  8
0
  6
CONTINUOUS
 62
     7
 10
294.07621995
 20
265.3632361993
 30
0.0
 11
294.07621995
 21
266.674776803
 31
0.0
  0
LINE
  5
C3
  8
0
  6
CONTINUOUS
 62
     7
 10
293.2762242892
 20
266.6143913374
 30
0.0
 11
293.2762242892
 21
265.3632361993
 31
0.0
  0
LINE
  5
C4
  8
0
  6
CONTINUOUS
 62
     7
 10
294.07621995
 20
265.3632361993
 30
0.0
 11
294.07621995
 21
263.3985300169
 31
0.0
  0
LINE
  5
C5
  8
0
  6
CONTINUOUS
 62
     7
 10
293.2762242892
 20
263.3985300169
 30
0.0
 11
293.2762242892
 21
265.3632361993
 31
0.0
  0
LINE
  5
C6
  8
0
  6
CONTINUOUS
 62
     7
 10
294.07621995
 20
263.3985300169
 30
0.0
 11
294.07621995
 21
257.5762767896
 31
0.0
  0
LINE
  5
C7
  8
0
  6
CONTINUOUS
 62
     7
 10
293.2762242892
 20
257.5762767896
 30
0.0
 11
293.2762242892
 21
263.3985300169
 31
0.0
  0
LINE
  5
C8
  8
0
  6
CONTINUOUS
 62
     7
 10
294.07621995
 20
257.311685811
 30
0.0
 11
294.07621995
 21
257.5762767896
 31
0.0
  0
LINE
  5
C9
  8
0
  6
CONTINUOUS
 62
     7
 10
293.2762242892
 20
257.5762767896
 30
0.0
 11
293.2762242892
 21
257.311685811
 31
0.0
  0
LINE
  5
CA
  8
0
  6
CONTINUOUS
 62
     7
 10
294.07621995
 20
257.311685811
 30
0.0
 11
294.07621995
 21
255.4193158254
 31
0.0
  0
LINE
  5
CB
  8
0
  6
CONTINUOUS
 62
     7
 10
293.2762242892
 20
255.4193158254
 30
0.0
 11
293.2762242892
 21
257.311685811
 31
0.0
  0
LINE
  5
CC
  8
0
  6
CONTINUOUS
 62
     7
 10
294.07621995
 20
255.4193158254
 30
0.0
 11
294.07621995
 21
252.0073433027
 31
0.0
  0
LINE
  5
CD
  8
0
  6
CONTINUOUS
 62
     7
 10
293.2762242892
 20
252.0073433027
 30
0.0
 11
293.2762242892
 21
255.4193158254
 31
0.0
  0
LINE
  5
CE
  8
0
  6
CONTINUOUS
 62
     7
 10
294.07621995
 20
252.0073433027
 30
0.0
 11
294.07621995
 21
250.1116056547
 31
0.0
  0
LINE
  5
CF
  8
0
  6
CONTINUOUS
 62
     7
 10
293.2762242892
 20
250.1116056547
 30
0.0
 11
293.2762242892
 21
252.0073433027
 31
0.0
  0
LINE
  5
D0
  8
0
  6
CONTINUOUS
 62
     7
 10
294.07621995
 20
248.111607562
 30
0.0
 11
293.2762242892
 21
248.111607562
 31
0.0
  0
LINE
  5
D1
  8
0
  6
CONTINUOUS
 62
     7
 10
294.07621995
 20
250.1116056547
 30
0.0
 11
294.07621995
 21
248.111607562
 31
0.0
  0
LINE
  5
D2
  8
0
  6
CONTINUOUS
 62
     7
 10
293.2762242892
 20
248.111607562
 30
0.0
 11
293.2762242892
 21
250.1116056547
 31
0.0
  0
LINE
  5
D3
  8
0
  6
CONTINUOUS
 62
     7
 10
288.4762205222
 20
250.9116072759
 30
0.0
 11
288.4762205222
 21
243.5116071806
 31
0.0
  0
LINE
  5
D4
  8
0
  6
CONTINUOUS
 62
     7
 10
298.4762229064
 20
250.9116072759
 30
0.0
 11
298.4762229064
 21
243.5116071806
 31
0.0
  0
ARC
  5
D5
  8
0
  6
CONTINUOUS
 62
     7
 10
290.4762229064
 20
243.511604701
 30
0.0
 40
2.0
 50
180.0
 51
270.0
  0
LINE
  5
D6
  8
0
  6
CONTINUOUS
 62
     7
 10
296.4762248138
 20
241.5116031274
 30
0.0
 11
290.4762245753
 21
241.5116031274
 31
0.0
  0
ARC
  5
D7
  8
0
  6
CONTINUOUS
 62
     7
 10
296.4762229064
 20
243.511604701
 30
0.0
 40
2.0
 50
270.0
 51
0.0
  0
LINE
  5
D8
  8
0
  6
CONTINUOUS
 62
     7
 10
298.4762229064
 20
251.9116063223
 30
0.0
 11
294.07621995
 21
251.9116063223
 31
0.0
  0
LINE
  5
D9
  8
0
  6
CONTINUOUS
 62
     7
 10
298.4762229064
 20
251.9116063223
 30
0.0
 11
298.4762229064
 21
250.9116072759
 31
0.0
  0
LINE
  5
DA
  8
0
  6
CONTINUOUS
 62
     7
 10
293.2762242892
 20
251.9116063223
 30
0.0
 11
288.4762205222
 21
251.9116063223
 31
0.0
  0
LINE
  5
DB
  8
0
  6
CONTINUOUS
 62
     7
 10
288.4762205222
 20
251.9116063223
 30
0.0
 11
288.4762205222
 21
250.9116072759
 31
0.0
  0
LINE
  5
DC
  8
0
  6
CONTINUOUS
 62
     7
 10
54.0762223342
 20
265.3632361993
 30
0.0
 11
54.0762223342
 21
263.3985300169
 31
0.0
  0
LINE
  5
DD
  8
0
  6
CONTINUOUS
 62
     7
 10
53.276220713
 20
263.3985300169
 30
0.0
 11
53.276220713
 21
265.3632361993
 31
0.0
  0
LINE
  5
DE
  8
0
  6
CONTINUOUS
 62
     7
 10
54.0762223342
 20
265.3632361993
 30
0.0
 11
54.0762223342
 21
266.674776803
 31
0.0
  0
LINE
  5
DF
  8
0
  6
CONTINUOUS
 62
     7
 10
53.276220713
 20
266.6143913374
 30
0.0
 11
53.276220713
 21
265.3632361993
 31
0.0
  0
ARC
  5
E0
  8
0
  6
CONTINUOUS
 62
     7
 10
54.2762229064
 20
266.6143906339
 30
0.0
 40
1.000000000000029
 50
138.1768700679
 51
180.0
  0
LINE
  5
E1
  8
0
  6
CONTINUOUS
 62
     7
 10
54.0762223342
 20
263.3985300169
 30
0.0
 11
54.0762223342
 21
257.5762767896
 31
0.0
  0
LINE
  5
E2
  8
0
  6
CONTINUOUS
 62
     7
 10
53.276220713
 20
257.5762767896
 30
0.0
 11
53.276220713
 21
263.3985300169
 31
0.0
  0
LINE
  5
E3
  8
0
  6
CONTINUOUS
 62
     7
 10
54.0762223342
 20
257.311685811
 30
0.0
 11
54.0762223342
 21
257.5762767896
 31
0.0
  0
LINE
  5
E4
  8
0
  6
CONTINUOUS
 62
     7
 10
53.276220713
 20
257.5762767896
 30
0.0
 11
53.276220713
 21
257.311685811
 31
0.0
  0
LINE
  5
E5
  8
0
  6
CONTINUOUS
 62
     7
 10
54.0762223342
 20
257.311685811
 30
0.0
 11
54.0762223342
 21
255.4193158254
 31
0.0
  0
LINE
  5
E6
  8
0
  6
CONTINUOUS
 62
     7
 10
53.276220713
 20
255.4193158254
 30
0.0
 11
53.276220713
 21
257.311685811
 31
0.0
  0
LINE
  5
E7
  8
0
  6
CONTINUOUS
 62
     7
 10
54.0762223342
 20
255.4193158254
 30
0.0
 11
54.0762223342
 21
252.0073433027
 31
0.0
  0
LINE
  5
E8
  8
0
  6
CONTINUOUS
 62
     7
 10
53.276220713
 20
252.0073433027
 30
0.0
 11
53.276220713
 21
255.4193158254
 31
0.0
  0
LINE
  5
E9
  8
0
  6
CONTINUOUS
 62
     7
 10
54.0762223342
 20
252.0073433027
 30
0.0
 11
54.0762223342
 21
250.1116056547
 31
0.0
  0
LINE
  5
EA
  8
0
  6
CONTINUOUS
 62
     7
 10
53.276220713
 20
250.1116056547
 30
0.0
 11
53.276220713
 21
252.0073433027
 31
0.0
  0
LINE
  5
EB
  8
0
  6
CONTINUOUS
 62
     7
 10
54.0762223342
 20
248.111607562
 30
0.0
 11
53.276220713
 21
248.111607562
 31
0.0
  0
LINE
  5
EC
  8
0
  6
CONTINUOUS
 62
     7
 10
54.0762223342
 20
250.1116056547
 30
0.0
 11
54.0762223342
 21
248.111607562
 31
0.0
  0
LINE
  5
ED
  8
0
  6
CONTINUOUS
 62
     7
 10
53.276220713
 20
248.111607562
 30
0.0
 11
53.276220713
 21
250.1116056547
 31
0.0
  0
LINE
  5
EE
  8
0
  6
CONTINUOUS
 62
     7
 10
48.4762229064
 20
250.9116072759
 30
0.0
 11
48.4762229064
 21
243.5116071806
 31
0.0
  0
LINE
  5
EF
  8
0
  6
CONTINUOUS
 62
     7
 10
58.4762252906
 20
250.9116072759
 30
0.0
 11
58.4762252906
 21
243.5116071806
 31
0.0
  0
ARC
  5
F0
  8
0
  6
CONTINUOUS
 62
     7
 10
56.4762229064
 20
243.511604701
 30
0.0
 40
2.0
 50
270.0
 51
0.0
  0
LINE
  5
F1
  8
0
  6
CONTINUOUS
 62
     7
 10
56.4762271979
 20
241.5116031274
 30
0.0
 11
50.4762209991
 21
241.5116031274
 31
0.0
  0
ARC
  5
F2
  8
0
  6
CONTINUOUS
 62
     7
 10
50.4762229064
 20
243.511604701
 30
0.0
 40
2.0
 50
180.0
 51
270.0
  0
LINE
  5
F3
  8
0
  6
CONTINUOUS
 62
     7
 10
53.276220713
 20
251.9116063223
 30
0.0
 11
48.4762229064
 21
251.9116063223
 31
0.0
  0
LINE
  5
F4
  8
0
  6
CONTINUOUS
 62
     7
 10
48.4762229064
 20
251.9116063223
 30
0.0
 11
48.4762229064
 21
250.9116072759
 31
0.0
  0
LINE
  5
F5
  8
0
  6
CONTINUOUS
 62
     7
 10
58.4762252906
 20
251.9116063223
 30
0.0
 11
54.0762223342
 21
251.9116063223
 31
0.0
  0
LINE
  5
F6
  8
0
  6
CONTINUOUS
 62
     7
 10
58.4762252906
 20
251.9116063223
 30
0.0
 11
58.4762252906
 21
250.9116072759
 31
0.0
  0
LINE
  5
F7
  8
0
  6
CONTINUOUS
 62
     7
 10
174.0762241223
 20
265.3632361993
 30
0.0
 11
174.0762241223
 21
266.674776803
 31
0.0
  0
LINE
  5
F8
  8
0
  6
CONTINUOUS
 62
     7
 10
173.2762225011
 20
266.6143913374
 30
0.0
 11
173.2762225011
 21
265.3632361993
 31
0.0
  0
ARC
  5
F9
  8
0
  6
CONTINUOUS
 62
     7
 10
174.2762229064
 20
266.6143906339
 30
0.0
 40
1.000000000000008
 50
138.1768700679
 51
180.0
  0
LINE
  5
FA
  8
0
  6
CONTINUOUS
 62
     7
 10
173.2762225011
 20
263.3985300169
 30
0.0
 11
173.2762225011
 21
265.3632361993
 31
0.0
  0
LINE
  5
FB
  8
0
  6
CONTINUOUS
 62
     7
 10
174.0762241223
 20
265.3632361993
 30
0.0
 11
174.0762241223
 21
263.3985300169
 31
0.0
  0
LINE
  5
FC
  8
0
  6
CONTINUOUS
 62
     7
 10
173.2762225011
 20
257.5762767896
 30
0.0
 11
173.2762225011
 21
263.3985300169
 31
0.0
  0
LINE
  5
FD
  8
0
  6
CONTINUOUS
 62
     7
 10
174.0762241223
 20
263.3985300169
 30
0.0
 11
174.0762241223
 21
257.5762767896
 31
0.0
  0
LINE
  5
FE
  8
0
  6
CONTINUOUS
 62
     7
 10
173.2762225011
 20
257.5762767896
 30
0.0
 11
173.2762225011
 21
257.311685811
 31
0.0
  0
LINE
  5
FF
  8
0
  6
CONTINUOUS
 62
     7
 10
174.0762241223
 20
257.311685811
 30
0.0
 11
174.0762241223
 21
257.5762767896
 31
0.0
  0
LINE
  5
100
  8
0
  6
CONTINUOUS
 62
     7
 10
173.2762225011
 20
255.4193158254
 30
0.0
 11
173.2762225011
 21
257.311685811
 31
0.0
  0
LINE
  5
101
  8
0
  6
CONTINUOUS
 62
     7
 10
174.0762241223
 20
257.311685811
 30
0.0
 11
174.0762241223
 21
255.4193158254
 31
0.0
  0
LINE
  5
102
  8
0
  6
CONTINUOUS
 62
     7
 10
173.2762225011
 20
252.0073433027
 30
0.0
 11
173.2762225011
 21
255.4193158254
 31
0.0
  0
LINE
  5
103
  8
0
  6
CONTINUOUS
 62
     7
 10
174.0762241223
 20
255.4193158254
 30
0.0
 11
174.0762241223
 21
252.0073433027
 31
0.0
  0
LINE
  5
104
  8
0
  6
CONTINUOUS
 62
     7
 10
173.2762225011
 20
250.1116056547
 30
0.0
 11
173.2762225011
 21
252.0073433027
 31
0.0
  0
LINE
  5
105
  8
0
  6
CONTINUOUS
 62
     7
 10
174.0762241223
 20
252.0073433027
 30
0.0
 11
174.0762241223
 21
250.1116056547
 31
0.0
  0
LINE
  5
106
  8
0
  6
CONTINUOUS
 62
     7
 10
174.0762241223
 20
248.111607562
 30
0.0
 11
173.2762225011
 21
248.111607562
 31
0.0
  0
LINE
  5
107
  8
0
  6
CONTINUOUS
 62
     7
 10
173.2762225011
 20
248.111607562
 30
0.0
 11
173.2762225011
 21
250.1116056547
 31
0.0
  0
LINE
  5
108
  8
0
  6
CONTINUOUS
 62
     7
 10
174.0762241223
 20
250.1116056547
 30
0.0
 11
174.0762241223
 21
248.111607562
 31
0.0
  0
ARC
  5
109
  8
0
  6
CONTINUOUS
 62
     7
 10
170.4762229064
 20
243.511604701
 30
0.0
 40
2.0
 50
180.0
 51
270.0
  0
LINE
  5
10A
  8
0
  6
CONTINUOUS
 62
     7
 10
168.4762217143
 20
250.9116072759
 30
0.0
 11
168.4762217143
 21
243.5116071806
 31
0.0
  0
LINE
  5
10B
  8
0
  6
CONTINUOUS
 62
     7
 10
178.4762240985
 20
250.9116072759
 30
0.0
 11
178.4762240985
 21
243.5116071806
 31
0.0
  0
LINE
  5
10C
  8
0
  6
CONTINUOUS
 62
     7
 10
176.4762230256
 20
241.5116031274
 30
0.0
 11
170.4762227872
 21
241.5116031274
 31
0.0
  0
ARC
  5
10D
  8
0
  6
CONTINUOUS
 62
     7
 10
176.4762229064
 20
243.511604701
 30
0.0
 40
2.0
 50
270.0
 51
0.0
  0
LINE
  5
10E
  8
0
  6
CONTINUOUS
 62
     7
 10
173.2762225011
 20
251.9116063223
 30
0.0
 11
168.4762217143
 21
251.9116063223
 31
0.0
  0
LINE
  5
10F
  8
0
  6
CONTINUOUS
 62
     7
 10
168.4762217143
 20
251.9116063223
 30
0.0
 11
168.4762217143
 21
250.9116072759
 31
0.0
  0
LINE
  5
110
  8
0
  6
CONTINUOUS
 62
     7
 10
178.4762240985
 20
251.9116063223
 30
0.0
 11
174.0762241223
 21
251.9116063223
 31
0.0
  0
LINE
  5
111
  8
0
  6
CONTINUOUS
 62
     7
 10
178.4762240985
 20
251.9116063223
 30
0.0
 11
178.4762240985
 21
250.9116072759
 31
0.0
  0
LINE
  5
112
  8
0
  6
CONTINUOUS
 62
     7
 10
128.6762215236
 20
266.6143913374
 30
0.0
 11
128.6762215236
 21
265.3632361993
 31
0.0
  0
LINE
  5
113
  8
0
  6
CONTINUOUS
 62
     7
 10
127.8762258628
 20
265.3632361993
 30
0.0
 11
127.8762258628
 21
266.6670281992
 31
0.0
  0
ARC
  5
114
  8
0
  6
CONTINUOUS
 62
     7
 10
127.6762229064
 20
266.6143906339
 30
0.0
 40
1.000000000000001
 50
0.0
 51
42.187202839
  0
LINE
  5
115
  8
0
  6
CONTINUOUS
 62
     7
 10
127.8762258628
 20
265.3632361993
 30
0.0
 11
127.8762258628
 21
263.3985300169
 31
0.0
  0
LINE
  5
116
  8
0
  6
CONTINUOUS
 62
     7
 10
128.6762215236
 20
263.3985300169
 30
0.0
 11
128.6762215236
 21
265.3632361993
 31
0.0
  0
LINE
  5
117
  8
0
  6
CONTINUOUS
 62
     7
 10
127.8762258628
 20
263.3985300169
 30
0.0
 11
127.8762258628
 21
257.5762767896
 31
0.0
  0
LINE
  5
118
  8
0
  6
CONTINUOUS
 62
     7
 10
128.6762215236
 20
257.5762767896
 30
0.0
 11
128.6762215236
 21
263.3985300169
 31
0.0
  0
LINE
  5
119
  8
0
  6
CONTINUOUS
 62
     7
 10
127.8762258628
 20
257.311685811
 30
0.0
 11
127.8762258628
 21
257.5762767896
 31
0.0
  0
LINE
  5
11A
  8
0
  6
CONTINUOUS
 62
     7
 10
128.6762215236
 20
257.5762767896
 30
0.0
 11
128.6762215236
 21
257.311685811
 31
0.0
  0
LINE
  5
11B
  8
0
  6
CONTINUOUS
 62
     7
 10
127.8762258628
 20
257.311685811
 30
0.0
 11
127.8762258628
 21
255.4193158254
 31
0.0
  0
LINE
  5
11C
  8
0
  6
CONTINUOUS
 62
     7
 10
128.6762215236
 20
255.4193158254
 30
0.0
 11
128.6762215236
 21
257.311685811
 31
0.0
  0
LINE
  5
11D
  8
0
  6
CONTINUOUS
 62
     7
 10
127.8762258628
 20
255.4193158254
 30
0.0
 11
127.8762258628
 21
252.0073433027
 31
0.0
  0
LINE
  5
11E
  8
0
  6
CONTINUOUS
 62
     7
 10
128.6762215236
 20
252.0073433027
 30
0.0
 11
128.6762215236
 21
255.4193158254
 31
0.0
  0
LINE
  5
11F
  8
0
  6
CONTINUOUS
 62
     7
 10
127.8762258628
 20
248.111607562
 30
0.0
 11
128.6762215236
 21
248.111607562
 31
0.0
  0
LINE
  5
120
  8
0
  6
CONTINUOUS
 62
     7
 10
127.8762258628
 20
250.1116056547
 30
0.0
 11
127.8762258628
 21
248.111607562
 31
0.0
  0
LINE
  5
121
  8
0
  6
CONTINUOUS
 62
     7
 10
128.6762215236
 20
248.111607562
 30
0.0
 11
128.6762215236
 21
250.1116056547
 31
0.0
  0
LINE
  5
122
  8
0
  6
CONTINUOUS
 62
     7
 10
127.8762258628
 20
252.0073433027
 30
0.0
 11
127.8762258628
 21
250.1116056547
 31
0.0
  0
LINE
  5
123
  8
0
  6
CONTINUOUS
 62
     7
 10
128.6762215236
 20
250.1116056547
 30
0.0
 11
128.6762215236
 21
252.0073433027
 31
0.0
  0
ARC
  5
124
  8
0
  6
CONTINUOUS
 62
     7
 10
125.4762229064
 20
243.511604701
 30
0.0
 40
2.0
 50
180.0
 51
270.0
  0
LINE
  5
125
  8
0
  6
CONTINUOUS
 62
     7
 10
123.4762229064
 20
250.9116072759
 30
0.0
 11
123.4762229064
 21
243.5116071806
 31
0.0
  0
LINE
  5
126
  8
0
  6
CONTINUOUS
 62
     7
 10
133.4762252906
 20
250.9116072759
 30
0.0
 11
133.4762252906
 21
243.5116071806
 31
0.0
  0
LINE
  5
127
  8
0
  6
CONTINUOUS
 62
     7
 10
125.4762209991
 20
241.5116031274
 30
0.0
 11
131.4762212375
 21
241.5116031274
 31
0.0
  0
ARC
  5
128
  8
0
  6
CONTINUOUS
 62
     7
 10
131.4762229064
 20
243.511604701
 30
0.0
 40
2.0
 50
270.0
 51
0.0
  0
LINE
  5
129
  8
0
  6
CONTINUOUS
 62
     7
 10
128.6762215236
 20
251.9116063223
 30
0.0
 11
133.4762252906
 21
251.9116063223
 31
0.0
  0
LINE
  5
12A
  8
0
  6
CONTINUOUS
 62
     7
 10
133.4762252906
 20
251.9116063223
 30
0.0
 11
133.4762252906
 21
250.9116072759
 31
0.0
  0
LINE
  5
12B
  8
0
  6
CONTINUOUS
 62
     7
 10
123.4762229064
 20
251.9116063223
 30
0.0
 11
127.8762258628
 21
251.9116063223
 31
0.0
  0
LINE
  5
12C
  8
0
  6
CONTINUOUS
 62
     7
 10
123.4762229064
 20
251.9116063223
 30
0.0
 11
123.4762229064
 21
250.9116072759
 31
0.0
  0
LINE
  5
12D
  8
0
  6
CONTINUOUS
 62
     7
 10
247.8762216905
 20
265.3632361993
 30
0.0
 11
247.8762216905
 21
263.3985300169
 31
0.0
  0
LINE
  5
12E
  8
0
  6
CONTINUOUS
 62
     7
 10
248.6762233117
 20
263.3985300169
 30
0.0
 11
248.6762233117
 21
265.3632361993
 31
0.0
  0
LINE
  5
12F
  8
0
  6
CONTINUOUS
 62
     7
 10
248.6762233117
 20
266.6143913374
 30
0.0
 11
248.6762233117
 21
265.3632361993
 31
0.0
  0
LINE
  5
130
  8
0
  6
CONTINUOUS
 62
     7
 10
247.8762216905
 20
265.3632361993
 30
0.0
 11
247.8762216905
 21
266.6670281992
 31
0.0
  0
ARC
  5
131
  8
0
  6
CONTINUOUS
 62
     7
 10
247.6762229064
 20
266.6143906339
 30
0.0
 40
1.000000000000011
 50
0.0
 51
42.187202839
  0
LINE
  5
132
  8
0
  6
CONTINUOUS
 62
     7
 10
248.6762233117
 20
257.5762767896
 30
0.0
 11
248.6762233117
 21
263.3985300169
 31
0.0
  0
LINE
  5
133
  8
0
  6
CONTINUOUS
 62
     7
 10
247.8762216905
 20
263.3985300169
 30
0.0
 11
247.8762216905
 21
257.5762767896
 31
0.0
  0
LINE
  5
134
  8
0
  6
CONTINUOUS
 62
     7
 10
248.6762233117
 20
257.5762767896
 30
0.0
 11
248.6762233117
 21
257.311685811
 31
0.0
  0
LINE
  5
135
  8
0
  6
CONTINUOUS
 62
     7
 10
247.8762216905
 20
257.311685811
 30
0.0
 11
247.8762216905
 21
257.5762767896
 31
0.0
  0
LINE
  5
136
  8
0
  6
CONTINUOUS
 62
     7
 10
248.6762233117
 20
255.4193158254
 30
0.0
 11
248.6762233117
 21
257.311685811
 31
0.0
  0
LINE
  5
137
  8
0
  6
CONTINUOUS
 62
     7
 10
247.8762216905
 20
257.311685811
 30
0.0
 11
247.8762216905
 21
255.4193158254
 31
0.0
  0
LINE
  5
138
  8
0
  6
CONTINUOUS
 62
     7
 10
248.6762233117
 20
252.0073433027
 30
0.0
 11
248.6762233117
 21
255.4193158254
 31
0.0
  0
LINE
  5
139
  8
0
  6
CONTINUOUS
 62
     7
 10
247.8762216905
 20
255.4193158254
 30
0.0
 11
247.8762216905
 21
252.0073433027
 31
0.0
  0
LINE
  5
13A
  8
0
  6
CONTINUOUS
 62
     7
 10
248.6762233117
 20
250.1116056547
 30
0.0
 11
248.6762233117
 21
252.0073433027
 31
0.0
  0
LINE
  5
13B
  8
0
  6
CONTINUOUS
 62
     7
 10
247.8762216905
 20
252.0073433027
 30
0.0
 11
247.8762216905
 21
250.1116056547
 31
0.0
  0
LINE
  5
13C
  8
0
  6
CONTINUOUS
 62
     7
 10
247.8762216905
 20
248.111607562
 30
0.0
 11
248.6762233117
 21
248.111607562
 31
0.0
  0
LINE
  5
13D
  8
0
  6
CONTINUOUS
 62
     7
 10
248.6762233117
 20
248.111607562
 30
0.0
 11
248.6762233117
 21
250.1116056547
 31
0.0
  0
LINE
  5
13E
  8
0
  6
CONTINUOUS
 62
     7
 10
247.8762216905
 20
250.1116056547
 30
0.0
 11
247.8762216905
 21
248.111607562
 31
0.0
  0
LINE
  5
13F
  8
0
  6
CONTINUOUS
 62
     7
 10
243.4762217143
 20
250.9116072759
 30
0.0
 11
243.4762217143
 21
243.5116071806
 31
0.0
  0
LINE
  5
140
  8
0
  6
CONTINUOUS
 62
     7
 10
253.4762240985
 20
250.9116072759
 30
0.0
 11
253.4762240985
 21
243.5116071806
 31
0.0
  0
ARC
  5
141
  8
0
  6
CONTINUOUS
 62
     7
 10
251.4762229064
 20
243.511604701
 30
0.0
 40
2.0
 50
270.0
 51
0.0
  0
LINE
  5
142
  8
0
  6
CONTINUOUS
 62
     7
 10
245.4762227872
 20
241.5116031274
 30
0.0
 11
251.4762230256
 21
241.5116031274
 31
0.0
  0
ARC
  5
143
  8
0
  6
CONTINUOUS
 62
     7
 10
245.4762229064
 20
243.511604701
 30
0.0
 40
2.0
 50
180.0
 51
270.0
  0
LINE
  5
144
  8
0
  6
CONTINUOUS
 62
     7
 10
243.4762217143
 20
251.9116063223
 30
0.0
 11
247.8762216905
 21
251.9116063223
 31
0.0
  0
LINE
  5
145
  8
0
  6
CONTINUOUS
 62
     7
 10
243.4762217143
 20
251.9116063223
 30
0.0
 11
243.4762217143
 21
250.9116072759
 31
0.0
  0
LINE
  5
146
  8
0
  6
CONTINUOUS
 62
     7
 10
248.6762233117
 20
251.9116063223
 30
0.0
 11
253.4762240985
 21
251.9116063223
 31
0.0
  0
LINE
  5
147
  8
0
  6
CONTINUOUS
 62
     7
 10
253.4762240985
 20
251.9116063223
 30
0.0
 11
253.4762240985
 21
250.9116072759
 31
0.0
  0
LINE
  5
148
  8
0
  6
CONTINUOUS
 62
     7
 10
368.6762250999
 20
266.6143913374
 30
0.0
 11
368.6762250999
 21
265.3632361993
 31
0.0
  0
LINE
  5
149
  8
0
  6
CONTINUOUS
 62
     7
 10
367.8762234786
 20
265.3632361993
 30
0.0
 11
367.8762234786
 21
266.6670281992
 31
0.0
  0
ARC
  5
14A
  8
0
  6
CONTINUOUS
 62
     7
 10
367.6762229064
 20
266.6143906339
 30
0.0
 40
1.0
 50
0.0
 51
42.187202839
  0
LINE
  5
14B
  8
0
  6
CONTINUOUS
 62
     7
 10
367.8762234786
 20
265.3632361993
 30
0.0
 11
367.8762234786
 21
263.3985300169
 31
0.0
  0
LINE
  5
14C
  8
0
  6
CONTINUOUS
 62
     7
 10
368.6762250999
 20
263.3985300169
 30
0.0
 11
368.6762250999
 21
265.3632361993
 31
0.0
  0
LINE
  5
14D
  8
0
  6
CONTINUOUS
 62
     7
 10
367.8762234786
 20
263.3985300169
 30
0.0
 11
367.8762234786
 21
257.5762767896
 31
0.0
  0
LINE
  5
14E
  8
0
  6
CONTINUOUS
 62
     7
 10
368.6762250999
 20
257.5762767896
 30
0.0
 11
368.6762250999
 21
263.3985300169
 31
0.0
  0
LINE
  5
14F
  8
0
  6
CONTINUOUS
 62
     7
 10
367.8762234786
 20
257.311685811
 30
0.0
 11
367.8762234786
 21
257.5762767896
 31
0.0
  0
LINE
  5
150
  8
0
  6
CONTINUOUS
 62
     7
 10
368.6762250999
 20
257.5762767896
 30
0.0
 11
368.6762250999
 21
257.311685811
 31
0.0
  0
LINE
  5
151
  8
0
  6
CONTINUOUS
 62
     7
 10
367.8762234786
 20
257.311685811
 30
0.0
 11
367.8762234786
 21
255.4193158254
 31
0.0
  0
LINE
  5
152
  8
0
  6
CONTINUOUS
 62
     7
 10
368.6762250999
 20
255.4193158254
 30
0.0
 11
368.6762250999
 21
257.311685811
 31
0.0
  0
LINE
  5
153
  8
0
  6
CONTINUOUS
 62
     7
 10
367.8762234786
 20
255.4193158254
 30
0.0
 11
367.8762234786
 21
252.0073433027
 31
0.0
  0
LINE
  5
154
  8
0
  6
CONTINUOUS
 62
     7
 10
368.6762250999
 20
252.0073433027
 30
0.0
 11
368.6762250999
 21
255.4193158254
 31
0.0
  0
LINE
  5
155
  8
0
  6
CONTINUOUS
 62
     7
 10
367.8762234786
 20
248.111607562
 30
0.0
 11
368.6762250999
 21
248.111607562
 31
0.0
  0
LINE
  5
156
  8
0
  6
CONTINUOUS
 62
     7
 10
367.8762234786
 20
250.1116056547
 30
0.0
 11
367.8762234786
 21
248.111607562
 31
0.0
  0
LINE
  5
157
  8
0
  6
CONTINUOUS
 62
     7
 10
368.6762250999
 20
248.111607562
 30
0.0
 11
368.6762250999
 21
250.1116056547
 31
0.0
  0
LINE
  5
158
  8
0
  6
CONTINUOUS
 62
     7
 10
367.8762234786
 20
252.0073433027
 30
0.0
 11
367.8762234786
 21
250.1116056547
 31
0.0
  0
LINE
  5
159
  8
0
  6
CONTINUOUS
 62
     7
 10
368.6762250999
 20
250.1116056547
 30
0.0
 11
368.6762250999
 21
252.0073433027
 31
0.0
  0
LINE
  5
15A
  8
0
  6
CONTINUOUS
 62
     7
 10
363.4762205222
 20
250.9116072759
 30
0.0
 11
363.4762205222
 21
243.5116071806
 31
0.0
  0
LINE
  5
15B
  8
0
  6
CONTINUOUS
 62
     7
 10
373.4762229064
 20
250.9116072759
 30
0.0
 11
373.4762229064
 21
243.5116071806
 31
0.0
  0
ARC
  5
15C
  8
0
  6
CONTINUOUS
 62
     7
 10
371.4762229064
 20
243.511604701
 30
0.0
 40
2.0
 50
270.0
 51
0.0
  0
LINE
  5
15D
  8
0
  6
CONTINUOUS
 62
     7
 10
365.4762186149
 20
241.5116031274
 30
0.0
 11
371.4762248138
 21
241.5116031274
 31
0.0
  0
ARC
  5
15E
  8
0
  6
CONTINUOUS
 62
     7
 10
365.4762229064
 20
243.511604701
 30
0.0
 40
2.0
 50
180.0
 51
270.0
  0
LINE
  5
15F
  8
0
  6
CONTINUOUS
 62
     7
 10
363.4762205222
 20
251.9116063223
 30
0.0
 11
367.8762234786
 21
251.9116063223
 31
0.0
  0
LINE
  5
160
  8
0
  6
CONTINUOUS
 62
     7
 10
363.4762205222
 20
251.9116063223
 30
0.0
 11
363.4762205222
 21
250.9116072759
 31
0.0
  0
LINE
  5
161
  8
0
  6
CONTINUOUS
 62
     7
 10
368.6762250999
 20
251.9116063223
 30
0.0
 11
373.4762229064
 21
251.9116063223
 31
0.0
  0
LINE
  5
162
  8
0
  6
CONTINUOUS
 62
     7
 10
373.4762229064
 20
251.9116063223
 30
0.0
 11
373.4762229064
 21
250.9116072759
 31
0.0
  0
ARC
  5
163
  8
0
  6
CONTINUOUS
 62
     7
 10
121.4029054457
 20
35.7634736955
 30
0.0
 40
8.130070049070323
 50
287.2567479278
 51
289.6913094466
  0
ARC
  5
164
  8
0
  6
CONTINUOUS
 62
     7
 10
60.6580946751
 20
36.1260497313
 30
0.0
 40
8.508388632046698
 50
250.4720046196
 51
252.7377055099
  0
ARC
  5
165
  8
0
  6
CONTINUOUS
 62
     7
 10
241.4029194599
 20
35.7633625134
 30
0.0
 40
8.129960244950556
 50
287.2568980878
 51
289.6914725678
  0
ARC
  5
166
  8
0
  6
CONTINUOUS
 62
     7
 10
180.6588144181
 20
36.1282884503
 30
0.0
 40
8.51073956147037
 50
250.4724682313
 51
252.7375622255
  0
ARC
  5
167
  8
0
  6
CONTINUOUS
 62
     7
 10
361.4031018372
 20
35.7627473981
 30
0.0
 40
8.12931924660909
 50
287.2569686965
 51
289.6917152452
  0
ARC
  5
168
  8
0
  6
CONTINUOUS
 62
     7
 10
300.659534583
 20
36.1305284783
 30
0.0
 40
8.513091866199577
 50
250.4729318557
 51
252.737418923
  0
LINE
  5
169
  8
0
  6
CONTINUOUS
 62
     7
 10
47.3762191871
 20
109.2905632177
 30
0.0
 11
47.3762191871
 21
109.8905633161
 31
0.0
  0
ARC
  5
16A
  8
0
  6
CONTINUOUS
 62
     7
 10
47.7762229064
 20
109.8905633071
 30
0.0
 40
0.3999999999999915
 50
90.0
 51
180.0
  0
LINE
  5
16B
  8
0
  6
CONTINUOUS
 62
     7
 10
374.5762266257
 20
109.8905633161
 30
0.0
 11
374.5762266257
 21
109.2905632177
 31
0.0
  0
ARC
  5
16C
  8
0
  6
CONTINUOUS
 62
     7
 10
374.1762229064
 20
109.8905633071
 30
0.0
 40
0.4000000000000341
 50
0.0
 51
90.0
  0
LINE
  5
16D
  8
0
  6
CONTINUOUS
 62
     7
 10
47.7762259582
 20
110.2905633816
 30
0.0
 11
48.4762229064
 21
110.2905633816
 31
0.0
  0
LINE
  5
16E
  8
0
  6
CONTINUOUS
 62
     7
 10
58.4762252906
 20
110.2905633816
 30
0.0
 11
123.4762229064
 21
110.2905633816
 31
0.0
  0
LINE
  5
16F
  8
0
  6
CONTINUOUS
 62
     7
 10
133.4762252906
 20
110.2905633816
 30
0.0
 11
168.4762217143
 21
110.2905633816
 31
0.0
  0
LINE
  5
170
  8
0
  6
CONTINUOUS
 62
     7
 10
178.4762240985
 20
110.2905633816
 30
0.0
 11
243.4762217143
 21
110.2905633816
 31
0.0
  0
LINE
  5
171
  8
0
  6
CONTINUOUS
 62
     7
 10
253.4762240985
 20
110.2905633816
 30
0.0
 11
288.4762205222
 21
110.2905633816
 31
0.0
  0
LINE
  5
172
  8
0
  6
CONTINUOUS
 62
     7
 10
298.4762229064
 20
110.2905633816
 30
0.0
 11
363.4762205222
 21
110.2905633816
 31
0.0
  0
LINE
  5
173
  8
0
  6
CONTINUOUS
 62
     7
 10
373.4762229064
 20
110.2905633816
 30
0.0
 11
374.1762198546
 21
110.2905633816
 31
0.0
  0
LINE
  5
174
  8
0
  6
CONTINUOUS
 62
     7
 10
47.3762191871
 20
101.2905633965
 30
0.0
 11
47.3762191871
 21
109.2905632177
 31
0.0
  0
LINE
  5
175
  8
0
  6
CONTINUOUS
 62
     7
 10
374.5762266257
 20
109.2905632177
 30
0.0
 11
374.5762266257
 21
101.2905633965
 31
0.0
  0
ARC
  5
176
  8
0
  6
CONTINUOUS
 62
     7
 10
47.7762229064
 20
100.6905633071
 30
0.0
 40
0.4000000000000057
 50
180.0
 51
270.0
  0
LINE
  5
177
  8
0
  6
CONTINUOUS
 62
     7
 10
47.3762191871
 20
100.6905632982
 30
0.0
 11
47.3762191871
 21
101.2905633965
 31
0.0
  0
LINE
  5
178
  8
0
  6
CONTINUOUS
 62
     7
 10
374.1762198546
 20
100.2905632326
 30
0.0
 11
373.4762229064
 21
100.2905632326
 31
0.0
  0
LINE
  5
179
  8
0
  6
CONTINUOUS
 62
     7
 10
363.4762205222
 20
100.2905632326
 30
0.0
 11
341.3390196899
 21
100.2905632326
 31
0.0
  0
LINE
  5
17A
  8
0
  6
CONTINUOUS
 62
     7
 10
320.5787338355
 20
100.2905632326
 30
0.0
 11
298.4762229064
 21
100.2905632326
 31
0.0
  0
LINE
  5
17B
  8
0
  6
CONTINUOUS
 62
     7
 10
288.4762205222
 20
100.2905632326
 30
0.0
 11
253.4762240985
 21
100.2905632326
 31
0.0
  0
LINE
  5
17C
  8
0
  6
CONTINUOUS
 62
     7
 10
243.4762217143
 20
100.2905632326
 30
0.0
 11
221.3390246072
 21
100.2905632326
 31
0.0
  0
LINE
  5
17D
  8
0
  6
CONTINUOUS
 62
     7
 10
200.5787342825
 20
100.2905632326
 30
0.0
 11
178.4762240985
 21
100.2905632326
 31
0.0
  0
LINE
  5
17E
  8
0
  6
CONTINUOUS
 62
     7
 10
168.4762217143
 20
100.2905632326
 30
0.0
 11
133.4762252906
 21
100.2905632326
 31
0.0
  0
LINE
  5
17F
  8
0
  6
CONTINUOUS
 62
     7
 10
123.4762229064
 20
100.2905632326
 30
0.0
 11
101.339022074
 21
100.2905632326
 31
0.0
  0
LINE
  5
180
  8
0
  6
CONTINUOUS
 62
     7
 10
80.5787362197
 20
100.2905632326
 30
0.0
 11
58.4762252906
 21
100.2905632326
 31
0.0
  0
LINE
  5
181
  8
0
  6
CONTINUOUS
 62
     7
 10
48.4762229064
 20
100.2905632326
 30
0.0
 11
47.7762259582
 21
100.2905632326
 31
0.0
  0
LINE
  5
182
  8
0
  6
CONTINUOUS
 62
     7
 10
374.5762266257
 20
101.2905633965
 30
0.0
 11
374.5762266257
 21
100.6905632982
 31
0.0
  0
ARC
  5
183
  8
0
  6
CONTINUOUS
 62
     7
 10
374.1762229064
 20
100.6905633071
 30
0.0
 40
0.4000000000000341
 50
270.0
 51
0.0
  0
ARC
  5
184
  8
0
  6
CONTINUOUS
 62
     7
 10
353.9762229064
 20
113.2905633071
 30
0.0
 40
4.0
 50
0.0
 51
90.0
  0
LINE
  5
185
  8
0
  6
CONTINUOUS
 62
     7
 10
357.9762257674
 20
111.290563173
 30
0.0
 11
357.9762257674
 21
113.2905631283
 31
0.0
  0
LINE
  5
186
  8
0
  6
CONTINUOUS
 62
     7
 10
357.9762257674
 20
111.290563173
 30
0.0
 11
357.9699672797
 21
110.2905633816
 31
0.0
  0
POLYLINE
  5
187
  8
0
  6
CONTINUOUS
 62
     7
 66
     1
 10
0.0
 20
0.0
 30
0.0
  0
VERTEX
  5
543
  8
0
  6
CONTINUOUS
 62
     7
 10
357.216361914
 20
100.2905632326
 30
0.0
  0
VERTEX
  5
544
  8
0
  6
CONTINUOUS
 62
     7
 10
356.9708146194
 20
98.6471987286
 30
0.0
  0
VERTEX
  5
545
  8
0
  6
CONTINUOUS
 62
     7
 10
356.5846718886
 20
96.4342064181
 30
0.0
  0
SEQEND
  5
6C2
  8
0
  6
CONTINUOUS
 62
     7
  0
LINE
  5
188
  8
0
  6
CONTINUOUS
 62
     7
 10
333.9824713805
 20
110.2905633816
 30
0.0
 11
333.9762248138
 21
111.290563173
 31
0.0
  0
LINE
  5
189
  8
0
  6
CONTINUOUS
 62
     7
 10
333.9762248138
 20
113.2905631283
 30
0.0
 11
333.9762248138
 21
111.290563173
 31
0.0
  0
ARC
  5
18A
  8
0
  6
CONTINUOUS
 62
     7
 10
337.9762229064
 20
113.2905633071
 30
0.0
 40
4.0
 50
90.0
 51
180.0
  0
LINE
  5
18B
  8
0
  6
CONTINUOUS
 62
     7
 10
353.9762176612
 20
117.2905630389
 30
0.0
 11
337.9762209991
 21
117.2905630389
 31
0.0
  0
CIRCLE
  5
18C
  8
0
  6
CONTINUOUS
 62
     7
 10
353.9762229064
 20
113.2905633071
 30
0.0
 40
1.500000000000028
  0
CIRCLE
  5
18D
  8
0
  6
CONTINUOUS
 62
     7
 10
337.9762229064
 20
113.2905633071
 30
0.0
 40
1.500000000000028
  0
POLYLINE
  5
18E
  8
0
  6
CONTINUOUS
 62
     7
 66
     1
 10
0.0
 20
0.0
 30
0.0
  0
VERTEX
  5
546
  8
0
  6
CONTINUOUS
 62
     7
 10
65.3676070312
 20
96.4350565294
 30
0.0
  0
VERTEX
  5
547
  8
0
  6
CONTINUOUS
 62
     7
 10
64.9816311935
 20
98.6471987286
 30
0.0
  0
VERTEX
  5
548
  8
0
  6
CONTINUOUS
 62
     7
 10
64.7360838988
 20
100.2905632326
 30
0.0
  0
SEQEND
  5
6C1
  8
0
  6
CONTINUOUS
 62
     7
  0
LINE
  5
18F
  8
0
  6
CONTINUOUS
 62
     7
 10
63.9824785331
 20
110.2905633816
 30
0.0
 11
63.9762200454
 21
111.290563173
 31
0.0
  0
LINE
  5
190
  8
0
  6
CONTINUOUS
 62
     7
 10
63.9762200454
 20
113.2905631283
 30
0.0
 11
63.9762200454
 21
111.290563173
 31
0.0
  0
ARC
  5
191
  8
0
  6
CONTINUOUS
 62
     7
 10
67.9762229064
 20
113.2905633071
 30
0.0
 40
4.000000000000007
 50
90.0
 51
180.0
  0
LINE
  5
192
  8
0
  6
CONTINUOUS
 62
     7
 10
83.9762248138
 20
117.2905630389
 30
0.0
 11
67.9762281516
 21
117.2905630389
 31
0.0
  0
ARC
  5
193
  8
0
  6
CONTINUOUS
 62
     7
 10
83.9762229064
 20
113.2905633071
 30
0.0
 40
4.0
 50
0.0
 51
90.0
  0
LINE
  5
194
  8
0
  6
CONTINUOUS
 62
     7
 10
87.9762209991
 20
111.290563173
 30
0.0
 11
87.9762209991
 21
113.2905631283
 31
0.0
  0
LINE
  5
195
  8
0
  6
CONTINUOUS
 62
     7
 10
87.9762209991
 20
111.290563173
 30
0.0
 11
87.9699744323
 21
110.2905633816
 31
0.0
  0
CIRCLE
  5
196
  8
0
  6
CONTINUOUS
 62
     7
 10
67.9762229064
 20
113.2905633071
 30
0.0
 40
1.500000000000014
  0
CIRCLE
  5
197
  8
0
  6
CONTINUOUS
 62
     7
 10
83.9762229064
 20
113.2905633071
 30
0.0
 40
1.5
  0
ARC
  5
198
  8
0
  6
CONTINUOUS
 62
     7
 10
90.9762211183
 20
27.7140594098
 30
0.0
 40
73.33970620599399
 50
64.3650307858
 51
115.6349692142
  0
ARC
  5
199
  8
0
  6
CONTINUOUS
 62
     7
 10
90.9762211183
 20
27.7017792495
 30
0.0
 40
73.33115047861389
 50
64.7052203947
 51
115.2947796053
  0
ARC
  5
19A
  8
0
  6
CONTINUOUS
 62
     7
 10
62.8539908018
 20
87.3911054407
 30
0.0
 40
7.349221227328131
 50
115.901904995
 51
164.5641043464
  0
ARC
  5
19B
  8
0
  6
CONTINUOUS
 62
     7
 10
119.1145044067
 20
87.4044555634
 30
0.0
 40
7.330204822447377
 50
15.3686942198
 51
64.1653831319
  0
POLYLINE
  5
19C
  8
0
  6
CONTINUOUS
 62
     7
 66
     1
 10
0.0
 20
0.0
 30
0.0
  0
VERTEX
  5
549
  8
0
  6
CONTINUOUS
 62
     7
 10
126.182565842
 20
89.3471687058
 30
0.0
  0
VERTEX
  5
54A
  8
0
  6
CONTINUOUS
 62
     7
 10
127.0996309856
 20
86.0555647829
 30
0.0
  0
VERTEX
  5
54B
  8
0
  6
CONTINUOUS
 62
     7
 10
127.7008093932
 20
82.7792896846
 30
0.0
  0
VERTEX
  5
54C
  8
0
  6
CONTINUOUS
 62
     7
 10
128.0583299735
 20
79.48714932
 30
0.0
  0
VERTEX
  5
54D
  8
0
  6
CONTINUOUS
 62
     7
 10
128.2730855086
 20
76.1919661382
 30
0.0
  0
VERTEX
  5
54E
  8
0
  6
CONTINUOUS
 62
     7
 10
128.3548332789
 20
72.8937759021
 30
0.0
  0
VERTEX
  5
54F
  8
0
  6
CONTINUOUS
 62
     7
 10
128.3516682723
 20
69.592954121
 30
0.0
  0
VERTEX
  5
550
  8
0
  6
CONTINUOUS
 62
     7
 10
128.3245660403
 20
66.292686663
 30
0.0
  0
VERTEX
  5
551
  8
0
  6
CONTINUOUS
 62
     7
 10
128.3224083522
 20
62.9951699594
 30
0.0
  0
VERTEX
  5
552
  8
0
  6
CONTINUOUS
 62
     7
 10
128.36934701
 20
56.675021253
 30
0.0
  0
VERTEX
  5
553
  8
0
  6
CONTINUOUS
 62
     7
 10
128.4034349063
 20
50.3542914012
 30
0.0
  0
VERTEX
  5
554
  8
0
  6
CONTINUOUS
 62
     7
 10
128.4124411681
 20
44.1010608295
 30
0.0
  0
VERTEX
  5
555
  8
0
  6
CONTINUOUS
 62
     7
 10
128.4142591098
 20
42.2563387969
 30
0.0
  0
VERTEX
  5
556
  8
0
  6
CONTINUOUS
 62
     7
 10
128.4187473395
 20
40.3888120273
 30
0.0
  0
VERTEX
  5
557
  8
0
  6
CONTINUOUS
 62
     7
 10
128.4279443362
 20
38.4934498885
 30
0.0
  0
VERTEX
  5
558
  8
0
  6
CONTINUOUS
 62
     7
 10
128.443930302
 20
36.5658833602
 30
0.0
  0
VERTEX
  5
559
  8
0
  6
CONTINUOUS
 62
     7
 10
128.4680284598
 20
34.5973088363
 30
0.0
  0
SEQEND
  5
6C0
  8
0
  6
CONTINUOUS
 62
     7
  0
ARC
  5
19D
  8
0
  6
CONTINUOUS
 62
     7
 10
121.7478816603
 20
34.4039577581
 30
0.0
 40
6.722927758566338
 50
275.3898914204
 51
1.6480511034
  0
ARC
  5
19E
  8
0
  6
CONTINUOUS
 62
     7
 10
90.9762211183
 20
367.6416760239
 30
0.0
 40
341.3783673145882
 50
264.7219385558
 51
275.2780614442
  0
ARC
  5
19F
  8
0
  6
CONTINUOUS
 62
     7
 10
60.1945664209
 20
34.3951157662
 30
0.0
 40
6.713192277529925
 50
178.2740607887
 51
264.6879410205
  0
POLYLINE
  5
1A0
  8
0
  6
CONTINUOUS
 62
     7
 66
     1
 10
0.0
 20
0.0
 30
0.0
  0
VERTEX
  5
55A
  8
0
  6
CONTINUOUS
 62
     7
 10
53.4844197372
 20
34.5973088363
 30
0.0
  0
VERTEX
  5
55B
  8
0
  6
CONTINUOUS
 62
     7
 10
53.5127319434
 20
36.9943334678
 30
0.0
  0
VERTEX
  5
55C
  8
0
  6
CONTINUOUS
 62
     7
 10
53.5292781928
 20
39.3340243915
 30
0.0
  0
VERTEX
  5
55D
  8
0
  6
CONTINUOUS
 62
     7
 10
53.5370744803
 20
41.6284277061
 30
0.0
  0
VERTEX
  5
55E
  8
0
  6
CONTINUOUS
 62
     7
 10
53.5398639777
 20
43.8862993339
 30
0.0
  0
VERTEX
  5
55F
  8
0
  6
CONTINUOUS
 62
     7
 10
53.5412706473
 20
46.1168303111
 30
0.0
  0
VERTEX
  5
560
  8
0
  6
CONTINUOUS
 62
     7
 10
53.544179354
 20
48.3442678073
 30
0.0
  0
VERTEX
  5
561
  8
0
  6
CONTINUOUS
 62
     7
 10
53.549722586
 20
50.5851699928
 30
0.0
  0
VERTEX
  5
562
  8
0
  6
CONTINUOUS
 62
     7
 10
53.5840429404
 20
56.7912294486
 30
0.0
  0
VERTEX
  5
563
  8
0
  6
CONTINUOUS
 62
     7
 10
53.6300338843
 20
62.9951699594
 30
0.0
  0
VERTEX
  5
564
  8
0
  6
CONTINUOUS
 62
     7
 10
53.6278761962
 20
66.292686663
 30
0.0
  0
VERTEX
  5
565
  8
0
  6
CONTINUOUS
 62
     7
 10
53.6007799247
 20
69.592954121
 30
0.0
  0
VERTEX
  5
566
  8
0
  6
CONTINUOUS
 62
     7
 10
53.5976089576
 20
72.8937759021
 30
0.0
  0
VERTEX
  5
567
  8
0
  6
CONTINUOUS
 62
     7
 10
53.6793626884
 20
76.1919661382
 30
0.0
  0
VERTEX
  5
568
  8
0
  6
CONTINUOUS
 62
     7
 10
53.8941182235
 20
79.48714932
 30
0.0
  0
VERTEX
  5
569
  8
0
  6
CONTINUOUS
 62
     7
 10
54.2516388038
 20
82.7792896846
 30
0.0
  0
VERTEX
  5
56A
  8
0
  6
CONTINUOUS
 62
     7
 10
54.852811251
 20
86.0555647829
 30
0.0
  0
VERTEX
  5
56B
  8
0
  6
CONTINUOUS
 62
     7
 10
55.7698763946
 20
89.3471687058
 30
0.0
  0
SEQEND
  5
6BF
  8
0
  6
CONTINUOUS
 62
     7
  0
ARC
  5
1A1
  8
0
  6
CONTINUOUS
 62
     7
 10
119.4499995802
 20
87.2283971793
 30
0.0
 40
7.36506378039636
 50
15.5445901336
 51
63.7661300822
  0
ARC
  5
1A2
  8
0
  6
CONTINUOUS
 62
     7
 10
62.4846257585
 20
87.2431656188
 30
0.0
 40
7.34394690224105
 50
116.16011569
 51
164.5291640942
  0
POLYLINE
  5
1A3
  8
0
  6
CONTINUOUS
 62
     7
 66
     1
 10
0.0
 20
0.0
 30
0.0
  0
VERTEX
  5
56C
  8
0
  6
CONTINUOUS
 62
     7
 10
126.545665417
 20
89.2021476248
 30
0.0
  0
VERTEX
  5
56D
  8
0
  6
CONTINUOUS
 62
     7
 10
126.9795812705
 20
87.6889928201
 30
0.0
  0
VERTEX
  5
56E
  8
0
  6
CONTINUOUS
 62
     7
 10
127.3775555232
 20
86.1758350352
 30
0.0
  0
SEQEND
  5
6BE
  8
0
  6
CONTINUOUS
 62
     7
  0
ARC
  5
1A4
  8
0
  6
CONTINUOUS
 62
     7
 10
68.7349234085
 20
74.2338699936
 30
0.0
 40
59.8460201434397
 50
6.6420820492
 51
11.5103020782
  0
POLYLINE
  5
1A5
  8
0
  6
CONTINUOUS
 62
     7
 66
     1
 10
0.0
 20
0.0
 30
0.0
  0
VERTEX
  5
56F
  8
0
  6
CONTINUOUS
 62
     7
 10
128.178975735
 20
81.1560331801
 30
0.0
  0
VERTEX
  5
570
  8
0
  6
CONTINUOUS
 62
     7
 10
128.4032441714
 20
78.6526127675
 30
0.0
  0
VERTEX
  5
571
  8
0
  6
CONTINUOUS
 62
     7
 10
128.5477496722
 20
76.1488660196
 30
0.0
  0
SEQEND
  5
6BD
  8
0
  6
CONTINUOUS
 62
     7
  0
LINE
  5
1A6
  8
0
  6
CONTINUOUS
 62
     7
 10
128.576222811
 20
74.2959960321
 30
0.0
 11
128.5473980048
 21
76.1488511184
 31
0.0
  0
LINE
  5
1A7
  8
0
  6
CONTINUOUS
 62
     7
 10
128.576222811
 20
66.1844386676
 30
0.0
 11
128.576222811
 21
74.2959960321
 31
0.0
  0
POLYLINE
  5
1A8
  8
0
  6
CONTINUOUS
 62
     7
 66
     1
 10
0.0
 20
0.0
 30
0.0
  0
VERTEX
  5
572
  8
0
  6
CONTINUOUS
 62
     7
 10
128.576222811
 20
66.184456549
 30
0.0
  0
VERTEX
  5
573
  8
0
  6
CONTINUOUS
 62
     7
 10
128.5615123847
 20
63.0125923971
 30
0.0
  0
VERTEX
  5
574
  8
0
  6
CONTINUOUS
 62
     7
 10
128.5762287715
 20
56.1845674137
 30
0.0
  0
SEQEND
  5
6BC
  8
0
  6
CONTINUOUS
 62
     7
  0
POLYLINE
  5
1A9
  8
0
  6
CONTINUOUS
 62
     7
 66
     1
 10
0.0
 20
0.0
 30
0.0
  0
VERTEX
  5
575
  8
0
  6
CONTINUOUS
 62
     7
 10
128.5762943366
 20
34.5300926784
 30
0.0
  0
VERTEX
  5
576
  8
0
  6
CONTINUOUS
 62
     7
 10
128.5762943366
 20
34.8380341152
 30
0.0
  0
VERTEX
  5
577
  8
0
  6
CONTINUOUS
 62
     7
 10
128.5760797599
 20
37.2498824218
 30
0.0
  0
VERTEX
  5
578
  8
0
  6
CONTINUOUS
 62
     7
 10
128.5756029227
 20
39.6344377616
 30
0.0
  0
VERTEX
  5
579
  8
0
  6
CONTINUOUS
 62
     7
 10
128.5752512553
 20
41.9977857688
 30
0.0
  0
VERTEX
  5
57A
  8
0
  6
CONTINUOUS
 62
     7
 10
128.576568518
 20
46.7066361526
 30
0.0
  0
VERTEX
  5
57B
  8
0
  6
CONTINUOUS
 62
     7
 10
128.5800434688
 20
51.4405383685
 30
0.0
  0
VERTEX
  5
57C
  8
0
  6
CONTINUOUS
 62
     7
 10
128.576222811
 20
56.1845674137
 30
0.0
  0
SEQEND
  5
6BB
  8
0
  6
CONTINUOUS
 62
     7
  0
LINE
  5
1AA
  8
0
  6
CONTINUOUS
 62
     7
 10
53.376225386
 20
56.1845674137
 30
0.0
 11
53.376225386
 21
46.1867227176
 31
0.0
  0
POLYLINE
  5
1AB
  8
0
  6
CONTINUOUS
 62
     7
 66
     1
 10
0.0
 20
0.0
 30
0.0
  0
VERTEX
  5
57D
  8
0
  6
CONTINUOUS
 62
     7
 10
53.376225386
 20
56.1845674137
 30
0.0
  0
VERTEX
  5
57E
  8
0
  6
CONTINUOUS
 62
     7
 10
53.3909358123
 20
63.0125923971
 30
0.0
  0
VERTEX
  5
57F
  8
0
  6
CONTINUOUS
 62
     7
 10
53.376225386
 20
66.184456549
 30
0.0
  0
SEQEND
  5
6BA
  8
0
  6
CONTINUOUS
 62
     7
  0
LINE
  5
1AC
  8
0
  6
CONTINUOUS
 62
     7
 10
53.376225386
 20
74.2959960321
 30
0.0
 11
53.376225386
 21
66.1844386676
 31
0.0
  0
LINE
  5
1AD
  8
0
  6
CONTINUOUS
 62
     7
 10
53.4050501922
 20
76.1488511184
 30
0.0
 11
53.376225386
 21
74.2959960321
 31
0.0
  0
POLYLINE
  5
1AE
  8
0
  6
CONTINUOUS
 62
     7
 66
     1
 10
0.0
 20
0.0
 30
0.0
  0
VERTEX
  5
580
  8
0
  6
CONTINUOUS
 62
     7
 10
53.4047044852
 20
76.1488660196
 30
0.0
  0
VERTEX
  5
581
  8
0
  6
CONTINUOUS
 62
     7
 10
53.549209986
 20
78.6526127675
 30
0.0
  0
VERTEX
  5
582
  8
0
  6
CONTINUOUS
 62
     7
 10
53.7734665015
 20
81.1560331801
 30
0.0
  0
SEQEND
  5
6B9
  8
0
  6
CONTINUOUS
 62
     7
  0
ARC
  5
1AF
  8
0
  6
CONTINUOUS
 62
     7
 10
113.1727392967
 20
74.2409538499
 30
0.0
 40
59.80072183119002
 50
168.4877862107
 51
173.3596969809
  0
POLYLINE
  5
1B0
  8
0
  6
CONTINUOUS
 62
     7
 66
     1
 10
0.0
 20
0.0
 30
0.0
  0
VERTEX
  5
583
  8
0
  6
CONTINUOUS
 62
     7
 10
54.5762218574
 20
86.1814244607
 30
0.0
  0
VERTEX
  5
584
  8
0
  6
CONTINUOUS
 62
     7
 10
54.9736537078
 20
87.6917882779
 30
0.0
  0
VERTEX
  5
585
  8
0
  6
CONTINUOUS
 62
     7
 10
55.4067768195
 20
89.2021476248
 30
0.0
  0
SEQEND
  5
6B8
  8
0
  6
CONTINUOUS
 62
     7
  0
POLYLINE
  5
1B1
  8
0
  6
CONTINUOUS
 62
     7
 66
     1
 10
0.0
 20
0.0
 30
0.0
  0
VERTEX
  5
586
  8
0
  6
CONTINUOUS
 62
     7
 10
53.3761538604
 20
34.5310403922
 30
0.0
  0
VERTEX
  5
587
  8
0
  6
CONTINUOUS
 62
     7
 10
53.3761538604
 20
34.5563664058
 30
0.0
  0
VERTEX
  5
588
  8
0
  6
CONTINUOUS
 62
     7
 10
53.3763207534
 20
36.969377003
 30
0.0
  0
VERTEX
  5
589
  8
0
  6
CONTINUOUS
 62
     7
 10
53.3767856696
 20
39.3578424075
 30
0.0
  0
VERTEX
  5
58A
  8
0
  6
CONTINUOUS
 62
     7
 10
53.3771790603
 20
41.7237593749
 30
0.0
  0
VERTEX
  5
58B
  8
0
  6
CONTINUOUS
 62
     7
 10
53.3770717719
 20
44.0785839179
 30
0.0
  0
VERTEX
  5
58C
  8
0
  6
CONTINUOUS
 62
     7
 10
53.376225386
 20
46.1867227176
 30
0.0
  0
SEQEND
  5
6B7
  8
0
  6
CONTINUOUS
 62
     7
  0
ARC
  5
1B2
  8
0
  6
CONTINUOUS
 62
     7
 10
121.9318080289
 20
34.3934515116
 30
0.0
 40
6.645891144309269
 50
292.5444205985
 51
1.1780984191
  0
ARC
  5
1B3
  8
0
  6
CONTINUOUS
 62
     7
 10
60.0236735256
 20
34.3974288354
 30
0.0
 40
6.648862289679413
 50
178.8485408031
 51
250.6418715343
  0
LINE
  5
1B4
  8
0
  6
CONTINUOUS
 62
     7
 10
128.1762220004
 20
81.1821862081
 30
0.0
 11
128.1792618373
 21
81.1560659626
 31
0.0
  0
POLYLINE
  5
1B5
  8
0
  6
CONTINUOUS
 62
     7
 66
     1
 10
0.0
 20
0.0
 30
0.0
  0
VERTEX
  5
58D
  8
0
  6
CONTINUOUS
 62
     7
 10
127.3773707488
 20
86.1757918218
 30
0.0
  0
VERTEX
  5
58E
  8
0
  6
CONTINUOUS
 62
     7
 10
127.8295554259
 20
83.6899264673
 30
0.0
  0
VERTEX
  5
58F
  8
0
  6
CONTINUOUS
 62
     7
 10
128.1762220004
 20
81.1821862081
 30
0.0
  0
SEQEND
  5
6B6
  8
0
  6
CONTINUOUS
 62
     7
  0
POLYLINE
  5
1B6
  8
0
  6
CONTINUOUS
 62
     7
 66
     1
 10
0.0
 20
0.0
 30
0.0
  0
VERTEX
  5
590
  8
0
  6
CONTINUOUS
 62
     7
 10
53.7762202361
 20
81.1821862081
 30
0.0
  0
VERTEX
  5
591
  8
0
  6
CONTINUOUS
 62
     7
 10
54.1221536735
 20
83.6853279689
 30
0.0
  0
VERTEX
  5
592
  8
0
  6
CONTINUOUS
 62
     7
 10
54.5750774482
 20
86.1757918218
 30
0.0
  0
SEQEND
  5
6B5
  8
0
  6
CONTINUOUS
 62
     7
  0
LINE
  5
1B7
  8
0
  6
CONTINUOUS
 62
     7
 10
53.7731803992
 20
81.1560659626
 30
0.0
 11
53.7762202361
 21
81.1821862081
 31
0.0
  0
LINE
  5
1B8
  8
0
  6
CONTINUOUS
 62
     7
 10
128.5473980048
 20
76.1488511184
 30
0.0
 11
128.576222811
 21
74.2981596807
 31
0.0
  0
LINE
  5
1B9
  8
0
  6
CONTINUOUS
 62
     7
 10
53.376225386
 20
74.2981596807
 30
0.0
 11
53.4050501922
 21
76.1488511184
 31
0.0
  0
ARC
  5
1BA
  8
0
  6
CONTINUOUS
 62
     7
 10
182.8540033305
 20
87.3910853759
 30
0.0
 40
7.349242666434619
 50
115.9018910856
 51
164.5639882162
  0
ARC
  5
1BB
  8
0
  6
CONTINUOUS
 62
     7
 10
210.9762229064
 20
27.7017951795
 30
0.0
 40
73.33113480251549
 50
64.7052171818
 51
115.2947828182
  0
ARC
  5
1BC
  8
0
  6
CONTINUOUS
 62
     7
 10
239.1144883158
 20
87.4044386394
 30
0.0
 40
7.330226547465729
 50
15.3687847357
 51
64.1653359624
  0
POLYLINE
  5
1BD
  8
0
  6
CONTINUOUS
 62
     7
 66
     1
 10
0.0
 20
0.0
 30
0.0
  0
VERTEX
  5
593
  8
0
  6
CONTINUOUS
 62
     7
 10
246.1825676301
 20
89.3471687058
 30
0.0
  0
VERTEX
  5
594
  8
0
  6
CONTINUOUS
 62
     7
 10
247.0996327737
 20
86.0555647829
 30
0.0
  0
VERTEX
  5
595
  8
0
  6
CONTINUOUS
 62
     7
 10
247.7008082011
 20
82.7792896846
 30
0.0
  0
VERTEX
  5
596
  8
0
  6
CONTINUOUS
 62
     7
 10
248.0583287814
 20
79.48714932
 30
0.0
  0
VERTEX
  5
597
  8
0
  6
CONTINUOUS
 62
     7
 10
248.2730872968
 20
76.1919661382
 30
0.0
  0
VERTEX
  5
598
  8
0
  6
CONTINUOUS
 62
     7
 10
248.3548350671
 20
72.8937759021
 30
0.0
  0
VERTEX
  5
599
  8
0
  6
CONTINUOUS
 62
     7
 10
248.3516700604
 20
69.592954121
 30
0.0
  0
VERTEX
  5
59A
  8
0
  6
CONTINUOUS
 62
     7
 10
248.3245678285
 20
66.292686663
 30
0.0
  0
VERTEX
  5
59B
  8
0
  6
CONTINUOUS
 62
     7
 10
248.3224101403
 20
62.9951699594
 30
0.0
  0
VERTEX
  5
59C
  8
0
  6
CONTINUOUS
 62
     7
 10
248.3693458179
 20
56.675021253
 30
0.0
  0
VERTEX
  5
59D
  8
0
  6
CONTINUOUS
 62
     7
 10
248.4034366944
 20
50.3542914012
 30
0.0
  0
VERTEX
  5
59E
  8
0
  6
CONTINUOUS
 62
     7
 10
248.412439976
 20
44.1010608295
 30
0.0
  0
VERTEX
  5
59F
  8
0
  6
CONTINUOUS
 62
     7
 10
248.4142579177
 20
42.2563387969
 30
0.0
  0
VERTEX
  5
5A0
  8
0
  6
CONTINUOUS
 62
     7
 10
248.4187461474
 20
40.3888120273
 30
0.0
  0
VERTEX
  5
5A1
  8
0
  6
CONTINUOUS
 62
     7
 10
248.4279431441
 20
38.4934498885
 30
0.0
  0
VERTEX
  5
5A2
  8
0
  6
CONTINUOUS
 62
     7
 10
248.4439291099
 20
36.5658833602
 30
0.0
  0
VERTEX
  5
5A3
  8
0
  6
CONTINUOUS
 62
     7
 10
248.4680272677
 20
34.5973088363
 30
0.0
  0
SEQEND
  5
6B4
  8
0
  6
CONTINUOUS
 62
     7
  0
ARC
  5
1BE
  8
0
  6
CONTINUOUS
 62
     7
 10
241.7478798355
 20
34.4039580442
 30
0.0
 40
6.722928382776641
 50
275.3899218463
 51
1.6480485111
  0
ARC
  5
1BF
  8
0
  6
CONTINUOUS
 62
     7
 10
210.9762229064
 20
367.6416981609
 30
0.0
 40
341.3783893576837
 50
264.7219388975
 51
275.2780611025
  0
ARC
  5
1C0
  8
0
  6
CONTINUOUS
 62
     7
 10
180.1945719344
 20
34.3951219638
 30
0.0
 40
6.713198793403753
 50
178.2741153836
 51
264.6879142591
  0
POLYLINE
  5
1C1
  8
0
  6
CONTINUOUS
 62
     7
 66
     1
 10
0.0
 20
0.0
 30
0.0
  0
VERTEX
  5
5A4
  8
0
  6
CONTINUOUS
 62
     7
 10
173.4844185451
 20
34.5973088363
 30
0.0
  0
VERTEX
  5
5A5
  8
0
  6
CONTINUOUS
 62
     7
 10
173.5127367118
 20
36.9943334678
 30
0.0
  0
VERTEX
  5
5A6
  8
0
  6
CONTINUOUS
 62
     7
 10
173.5292770007
 20
39.3340243915
 30
0.0
  0
VERTEX
  5
5A7
  8
0
  6
CONTINUOUS
 62
     7
 10
173.5370732883
 20
41.6284277061
 30
0.0
  0
VERTEX
  5
5A8
  8
0
  6
CONTINUOUS
 62
     7
 10
173.5398657659
 20
43.8862993339
 30
0.0
  0
VERTEX
  5
5A9
  8
0
  6
CONTINUOUS
 62
     7
 10
173.541266475
 20
46.1168303111
 30
0.0
  0
VERTEX
  5
5AA
  8
0
  6
CONTINUOUS
 62
     7
 10
173.5441781619
 20
48.3442678073
 30
0.0
  0
VERTEX
  5
5AB
  8
0
  6
CONTINUOUS
 62
     7
 10
173.5497184136
 20
50.5851699928
 30
0.0
  0
VERTEX
  5
5AC
  8
0
  6
CONTINUOUS
 62
     7
 10
173.5840447286
 20
56.7912294486
 30
0.0
  0
VERTEX
  5
5AD
  8
0
  6
CONTINUOUS
 62
     7
 10
173.6300356725
 20
62.9951699594
 30
0.0
  0
VERTEX
  5
5AE
  8
0
  6
CONTINUOUS
 62
     7
 10
173.6278779843
 20
66.292686663
 30
0.0
  0
VERTEX
  5
5AF
  8
0
  6
CONTINUOUS
 62
     7
 10
173.6007757524
 20
69.592954121
 30
0.0
  0
VERTEX
  5
5B0
  8
0
  6
CONTINUOUS
 62
     7
 10
173.5976107457
 20
72.8937759021
 30
0.0
  0
VERTEX
  5
5B1
  8
0
  6
CONTINUOUS
 62
     7
 10
173.679358516
 20
76.1919661382
 30
0.0
  0
VERTEX
  5
5B2
  8
0
  6
CONTINUOUS
 62
     7
 10
173.8941170314
 20
79.48714932
 30
0.0
  0
VERTEX
  5
5B3
  8
0
  6
CONTINUOUS
 62
     7
 10
174.2516376117
 20
82.7792896846
 30
0.0
  0
VERTEX
  5
5B4
  8
0
  6
CONTINUOUS
 62
     7
 10
174.8528130391
 20
86.0555647829
 30
0.0
  0
VERTEX
  5
5B5
  8
0
  6
CONTINUOUS
 62
     7
 10
175.7698781827
 20
89.3471687058
 30
0.0
  0
SEQEND
  5
6B3
  8
0
  6
CONTINUOUS
 62
     7
  0
ARC
  5
1C2
  8
0
  6
CONTINUOUS
 62
     7
 10
210.9762229064
 20
27.7140729334
 30
0.0
 40
73.33969272412412
 50
64.365028314
 51
115.634971686
  0
ARC
  5
1C3
  8
0
  6
CONTINUOUS
 62
     7
 10
239.4500101815
 20
87.2284023903
 30
0.0
 40
7.365053893038885
 50
15.544569452
 51
63.7661944591
  0
ARC
  5
1C4
  8
0
  6
CONTINUOUS
 62
     7
 10
182.4845872327
 20
87.2431969522
 30
0.0
 40
7.34389969094044
 50
116.1599202931
 51
164.5293157959
  0
POLYLINE
  5
1C5
  8
0
  6
CONTINUOUS
 62
     7
 66
     1
 10
0.0
 20
0.0
 30
0.0
  0
VERTEX
  5
5B6
  8
0
  6
CONTINUOUS
 62
     7
 10
246.5456672051
 20
89.2021476248
 30
0.0
  0
VERTEX
  5
5B7
  8
0
  6
CONTINUOUS
 62
     7
 10
246.9795830586
 20
87.6889928201
 30
0.0
  0
VERTEX
  5
5B8
  8
0
  6
CONTINUOUS
 62
     7
 10
247.3775543311
 20
86.1758350352
 30
0.0
  0
SEQEND
  5
6B2
  8
0
  6
CONTINUOUS
 62
     7
  0
ARC
  5
1C6
  8
0
  6
CONTINUOUS
 62
     7
 10
188.7312450628
 20
74.2332821
 30
0.0
 40
59.84974357644715
 50
6.6422335737
 51
11.5101505537
  0
POLYLINE
  5
1C7
  8
0
  6
CONTINUOUS
 62
     7
 66
     1
 10
0.0
 20
0.0
 30
0.0
  0
VERTEX
  5
5B9
  8
0
  6
CONTINUOUS
 62
     7
 10
248.1789775231
 20
81.1560331801
 30
0.0
  0
VERTEX
  5
5BA
  8
0
  6
CONTINUOUS
 62
     7
 10
248.4032399991
 20
78.6526127675
 30
0.0
  0
VERTEX
  5
5BB
  8
0
  6
CONTINUOUS
 62
     7
 10
248.5477484801
 20
76.1488660196
 30
0.0
  0
SEQEND
  5
6B1
  8
0
  6
CONTINUOUS
 62
     7
  0
LINE
  5
1C8
  8
0
  6
CONTINUOUS
 62
     7
 10
248.5762216189
 20
74.2959960321
 30
0.0
 11
248.547399793
 21
76.1488511184
 31
0.0
  0
LINE
  5
1C9
  8
0
  6
CONTINUOUS
 62
     7
 10
248.5762216189
 20
66.1844386676
 30
0.0
 11
248.5762216189
 21
74.2959960321
 31
0.0
  0
POLYLINE
  5
1CA
  8
0
  6
CONTINUOUS
 62
     7
 66
     1
 10
0.0
 20
0.0
 30
0.0
  0
VERTEX
  5
5BC
  8
0
  6
CONTINUOUS
 62
     7
 10
248.5762216189
 20
66.184456549
 30
0.0
  0
VERTEX
  5
5BD
  8
0
  6
CONTINUOUS
 62
     7
 10
248.5615141728
 20
63.0125923971
 30
0.0
  0
VERTEX
  5
5BE
  8
0
  6
CONTINUOUS
 62
     7
 10
248.5762275794
 20
56.1845674137
 30
0.0
  0
SEQEND
  5
6B0
  8
0
  6
CONTINUOUS
 62
     7
  0
POLYLINE
  5
1CB
  8
0
  6
CONTINUOUS
 62
     7
 66
     1
 10
0.0
 20
0.0
 30
0.0
  0
VERTEX
  5
5BF
  8
0
  6
CONTINUOUS
 62
     7
 10
248.5762931445
 20
34.5300926784
 30
0.0
  0
VERTEX
  5
5C0
  8
0
  6
CONTINUOUS
 62
     7
 10
248.5762931445
 20
34.8380341152
 30
0.0
  0
VERTEX
  5
5C1
  8
0
  6
CONTINUOUS
 62
     7
 10
248.5760785678
 20
37.2498824218
 30
0.0
  0
VERTEX
  5
5C2
  8
0
  6
CONTINUOUS
 62
     7
 10
248.5756017306
 20
39.6344377616
 30
0.0
  0
VERTEX
  5
5C3
  8
0
  6
CONTINUOUS
 62
     7
 10
248.5752500632
 20
41.9977857688
 30
0.0
  0
VERTEX
  5
5C4
  8
0
  6
CONTINUOUS
 62
     7
 10
248.5765703061
 20
46.7066361526
 30
0.0
  0
VERTEX
  5
5C5
  8
0
  6
CONTINUOUS
 62
     7
 10
248.5800452569
 20
51.4405383685
 30
0.0
  0
VERTEX
  5
5C6
  8
0
  6
CONTINUOUS
 62
     7
 10
248.5762216189
 20
56.1845674137
 30
0.0
  0
SEQEND
  5
6AF
  8
0
  6
CONTINUOUS
 62
     7
  0
LINE
  5
1CC
  8
0
  6
CONTINUOUS
 62
     7
 10
173.3762241939
 20
56.1845674137
 30
0.0
 11
173.3762241939
 21
46.1867227176
 31
0.0
  0
POLYLINE
  5
1CD
  8
0
  6
CONTINUOUS
 62
     7
 66
     1
 10
0.0
 20
0.0
 30
0.0
  0
VERTEX
  5
5C7
  8
0
  6
CONTINUOUS
 62
     7
 10
173.3762182334
 20
56.1845674137
 30
0.0
  0
VERTEX
  5
5C8
  8
0
  6
CONTINUOUS
 62
     7
 10
173.39093164
 20
63.0125923971
 30
0.0
  0
VERTEX
  5
5C9
  8
0
  6
CONTINUOUS
 62
     7
 10
173.3762241939
 20
66.184456549
 30
0.0
  0
SEQEND
  5
6AE
  8
0
  6
CONTINUOUS
 62
     7
  0
LINE
  5
1CE
  8
0
  6
CONTINUOUS
 62
     7
 10
173.3762241939
 20
74.2959960321
 30
0.0
 11
173.3762241939
 21
66.1844386676
 31
0.0
  0
LINE
  5
1CF
  8
0
  6
CONTINUOUS
 62
     7
 10
173.4050460198
 20
76.1488511184
 30
0.0
 11
173.3762241939
 21
74.2959960321
 31
0.0
  0
POLYLINE
  5
1D0
  8
0
  6
CONTINUOUS
 62
     7
 66
     1
 10
0.0
 20
0.0
 30
0.0
  0
VERTEX
  5
5CA
  8
0
  6
CONTINUOUS
 62
     7
 10
173.4046973327
 20
76.1488660196
 30
0.0
  0
VERTEX
  5
5CB
  8
0
  6
CONTINUOUS
 62
     7
 10
173.5492058137
 20
78.6526127675
 30
0.0
  0
VERTEX
  5
5CC
  8
0
  6
CONTINUOUS
 62
     7
 10
173.7734682897
 20
81.1560331801
 30
0.0
  0
SEQEND
  5
6AD
  8
0
  6
CONTINUOUS
 62
     7
  0
ARC
  5
1D1
  8
0
  6
CONTINUOUS
 62
     7
 10
233.1765438562
 20
74.2404159446
 30
0.0
 40
59.80456129353639
 50
168.488009485
 51
173.3596063875
  0
POLYLINE
  5
1D2
  8
0
  6
CONTINUOUS
 62
     7
 66
     1
 10
0.0
 20
0.0
 30
0.0
  0
VERTEX
  5
5CD
  8
0
  6
CONTINUOUS
 62
     7
 10
174.5762236455
 20
86.1814244607
 30
0.0
  0
VERTEX
  5
5CE
  8
0
  6
CONTINUOUS
 62
     7
 10
174.9736495355
 20
87.6917882779
 30
0.0
  0
VERTEX
  5
5CF
  8
0
  6
CONTINUOUS
 62
     7
 10
175.4067786077
 20
89.2021476248
 30
0.0
  0
SEQEND
  5
6AC
  8
0
  6
CONTINUOUS
 62
     7
  0
POLYLINE
  5
1D3
  8
0
  6
CONTINUOUS
 62
     7
 66
     1
 10
0.0
 20
0.0
 30
0.0
  0
VERTEX
  5
5D0
  8
0
  6
CONTINUOUS
 62
     7
 10
173.3761526683
 20
34.5310403922
 30
0.0
  0
VERTEX
  5
5D1
  8
0
  6
CONTINUOUS
 62
     7
 10
173.3761526683
 20
34.5563664058
 30
0.0
  0
VERTEX
  5
5D2
  8
0
  6
CONTINUOUS
 62
     7
 10
173.3763225415
 20
36.969377003
 30
0.0
  0
VERTEX
  5
5D3
  8
0
  6
CONTINUOUS
 62
     7
 10
173.3767874578
 20
39.3578424075
 30
0.0
  0
VERTEX
  5
5D4
  8
0
  6
CONTINUOUS
 62
     7
 10
173.3771719077
 20
41.7237593749
 30
0.0
  0
VERTEX
  5
5D5
  8
0
  6
CONTINUOUS
 62
     7
 10
173.3770705798
 20
44.0785839179
 30
0.0
  0
VERTEX
  5
5D6
  8
0
  6
CONTINUOUS
 62
     7
 10
173.3762241939
 20
46.1867227176
 30
0.0
  0
SEQEND
  5
6AB
  8
0
  6
CONTINUOUS
 62
     7
  0
ARC
  5
1D4
  8
0
  6
CONTINUOUS
 62
     7
 10
241.9318115427
 20
34.3934484393
 30
0.0
 40
6.645886502542978
 50
292.544393283
 51
1.1781257346
  0
ARC
  5
1D5
  8
0
  6
CONTINUOUS
 62
     7
 10
180.0236795295
 20
34.3974328013
 30
0.0
 40
6.648869404511403
 50
178.8485762181
 51
250.641800128
  0
LINE
  5
1D6
  8
0
  6
CONTINUOUS
 62
     7
 10
248.1762237886
 20
81.1821862081
 30
0.0
 11
248.1792636254
 21
81.1560659626
 31
0.0
  0
POLYLINE
  5
1D7
  8
0
  6
CONTINUOUS
 62
     7
 66
     1
 10
0.0
 20
0.0
 30
0.0
  0
VERTEX
  5
5D7
  8
0
  6
CONTINUOUS
 62
     7
 10
247.377372537
 20
86.1757918218
 30
0.0
  0
VERTEX
  5
5D8
  8
0
  6
CONTINUOUS
 62
     7
 10
247.8295572141
 20
83.6899264673
 30
0.0
  0
VERTEX
  5
5D9
  8
0
  6
CONTINUOUS
 62
     7
 10
248.1762237886
 20
81.1821862081
 30
0.0
  0
SEQEND
  5
6AA
  8
0
  6
CONTINUOUS
 62
     7
  0
POLYLINE
  5
1D8
  8
0
  6
CONTINUOUS
 62
     7
 66
     1
 10
0.0
 20
0.0
 30
0.0
  0
VERTEX
  5
5DA
  8
0
  6
CONTINUOUS
 62
     7
 10
173.7762220243
 20
81.1821862081
 30
0.0
  0
VERTEX
  5
5DB
  8
0
  6
CONTINUOUS
 62
     7
 10
174.1221524814
 20
83.6853279689
 30
0.0
  0
VERTEX
  5
5DC
  8
0
  6
CONTINUOUS
 62
     7
 10
174.5750732759
 20
86.1757918218
 30
0.0
  0
SEQEND
  5
6A9
  8
0
  6
CONTINUOUS
 62
     7
  0
LINE
  5
1D9
  8
0
  6
CONTINUOUS
 62
     7
 10
173.7731821874
 20
81.1560659626
 30
0.0
 11
173.7762220243
 21
81.1821862081
 31
0.0
  0
LINE
  5
1DA
  8
0
  6
CONTINUOUS
 62
     7
 10
248.547399793
 20
76.1488511184
 30
0.0
 11
248.5762216189
 21
74.2981596807
 31
0.0
  0
LINE
  5
1DB
  8
0
  6
CONTINUOUS
 62
     7
 10
173.3762241939
 20
74.2981596807
 30
0.0
 11
173.4050460198
 21
76.1488511184
 31
0.0
  0
ARC
  5
1DC
  8
0
  6
CONTINUOUS
 62
     7
 10
302.8539869115
 20
87.3911025832
 30
0.0
 40
7.349220536149682
 50
115.9018429008
 51
164.5640797475
  0
ARC
  5
1DD
  8
0
  6
CONTINUOUS
 62
     7
 10
330.9762246945
 20
27.7017786314
 30
0.0
 40
73.33115103743319
 50
64.705220601
 51
115.294779399
  0
ARC
  5
1DE
  8
0
  6
CONTINUOUS
 62
     7
 10
359.1145106544
 20
87.404466837
 30
0.0
 40
7.330193511455199
 50
15.3686271333
 51
64.1653635254
  0
POLYLINE
  5
1DF
  8
0
  6
CONTINUOUS
 62
     7
 66
     1
 10
0.0
 20
0.0
 30
0.0
  0
VERTEX
  5
5DD
  8
0
  6
CONTINUOUS
 62
     7
 10
366.1825694182
 20
89.3471687058
 30
0.0
  0
VERTEX
  5
5DE
  8
0
  6
CONTINUOUS
 62
     7
 10
367.0996345618
 20
86.0555647829
 30
0.0
  0
VERTEX
  5
5DF
  8
0
  6
CONTINUOUS
 62
     7
 10
367.700807009
 20
82.7792896846
 30
0.0
  0
VERTEX
  5
5E0
  8
0
  6
CONTINUOUS
 62
     7
 10
368.0583275893
 20
79.48714932
 30
0.0
  0
VERTEX
  5
5E1
  8
0
  6
CONTINUOUS
 62
     7
 10
368.2730831245
 20
76.1919661382
 30
0.0
  0
VERTEX
  5
5E2
  8
0
  6
CONTINUOUS
 62
     7
 10
368.3548368552
 20
72.8937759021
 30
0.0
  0
VERTEX
  5
5E3
  8
0
  6
CONTINUOUS
 62
     7
 10
368.3516658881
 20
69.592954121
 30
0.0
  0
VERTEX
  5
5E4
  8
0
  6
CONTINUOUS
 62
     7
 10
368.3245696166
 20
66.292686663
 30
0.0
  0
VERTEX
  5
5E5
  8
0
  6
CONTINUOUS
 62
     7
 10
368.3224119285
 20
62.9951699594
 30
0.0
  0
VERTEX
  5
5E6
  8
0
  6
CONTINUOUS
 62
     7
 10
368.3693446258
 20
56.675021253
 30
0.0
  0
VERTEX
  5
5E7
  8
0
  6
CONTINUOUS
 62
     7
 10
368.4034384826
 20
50.3542914012
 30
0.0
  0
VERTEX
  5
5E8
  8
0
  6
CONTINUOUS
 62
     7
 10
368.4124387839
 20
44.1010608295
 30
0.0
  0
VERTEX
  5
5E9
  8
0
  6
CONTINUOUS
 62
     7
 10
368.4142507651
 20
42.2563387969
 30
0.0
  0
VERTEX
  5
5EA
  8
0
  6
CONTINUOUS
 62
     7
 10
368.4187449554
 20
40.3888120273
 30
0.0
  0
VERTEX
  5
5EB
  8
0
  6
CONTINUOUS
 62
     7
 10
368.4279359916
 20
38.4934498885
 30
0.0
  0
VERTEX
  5
5EC
  8
0
  6
CONTINUOUS
 62
     7
 10
368.4439338782
 20
36.5658833602
 30
0.0
  0
VERTEX
  5
5ED
  8
0
  6
CONTINUOUS
 62
     7
 10
368.4680260757
 20
34.5973088363
 30
0.0
  0
SEQEND
  5
6A8
  8
0
  6
CONTINUOUS
 62
     7
  0
ARC
  5
1E0
  8
0
  6
CONTINUOUS
 62
     7
 10
361.7478747252
 20
34.4039612351
 30
0.0
 40
6.722932207627628
 50
275.3899778237
 51
1.6480203672
  0
ARC
  5
1E1
  8
0
  6
CONTINUOUS
 62
     7
 10
330.9762246945
 20
367.6416633889
 30
0.0
 40
341.3783547331221
 50
264.7219383607
 51
275.2780616393
  0
ARC
  5
1E2
  8
0
  6
CONTINUOUS
 62
     7
 10
300.194573547
 20
34.3951247125
 30
0.0
 40
6.71320151400552
 50
178.2741395531
 51
264.687917923
  0
POLYLINE
  5
1E3
  8
0
  6
CONTINUOUS
 62
     7
 66
     1
 10
0.0
 20
0.0
 30
0.0
  0
VERTEX
  5
5EE
  8
0
  6
CONTINUOUS
 62
     7
 10
293.484417353
 20
34.5973088363
 30
0.0
  0
VERTEX
  5
5EF
  8
0
  6
CONTINUOUS
 62
     7
 10
293.5127355197
 20
36.9943334678
 30
0.0
  0
VERTEX
  5
5F0
  8
0
  6
CONTINUOUS
 62
     7
 10
293.5292758086
 20
39.3340243915
 30
0.0
  0
VERTEX
  5
5F1
  8
0
  6
CONTINUOUS
 62
     7
 10
293.5370720962
 20
41.6284277061
 30
0.0
  0
VERTEX
  5
5F2
  8
0
  6
CONTINUOUS
 62
     7
 10
293.539867554
 20
43.8862993339
 30
0.0
  0
VERTEX
  5
5F3
  8
0
  6
CONTINUOUS
 62
     7
 10
293.5412682632
 20
46.1168303111
 30
0.0
  0
VERTEX
  5
5F4
  8
0
  6
CONTINUOUS
 62
     7
 10
293.5441769698
 20
48.3442678073
 30
0.0
  0
VERTEX
  5
5F5
  8
0
  6
CONTINUOUS
 62
     7
 10
293.5497202018
 20
50.5851699928
 30
0.0
  0
VERTEX
  5
5F6
  8
0
  6
CONTINUOUS
 62
     7
 10
293.5840465167
 20
56.7912294486
 30
0.0
  0
VERTEX
  5
5F7
  8
0
  6
CONTINUOUS
 62
     7
 10
293.6300374606
 20
62.9951699594
 30
0.0
  0
VERTEX
  5
5F8
  8
0
  6
CONTINUOUS
 62
     7
 10
293.6278797725
 20
66.292686663
 30
0.0
  0
VERTEX
  5
5F9
  8
0
  6
CONTINUOUS
 62
     7
 10
293.6007775405
 20
69.592954121
 30
0.0
  0
VERTEX
  5
5FA
  8
0
  6
CONTINUOUS
 62
     7
 10
293.5976125339
 20
72.8937759021
 30
0.0
  0
VERTEX
  5
5FB
  8
0
  6
CONTINUOUS
 62
     7
 10
293.6793603042
 20
76.1919661382
 30
0.0
  0
VERTEX
  5
5FC
  8
0
  6
CONTINUOUS
 62
     7
 10
293.8941158393
 20
79.48714932
 30
0.0
  0
VERTEX
  5
5FD
  8
0
  6
CONTINUOUS
 62
     7
 10
294.2516364196
 20
82.7792896846
 30
0.0
  0
VERTEX
  5
5FE
  8
0
  6
CONTINUOUS
 62
     7
 10
294.8528148273
 20
86.0555647829
 30
0.0
  0
VERTEX
  5
5FF
  8
0
  6
CONTINUOUS
 62
     7
 10
295.7698799708
 20
89.3471687058
 30
0.0
  0
SEQEND
  5
6A7
  8
0
  6
CONTINUOUS
 62
     7
  0
ARC
  5
1E4
  8
0
  6
CONTINUOUS
 62
     7
 10
330.9762246945
 20
27.7140592031
 30
0.0
 40
73.33970639235517
 50
64.3650308557
 51
115.6349691443
  0
ARC
  5
1E5
  8
0
  6
CONTINUOUS
 62
     7
 10
359.4499474268
 20
87.228350985
 30
0.0
 40
7.365129851135001
 50
15.5448201664
 51
63.7659000493
  0
ARC
  5
1E6
  8
0
  6
CONTINUOUS
 62
     7
 10
302.4845904693
 20
87.2431978345
 30
0.0
 40
7.343900851565476
 50
116.1599543402
 51
164.5293254441
  0
POLYLINE
  5
1E7
  8
0
  6
CONTINUOUS
 62
     7
 66
     1
 10
0.0
 20
0.0
 30
0.0
  0
VERTEX
  5
600
  8
0
  6
CONTINUOUS
 62
     7
 10
366.5456689933
 20
89.2021476248
 30
0.0
  0
VERTEX
  5
601
  8
0
  6
CONTINUOUS
 62
     7
 10
366.9795788863
 20
87.6889928201
 30
0.0
  0
VERTEX
  5
602
  8
0
  6
CONTINUOUS
 62
     7
 10
367.3775590995
 20
86.1758350352
 30
0.0
  0
SEQEND
  5
6A6
  8
0
  6
CONTINUOUS
 62
     7
  0
ARC
  5
1E8
  8
0
  6
CONTINUOUS
 62
     7
 10
308.7362522784
 20
74.2340120756
 30
0.0
 40
59.84468731089841
 50
6.6420936952
 51
11.5104231132
  0
POLYLINE
  5
1E9
  8
0
  6
CONTINUOUS
 62
     7
 66
     1
 10
0.0
 20
0.0
 30
0.0
  0
VERTEX
  5
603
  8
0
  6
CONTINUOUS
 62
     7
 10
368.1789793113
 20
81.1560331801
 30
0.0
  0
VERTEX
  5
604
  8
0
  6
CONTINUOUS
 62
     7
 10
368.4032358268
 20
78.6526127675
 30
0.0
  0
VERTEX
  5
605
  8
0
  6
CONTINUOUS
 62
     7
 10
368.5477413276
 20
76.1488660196
 30
0.0
  0
SEQEND
  5
6A5
  8
0
  6
CONTINUOUS
 62
     7
  0
LINE
  5
1EA
  8
0
  6
CONTINUOUS
 62
     7
 10
368.5762204269
 20
74.2959960321
 30
0.0
 11
368.5473956206
 21
76.1488511184
 31
0.0
  0
LINE
  5
1EB
  8
0
  6
CONTINUOUS
 62
     7
 10
368.5762204269
 20
66.1844386676
 30
0.0
 11
368.5762204269
 21
74.2959960321
 31
0.0
  0
POLYLINE
  5
1EC
  8
0
  6
CONTINUOUS
 62
     7
 66
     1
 10
0.0
 20
0.0
 30
0.0
  0
VERTEX
  5
606
  8
0
  6
CONTINUOUS
 62
     7
 10
368.5762204269
 20
66.184456549
 30
0.0
  0
VERTEX
  5
607
  8
0
  6
CONTINUOUS
 62
     7
 10
368.5615100005
 20
63.0125923971
 30
0.0
  0
VERTEX
  5
608
  8
0
  6
CONTINUOUS
 62
     7
 10
368.5762204269
 20
56.1845674137
 30
0.0
  0
SEQEND
  5
6A4
  8
0
  6
CONTINUOUS
 62
     7
  0
POLYLINE
  5
1ED
  8
0
  6
CONTINUOUS
 62
     7
 66
     1
 10
0.0
 20
0.0
 30
0.0
  0
VERTEX
  5
609
  8
0
  6
CONTINUOUS
 62
     7
 10
368.5762919524
 20
34.5300926784
 30
0.0
  0
VERTEX
  5
60A
  8
0
  6
CONTINUOUS
 62
     7
 10
368.5762919524
 20
34.8380341152
 30
0.0
  0
VERTEX
  5
60B
  8
0
  6
CONTINUOUS
 62
     7
 10
368.5760773757
 20
37.2498824218
 30
0.0
  0
VERTEX
  5
60C
  8
0
  6
CONTINUOUS
 62
     7
 10
368.5756005385
 20
39.6344377616
 30
0.0
  0
VERTEX
  5
60D
  8
0
  6
CONTINUOUS
 62
     7
 10
368.5752548316
 20
41.9977857688
 30
0.0
  0
VERTEX
  5
60E
  8
0
  6
CONTINUOUS
 62
     7
 10
368.5765661338
 20
46.7066361526
 30
0.0
  0
VERTEX
  5
60F
  8
0
  6
CONTINUOUS
 62
     7
 10
368.580047045
 20
51.4405383685
 30
0.0
  0
VERTEX
  5
610
  8
0
  6
CONTINUOUS
 62
     7
 10
368.5762204269
 20
56.1845674137
 30
0.0
  0
SEQEND
  5
6A3
  8
0
  6
CONTINUOUS
 62
     7
  0
LINE
  5
1EE
  8
0
  6
CONTINUOUS
 62
     7
 10
293.3762230018
 20
56.1845674137
 30
0.0
 11
293.3762230018
 21
46.1867227176
 31
0.0
  0
POLYLINE
  5
1EF
  8
0
  6
CONTINUOUS
 62
     7
 66
     1
 10
0.0
 20
0.0
 30
0.0
  0
VERTEX
  5
611
  8
0
  6
CONTINUOUS
 62
     7
 10
293.3762170413
 20
56.1845674137
 30
0.0
  0
VERTEX
  5
612
  8
0
  6
CONTINUOUS
 62
     7
 10
293.3909334281
 20
63.0125923971
 30
0.0
  0
VERTEX
  5
613
  8
0
  6
CONTINUOUS
 62
     7
 10
293.3762230018
 20
66.184456549
 30
0.0
  0
SEQEND
  5
6A2
  8
0
  6
CONTINUOUS
 62
     7
  0
LINE
  5
1F0
  8
0
  6
CONTINUOUS
 62
     7
 10
293.3762230018
 20
74.2959960321
 30
0.0
 11
293.3762230018
 21
66.1844386676
 31
0.0
  0
LINE
  5
1F1
  8
0
  6
CONTINUOUS
 62
     7
 10
293.405047808
 20
76.1488511184
 30
0.0
 11
293.3762230018
 21
74.2959960321
 31
0.0
  0
POLYLINE
  5
1F2
  8
0
  6
CONTINUOUS
 62
     7
 66
     1
 10
0.0
 20
0.0
 30
0.0
  0
VERTEX
  5
614
  8
0
  6
CONTINUOUS
 62
     7
 10
293.4046961406
 20
76.1488660196
 30
0.0
  0
VERTEX
  5
615
  8
0
  6
CONTINUOUS
 62
     7
 10
293.5492016414
 20
78.6526127675
 30
0.0
  0
VERTEX
  5
616
  8
0
  6
CONTINUOUS
 62
     7
 10
293.7734700778
 20
81.1560331801
 30
0.0
  0
SEQEND
  5
6A1
  8
0
  6
CONTINUOUS
 62
     7
  0
ARC
  5
1F3
  8
0
  6
CONTINUOUS
 62
     7
 10
353.1740893112
 20
74.2408083386
 30
0.0
 40
59.80207606333695
 50
168.4879081981
 51
173.3597076745
  0
POLYLINE
  5
1F4
  8
0
  6
CONTINUOUS
 62
     7
 66
     1
 10
0.0
 20
0.0
 30
0.0
  0
VERTEX
  5
617
  8
0
  6
CONTINUOUS
 62
     7
 10
294.5762254336
 20
86.1814244607
 30
0.0
  0
VERTEX
  5
618
  8
0
  6
CONTINUOUS
 62
     7
 10
294.9736513236
 20
87.6917882779
 30
0.0
  0
VERTEX
  5
619
  8
0
  6
CONTINUOUS
 62
     7
 10
295.4067803958
 20
89.2021476248
 30
0.0
  0
SEQEND
  5
6A0
  8
0
  6
CONTINUOUS
 62
     7
  0
POLYLINE
  5
1F5
  8
0
  6
CONTINUOUS
 62
     7
 66
     1
 10
0.0
 20
0.0
 30
0.0
  0
VERTEX
  5
61A
  8
0
  6
CONTINUOUS
 62
     7
 10
293.3761514762
 20
34.5310403922
 30
0.0
  0
VERTEX
  5
61B
  8
0
  6
CONTINUOUS
 62
     7
 10
293.3761514762
 20
34.5563664058
 30
0.0
  0
VERTEX
  5
61C
  8
0
  6
CONTINUOUS
 62
     7
 10
293.3763243297
 20
36.969377003
 30
0.0
  0
VERTEX
  5
61D
  8
0
  6
CONTINUOUS
 62
     7
 10
293.3767892459
 20
39.3578424075
 30
0.0
  0
VERTEX
  5
61E
  8
0
  6
CONTINUOUS
 62
     7
 10
293.3771707156
 20
41.7237593749
 30
0.0
  0
VERTEX
  5
61F
  8
0
  6
CONTINUOUS
 62
     7
 10
293.3770693877
 20
44.0785839179
 30
0.0
  0
VERTEX
  5
620
  8
0
  6
CONTINUOUS
 62
     7
 10
293.3762230018
 20
46.1867227176
 30
0.0
  0
SEQEND
  5
69F
  8
0
  6
CONTINUOUS
 62
     7
  0
ARC
  5
1F6
  8
0
  6
CONTINUOUS
 62
     7
 10
361.9318073163
 20
34.3934479999
 30
0.0
 40
6.645889545294237
 50
292.5444663561
 51
1.1781289845
  0
ARC
  5
1F7
  8
0
  6
CONTINUOUS
 62
     7
 10
300.0236785064
 20
34.3974339438
 30
0.0
 40
6.648869550557123
 50
178.8485860905
 51
250.6418262469
  0
LINE
  5
1F8
  8
0
  6
CONTINUOUS
 62
     7
 10
368.1762255767
 20
81.1821862081
 30
0.0
 11
368.1792654136
 21
81.1560659626
 31
0.0
  0
POLYLINE
  5
1F9
  8
0
  6
CONTINUOUS
 62
     7
 66
     1
 10
0.0
 20
0.0
 30
0.0
  0
VERTEX
  5
621
  8
0
  6
CONTINUOUS
 62
     7
 10
367.3773683646
 20
86.1757918218
 30
0.0
  0
VERTEX
  5
622
  8
0
  6
CONTINUOUS
 62
     7
 10
367.8295530417
 20
83.6899264673
 30
0.0
  0
VERTEX
  5
623
  8
0
  6
CONTINUOUS
 62
     7
 10
368.1762255767
 20
81.1821862081
 30
0.0
  0
SEQEND
  5
69E
  8
0
  6
CONTINUOUS
 62
     7
  0
POLYLINE
  5
1FA
  8
0
  6
CONTINUOUS
 62
     7
 66
     1
 10
0.0
 20
0.0
 30
0.0
  0
VERTEX
  5
624
  8
0
  6
CONTINUOUS
 62
     7
 10
293.7762238124
 20
81.1821862081
 30
0.0
  0
VERTEX
  5
625
  8
0
  6
CONTINUOUS
 62
     7
 10
294.1221512893
 20
83.6853279689
 30
0.0
  0
VERTEX
  5
626
  8
0
  6
CONTINUOUS
 62
     7
 10
294.575075064
 20
86.1757918218
 30
0.0
  0
SEQEND
  5
69D
  8
0
  6
CONTINUOUS
 62
     7
  0
LINE
  5
1FB
  8
0
  6
CONTINUOUS
 62
     7
 10
293.7731839755
 20
81.1560659626
 30
0.0
 11
293.7762238124
 21
81.1821862081
 31
0.0
  0
LINE
  5
1FC
  8
0
  6
CONTINUOUS
 62
     7
 10
368.5473956206
 20
76.1488511184
 30
0.0
 11
368.5762204269
 21
74.2981596807
 31
0.0
  0
LINE
  5
1FD
  8
0
  6
CONTINUOUS
 62
     7
 10
293.3762230018
 20
74.2981596807
 30
0.0
 11
293.405047808
 21
76.1488511184
 31
0.0
  0
LINE
  5
1FE
  8
0
  6
CONTINUOUS
 62
     7
 10
294.150546942
 20
99.9905633697
 30
0.0
 11
294.150546942
 21
99.9337441245
 31
0.0
  0
LINE
  5
1FF
  8
0
  6
CONTINUOUS
 62
     7
 10
293.3728016952
 20
38.7905611614
 30
0.0
 11
293.2762242892
 21
38.7905611614
 31
0.0
  0
LINE
  5
200
  8
0
  6
CONTINUOUS
 62
     7
 10
293.2762242892
 20
38.7905611614
 30
0.0
 11
293.2762242892
 21
99.9905633697
 31
0.0
  0
LINE
  5
201
  8
0
  6
CONTINUOUS
 62
     7
 10
293.2762242892
 20
99.9905633697
 30
0.0
 11
294.150546942
 21
99.9905633697
 31
0.0
  0
LINE
  5
202
  8
0
  6
CONTINUOUS
 62
     7
 10
294.150546942
 20
99.9337441245
 30
0.0
 11
294.3720676044
 21
99.9185061971
 31
0.0
  0
ARC
  5
203
  8
0
  6
CONTINUOUS
 62
     7
 10
294.9401842964
 20
97.8789799196
 30
0.0
 40
1.996145080097149
 50
359.8798522284
 51
86.029573014
  0
LINE
  5
204
  8
0
  6
CONTINUOUS
 62
     7
 10
296.9363249877
 20
97.8747940579
 30
0.0
 11
296.9363249877
 21
93.4722728053
 31
0.0
  0
ARC
  5
205
  8
0
  6
CONTINUOUS
 62
     7
 10
298.1381175634
 20
93.4714894531
 30
0.0
 40
1.201792831047264
 50
179.9626534821
 51
232.2494355137
  0
LINE
  5
206
  8
0
  6
CONTINUOUS
 62
     7
 10
295.0784005263
 20
99.8703340957
 30
0.0
 11
294.3720676044
 21
99.9185061971
 31
0.0
  0
LINE
  5
207
  8
0
  6
CONTINUOUS
 62
     7
 10
293.2762242892
 20
99.9905633697
 30
0.0
 11
293.2762242892
 21
112.7106799701
 31
0.0
  0
LINE
  5
208
  8
0
  6
CONTINUOUS
 62
     7
 10
294.07621995
 20
112.7106799701
 30
0.0
 11
294.07621995
 21
99.9905633697
 31
0.0
  0
LINE
  5
209
  8
0
  6
CONTINUOUS
 62
     7
 10
293.2762242892
 20
113.8905635992
 30
0.0
 11
294.07621995
 21
113.8905635992
 31
0.0
  0
LINE
  5
20A
  8
0
  6
CONTINUOUS
 62
     7
 10
293.2762242892
 20
112.7106799701
 30
0.0
 11
293.2762242892
 21
113.8905635992
 31
0.0
  0
LINE
  5
20B
  8
0
  6
CONTINUOUS
 62
     7
 10
294.07621995
 20
113.8905635992
 30
0.0
 11
294.07621995
 21
112.7106799701
 31
0.0
  0
LINE
  5
20C
  8
0
  6
CONTINUOUS
 62
     7
 10
298.4762229064
 20
110.89056348
 30
0.0
 11
298.4762229064
 21
109.8905633161
 31
0.0
  0
LINE
  5
20D
  8
0
  6
CONTINUOUS
 62
     7
 10
298.4762229064
 20
110.89056348
 30
0.0
 11
294.07621995
 21
110.89056348
 31
0.0
  0
LINE
  5
20E
  8
0
  6
CONTINUOUS
 62
     7
 10
288.4762205222
 20
110.89056348
 30
0.0
 11
288.4762205222
 21
109.8905633161
 31
0.0
  0
LINE
  5
20F
  8
0
  6
CONTINUOUS
 62
     7
 10
293.2762242892
 20
110.89056348
 30
0.0
 11
288.4762205222
 21
110.89056348
 31
0.0
  0
LINE
  5
210
  8
0
  6
CONTINUOUS
 62
     7
 10
288.4762205222
 20
109.8905633161
 30
0.0
 11
288.4762205222
 21
100.6905632982
 31
0.0
  0
LINE
  5
211
  8
0
  6
CONTINUOUS
 62
     7
 10
298.4762229064
 20
109.8905633161
 30
0.0
 11
298.4762229064
 21
100.6905632982
 31
0.0
  0
LINE
  5
212
  8
0
  6
CONTINUOUS
 62
     7
 10
293.2762242892
 20
99.6905631343
 30
0.0
 11
288.4762205222
 21
99.6905631343
 31
0.0
  0
LINE
  5
213
  8
0
  6
CONTINUOUS
 62
     7
 10
288.4762205222
 20
100.6905632982
 30
0.0
 11
288.4762205222
 21
99.6905631343
 31
0.0
  0
LINE
  5
214
  8
0
  6
CONTINUOUS
 62
     7
 10
298.4762229064
 20
99.6905631343
 30
0.0
 11
295.7801140883
 21
99.6905631343
 31
0.0
  0
LINE
  5
215
  8
0
  6
CONTINUOUS
 62
     7
 10
298.4762229064
 20
100.6905632982
 30
0.0
 11
298.4762229064
 21
99.6905631343
 31
0.0
  0
LINE
  5
216
  8
0
  6
CONTINUOUS
 62
     7
 10
54.1505493262
 20
99.9905633697
 30
0.0
 11
54.1505493262
 21
99.9337441245
 31
0.0
  0
LINE
  5
217
  8
0
  6
CONTINUOUS
 62
     7
 10
53.3728040793
 20
38.7905611614
 30
0.0
 11
53.276220713
 21
38.7905611614
 31
0.0
  0
LINE
  5
218
  8
0
  6
CONTINUOUS
 62
     7
 10
53.276220713
 20
38.7905611614
 30
0.0
 11
53.276220713
 21
99.9905633697
 31
0.0
  0
LINE
  5
219
  8
0
  6
CONTINUOUS
 62
     7
 10
53.276220713
 20
99.9905633697
 30
0.0
 11
54.1505493262
 21
99.9905633697
 31
0.0
  0
LINE
  5
21A
  8
0
  6
CONTINUOUS
 62
     7
 10
54.1505493262
 20
99.9337441245
 30
0.0
 11
54.3720640281
 21
99.9185061971
 31
0.0
  0
ARC
  5
21B
  8
0
  6
CONTINUOUS
 62
     7
 10
54.9401798977
 20
97.8789736044
 30
0.0
 40
1.996151849803424
 50
359.8800339019
 51
86.0293913405
  0
LINE
  5
21C
  8
0
  6
CONTINUOUS
 62
     7
 10
56.9363273719
 20
97.8747940579
 30
0.0
 11
56.9363273719
 21
93.4722728053
 31
0.0
  0
ARC
  5
21D
  8
0
  6
CONTINUOUS
 62
     7
 10
58.1380827084
 20
93.4714712049
 30
0.0
 40
1.201755603831524
 50
179.9617823107
 51
232.2503066851
  0
LINE
  5
21E
  8
0
  6
CONTINUOUS
 62
     7
 10
55.0784029105
 20
99.8703340957
 30
0.0
 11
54.3720640281
 21
99.9185061971
 31
0.0
  0
LINE
  5
21F
  8
0
  6
CONTINUOUS
 62
     7
 10
53.276220713
 20
99.9905633697
 30
0.0
 11
53.276220713
 21
112.7106799701
 31
0.0
  0
LINE
  5
220
  8
0
  6
CONTINUOUS
 62
     7
 10
54.0762223342
 20
112.7106799701
 30
0.0
 11
54.0762223342
 21
99.9905633697
 31
0.0
  0
LINE
  5
221
  8
0
  6
CONTINUOUS
 62
     7
 10
53.276220713
 20
113.8905635992
 30
0.0
 11
54.0762223342
 21
113.8905635992
 31
0.0
  0
LINE
  5
222
  8
0
  6
CONTINUOUS
 62
     7
 10
53.276220713
 20
112.7106799701
 30
0.0
 11
53.276220713
 21
113.8905635992
 31
0.0
  0
LINE
  5
223
  8
0
  6
CONTINUOUS
 62
     7
 10
54.0762223342
 20
113.8905635992
 30
0.0
 11
54.0762223342
 21
112.7106799701
 31
0.0
  0
LINE
  5
224
  8
0
  6
CONTINUOUS
 62
     7
 10
58.4762252906
 20
110.89056348
 30
0.0
 11
58.4762252906
 21
109.8905633161
 31
0.0
  0
LINE
  5
225
  8
0
  6
CONTINUOUS
 62
     7
 10
58.4762252906
 20
110.89056348
 30
0.0
 11
54.0762223342
 21
110.89056348
 31
0.0
  0
LINE
  5
226
  8
0
  6
CONTINUOUS
 62
     7
 10
53.276220713
 20
110.89056348
 30
0.0
 11
48.4762229064
 21
110.89056348
 31
0.0
  0
LINE
  5
227
  8
0
  6
CONTINUOUS
 62
     7
 10
48.4762229064
 20
110.89056348
 30
0.0
 11
48.4762229064
 21
109.8905633161
 31
0.0
  0
LINE
  5
228
  8
0
  6
CONTINUOUS
 62
     7
 10
58.4762252906
 20
109.8905633161
 30
0.0
 11
58.4762252906
 21
100.6905632982
 31
0.0
  0
LINE
  5
229
  8
0
  6
CONTINUOUS
 62
     7
 10
48.4762229064
 20
109.8905633161
 30
0.0
 11
48.4762229064
 21
100.6905632982
 31
0.0
  0
LINE
  5
22A
  8
0
  6
CONTINUOUS
 62
     7
 10
58.4762252906
 20
99.6905631343
 30
0.0
 11
55.7801164725
 21
99.6905631343
 31
0.0
  0
LINE
  5
22B
  8
0
  6
CONTINUOUS
 62
     7
 10
58.4762252906
 20
100.6905632982
 30
0.0
 11
58.4762252906
 21
99.6905631343
 31
0.0
  0
LINE
  5
22C
  8
0
  6
CONTINUOUS
 62
     7
 10
53.276220713
 20
99.6905631343
 30
0.0
 11
48.4762229064
 21
99.6905631343
 31
0.0
  0
LINE
  5
22D
  8
0
  6
CONTINUOUS
 62
     7
 10
48.4762229064
 20
100.6905632982
 30
0.0
 11
48.4762229064
 21
99.6905631343
 31
0.0
  0
LINE
  5
22E
  8
0
  6
CONTINUOUS
 62
     7
 10
174.1505481341
 20
99.9905633697
 30
0.0
 11
174.1505481341
 21
99.9337441245
 31
0.0
  0
LINE
  5
22F
  8
0
  6
CONTINUOUS
 62
     7
 10
174.1505481341
 20
99.9337441245
 30
0.0
 11
174.3720687964
 21
99.9185061971
 31
0.0
  0
LINE
  5
230
  8
0
  6
CONTINUOUS
 62
     7
 10
173.372799907
 20
38.7905611614
 30
0.0
 11
173.2762225011
 21
38.7905611614
 31
0.0
  0
LINE
  5
231
  8
0
  6
CONTINUOUS
 62
     7
 10
173.2762225011
 20
38.7905611614
 30
0.0
 11
173.2762225011
 21
99.9905633697
 31
0.0
  0
LINE
  5
232
  8
0
  6
CONTINUOUS
 62
     7
 10
173.2762225011
 20
99.9905633697
 30
0.0
 11
174.1505481341
 21
99.9905633697
 31
0.0
  0
ARC
  5
233
  8
0
  6
CONTINUOUS
 62
     7
 10
174.9401839276
 20
97.8789784663
 30
0.0
 40
1.996146637964857
 50
359.8798940358
 51
86.0295312065
  0
LINE
  5
234
  8
0
  6
CONTINUOUS
 62
     7
 10
176.9363261798
 20
97.8747940579
 30
0.0
 11
176.9363261798
 21
93.4722728053
 31
0.0
  0
ARC
  5
235
  8
0
  6
CONTINUOUS
 62
     7
 10
178.1381187555
 20
93.4714894531
 30
0.0
 40
1.201792831047321
 50
179.9626534821
 51
232.2494355137
  0
LINE
  5
236
  8
0
  6
CONTINUOUS
 62
     7
 10
175.0784017184
 20
99.8703340957
 30
0.0
 11
174.3720687964
 21
99.9185061971
 31
0.0
  0
LINE
  5
237
  8
0
  6
CONTINUOUS
 62
     7
 10
173.2762225011
 20
99.9905633697
 30
0.0
 11
173.2762225011
 21
112.7106799701
 31
0.0
  0
LINE
  5
238
  8
0
  6
CONTINUOUS
 62
     7
 10
174.0762241223
 20
112.7106799701
 30
0.0
 11
174.0762241223
 21
99.9905633697
 31
0.0
  0
LINE
  5
239
  8
0
  6
CONTINUOUS
 62
     7
 10
173.2762225011
 20
113.8905635992
 30
0.0
 11
174.0762241223
 21
113.8905635992
 31
0.0
  0
LINE
  5
23A
  8
0
  6
CONTINUOUS
 62
     7
 10
173.2762225011
 20
112.7106799701
 30
0.0
 11
173.2762225011
 21
113.8905635992
 31
0.0
  0
LINE
  5
23B
  8
0
  6
CONTINUOUS
 62
     7
 10
174.0762241223
 20
113.8905635992
 30
0.0
 11
174.0762241223
 21
112.7106799701
 31
0.0
  0
LINE
  5
23C
  8
0
  6
CONTINUOUS
 62
     7
 10
178.4762240985
 20
110.89056348
 30
0.0
 11
178.4762240985
 21
109.8905633161
 31
0.0
  0
LINE
  5
23D
  8
0
  6
CONTINUOUS
 62
     7
 10
178.4762240985
 20
110.89056348
 30
0.0
 11
174.0762241223
 21
110.89056348
 31
0.0
  0
LINE
  5
23E
  8
0
  6
CONTINUOUS
 62
     7
 10
173.2762225011
 20
110.89056348
 30
0.0
 11
168.4762217143
 21
110.89056348
 31
0.0
  0
LINE
  5
23F
  8
0
  6
CONTINUOUS
 62
     7
 10
168.4762217143
 20
110.89056348
 30
0.0
 11
168.4762217143
 21
109.8905633161
 31
0.0
  0
LINE
  5
240
  8
0
  6
CONTINUOUS
 62
     7
 10
178.4762240985
 20
109.8905633161
 30
0.0
 11
178.4762240985
 21
100.6905632982
 31
0.0
  0
LINE
  5
241
  8
0
  6
CONTINUOUS
 62
     7
 10
168.4762217143
 20
109.8905633161
 30
0.0
 11
168.4762217143
 21
100.6905632982
 31
0.0
  0
LINE
  5
242
  8
0
  6
CONTINUOUS
 62
     7
 10
178.4762240985
 20
99.6905631343
 30
0.0
 11
175.7801123002
 21
99.6905631343
 31
0.0
  0
LINE
  5
243
  8
0
  6
CONTINUOUS
 62
     7
 10
178.4762240985
 20
100.6905632982
 30
0.0
 11
178.4762240985
 21
99.6905631343
 31
0.0
  0
LINE
  5
244
  8
0
  6
CONTINUOUS
 62
     7
 10
173.2762225011
 20
99.6905631343
 30
0.0
 11
168.4762217143
 21
99.6905631343
 31
0.0
  0
LINE
  5
245
  8
0
  6
CONTINUOUS
 62
     7
 10
168.4762217143
 20
100.6905632982
 30
0.0
 11
168.4762217143
 21
99.6905631343
 31
0.0
  0
LINE
  5
246
  8
0
  6
CONTINUOUS
 62
     7
 10
128.6762215236
 20
38.7905611614
 30
0.0
 11
128.6762215236
 21
99.9905633697
 31
0.0
  0
LINE
  5
247
  8
0
  6
CONTINUOUS
 62
     7
 10
128.5796441176
 20
38.7905611614
 30
0.0
 11
128.6762215236
 21
38.7905611614
 31
0.0
  0
LINE
  5
248
  8
0
  6
CONTINUOUS
 62
     7
 10
127.8018988708
 20
99.9337441245
 30
0.0
 11
127.5803782085
 21
99.9185061971
 31
0.0
  0
LINE
  5
249
  8
0
  6
CONTINUOUS
 62
     7
 10
127.8018988708
 20
99.9905633697
 30
0.0
 11
127.8018988708
 21
99.9337441245
 31
0.0
  0
LINE
  5
24A
  8
0
  6
CONTINUOUS
 62
     7
 10
128.6762215236
 20
99.9905633697
 30
0.0
 11
127.8018988708
 21
99.9905633697
 31
0.0
  0
ARC
  5
24B
  8
0
  6
CONTINUOUS
 62
     7
 10
123.814286275
 20
93.4715000519
 30
0.0
 40
1.201834798489527
 50
308.2419419619
 51
0.0368399334
  0
LINE
  5
24C
  8
0
  6
CONTINUOUS
 62
     7
 10
125.0161208251
 20
97.8747940579
 30
0.0
 11
125.0161208251
 21
93.4722728053
 31
0.0
  0
ARC
  5
24D
  8
0
  6
CONTINUOUS
 62
     7
 10
127.0122615164
 20
97.8789799196
 30
0.0
 40
1.996145080097153
 50
93.970426986
 51
180.1201477716
  0
LINE
  5
24E
  8
0
  6
CONTINUOUS
 62
     7
 10
126.8740452865
 20
99.8703340957
 30
0.0
 11
127.5803782085
 21
99.9185061971
 31
0.0
  0
LINE
  5
24F
  8
0
  6
CONTINUOUS
 62
     7
 10
128.6762215236
 20
99.9905633697
 30
0.0
 11
128.6762215236
 21
112.7106799701
 31
0.0
  0
LINE
  5
250
  8
0
  6
CONTINUOUS
 62
     7
 10
127.8762258628
 20
112.7106799701
 30
0.0
 11
127.8762258628
 21
99.9905633697
 31
0.0
  0
LINE
  5
251
  8
0
  6
CONTINUOUS
 62
     7
 10
128.6762215236
 20
113.8905635992
 30
0.0
 11
127.8762258628
 21
113.8905635992
 31
0.0
  0
LINE
  5
252
  8
0
  6
CONTINUOUS
 62
     7
 10
128.6762215236
 20
112.7106799701
 30
0.0
 11
128.6762215236
 21
113.8905635992
 31
0.0
  0
LINE
  5
253
  8
0
  6
CONTINUOUS
 62
     7
 10
127.8762258628
 20
113.8905635992
 30
0.0
 11
127.8762258628
 21
112.7106799701
 31
0.0
  0
LINE
  5
254
  8
0
  6
CONTINUOUS
 62
     7
 10
123.4762229064
 20
110.89056348
 30
0.0
 11
127.8762258628
 21
110.89056348
 31
0.0
  0
LINE
  5
255
  8
0
  6
CONTINUOUS
 62
     7
 10
123.4762229064
 20
110.89056348
 30
0.0
 11
123.4762229064
 21
109.8905633161
 31
0.0
  0
LINE
  5
256
  8
0
  6
CONTINUOUS
 62
     7
 10
128.6762215236
 20
110.89056348
 30
0.0
 11
133.4762252906
 21
110.89056348
 31
0.0
  0
LINE
  5
257
  8
0
  6
CONTINUOUS
 62
     7
 10
133.4762252906
 20
110.89056348
 30
0.0
 11
133.4762252906
 21
109.8905633161
 31
0.0
  0
LINE
  5
258
  8
0
  6
CONTINUOUS
 62
     7
 10
123.4762229064
 20
109.8905633161
 30
0.0
 11
123.4762229064
 21
100.6905632982
 31
0.0
  0
LINE
  5
259
  8
0
  6
CONTINUOUS
 62
     7
 10
133.4762252906
 20
109.8905633161
 30
0.0
 11
133.4762252906
 21
100.6905632982
 31
0.0
  0
LINE
  5
25A
  8
0
  6
CONTINUOUS
 62
     7
 10
128.6762215236
 20
99.6905631343
 30
0.0
 11
133.4762252906
 21
99.6905631343
 31
0.0
  0
LINE
  5
25B
  8
0
  6
CONTINUOUS
 62
     7
 10
133.4762252906
 20
100.6905632982
 30
0.0
 11
133.4762252906
 21
99.6905631343
 31
0.0
  0
LINE
  5
25C
  8
0
  6
CONTINUOUS
 62
     7
 10
123.4762229064
 20
99.6905631343
 30
0.0
 11
126.1723317245
 21
99.6905631343
 31
0.0
  0
LINE
  5
25D
  8
0
  6
CONTINUOUS
 62
     7
 10
123.4762229064
 20
100.6905632982
 30
0.0
 11
123.4762229064
 21
99.6905631343
 31
0.0
  0
LINE
  5
25E
  8
0
  6
CONTINUOUS
 62
     7
 10
248.6762233117
 20
38.7905611614
 30
0.0
 11
248.6762233117
 21
99.9905633697
 31
0.0
  0
LINE
  5
25F
  8
0
  6
CONTINUOUS
 62
     7
 10
248.5796459058
 20
38.7905611614
 30
0.0
 11
248.6762233117
 21
38.7905611614
 31
0.0
  0
LINE
  5
260
  8
0
  6
CONTINUOUS
 62
     7
 10
247.8018976787
 20
99.9337441245
 30
0.0
 11
247.5803770164
 21
99.9185061971
 31
0.0
  0
LINE
  5
261
  8
0
  6
CONTINUOUS
 62
     7
 10
247.8018976787
 20
99.9905633697
 30
0.0
 11
247.8018976787
 21
99.9337441245
 31
0.0
  0
LINE
  5
262
  8
0
  6
CONTINUOUS
 62
     7
 10
248.6762233117
 20
99.9905633697
 30
0.0
 11
247.8018976787
 21
99.9905633697
 31
0.0
  0
ARC
  5
263
  8
0
  6
CONTINUOUS
 62
     7
 10
243.814285083
 20
93.4715000519
 30
0.0
 40
1.201834798489605
 50
308.241941962
 51
0.0368399334
  0
LINE
  5
264
  8
0
  6
CONTINUOUS
 62
     7
 10
245.016119633
 20
97.8747940579
 30
0.0
 11
245.016119633
 21
93.4722728053
 31
0.0
  0
ARC
  5
265
  8
0
  6
CONTINUOUS
 62
     7
 10
247.0122618852
 20
97.8789784663
 30
0.0
 40
1.996146637964843
 50
93.9704687935
 51
180.1201059642
  0
LINE
  5
266
  8
0
  6
CONTINUOUS
 62
     7
 10
246.8740440944
 20
99.8703340957
 30
0.0
 11
247.5803770164
 21
99.9185061971
 31
0.0
  0
LINE
  5
267
  8
0
  6
CONTINUOUS
 62
     7
 10
248.6762233117
 20
99.9905633697
 30
0.0
 11
248.6762233117
 21
112.7106799701
 31
0.0
  0
LINE
  5
268
  8
0
  6
CONTINUOUS
 62
     7
 10
247.8762216905
 20
112.7106799701
 30
0.0
 11
247.8762216905
 21
99.9905633697
 31
0.0
  0
LINE
  5
269
  8
0
  6
CONTINUOUS
 62
     7
 10
248.6762233117
 20
113.8905635992
 30
0.0
 11
247.8762216905
 21
113.8905635992
 31
0.0
  0
LINE
  5
26A
  8
0
  6
CONTINUOUS
 62
     7
 10
248.6762233117
 20
112.7106799701
 30
0.0
 11
248.6762233117
 21
113.8905635992
 31
0.0
  0
LINE
  5
26B
  8
0
  6
CONTINUOUS
 62
     7
 10
247.8762216905
 20
113.8905635992
 30
0.0
 11
247.8762216905
 21
112.7106799701
 31
0.0
  0
LINE
  5
26C
  8
0
  6
CONTINUOUS
 62
     7
 10
248.6762233117
 20
110.89056348
 30
0.0
 11
253.4762240985
 21
110.89056348
 31
0.0
  0
LINE
  5
26D
  8
0
  6
CONTINUOUS
 62
     7
 10
253.4762240985
 20
110.89056348
 30
0.0
 11
253.4762240985
 21
109.8905633161
 31
0.0
  0
LINE
  5
26E
  8
0
  6
CONTINUOUS
 62
     7
 10
243.4762217143
 20
110.89056348
 30
0.0
 11
247.8762216905
 21
110.89056348
 31
0.0
  0
LINE
  5
26F
  8
0
  6
CONTINUOUS
 62
     7
 10
243.4762217143
 20
110.89056348
 30
0.0
 11
243.4762217143
 21
109.8905633161
 31
0.0
  0
LINE
  5
270
  8
0
  6
CONTINUOUS
 62
     7
 10
253.4762240985
 20
109.8905633161
 30
0.0
 11
253.4762240985
 21
100.6905632982
 31
0.0
  0
LINE
  5
271
  8
0
  6
CONTINUOUS
 62
     7
 10
243.4762217143
 20
109.8905633161
 30
0.0
 11
243.4762217143
 21
100.6905632982
 31
0.0
  0
LINE
  5
272
  8
0
  6
CONTINUOUS
 62
     7
 10
243.4762217143
 20
99.6905631343
 30
0.0
 11
246.1723335126
 21
99.6905631343
 31
0.0
  0
LINE
  5
273
  8
0
  6
CONTINUOUS
 62
     7
 10
243.4762217143
 20
100.6905632982
 30
0.0
 11
243.4762217143
 21
99.6905631343
 31
0.0
  0
LINE
  5
274
  8
0
  6
CONTINUOUS
 62
     7
 10
248.6762233117
 20
99.6905631343
 30
0.0
 11
253.4762240985
 21
99.6905631343
 31
0.0
  0
LINE
  5
275
  8
0
  6
CONTINUOUS
 62
     7
 10
253.4762240985
 20
100.6905632982
 30
0.0
 11
253.4762240985
 21
99.6905631343
 31
0.0
  0
LINE
  5
276
  8
0
  6
CONTINUOUS
 62
     7
 10
368.6762250999
 20
38.7905611614
 30
0.0
 11
368.6762250999
 21
99.9905633697
 31
0.0
  0
LINE
  5
277
  8
0
  6
CONTINUOUS
 62
     7
 10
368.5796417335
 20
38.7905611614
 30
0.0
 11
368.6762250999
 21
38.7905611614
 31
0.0
  0
LINE
  5
278
  8
0
  6
CONTINUOUS
 62
     7
 10
367.8018964866
 20
99.9337441245
 30
0.0
 11
367.5803817847
 21
99.9185061971
 31
0.0
  0
LINE
  5
279
  8
0
  6
CONTINUOUS
 62
     7
 10
367.8018964866
 20
99.9905633697
 30
0.0
 11
367.8018964866
 21
99.9337441245
 31
0.0
  0
LINE
  5
27A
  8
0
  6
CONTINUOUS
 62
     7
 10
368.6762250999
 20
99.9905633697
 30
0.0
 11
367.8018964866
 21
99.9905633697
 31
0.0
  0
ARC
  5
27B
  8
0
  6
CONTINUOUS
 62
     7
 10
363.8143217957
 20
93.4714816784
 30
0.0
 40
1.201796905601961
 50
308.241064846
 51
0.0377170493
  0
LINE
  5
27C
  8
0
  6
CONTINUOUS
 62
     7
 10
365.0161184409
 20
97.8747940579
 30
0.0
 11
365.0161184409
 21
93.4722728053
 31
0.0
  0
ARC
  5
27D
  8
0
  6
CONTINUOUS
 62
     7
 10
367.0122659151
 20
97.8789736044
 30
0.0
 40
1.99615184980341
 50
93.9706086595
 51
180.1199660981
  0
LINE
  5
27E
  8
0
  6
CONTINUOUS
 62
     7
 10
366.8740429023
 20
99.8703340957
 30
0.0
 11
367.5803817847
 21
99.9185061971
 31
0.0
  0
LINE
  5
27F
  8
0
  6
CONTINUOUS
 62
     7
 10
368.6762250999
 20
99.9905633697
 30
0.0
 11
368.6762250999
 21
112.7106799701
 31
0.0
  0
LINE
  5
280
  8
0
  6
CONTINUOUS
 62
     7
 10
367.8762234786
 20
112.7106799701
 30
0.0
 11
367.8762234786
 21
99.9905633697
 31
0.0
  0
LINE
  5
281
  8
0
  6
CONTINUOUS
 62
     7
 10
368.6762250999
 20
113.8905635992
 30
0.0
 11
367.8762234786
 21
113.8905635992
 31
0.0
  0
LINE
  5
282
  8
0
  6
CONTINUOUS
 62
     7
 10
368.6762250999
 20
112.7106799701
 30
0.0
 11
368.6762250999
 21
113.8905635992
 31
0.0
  0
LINE
  5
283
  8
0
  6
CONTINUOUS
 62
     7
 10
367.8762234786
 20
113.8905635992
 30
0.0
 11
367.8762234786
 21
112.7106799701
 31
0.0
  0
LINE
  5
284
  8
0
  6
CONTINUOUS
 62
     7
 10
368.6762250999
 20
110.89056348
 30
0.0
 11
373.4762229064
 21
110.89056348
 31
0.0
  0
LINE
  5
285
  8
0
  6
CONTINUOUS
 62
     7
 10
373.4762229064
 20
110.89056348
 30
0.0
 11
373.4762229064
 21
109.8905633161
 31
0.0
  0
LINE
  5
286
  8
0
  6
CONTINUOUS
 62
     7
 10
363.4762205222
 20
110.89056348
 30
0.0
 11
367.8762234786
 21
110.89056348
 31
0.0
  0
LINE
  5
287
  8
0
  6
CONTINUOUS
 62
     7
 10
363.4762205222
 20
110.89056348
 30
0.0
 11
363.4762205222
 21
109.8905633161
 31
0.0
  0
LINE
  5
288
  8
0
  6
CONTINUOUS
 62
     7
 10
373.4762229064
 20
109.8905633161
 30
0.0
 11
373.4762229064
 21
100.6905632982
 31
0.0
  0
LINE
  5
289
  8
0
  6
CONTINUOUS
 62
     7
 10
363.4762205222
 20
109.8905633161
 30
0.0
 11
363.4762205222
 21
100.6905632982
 31
0.0
  0
LINE
  5
28A
  8
0
  6
CONTINUOUS
 62
     7
 10
368.6762250999
 20
99.6905631343
 30
0.0
 11
373.4762229064
 21
99.6905631343
 31
0.0
  0
LINE
  5
28B
  8
0
  6
CONTINUOUS
 62
     7
 10
373.4762229064
 20
100.6905632982
 30
0.0
 11
373.4762229064
 21
99.6905631343
 31
0.0
  0
LINE
  5
28C
  8
0
  6
CONTINUOUS
 62
     7
 10
363.4762205222
 20
99.6905631343
 30
0.0
 11
366.1723293403
 21
99.6905631343
 31
0.0
  0
LINE
  5
28D
  8
0
  6
CONTINUOUS
 62
     7
 10
363.4762205222
 20
100.6905632982
 30
0.0
 11
363.4762205222
 21
99.6905631343
 31
0.0
  0
POLYLINE
  5
28E
  8
0
  6
CONTINUOUS
 62
     7
 66
     1
 10
0.0
 20
0.0
 30
0.0
  0
VERTEX
  5
627
  8
0
  6
CONTINUOUS
 62
     7
 10
574.515048545
 20
265.739907752
 30
0.0
  0
VERTEX
  5
628
  8
0
  6
CONTINUOUS
 62
     7
 10
576.2990632469
 20
265.8361334905
 30
0.0
  0
VERTEX
  5
629
  8
0
  6
CONTINUOUS
 62
     7
 10
578.7201562339
 20
265.9804720983
 30
0.0
  0
VERTEX
  5
62A
  8
0
  6
CONTINUOUS
 62
     7
 10
579.9118438179
 20
265.9703750715
 30
0.0
  0
VERTEX
  5
62B
  8
0
  6
CONTINUOUS
 62
     7
 10
581.0616531784
 20
265.8208210573
 30
0.0
  0
VERTEX
  5
62C
  8
0
  6
CONTINUOUS
 62
     7
 10
582.152549308
 20
265.483178626
 30
0.0
  0
VERTEX
  5
62D
  8
0
  6
CONTINUOUS
 62
     7
 10
583.189515155
 20
264.9743993387
 30
0.0
  0
VERTEX
  5
62E
  8
0
  6
CONTINUOUS
 62
     7
 10
584.5068910534
 20
264.088978301
 30
0.0
  0
VERTEX
  5
62F
  8
0
  6
CONTINUOUS
 62
     7
 10
585.7731380874
 20
263.0413014993
 30
0.0
  0
VERTEX
  5
630
  8
0
  6
CONTINUOUS
 62
     7
 10
587.0138206894
 20
261.9124908552
 30
0.0
  0
SEQEND
  5
69C
  8
0
  6
CONTINUOUS
 62
     7
  0
LINE
  5
28F
  8
0
  6
CONTINUOUS
 62
     7
 10
587.0140591079
 20
261.9261582002
 30
0.0
 11
587.0420971328
 21
263.5321755514
 31
0.0
  0
LINE
  5
290
  8
0
  6
CONTINUOUS
 62
     7
 10
574.515048545
 20
267.6143903837
 30
0.0
 11
513.3805168236
 21
267.6143903837
 31
0.0
  0
ARC
  5
291
  8
0
  6
CONTINUOUS
 62
     7
 10
504.0150463993
 20
242.311604701
 30
0.0
 40
1.0
 50
180.0
 51
270.0
  0
LINE
  5
292
  8
0
  6
CONTINUOUS
 62
     7
 10
512.0150463099
 20
241.3116057024
 30
0.0
 11
504.0150464887
 21
241.3116057024
 31
0.0
  0
ARC
  5
293
  8
0
  6
CONTINUOUS
 62
     7
 10
504.0150463993
 20
250.311604701
 30
0.0
 40
1.0
 50
90.0
 51
180.0
  0
LINE
  5
294
  8
0
  6
CONTINUOUS
 62
     7
 10
503.0150463248
 20
242.3116047487
 30
0.0
 11
503.0150463248
 21
250.3116030798
 31
0.0
  0
LINE
  5
295
  8
0
  6
CONTINUOUS
 62
     7
 10
504.0150464887
 20
251.3116021261
 30
0.0
 11
512.0150463099
 21
251.3116021261
 31
0.0
  0
ARC
  5
296
  8
0
  6
CONTINUOUS
 62
     7
 10
512.0150463993
 20
250.311604701
 30
0.0
 40
1.0
 50
0.0
 51
90.0
  0
LINE
  5
297
  8
0
  6
CONTINUOUS
 62
     7
 10
513.0150464738
 20
250.3116030798
 30
0.0
 11
513.0150464738
 21
242.3116047487
 31
0.0
  0
ARC
  5
298
  8
0
  6
CONTINUOUS
 62
     7
 10
512.0150463993
 20
242.311604701
 30
0.0
 40
1.0
 50
270.0
 51
0.0
  0
LINE
  5
299
  8
0
  6
CONTINUOUS
 62
     7
 10
500.0150465781
 20
176.111604701
 30
0.0
 11
496.0150466675
 21
176.111604701
 31
0.0
  0
LINE
  5
29A
  8
0
  6
CONTINUOUS
 62
     7
 10
496.0150466675
 20
176.111604701
 30
0.0
 11
496.0150466675
 21
177.3116047114
 31
0.0
  0
LINE
  5
29B
  8
0
  6
CONTINUOUS
 62
     7
 10
496.0150466675
 20
177.3116047114
 30
0.0
 11
500.0150465781
 21
177.3116047114
 31
0.0
  0
LINE
  5
29C
  8
0
  6
CONTINUOUS
 62
     7
 10
502.0150465334
 20
176.111604701
 30
0.0
 11
529.3834680134
 21
176.111604701
 31
0.0
  0
LINE
  5
29D
  8
0
  6
CONTINUOUS
 62
     7
 10
529.3834680134
 20
177.3116047114
 30
0.0
 11
502.0150465334
 21
177.3116047114
 31
0.0
  0
LINE
  5
29E
  8
0
  6
CONTINUOUS
 62
     7
 10
500.0150465781
 20
176.111604701
 30
0.0
 11
502.0150465334
 21
176.111604701
 31
0.0
  0
LINE
  5
29F
  8
0
  6
CONTINUOUS
 62
     7
 10
500.0150465781
 20
177.3116047114
 30
0.0
 11
502.0150465334
 21
177.3116047114
 31
0.0
  0
LINE
  5
2A0
  8
0
  6
CONTINUOUS
 62
     7
 10
532.0150458628
 20
177.3116047114
 30
0.0
 11
532.0150458628
 21
176.111604701
 31
0.0
  0
LINE
  5
2A1
  8
0
  6
CONTINUOUS
 62
     7
 10
532.0150458628
 20
176.111604701
 30
0.0
 11
529.3834680134
 21
176.111604701
 31
0.0
  0
LINE
  5
2A2
  8
0
  6
CONTINUOUS
 62
     7
 10
529.3834680134
 20
177.3116047114
 30
0.0
 11
532.0150458628
 21
177.3116047114
 31
0.0
  0
LINE
  5
2A3
  8
0
  6
CONTINUOUS
 62
     7
 10
503.0150463248
 20
177.3116047114
 30
0.0
 11
503.0150463248
 21
241.5116031274
 31
0.0
  0
LINE
  5
2A4
  8
0
  6
CONTINUOUS
 62
     7
 10
513.0150464738
 20
241.5116031274
 30
0.0
 11
513.0150464738
 21
177.3116047114
 31
0.0
  0
LINE
  5
2A5
  8
0
  6
CONTINUOUS
 62
     7
 10
519.4707707876
 20
268.1802113161
 30
0.0
 11
518.2486393863
 21
267.6097889051
 31
0.0
  0
POLYLINE
  5
2A6
  8
0
  6
CONTINUOUS
 62
     7
 66
     1
 10
0.0
 20
0.0
 30
0.0
  0
VERTEX
  5
631
  8
0
  6
CONTINUOUS
 62
     7
 10
524.1034620816
 20
268.8115019903
 30
0.0
  0
VERTEX
  5
632
  8
0
  6
CONTINUOUS
 62
     7
 10
522.9709827716
 20
268.8034792051
 30
0.0
  0
VERTEX
  5
633
  8
0
  6
CONTINUOUS
 62
     7
 10
521.892304104
 20
268.7332291708
 30
0.0
  0
VERTEX
  5
634
  8
0
  6
CONTINUOUS
 62
     7
 10
520.958473664
 20
268.6053533659
 30
0.0
  0
VERTEX
  5
635
  8
0
  6
CONTINUOUS
 62
     7
 10
520.1446795279
 20
268.4205789671
 30
0.0
  0
VERTEX
  5
636
  8
0
  6
CONTINUOUS
 62
     7
 10
519.4707707876
 20
268.1802113161
 30
0.0
  0
SEQEND
  5
69B
  8
0
  6
CONTINUOUS
 62
     7
  0
POLYLINE
  5
2A7
  8
0
  6
CONTINUOUS
 62
     7
 66
     1
 10
0.0
 20
0.0
 30
0.0
  0
VERTEX
  5
637
  8
0
  6
CONTINUOUS
 62
     7
 10
527.1241852457
 20
268.7587518797
 30
0.0
  0
VERTEX
  5
638
  8
0
  6
CONTINUOUS
 62
     7
 10
525.6138214285
 20
268.7851388559
 30
0.0
  0
VERTEX
  5
639
  8
0
  6
CONTINUOUS
 62
     7
 10
524.1034620816
 20
268.8115019903
 30
0.0
  0
SEQEND
  5
69A
  8
0
  6
CONTINUOUS
 62
     7
  0
POLYLINE
  5
2A8
  8
0
  6
CONTINUOUS
 62
     7
 66
     1
 10
0.0
 20
0.0
 30
0.0
  0
VERTEX
  5
63A
  8
0
  6
CONTINUOUS
 62
     7
 10
532.1234234983
 20
268.6714847192
 30
0.0
  0
VERTEX
  5
63B
  8
0
  6
CONTINUOUS
 62
     7
 10
529.6202817375
 20
268.7082131014
 30
0.0
  0
VERTEX
  5
63C
  8
0
  6
CONTINUOUS
 62
     7
 10
527.1298178846
 20
268.758602868
 30
0.0
  0
SEQEND
  5
699
  8
0
  6
CONTINUOUS
 62
     7
  0
LINE
  5
2A9
  8
0
  6
CONTINUOUS
 62
     7
 10
532.1495437438
 20
268.6710317239
 30
0.0
 11
532.1234234983
 21
268.6714847192
 31
0.0
  0
POLYLINE
  5
2AA
  8
0
  6
CONTINUOUS
 62
     7
 66
     1
 10
0.0
 20
0.0
 30
0.0
  0
VERTEX
  5
63D
  8
0
  6
CONTINUOUS
 62
     7
 10
537.1567436868
 20
268.5836155519
 30
0.0
  0
VERTEX
  5
63E
  8
0
  6
CONTINUOUS
 62
     7
 10
534.6529969389
 20
268.6276037798
 30
0.0
  0
VERTEX
  5
63F
  8
0
  6
CONTINUOUS
 62
     7
 10
532.1495765263
 20
268.6710317239
 30
0.0
  0
SEQEND
  5
698
  8
0
  6
CONTINUOUS
 62
     7
  0
LINE
  5
2AB
  8
0
  6
CONTINUOUS
 62
     7
 10
539.0074500257
 20
268.544079791
 30
0.0
 11
537.156758588
 21
268.5835380659
 31
0.0
  0
LINE
  5
2AC
  8
0
  6
CONTINUOUS
 62
     7
 10
547.1211412365
 20
268.4097011194
 30
0.0
 11
539.0074500257
 21
268.544079791
 31
0.0
  0
POLYLINE
  5
2AD
  8
0
  6
CONTINUOUS
 62
     7
 66
     1
 10
0.0
 20
0.0
 30
0.0
  0
VERTEX
  5
640
  8
0
  6
CONTINUOUS
 62
     7
 10
557.1210422928
 20
268.2351429567
 30
0.0
  0
VERTEX
  5
641
  8
0
  6
CONTINUOUS
 62
     7
 10
550.2930173093
 20
268.3619399175
 30
0.0
  0
VERTEX
  5
642
  8
0
  6
CONTINUOUS
 62
     7
 10
547.1211531574
 20
268.4097011194
 30
0.0
  0
SEQEND
  5
697
  8
0
  6
CONTINUOUS
 62
     7
  0
POLYLINE
  5
2AE
  8
0
  6
CONTINUOUS
 62
     7
 66
     1
 10
0.0
 20
0.0
 30
0.0
  0
VERTEX
  5
643
  8
0
  6
CONTINUOUS
 62
     7
 10
567.1188869888
 20
268.06066228
 30
0.0
  0
VERTEX
  5
644
  8
0
  6
CONTINUOUS
 62
     7
 10
562.120352071
 20
268.1055028543
 30
0.0
  0
VERTEX
  5
645
  8
0
  6
CONTINUOUS
 62
     7
 10
557.1210422928
 20
268.2351429567
 30
0.0
  0
SEQEND
  5
696
  8
0
  6
CONTINUOUS
 62
     7
  0
POLYLINE
  5
2AF
  8
0
  6
CONTINUOUS
 62
     7
 66
     1
 10
0.0
 20
0.0
 30
0.0
  0
VERTEX
  5
646
  8
0
  6
CONTINUOUS
 62
     7
 10
578.7745693142
 20
267.6424820528
 30
0.0
  0
VERTEX
  5
647
  8
0
  6
CONTINUOUS
 62
     7
 10
578.7492433006
 20
267.6471788988
 30
0.0
  0
VERTEX
  5
648
  8
0
  6
CONTINUOUS
 62
     7
 10
576.3362327034
 20
267.9656763181
 30
0.0
  0
VERTEX
  5
649
  8
0
  6
CONTINUOUS
 62
     7
 10
573.9477672989
 20
268.1049187288
 30
0.0
  0
VERTEX
  5
64A
  8
0
  6
CONTINUOUS
 62
     7
 10
571.5818503315
 20
268.1282837495
 30
0.0
  0
VERTEX
  5
64B
  8
0
  6
CONTINUOUS
 62
     7
 10
569.2270257885
 20
268.0936057672
 30
0.0
  0
VERTEX
  5
64C
  8
0
  6
CONTINUOUS
 62
     7
 10
567.1188869888
 20
268.0606801614
 30
0.0
  0
SEQEND
  5
695
  8
0
  6
CONTINUOUS
 62
     7
  0
ARC
  5
2B0
  8
0
  6
CONTINUOUS
 62
     7
 10
576.538908242
 20
255.3550956092
 30
0.0
 40
12.48911710425794
 50
43.7647639822
 51
79.6879731616
  0
POLYLINE
  5
2B1
  8
0
  6
CONTINUOUS
 62
     7
 66
     1
 10
0.0
 20
0.0
 30
0.0
  0
VERTEX
  5
64D
  8
0
  6
CONTINUOUS
 62
     7
 10
587.0047071392
 20
261.9263191328
 30
0.0
  0
VERTEX
  5
64E
  8
0
  6
CONTINUOUS
 62
     7
 10
587.0072701389
 20
261.9224746332
 30
0.0
  0
VERTEX
  5
64F
  8
0
  6
CONTINUOUS
 62
     7
 10
586.9385638649
 20
262.0261449918
 30
0.0
  0
VERTEX
  5
650
  8
0
  6
CONTINUOUS
 62
     7
 10
586.7946007663
 20
262.2420806989
 30
0.0
  0
VERTEX
  5
651
  8
0
  6
CONTINUOUS
 62
     7
 10
586.5757444317
 20
262.565835248
 30
0.0
  0
VERTEX
  5
652
  8
0
  6
CONTINUOUS
 62
     7
 10
586.1409702713
 20
263.1923873529
 30
0.0
  0
VERTEX
  5
653
  8
0
  6
CONTINUOUS
 62
     7
 10
585.5583706314
 20
263.9938075647
 30
0.0
  0
SEQEND
  5
694
  8
0
  6
CONTINUOUS
 62
     7
  0
POLYLINE
  5
2B2
  8
0
  6
CONTINUOUS
 62
     7
 66
     1
 10
0.0
 20
0.0
 30
0.0
  0
VERTEX
  5
654
  8
0
  6
CONTINUOUS
 62
     7
 10
578.7083008701
 20
268.8683827028
 30
0.0
  0
VERTEX
  5
655
  8
0
  6
CONTINUOUS
 62
     7
 10
579.8564055378
 20
268.6291535005
 30
0.0
  0
VERTEX
  5
656
  8
0
  6
CONTINUOUS
 62
     7
 10
580.9583821708
 20
268.3083195791
 30
0.0
  0
VERTEX
  5
657
  8
0
  6
CONTINUOUS
 62
     7
 10
581.978873294
 20
267.9083426103
 30
0.0
  0
VERTEX
  5
658
  8
0
  6
CONTINUOUS
 62
     7
 10
582.9016485626
 20
267.4508710012
 30
0.0
  0
VERTEX
  5
659
  8
0
  6
CONTINUOUS
 62
     7
 10
583.7593057567
 20
266.938050519
 30
0.0
  0
VERTEX
  5
65A
  8
0
  6
CONTINUOUS
 62
     7
 10
584.4791689331
 20
266.44002987
 30
0.0
  0
VERTEX
  5
65B
  8
0
  6
CONTINUOUS
 62
     7
 10
584.9855521137
 20
266.0478968725
 30
0.0
  0
VERTEX
  5
65C
  8
0
  6
CONTINUOUS
 62
     7
 10
585.355494302
 20
265.7311637506
 30
0.0
  0
VERTEX
  5
65D
  8
0
  6
CONTINUOUS
 62
     7
 10
585.5043271
 20
265.589727889
 30
0.0
  0
VERTEX
  5
65E
  8
0
  6
CONTINUOUS
 62
     7
 10
585.5948546344
 20
265.490557681
 30
0.0
  0
SEQEND
  5
693
  8
0
  6
CONTINUOUS
 62
     7
  0
POLYLINE
  5
2B3
  8
0
  6
CONTINUOUS
 62
     7
 66
     1
 10
0.0
 20
0.0
 30
0.0
  0
VERTEX
  5
65F
  8
0
  6
CONTINUOUS
 62
     7
 10
519.3035618776
 20
269.3263788328
 30
0.0
  0
VERTEX
  5
660
  8
0
  6
CONTINUOUS
 62
     7
 10
519.8869803363
 20
269.5440251932
 30
0.0
  0
VERTEX
  5
661
  8
0
  6
CONTINUOUS
 62
     7
 10
520.6567564422
 20
269.7338361845
 30
0.0
  0
VERTEX
  5
662
  8
0
  6
CONTINUOUS
 62
     7
 10
521.5469845945
 20
269.8718090162
 30
0.0
  0
VERTEX
  5
663
  8
0
  6
CONTINUOUS
 62
     7
 10
522.5817078168
 20
269.955732356
 30
0.0
  0
VERTEX
  5
664
  8
0
  6
CONTINUOUS
 62
     7
 10
523.2533225233
 20
269.9764866933
 30
0.0
  0
VERTEX
  5
665
  8
0
  6
CONTINUOUS
 62
     7
 10
523.9584350402
 20
269.9750621423
 30
0.0
  0
SEQEND
  5
692
  8
0
  6
CONTINUOUS
 62
     7
  0
ARC
  5
2B4
  8
0
  6
CONTINUOUS
 62
     7
 10
565.7929837123
 20
169.685806424
 30
0.0
 40
109.9523078997335
 50
115.0124018468
 51
117.0454636396
  0
POLYLINE
  5
2B5
  8
0
  6
CONTINUOUS
 62
     7
 66
     1
 10
0.0
 20
0.0
 30
0.0
  0
VERTEX
  5
666
  8
0
  6
CONTINUOUS
 62
     7
 10
587.0306351597
 20
263.5323722467
 30
0.0
  0
VERTEX
  5
667
  8
0
  6
CONTINUOUS
 62
     7
 10
587.0364466125
 20
263.5238309011
 30
0.0
  0
VERTEX
  5
668
  8
0
  6
CONTINUOUS
 62
     7
 10
586.9519153053
 20
263.6471052274
 30
0.0
  0
VERTEX
  5
669
  8
0
  6
CONTINUOUS
 62
     7
 10
586.7649176532
 20
263.9158744917
 30
0.0
  0
VERTEX
  5
66A
  8
0
  6
CONTINUOUS
 62
     7
 10
586.5581014568
 20
264.2078895673
 30
0.0
  0
VERTEX
  5
66B
  8
0
  6
CONTINUOUS
 62
     7
 10
586.2942495758
 20
264.5717878446
 30
0.0
  0
VERTEX
  5
66C
  8
0
  6
CONTINUOUS
 62
     7
 10
585.9729865009
 20
265.0020082101
 30
0.0
  0
VERTEX
  5
66D
  8
0
  6
CONTINUOUS
 62
     7
 10
585.5948546344
 20
265.490557681
 30
0.0
  0
SEQEND
  5
691
  8
0
  6
CONTINUOUS
 62
     7
  0
POLYLINE
  5
2B6
  8
0
  6
CONTINUOUS
 62
     7
 66
     1
 10
0.0
 20
0.0
 30
0.0
  0
VERTEX
  5
66E
  8
0
  6
CONTINUOUS
 62
     7
 10
578.7083008701
 20
268.8683886633
 30
0.0
  0
VERTEX
  5
66F
  8
0
  6
CONTINUOUS
 62
     7
 10
576.3112762386
 20
269.1647250757
 30
0.0
  0
VERTEX
  5
670
  8
0
  6
CONTINUOUS
 62
     7
 10
573.9715853149
 20
269.2950089082
 30
0.0
  0
VERTEX
  5
671
  8
0
  6
CONTINUOUS
 62
     7
 10
571.6771820003
 20
269.3182547197
 30
0.0
  0
VERTEX
  5
672
  8
0
  6
CONTINUOUS
 62
     7
 10
569.4193103725
 20
269.2863543138
 30
0.0
  0
VERTEX
  5
673
  8
0
  6
CONTINUOUS
 62
     7
 10
567.1887793953
 20
269.2500074014
 30
0.0
  0
VERTEX
  5
674
  8
0
  6
CONTINUOUS
 62
     7
 10
564.9613418991
 20
269.2486066923
 30
0.0
  0
VERTEX
  5
675
  8
0
  6
CONTINUOUS
 62
     7
 10
562.7204397136
 20
269.2804594144
 30
0.0
  0
VERTEX
  5
676
  8
0
  6
CONTINUOUS
 62
     7
 10
556.5143802578
 20
269.4320340261
 30
0.0
  0
VERTEX
  5
677
  8
0
  6
CONTINUOUS
 62
     7
 10
550.310439747
 20
269.5377488241
 30
0.0
  0
VERTEX
  5
678
  8
0
  6
CONTINUOUS
 62
     7
 10
547.0129230434
 20
269.5846099958
 30
0.0
  0
VERTEX
  5
679
  8
0
  6
CONTINUOUS
 62
     7
 10
543.7126555854
 20
269.6374614343
 30
0.0
  0
VERTEX
  5
67A
  8
0
  6
CONTINUOUS
 62
     7
 10
540.4118338043
 20
269.6950156793
 30
0.0
  0
VERTEX
  5
67B
  8
0
  6
CONTINUOUS
 62
     7
 10
537.1136435682
 20
269.7534461126
 30
0.0
  0
VERTEX
  5
67C
  8
0
  6
CONTINUOUS
 62
     7
 10
533.8184603864
 20
269.8100586042
 30
0.0
  0
VERTEX
  5
67D
  8
0
  6
CONTINUOUS
 62
     7
 10
530.5263200218
 20
269.8657889471
 30
0.0
  0
VERTEX
  5
67E
  8
0
  6
CONTINUOUS
 62
     7
 10
527.2500449235
 20
269.920327197
 30
0.0
  0
VERTEX
  5
67F
  8
0
  6
CONTINUOUS
 62
     7
 10
523.9584410006
 20
269.9751396284
 30
0.0
  0
SEQEND
  5
690
  8
0
  6
CONTINUOUS
 62
     7
  0
POLYLINE
  5
2B7
  8
0
  6
CONTINUOUS
 62
     7
 66
     1
 10
0.0
 20
0.0
 30
0.0
  0
VERTEX
  5
680
  8
0
  6
CONTINUOUS
 62
     7
 10
557.1210422928
 20
268.2351429567
 30
0.0
  0
VERTEX
  5
681
  8
0
  6
CONTINUOUS
 62
     7
 10
559.5268466884
 20
268.1938071355
 30
0.0
  0
VERTEX
  5
682
  8
0
  6
CONTINUOUS
 62
     7
 10
563.3223154956
 20
268.1025047407
 30
0.0
  0
VERTEX
  5
683
  8
0
  6
CONTINUOUS
 62
     7
 10
567.1188869888
 20
268.0606801614
 30
0.0
  0
SEQEND
  5
68F
  8
0
  6
CONTINUOUS
 62
     7
  0
POLYLINE
  5
2B8
  8
0
  6
CONTINUOUS
 62
     7
 66
     1
 10
0.0
 20
0.0
 30
0.0
  0
VERTEX
  5
684
  8
0
  6
CONTINUOUS
 62
     7
 10
539.0096136743
 20
268.6679442033
 30
0.0
  0
VERTEX
  5
685
  8
0
  6
CONTINUOUS
 62
     7
 10
541.4179989511
 20
268.7257130251
 30
0.0
  0
VERTEX
  5
686
  8
0
  6
CONTINUOUS
 62
     7
 10
544.2757049019
 20
268.597116004
 30
0.0
  0
VERTEX
  5
687
  8
0
  6
CONTINUOUS
 62
     7
 10
547.1211710388
 20
268.4101898775
 30
0.0
  0
SEQEND
  5
68E
  8
0
  6
CONTINUOUS
 62
     7
  0
LINE
  5
2B9
  8
0
  6
CONTINUOUS
 62
     7
 10
537.156758588
 20
268.5835917101
 30
0.0
 11
539.0096136743
 21
268.6679442033
 31
0.0
  0
POLYLINE
  5
2BA
  8
0
  6
CONTINUOUS
 62
     7
 66
     1
 10
0.0
 20
0.0
 30
0.0
  0
VERTEX
  5
688
  8
0
  6
CONTINUOUS
 62
     7
 10
527.1298178846
 20
268.7586505518
 30
0.0
  0
VERTEX
  5
689
  8
0
  6
CONTINUOUS
 62
     7
 10
528.3095785791
 20
268.8418109522
 30
0.0
  0
VERTEX
  5
68A
  8
0
  6
CONTINUOUS
 62
     7
 10
529.5040780121
 20
268.8352484808
 30
0.0
  0
VERTEX
  5
68B
  8
0
  6
CONTINUOUS
 62
     7
 10
530.8247217352
 20
268.762298356
 30
0.0
  0
VERTEX
  5
68C
  8
0
  6
CONTINUOUS
 62
     7
 10
532.149546724
 20
268.6711032495
 30
0.0
  0
SEQEND
  5
68D
  8
0
  6
CONTINUOUS
 62
     7
  0
LINE
  5
2BB
  8
0
  6
CONTINUOUS
 62
     7
 10
503.0150463248
 20
241.5116031274
 30
0.0
 11
502.4150462264
 21
241.5116031274
 31
0.0
  0
LINE
  5
2BC
  8
0
  6
CONTINUOUS
 62
     7
 10
502.4150462264
 20
241.5116031274
 30
0.0
 11
502.4150462264
 21
243.5116071806
 31
0.0
  0
LINE
  5
2BD
  8
0
  6
CONTINUOUS
 62
     7
 10
503.0150463248
 20
242.3116047487
 30
0.0
 11
503.0150463248
 21
241.5116031274
 31
0.0
  0
ARC
  5
2BE
  8
0
  6
CONTINUOUS
 62
     7
 10
512.6150463993
 20
250.911604701
 30
0.0
 40
1.0
 50
0.0
 51
90.0
  0
LINE
  5
2BF
  8
0
  6
CONTINUOUS
 62
     7
 10
513.6150465721
 20
250.9116072759
 30
0.0
 11
513.6150465721
 21
243.5116071806
 31
0.0
  0
LINE
  5
2C0
  8
0
  6
CONTINUOUS
 62
     7
 10
513.0150464738
 20
250.9116072759
 30
0.0
 11
513.0150464738
 21
250.3116030798
 31
0.0
  0
ARC
  5
2C1
  8
0
  6
CONTINUOUS
 62
     7
 10
512.6150463993
 20
250.911604701
 30
0.0
 40
0.4000000000000057
 50
0.0
 51
90.0
  0
LINE
  5
2C2
  8
0
  6
CONTINUOUS
 62
     7
 10
503.4150463903
 20
251.3116021261
 30
0.0
 11
504.0150464887
 21
251.3116021261
 31
0.0
  0
LINE
  5
2C3
  8
0
  6
CONTINUOUS
 62
     7
 10
512.0150463099
 20
251.3116021261
 30
0.0
 11
512.6150464082
 21
251.3116021261
 31
0.0
  0
ARC
  5
2C4
  8
0
  6
CONTINUOUS
 62
     7
 10
503.4150463993
 20
250.911604701
 30
0.0
 40
0.4000000000000057
 50
90.0
 51
180.0
  0
LINE
  5
2C5
  8
0
  6
CONTINUOUS
 62
     7
 10
502.4150462264
 20
243.5116071806
 30
0.0
 11
502.4150462264
 21
250.9116072759
 31
0.0
  0
LINE
  5
2C6
  8
0
  6
CONTINUOUS
 62
     7
 10
503.4150463903
 20
251.9116063223
 30
0.0
 11
512.6150464082
 21
251.9116063223
 31
0.0
  0
LINE
  5
2C7
  8
0
  6
CONTINUOUS
 62
     7
 10
503.0150463248
 20
250.3116030798
 30
0.0
 11
503.0150463248
 21
250.9116072759
 31
0.0
  0
ARC
  5
2C8
  8
0
  6
CONTINUOUS
 62
     7
 10
503.4150463993
 20
250.911604701
 30
0.0
 40
1.0
 50
90.0
 51
180.0
  0
LINE
  5
2C9
  8
0
  6
CONTINUOUS
 62
     7
 10
513.6150465721
 20
241.5116031274
 30
0.0
 11
513.0150464738
 21
241.5116031274
 31
0.0
  0
LINE
  5
2CA
  8
0
  6
CONTINUOUS
 62
     7
 10
513.0150464738
 20
241.5116031274
 30
0.0
 11
513.0150464738
 21
242.3116047487
 31
0.0
  0
LINE
  5
2CB
  8
0
  6
CONTINUOUS
 62
     7
 10
513.6150465721
 20
243.5116071806
 30
0.0
 11
513.6150465721
 21
241.5116031274
 31
0.0
  0
ARC
  5
2CC
  8
0
  6
CONTINUOUS
 62
     7
 10
572.5150463993
 20
265.3632348192
 30
0.0
 40
2.000000000000016
 50
280.7804509646
 51
0.0
  0
ARC
  5
2CD
  8
0
  6
CONTINUOUS
 62
     7
 10
498.0706778421
 20
656.3389834151
 30
0.0
 40
400.0000000000002
 50
274.5077079787
 51
280.7804509646
  0
ARC
  5
2CE
  8
0
  6
CONTINUOUS
 62
     7
 10
516.9330482215
 20
417.0813587013
 30
0.0
 40
160.0000000000002
 50
273.0746772222
 51
274.5077079787
  0
ARC
  5
2CF
  8
0
  6
CONTINUOUS
 62
     7
 10
526.2123337512
 20
244.3303967357
 30
0.0
 40
13.00000000000002
 50
93.0746772222
 51
121.4611845106
  0
ARC
  5
2D0
  8
0
  6
CONTINUOUS
 62
     7
 10
521.5150463993
 20
252.0073421916
 30
0.0
 40
4.0
 50
121.4611845106
 51
180.0
  0
LINE
  5
2D1
  8
0
  6
CONTINUOUS
 62
     7
 10
517.5150462801
 20
250.1116056547
 30
0.0
 11
517.5150462801
 21
252.0073433027
 31
0.0
  0
ARC
  5
2D2
  8
0
  6
CONTINUOUS
 62
     7
 10
515.5150463993
 20
250.111604701
 30
0.0
 40
2.0
 50
270.0
 51
0.0
  0
LINE
  5
2D3
  8
0
  6
CONTINUOUS
 62
     7
 10
513.6150465721
 20
248.111607562
 30
0.0
 11
515.5150466973
 21
248.111607562
 31
0.0
  0
LINE
  5
2D4
  8
0
  6
CONTINUOUS
 62
     7
 10
501.415046435
 20
248.111607562
 30
0.0
 11
502.4150462264
 21
248.111607562
 31
0.0
  0
ARC
  5
2D5
  8
0
  6
CONTINUOUS
 62
     7
 10
501.4150463993
 20
250.111604701
 30
0.0
 40
2.0
 50
180.0
 51
270.0
  0
ARC
  5
2D6
  8
0
  6
CONTINUOUS
 62
     7
 10
507.4150463993
 20
253.1584323686
 30
0.0
 40
8.000000000000071
 50
148.4862321611
 51
180.0
  0
ARC
  5
2D7
  8
0
  6
CONTINUOUS
 62
     7
 10
517.6452214362
 20
246.8859911601
 30
0.0
 40
20.00000000000007
 50
102.5040575207
 51
148.4862321611
  0
LINE
  5
2D8
  8
0
  6
CONTINUOUS
 62
     7
 10
513.3150463367
 20
266.4116044149
 30
0.0
 11
513.3150463367
 21
266.6143913374
 31
0.0
  0
LINE
  5
2D9
  8
0
  6
CONTINUOUS
 62
     7
 10
574.515048545
 20
266.6143913374
 30
0.0
 11
574.515048545
 21
265.3632361993
 31
0.0
  0
LINE
  5
2DA
  8
0
  6
CONTINUOUS
 62
     7
 10
499.4150461072
 20
253.1584341631
 30
0.0
 11
499.4150461072
 21
250.1116056547
 31
0.0
  0
LINE
  5
2DB
  8
0
  6
CONTINUOUS
 62
     7
 10
513.3150463367
 20
267.6064629659
 30
0.0
 11
513.3718655819
 21
267.6064629659
 31
0.0
  0
LINE
  5
2DC
  8
0
  6
CONTINUOUS
 62
     7
 10
513.3718655819
 20
267.6064629659
 30
0.0
 11
513.3805168236
 21
267.6083524332
 31
0.0
  0
LINE
  5
2DD
  8
0
  6
CONTINUOUS
 62
     7
 10
574.515048545
 20
267.6143903837
 30
0.0
 11
574.515048545
 21
266.6143913374
 31
0.0
  0
LINE
  5
2DE
  8
0
  6
CONTINUOUS
 62
     7
 10
513.3150463367
 20
266.6143913374
 30
0.0
 11
513.3150463367
 21
267.6064629659
 31
0.0
  0
ENDSEC
  0
EOF
