  0
SECTION
  2
HEADER
  9
$ACADVER
  1
AC1009
  9
$DWGCODEPAGE
  3
ansi_1252
  9
$INSBASE
 10
0.0
 20
0.0
 30
0.0
  9
$EXTMIN
 10
0.0
 20
0.0
 30
0.0
  9
$EXTMAX
 10
420.0
 20
297.0
 30
0.0
  9
$LIMMIN
 10
0.0
 20
0.0
  9
$LIMMAX
 10
420.0
 20
297.0
  9
$ORTHOMODE
 70
     0
  9
$REGENMODE
 70
     1
  9
$FILLMODE
 70
     1
  9
$QTEXTMODE
 70
     0
  9
$MIRRTEXT
 70
     1
  9
$DRAGMODE
 70
     2
  9
$LTSCALE
 40
1.0
  9
$OSMODE
 70
    37
  9
$ATTMODE
 70
     1
  9
$TEXTSIZE
 40
3.5
  9
$TRACEWID
 40
1.0
  9
$TEXTSTYLE
  7
STANDARD
  9
$CLAYER
  8
0
  9
$CELTYPE
  6
BYLAYER
  9
$CECOLOR
 62
   256
  9
$DIMSCALE
 40
1.0
  9
$DIMASZ
 40
4.0
  9
$DIMEXO
 40
0.0
  9
$DIMDLI
 40
3.75
  9
$DIMRND
 40
0.0
  9
$DIMDLE
 40
0.0
  9
$DIMEXE
 40
2.0
  9
$DIMTP
 40
0.0
  9
$DIMTM
 40
0.0
  9
$DIMTXT
 40
3.5
  9
$DIMCEN
 40
2.5
  9
$DIMTSZ
 40
0.0
  9
$DIMTOL
 70
     0
  9
$DIMLIM
 70
     0
  9
$DIMTIH
 70
     1
  9
$DIMTOH
 70
     1
  9
$DIMSE1
 70
     0
  9
$DIMSE2
 70
     0
  9
$DIMTAD
 70
     1
  9
$DIMZIN
 70
     0
  9
$DIMBLK
  1

  9
$DIMASO
 70
     1
  9
$DIMSHO
 70
     1
  9
$DIMPOST
  1

  9
$DIMAPOST
  1

  9
$DIMALT
 70
     0
  9
$DIMALTD
 70
     3
  9
$DIMALTF
 40
0.0393700787
  9
$DIMLFAC
 40
5.0
  9
$DIMTOFL
 70
     1
  9
$DIMTVP
 40
0.0
  9
$DIMTIX
 70
     0
  9
$DIMSOXD
 70
     0
  9
$DIMSAH
 70
     0
  9
$DIMBLK1
  1

  9
$DIMBLK2
  1

  9
$DIMSTYLE
  2
ISO-25
  9
$DIMCLRD
 70
     0
  9
$DIMCLRE
 70
     0
  9
$DIMCLRT
 70
     0
  9
$DIMTFAC
 40
1.0
  9
$DIMGAP
 40
1.524
  9
$LUNITS
 70
     2
  9
$LUPREC
 70
     2
  9
$SKETCHINC
 40
1.0
  9
$FILLETRAD
 40
10.0
  9
$AUNITS
 70
     0
  9
$AUPREC
 70
     2
  9
$MENU
  1
.
  9
$ELEVATION
 40
0.0
  9
$PELEVATION
 40
0.0
  9
$THICKNESS
 40
0.0
  9
$LIMCHECK
 70
     0
  9
$CHAMFERA
 40
10.0
  9
$CHAMFERB
 40
10.0
  9
$SKPOLY
 70
     0
  9
$TDCREATE
 40
2457802.480858461
  9
$TDUPDATE
 40
2457802.480858773
  9
$TDINDWG
 40
0.0000000116
  9
$TDUSRTIMER
 40
0.0000000116
  9
$USRTIMER
 70
     1
  9
$ANGBASE
 50
0.0
  9
$ANGDIR
 70
     0
  9
$PDMODE
 70
     0
  9
$PDSIZE
 40
-1.0
  9
$PLINEWID
 40
0.0
  9
$COORDS
 70
     1
  9
$SPLFRAME
 70
     0
  9
$SPLINETYPE
 70
     6
  9
$SPLINESEGS
 70
     8
  9
$ATTDIA
 70
     0
  9
$ATTREQ
 70
     1
  9
$HANDLING
 70
     1
  9
$HANDSEED
  5
BA0
  9
$SURFTAB1
 70
     6
  9
$SURFTAB2
 70
     6
  9
$SURFTYPE
 70
     6
  9
$SURFU
 70
     6
  9
$SURFV
 70
     6
  9
$UCSNAME
  2

  9
$UCSORG
 10
0.0
 20
0.0
 30
0.0
  9
$UCSXDIR
 10
1.0
 20
0.0
 30
0.0
  9
$UCSYDIR
 10
0.0
 20
1.0
 30
0.0
  9
$PUCSNAME
  2

  9
$PUCSORG
 10
0.0
 20
0.0
 30
0.0
  9
$PUCSXDIR
 10
1.0
 20
0.0
 30
0.0
  9
$PUCSYDIR
 10
0.0
 20
1.0
 30
0.0
  9
$USERI1
 70
     0
  9
$USERI2
 70
     0
  9
$USERI3
 70
     0
  9
$USERI4
 70
     0
  9
$USERI5
 70
     0
  9
$USERR1
 40
0.0
  9
$USERR2
 40
0.0
  9
$USERR3
 40
0.0
  9
$USERR4
 40
0.0
  9
$USERR5
 40
0.0
  9
$WORLDVIEW
 70
     1
  9
$SHADEDGE
 70
     3
  9
$SHADEDIF
 70
    70
  9
$TILEMODE
 70
     1
  9
$MAXACTVP
 70
    64
  9
$PLIMCHECK
 70
     0
  9
$PEXTMIN
 10
1.0000000000E+20
 20
1.0000000000E+20
 30
1.0000000000E+20
  9
$PEXTMAX
 10
-1.0000000000E+20
 20
-1.0000000000E+20
 30
-1.0000000000E+20
  9
$PLIMMIN
 10
0.0
 20
0.0
  9
$PLIMMAX
 10
420.0
 20
297.0
  9
$UNITMODE
 70
     0
  9
$VISRETAIN
 70
     1
  9
$PLINEGEN
 70
     0
  9
$PSLTSCALE
 70
     1
  0
ENDSEC
  0
SECTION
  2
TABLES
  0
TABLE
  2
VPORT
 70
     1
  0
VPORT
  2
*ACTIVE
 70
     0
 10
0.0
 20
0.0
 11
1.0
 21
1.0
 12
210.0
 22
148.5
 13
0.0
 23
0.0
 14
10.0
 24
10.0
 15
10.0
 25
10.0
 16
0.0
 26
0.0
 36
1.0
 17
0.0
 27
0.0
 37
0.0
 40
297.0
 41
1.4141414141
 42
50.0
 43
0.0
 44
0.0
 50
0.0
 51
0.0
 71
     0
 72
  2000
 73
     1
 74
     3
 75
     0
 76
     0
 77
     0
 78
     0
  0
ENDTAB
  0
TABLE
  2
LTYPE
 70
     6
  0
LTYPE
  2
CONTINUOUS
 70
     0
  3
Solid line
 72
    65
 73
     0
 40
0.0
  0
LTYPE
  2
HIDDEN
 70
     0
  3
Hidden __ __ __ __ __ __ __ __ __ __ __ __ __ __
 72
    65
 73
     2
 40
1.905
 49
1.27
 49
-0.635
  0
LTYPE
  2
PHANTOM
 70
     0
  3
Phantom ______  __  __  ______  __  __  ______
 72
    65
 73
     6
 40
12.7
 49
6.35
 49
-1.27
 49
1.27
 49
-1.27
 49
1.27
 49
-1.27
  0
LTYPE
  2
CENTER
 70
     0
  3
Center ____ _ ____ _ ____ _ ____ _ ____ _ ____
 72
    65
 73
     4
 40
10.16
 49
6.35
 49
-1.27
 49
1.27
 49
-1.27
  0
LTYPE
  2
CENTERX2
 70
     0
  3
Center (2x) ________  __  ________  __  _____
 72
    65
 73
     4
 40
20.32
 49
12.7
 49
-2.54
 49
2.54
 49
-2.54
  0
LTYPE
  2
DOT2
 70
     0
  3
Dot (.5x) ........................................
 72
    65
 73
     2
 40
0.635
 49
0.0
 49
-0.635
  0
ENDTAB
  0
TABLE
  2
LAYER
 70
     2
  0
LAYER
  2
0
 70
     0
 62
     7
  6
CONTINUOUS
  0
LAYER
  2
FORMAT
 70
     0
 62
     7
  6
CONTINUOUS
  0
ENDTAB
  0
TABLE
  2
STYLE
 70
     1
  0
STYLE
  2
STANDARD
 70
     0
 40
0.0
 41
1.0
 50
0.0
 71
     0
 42
3.5
  3
txt
  4

  0
ENDTAB
  0
TABLE
  2
VIEW
 70
     0
  0
ENDTAB
  0
TABLE
  2
UCS
 70
     0
  0
ENDTAB
  0
TABLE
  2
APPID
 70
     1
  0
APPID
  2
ACAD
 70
     0
  0
ENDTAB
  0
TABLE
  2
DIMSTYLE
 70
     1
  0
DIMSTYLE
  2
ISO-25
 70
     0
  3

  4

  5

  6

  7

 40
1.0
 41
2.5
 42
0.625
 43
3.75
 44
1.25
 45
0.0
 46
0.0
 47
0.0
 48
0.0
140
2.5
141
2.5
142
0.0
143
0.0393700787
144
1.0
145
0.0
146
1.0
147
0.625
 71
     0
 72
     0
 73
     0
 74
     0
 75
     0
 76
     0
 77
     1
 78
     8
170
     0
171
     3
172
     1
173
     0
174
     0
175
     0
176
     0
177
     0
178
     0
  0
ENDTAB
  0
ENDSEC
  0
SECTION
  2
BLOCKS
  0
BLOCK
  8
0
  2
$MODEL_SPACE
 70
     0
 10
0.0
 20
0.0
 30
0.0
  3
$MODEL_SPACE
  1

  0
ENDBLK
  5
21
  8
0
  0
BLOCK
 67
     1
  8
0
  2
$PAPER_SPACE
 70
     0
 10
0.0
 20
0.0
 30
0.0
  3
$PAPER_SPACE
  1

  0
ENDBLK
  5
1D
 67
     1
  8
0
  0
ENDSEC
  0
SECTION
  2
ENTITIES
  0
POLYLINE
  5
45
  8
0
  6
CONTINUOUS
 62
     7
 66
     1
 10
0.0
 20
0.0
 30
0.0
  0
VERTEX
  5
421
  8
0
  6
CONTINUOUS
 62
     7
 10
116.6889807255
 20
228.1589762407
 30
0.0
  0
VERTEX
  5
422
  8
0
  6
CONTINUOUS
 62
     7
 10
116.6244706185
 20
228.1884090142
 30
0.0
  0
VERTEX
  5
423
  8
0
  6
CONTINUOUS
 62
     7
 10
116.094156173
 20
228.4297363
 30
0.0
  0
SEQEND
  5
B9F
  8
0
  6
CONTINUOUS
 62
     7
  0
LINE
  5
46
  8
0
  6
CONTINUOUS
 62
     7
 10
53.4239491494
 20
228.4303681092
 30
0.0
 11
52.8270443947
 21
228.1583921151
 31
0.0
  0
POLYLINE
  5
47
  8
0
  6
CONTINUOUS
 62
     7
 66
     1
 10
0.0
 20
0.0
 30
0.0
  0
VERTEX
  5
424
  8
0
  6
CONTINUOUS
 62
     7
 10
356.6889843018
 20
228.1589762407
 30
0.0
  0
VERTEX
  5
425
  8
0
  6
CONTINUOUS
 62
     7
 10
356.6244682343
 20
228.1884090142
 30
0.0
  0
VERTEX
  5
426
  8
0
  6
CONTINUOUS
 62
     7
 10
356.0941537888
 20
228.4297363
 30
0.0
  0
SEQEND
  5
B9E
  8
0
  6
CONTINUOUS
 62
     7
  0
LINE
  5
48
  8
0
  6
CONTINUOUS
 62
     7
 10
293.4239527256
 20
228.4303681092
 30
0.0
 11
292.8270420105
 21
228.1583921151
 31
0.0
  0
POLYLINE
  5
49
  8
0
  6
CONTINUOUS
 62
     7
 66
     1
 10
0.0
 20
0.0
 30
0.0
  0
VERTEX
  5
427
  8
0
  6
CONTINUOUS
 62
     7
 10
236.6889825137
 20
228.1589762407
 30
0.0
  0
VERTEX
  5
428
  8
0
  6
CONTINUOUS
 62
     7
 10
236.6244694264
 20
228.1884090142
 30
0.0
  0
VERTEX
  5
429
  8
0
  6
CONTINUOUS
 62
     7
 10
236.0941549809
 20
228.4297363
 30
0.0
  0
SEQEND
  5
B9D
  8
0
  6
CONTINUOUS
 62
     7
  0
LINE
  5
4A
  8
0
  6
CONTINUOUS
 62
     7
 10
173.4239539177
 20
228.4303681092
 30
0.0
 11
172.8270402224
 21
228.1583921151
 31
0.0
  0
POLYLINE
  5
4B
  8
0
  6
CONTINUOUS
 62
     7
 66
     1
 10
0.0
 20
0.0
 30
0.0
  0
VERTEX
  5
42A
  8
0
  6
CONTINUOUS
 62
     7
 10
122.1954485447
 20
154.4618205266
 30
0.0
  0
VERTEX
  5
42B
  8
0
  6
CONTINUOUS
 62
     7
 10
120.9205886395
 20
154.2916075425
 30
0.0
  0
VERTEX
  5
42C
  8
0
  6
CONTINUOUS
 62
     7
 10
119.8277493985
 20
154.1505412297
 30
0.0
  0
VERTEX
  5
42D
  8
0
  6
CONTINUOUS
 62
     7
 10
118.9172228844
 20
154.0364102559
 30
0.0
  0
VERTEX
  5
42E
  8
0
  6
CONTINUOUS
 62
     7
 10
118.1892415554
 20
153.947378798
 30
0.0
  0
VERTEX
  5
42F
  8
0
  6
CONTINUOUS
 62
     7
 10
117.5908526451
 20
153.8756624894
 30
0.0
  0
VERTEX
  5
430
  8
0
  6
CONTINUOUS
 62
     7
 10
117.1698054345
 20
153.826071425
 30
0.0
  0
VERTEX
  5
431
  8
0
  6
CONTINUOUS
 62
     7
 10
116.7336246045
 20
153.7758425908
 30
0.0
  0
VERTEX
  5
432
  8
0
  6
CONTINUOUS
 62
     7
 10
116.2642737896
 20
153.723038836
 30
0.0
  0
VERTEX
  5
433
  8
0
  6
CONTINUOUS
 62
     7
 10
115.7617410691
 20
153.6678568559
 30
0.0
  0
VERTEX
  5
434
  8
0
  6
CONTINUOUS
 62
     7
 10
115.2260085614
 20
153.6104873853
 30
0.0
  0
VERTEX
  5
435
  8
0
  6
CONTINUOUS
 62
     7
 10
113.831700948
 20
153.4678713517
 30
0.0
  0
VERTEX
  5
436
  8
0
  6
CONTINUOUS
 62
     7
 10
112.2525354893
 20
153.3173755841
 30
0.0
  0
VERTEX
  5
437
  8
0
  6
CONTINUOUS
 62
     7
 10
110.9329721005
 20
153.2002524572
 30
0.0
  0
VERTEX
  5
438
  8
0
  6
CONTINUOUS
 62
     7
 10
109.6062621148
 20
153.0910746293
 30
0.0
  0
VERTEX
  5
439
  8
0
  6
CONTINUOUS
 62
     7
 10
108.3727022679
 20
152.9984072881
 30
0.0
  0
VERTEX
  5
43A
  8
0
  6
CONTINUOUS
 62
     7
 10
107.2324534924
 20
152.9211298661
 30
0.0
  0
VERTEX
  5
43B
  8
0
  6
CONTINUOUS
 62
     7
 10
106.1856767208
 20
152.8583006101
 30
0.0
  0
VERTEX
  5
43C
  8
0
  6
CONTINUOUS
 62
     7
 10
105.2325209648
 20
152.8091804223
 30
0.0
  0
VERTEX
  5
43D
  8
0
  6
CONTINUOUS
 62
     7
 10
104.3731292755
 20
152.7732328611
 30
0.0
  0
VERTEX
  5
43E
  8
0
  6
CONTINUOUS
 62
     7
 10
103.606911567
 20
152.7499691682
 30
0.0
  0
VERTEX
  5
43F
  8
0
  6
CONTINUOUS
 62
     7
 10
103.2463034661
 20
152.740521832
 30
0.0
  0
VERTEX
  5
440
  8
0
  6
CONTINUOUS
 62
     7
 10
102.8926333458
 20
152.7297691541
 30
0.0
  0
VERTEX
  5
441
  8
0
  6
CONTINUOUS
 62
     7
 10
102.5458892853
 20
152.7173117833
 30
0.0
  0
VERTEX
  5
442
  8
0
  6
CONTINUOUS
 62
     7
 10
102.2060832054
 20
152.7037636476
 30
0.0
  0
VERTEX
  5
443
  8
0
  6
CONTINUOUS
 62
     7
 10
101.650424865
 20
152.6807264524
 30
0.0
  0
VERTEX
  5
444
  8
0
  6
CONTINUOUS
 62
     7
 10
101.0352572472
 20
152.6558415132
 30
0.0
  0
VERTEX
  5
445
  8
0
  6
CONTINUOUS
 62
     7
 10
100.3023823769
 20
152.6275769906
 30
0.0
  0
VERTEX
  5
446
  8
0
  6
CONTINUOUS
 62
     7
 10
99.4517764122
 20
152.5966242986
 30
0.0
  0
VERTEX
  5
447
  8
0
  6
CONTINUOUS
 62
     7
 10
98.4343489678
 20
152.5621370511
 30
0.0
  0
VERTEX
  5
448
  8
0
  6
CONTINUOUS
 62
     7
 10
97.2876628907
 20
152.5265173154
 30
0.0
  0
VERTEX
  5
449
  8
0
  6
CONTINUOUS
 62
     7
 10
96.0118493111
 20
152.4908618169
 30
0.0
  0
VERTEX
  5
44A
  8
0
  6
CONTINUOUS
 62
     7
 10
89.9643024475
 20
152.3762063222
 30
0.0
  0
VERTEX
  5
44B
  8
0
  6
CONTINUOUS
 62
     7
 10
83.9472493203
 20
152.346702023
 30
0.0
  0
VERTEX
  5
44C
  8
0
  6
CONTINUOUS
 62
     7
 10
81.5727075608
 20
152.3576454358
 30
0.0
  0
VERTEX
  5
44D
  8
0
  6
CONTINUOUS
 62
     7
 10
79.337652591
 20
152.3796753125
 30
0.0
  0
VERTEX
  5
44E
  8
0
  6
CONTINUOUS
 62
     7
 10
77.2564252884
 20
152.4105028348
 30
0.0
  0
VERTEX
  5
44F
  8
0
  6
CONTINUOUS
 62
     7
 10
75.329037574
 20
152.4480597215
 30
0.0
  0
VERTEX
  5
450
  8
0
  6
CONTINUOUS
 62
     7
 10
73.5457738907
 20
152.4906949239
 30
0.0
  0
VERTEX
  5
451
  8
0
  6
CONTINUOUS
 62
     7
 10
72.6363500626
 20
152.5154189305
 30
0.0
  0
VERTEX
  5
452
  8
0
  6
CONTINUOUS
 62
     7
 10
71.6842016251
 20
152.5435344415
 30
0.0
  0
VERTEX
  5
453
  8
0
  6
CONTINUOUS
 62
     7
 10
70.689364341
 20
152.5754288869
 30
0.0
  0
VERTEX
  5
454
  8
0
  6
CONTINUOUS
 62
     7
 10
69.6518620522
 20
152.6115314202
 30
0.0
  0
VERTEX
  5
455
  8
0
  6
CONTINUOUS
 62
     7
 10
68.6274966271
 20
152.6501194673
 30
0.0
  0
VERTEX
  5
456
  8
0
  6
CONTINUOUS
 62
     7
 10
67.959185508
 20
152.6769177156
 30
0.0
  0
VERTEX
  5
457
  8
0
  6
CONTINUOUS
 62
     7
 10
67.4785098107
 20
152.6969985204
 30
0.0
  0
VERTEX
  5
458
  8
0
  6
CONTINUOUS
 62
     7
 10
67.1644648583
 20
152.7104751306
 30
0.0
  0
VERTEX
  5
459
  8
0
  6
CONTINUOUS
 62
     7
 10
66.6835865052
 20
152.7312831121
 30
0.0
  0
VERTEX
  5
45A
  8
0
  6
CONTINUOUS
 62
     7
 10
66.1276778252
 20
152.7543501096
 30
0.0
  0
VERTEX
  5
45B
  8
0
  6
CONTINUOUS
 62
     7
 10
65.496798423
 20
152.7784780698
 30
0.0
  0
VERTEX
  5
45C
  8
0
  6
CONTINUOUS
 62
     7
 10
64.7909482987
 20
152.8058842855
 30
0.0
  0
VERTEX
  5
45D
  8
0
  6
CONTINUOUS
 62
     7
 10
64.0092214615
 20
152.840103312
 30
0.0
  0
VERTEX
  5
45E
  8
0
  6
CONTINUOUS
 62
     7
 10
63.1470641167
 20
152.8849379258
 30
0.0
  0
VERTEX
  5
45F
  8
0
  6
CONTINUOUS
 62
     7
 10
62.2039279015
 20
152.941288157
 30
0.0
  0
VERTEX
  5
460
  8
0
  6
CONTINUOUS
 62
     7
 10
61.1798962624
 20
153.0097142892
 30
0.0
  0
VERTEX
  5
461
  8
0
  6
CONTINUOUS
 62
     7
 10
60.0751122506
 20
153.0909136968
 30
0.0
  0
VERTEX
  5
462
  8
0
  6
CONTINUOUS
 62
     7
 10
58.8897069962
 20
153.1857029634
 30
0.0
  0
VERTEX
  5
463
  8
0
  6
CONTINUOUS
 62
     7
 10
56.8257292778
 20
153.3680693345
 30
0.0
  0
VERTEX
  5
464
  8
0
  6
CONTINUOUS
 62
     7
 10
54.5704683335
 20
153.5907642083
 30
0.0
  0
VERTEX
  5
465
  8
0
  6
CONTINUOUS
 62
     7
 10
52.22462025
 20
153.8471595483
 30
0.0
  0
VERTEX
  5
466
  8
0
  6
CONTINUOUS
 62
     7
 10
49.8082002671
 20
154.1370109754
 30
0.0
  0
VERTEX
  5
467
  8
0
  6
CONTINUOUS
 62
     7
 10
47.3215421708
 20
154.4618205266
 30
0.0
  0
SEQEND
  5
B9C
  8
0
  6
CONTINUOUS
 62
     7
  0
POLYLINE
  5
4C
  8
0
  6
CONTINUOUS
 62
     7
 66
     1
 10
0.0
 20
0.0
 30
0.0
  0
VERTEX
  5
468
  8
0
  6
CONTINUOUS
 62
     7
 10
122.3585626156
 20
153.8780645566
 30
0.0
  0
VERTEX
  5
469
  8
0
  6
CONTINUOUS
 62
     7
 10
122.2763439686
 20
154.2390600877
 30
0.0
  0
VERTEX
  5
46A
  8
0
  6
CONTINUOUS
 62
     7
 10
122.1423288853
 20
154.828043385
 30
0.0
  0
SEQEND
  5
B9B
  8
0
  6
CONTINUOUS
 62
     7
  0
POLYLINE
  5
4D
  8
0
  6
CONTINUOUS
 62
     7
 66
     1
 10
0.0
 20
0.0
 30
0.0
  0
VERTEX
  5
46B
  8
0
  6
CONTINUOUS
 62
     7
 10
47.3746618302
 20
154.828043385
 30
0.0
  0
VERTEX
  5
46C
  8
0
  6
CONTINUOUS
 62
     7
 10
47.2419818909
 20
154.2448953824
 30
0.0
  0
VERTEX
  5
46D
  8
0
  6
CONTINUOUS
 62
     7
 10
47.156222728
 20
153.8683728414
 30
0.0
  0
SEQEND
  5
B9A
  8
0
  6
CONTINUOUS
 62
     7
  0
POLYLINE
  5
4E
  8
0
  6
CONTINUOUS
 62
     7
 66
     1
 10
0.0
 20
0.0
 30
0.0
  0
VERTEX
  5
46E
  8
0
  6
CONTINUOUS
 62
     7
 10
362.195452121
 20
154.4618205266
 30
0.0
  0
VERTEX
  5
46F
  8
0
  6
CONTINUOUS
 62
     7
 10
360.9205922158
 20
154.2916075425
 30
0.0
  0
VERTEX
  5
470
  8
0
  6
CONTINUOUS
 62
     7
 10
359.8277410538
 20
154.1505412297
 30
0.0
  0
VERTEX
  5
471
  8
0
  6
CONTINUOUS
 62
     7
 10
358.9172205002
 20
154.0364102559
 30
0.0
  0
VERTEX
  5
472
  8
0
  6
CONTINUOUS
 62
     7
 10
358.1892451317
 20
153.947378798
 30
0.0
  0
VERTEX
  5
473
  8
0
  6
CONTINUOUS
 62
     7
 10
357.590850261
 20
153.8756624894
 30
0.0
  0
VERTEX
  5
474
  8
0
  6
CONTINUOUS
 62
     7
 10
357.1698030503
 20
153.826071425
 30
0.0
  0
VERTEX
  5
475
  8
0
  6
CONTINUOUS
 62
     7
 10
356.7336281807
 20
153.7758425908
 30
0.0
  0
VERTEX
  5
476
  8
0
  6
CONTINUOUS
 62
     7
 10
356.2642773659
 20
153.723038836
 30
0.0
  0
VERTEX
  5
477
  8
0
  6
CONTINUOUS
 62
     7
 10
355.7617386849
 20
153.6678568559
 30
0.0
  0
VERTEX
  5
478
  8
0
  6
CONTINUOUS
 62
     7
 10
355.2260121376
 20
153.6104873853
 30
0.0
  0
VERTEX
  5
479
  8
0
  6
CONTINUOUS
 62
     7
 10
353.8317045243
 20
153.4678713517
 30
0.0
  0
VERTEX
  5
47A
  8
0
  6
CONTINUOUS
 62
     7
 10
352.2525390656
 20
153.3173755841
 30
0.0
  0
VERTEX
  5
47B
  8
0
  6
CONTINUOUS
 62
     7
 10
350.9329756768
 20
153.2002524572
 30
0.0
  0
VERTEX
  5
47C
  8
0
  6
CONTINUOUS
 62
     7
 10
349.6062597306
 20
153.0910746293
 30
0.0
  0
VERTEX
  5
47D
  8
0
  6
CONTINUOUS
 62
     7
 10
348.3727058442
 20
152.9984072881
 30
0.0
  0
VERTEX
  5
47E
  8
0
  6
CONTINUOUS
 62
     7
 10
347.2324570687
 20
152.9211298661
 30
0.0
  0
VERTEX
  5
47F
  8
0
  6
CONTINUOUS
 62
     7
 10
346.1856802971
 20
152.8583006101
 30
0.0
  0
VERTEX
  5
480
  8
0
  6
CONTINUOUS
 62
     7
 10
345.2325185807
 20
152.8091804223
 30
0.0
  0
VERTEX
  5
481
  8
0
  6
CONTINUOUS
 62
     7
 10
344.3731268914
 20
152.7732328611
 30
0.0
  0
VERTEX
  5
482
  8
0
  6
CONTINUOUS
 62
     7
 10
343.6069211037
 20
152.7499691682
 30
0.0
  0
VERTEX
  5
483
  8
0
  6
CONTINUOUS
 62
     7
 10
343.2463010819
 20
152.740521832
 30
0.0
  0
VERTEX
  5
484
  8
0
  6
CONTINUOUS
 62
     7
 10
342.8926309616
 20
152.7297691541
 30
0.0
  0
VERTEX
  5
485
  8
0
  6
CONTINUOUS
 62
     7
 10
342.5458988221
 20
152.7173117833
 30
0.0
  0
VERTEX
  5
486
  8
0
  6
CONTINUOUS
 62
     7
 10
342.2060808213
 20
152.7037636476
 30
0.0
  0
VERTEX
  5
487
  8
0
  6
CONTINUOUS
 62
     7
 10
341.6504224808
 20
152.6807264524
 30
0.0
  0
VERTEX
  5
488
  8
0
  6
CONTINUOUS
 62
     7
 10
341.035254863
 20
152.6558415132
 30
0.0
  0
VERTEX
  5
489
  8
0
  6
CONTINUOUS
 62
     7
 10
340.3023799927
 20
152.6275769906
 30
0.0
  0
VERTEX
  5
48A
  8
0
  6
CONTINUOUS
 62
     7
 10
339.4517740281
 20
152.5966242986
 30
0.0
  0
VERTEX
  5
48B
  8
0
  6
CONTINUOUS
 62
     7
 10
338.4343465836
 20
152.5621370511
 30
0.0
  0
VERTEX
  5
48C
  8
0
  6
CONTINUOUS
 62
     7
 10
337.2876605065
 20
152.5265173154
 30
0.0
  0
VERTEX
  5
48D
  8
0
  6
CONTINUOUS
 62
     7
 10
336.0118588478
 20
152.4908618169
 30
0.0
  0
VERTEX
  5
48E
  8
0
  6
CONTINUOUS
 62
     7
 10
329.9643000634
 20
152.3762063222
 30
0.0
  0
VERTEX
  5
48F
  8
0
  6
CONTINUOUS
 62
     7
 10
323.9472469361
 20
152.346702023
 30
0.0
  0
VERTEX
  5
490
  8
0
  6
CONTINUOUS
 62
     7
 10
321.5727051766
 20
152.3576454358
 30
0.0
  0
VERTEX
  5
491
  8
0
  6
CONTINUOUS
 62
     7
 10
319.3376502068
 20
152.3796753125
 30
0.0
  0
VERTEX
  5
492
  8
0
  6
CONTINUOUS
 62
     7
 10
317.2564229042
 20
152.4105028348
 30
0.0
  0
VERTEX
  5
493
  8
0
  6
CONTINUOUS
 62
     7
 10
315.3290351899
 20
152.4480597215
 30
0.0
  0
VERTEX
  5
494
  8
0
  6
CONTINUOUS
 62
     7
 10
313.5457715065
 20
152.4906949239
 30
0.0
  0
VERTEX
  5
495
  8
0
  6
CONTINUOUS
 62
     7
 10
312.6363476784
 20
152.5154189305
 30
0.0
  0
VERTEX
  5
496
  8
0
  6
CONTINUOUS
 62
     7
 10
311.6842111618
 20
152.5435344415
 30
0.0
  0
VERTEX
  5
497
  8
0
  6
CONTINUOUS
 62
     7
 10
310.6893619568
 20
152.5754288869
 30
0.0
  0
VERTEX
  5
498
  8
0
  6
CONTINUOUS
 62
     7
 10
309.651859668
 20
152.6115314202
 30
0.0
  0
VERTEX
  5
499
  8
0
  6
CONTINUOUS
 62
     7
 10
308.6275061638
 20
152.6501194673
 30
0.0
  0
VERTEX
  5
49A
  8
0
  6
CONTINUOUS
 62
     7
 10
307.9591831238
 20
152.6769177156
 30
0.0
  0
VERTEX
  5
49B
  8
0
  6
CONTINUOUS
 62
     7
 10
307.4785074265
 20
152.6969985204
 30
0.0
  0
VERTEX
  5
49C
  8
0
  6
CONTINUOUS
 62
     7
 10
307.164474395
 20
152.7104751306
 30
0.0
  0
VERTEX
  5
49D
  8
0
  6
CONTINUOUS
 62
     7
 10
306.683584121
 20
152.7312831121
 30
0.0
  0
VERTEX
  5
49E
  8
0
  6
CONTINUOUS
 62
     7
 10
306.127675441
 20
152.7543501096
 30
0.0
  0
VERTEX
  5
49F
  8
0
  6
CONTINUOUS
 62
     7
 10
305.4967960389
 20
152.7784780698
 30
0.0
  0
VERTEX
  5
4A0
  8
0
  6
CONTINUOUS
 62
     7
 10
304.7909459145
 20
152.8058842855
 30
0.0
  0
VERTEX
  5
4A1
  8
0
  6
CONTINUOUS
 62
     7
 10
304.0092190773
 20
152.840103312
 30
0.0
  0
VERTEX
  5
4A2
  8
0
  6
CONTINUOUS
 62
     7
 10
303.147067693
 20
152.8849379258
 30
0.0
  0
VERTEX
  5
4A3
  8
0
  6
CONTINUOUS
 62
     7
 10
302.2039255173
 20
152.941288157
 30
0.0
  0
VERTEX
  5
4A4
  8
0
  6
CONTINUOUS
 62
     7
 10
301.1798998387
 20
153.0097142892
 30
0.0
  0
VERTEX
  5
4A5
  8
0
  6
CONTINUOUS
 62
     7
 10
300.0751158268
 20
153.0909136968
 30
0.0
  0
VERTEX
  5
4A6
  8
0
  6
CONTINUOUS
 62
     7
 10
298.8897105725
 20
153.1857029634
 30
0.0
  0
VERTEX
  5
4A7
  8
0
  6
CONTINUOUS
 62
     7
 10
296.8257268937
 20
153.3680693345
 30
0.0
  0
VERTEX
  5
4A8
  8
0
  6
CONTINUOUS
 62
     7
 10
294.5704659493
 20
153.5907642083
 30
0.0
  0
VERTEX
  5
4A9
  8
0
  6
CONTINUOUS
 62
     7
 10
292.2246238263
 20
153.8471595483
 30
0.0
  0
VERTEX
  5
4AA
  8
0
  6
CONTINUOUS
 62
     7
 10
289.8081919224
 20
154.1370109754
 30
0.0
  0
VERTEX
  5
4AB
  8
0
  6
CONTINUOUS
 62
     7
 10
287.321545747
 20
154.4618205266
 30
0.0
  0
SEQEND
  5
B99
  8
0
  6
CONTINUOUS
 62
     7
  0
POLYLINE
  5
4F
  8
0
  6
CONTINUOUS
 62
     7
 66
     1
 10
0.0
 20
0.0
 30
0.0
  0
VERTEX
  5
4AC
  8
0
  6
CONTINUOUS
 62
     7
 10
362.3585661919
 20
153.8780645566
 30
0.0
  0
VERTEX
  5
4AD
  8
0
  6
CONTINUOUS
 62
     7
 10
362.2763475449
 20
154.2390600877
 30
0.0
  0
VERTEX
  5
4AE
  8
0
  6
CONTINUOUS
 62
     7
 10
362.1423324616
 20
154.828043385
 30
0.0
  0
SEQEND
  5
B98
  8
0
  6
CONTINUOUS
 62
     7
  0
POLYLINE
  5
50
  8
0
  6
CONTINUOUS
 62
     7
 66
     1
 10
0.0
 20
0.0
 30
0.0
  0
VERTEX
  5
4AF
  8
0
  6
CONTINUOUS
 62
     7
 10
287.3746654065
 20
154.828043385
 30
0.0
  0
VERTEX
  5
4B0
  8
0
  6
CONTINUOUS
 62
     7
 10
287.2419735463
 20
154.2448953824
 30
0.0
  0
VERTEX
  5
4B1
  8
0
  6
CONTINUOUS
 62
     7
 10
287.1562263043
 20
153.8683728414
 30
0.0
  0
SEQEND
  5
B97
  8
0
  6
CONTINUOUS
 62
     7
  0
POLYLINE
  5
51
  8
0
  6
CONTINUOUS
 62
     7
 66
     1
 10
0.0
 20
0.0
 30
0.0
  0
VERTEX
  5
4B2
  8
0
  6
CONTINUOUS
 62
     7
 10
242.1954473526
 20
154.4618205266
 30
0.0
  0
VERTEX
  5
4B3
  8
0
  6
CONTINUOUS
 62
     7
 10
240.9205874474
 20
154.2916075425
 30
0.0
  0
VERTEX
  5
4B4
  8
0
  6
CONTINUOUS
 62
     7
 10
239.8277452261
 20
154.1505412297
 30
0.0
  0
VERTEX
  5
4B5
  8
0
  6
CONTINUOUS
 62
     7
 10
238.9172187121
 20
154.0364102559
 30
0.0
  0
VERTEX
  5
4B6
  8
0
  6
CONTINUOUS
 62
     7
 10
238.1892433436
 20
153.947378798
 30
0.0
  0
VERTEX
  5
4B7
  8
0
  6
CONTINUOUS
 62
     7
 10
237.5908514531
 20
153.8756624894
 30
0.0
  0
VERTEX
  5
4B8
  8
0
  6
CONTINUOUS
 62
     7
 10
237.1698042424
 20
153.826071425
 30
0.0
  0
VERTEX
  5
4B9
  8
0
  6
CONTINUOUS
 62
     7
 10
236.7336234124
 20
153.7758425908
 30
0.0
  0
VERTEX
  5
4BA
  8
0
  6
CONTINUOUS
 62
     7
 10
236.2642755778
 20
153.723038836
 30
0.0
  0
VERTEX
  5
4BB
  8
0
  6
CONTINUOUS
 62
     7
 10
235.7617428572
 20
153.6678568559
 30
0.0
  0
VERTEX
  5
4BC
  8
0
  6
CONTINUOUS
 62
     7
 10
235.2260073693
 20
153.6104873853
 30
0.0
  0
VERTEX
  5
4BD
  8
0
  6
CONTINUOUS
 62
     7
 10
233.8317027361
 20
153.4678713517
 30
0.0
  0
VERTEX
  5
4BE
  8
0
  6
CONTINUOUS
 62
     7
 10
232.2525342972
 20
153.3173755841
 30
0.0
  0
VERTEX
  5
4BF
  8
0
  6
CONTINUOUS
 62
     7
 10
230.9329738886
 20
153.2002524572
 30
0.0
  0
VERTEX
  5
4C0
  8
0
  6
CONTINUOUS
 62
     7
 10
229.606265393
 20
153.0910746293
 30
0.0
  0
VERTEX
  5
4C1
  8
0
  6
CONTINUOUS
 62
     7
 10
228.3727010758
 20
152.9984072881
 30
0.0
  0
VERTEX
  5
4C2
  8
0
  6
CONTINUOUS
 62
     7
 10
227.2324537904
 20
152.9211298661
 30
0.0
  0
VERTEX
  5
4C3
  8
0
  6
CONTINUOUS
 62
     7
 10
226.185678509
 20
152.8583006101
 30
0.0
  0
VERTEX
  5
4C4
  8
0
  6
CONTINUOUS
 62
     7
 10
225.232522753
 20
152.8091804223
 30
0.0
  0
VERTEX
  5
4C5
  8
0
  6
CONTINUOUS
 62
     7
 10
224.3731251032
 20
152.7732328611
 30
0.0
  0
VERTEX
  5
4C6
  8
0
  6
CONTINUOUS
 62
     7
 10
223.6069163353
 20
152.7499691682
 30
0.0
  0
VERTEX
  5
4C7
  8
0
  6
CONTINUOUS
 62
     7
 10
223.2463037641
 20
152.740521832
 30
0.0
  0
VERTEX
  5
4C8
  8
0
  6
CONTINUOUS
 62
     7
 10
222.892635134
 20
152.7297691541
 30
0.0
  0
VERTEX
  5
4C9
  8
0
  6
CONTINUOUS
 62
     7
 10
222.5458940537
 20
152.7173117833
 30
0.0
  0
VERTEX
  5
4CA
  8
0
  6
CONTINUOUS
 62
     7
 10
222.2060864837
 20
152.7037636476
 30
0.0
  0
VERTEX
  5
4CB
  8
0
  6
CONTINUOUS
 62
     7
 10
221.6504221828
 20
152.6807264524
 30
0.0
  0
VERTEX
  5
4CC
  8
0
  6
CONTINUOUS
 62
     7
 10
221.0352575452
 20
152.6558415132
 30
0.0
  0
VERTEX
  5
4CD
  8
0
  6
CONTINUOUS
 62
     7
 10
220.3023826749
 20
152.6275769906
 30
0.0
  0
VERTEX
  5
4CE
  8
0
  6
CONTINUOUS
 62
     7
 10
219.4517722399
 20
152.5966242986
 30
0.0
  0
VERTEX
  5
4CF
  8
0
  6
CONTINUOUS
 62
     7
 10
218.4343507559
 20
152.5621370511
 30
0.0
  0
VERTEX
  5
4D0
  8
0
  6
CONTINUOUS
 62
     7
 10
217.2876587183
 20
152.5265173154
 30
0.0
  0
VERTEX
  5
4D1
  8
0
  6
CONTINUOUS
 62
     7
 10
216.0118548245
 20
152.4908618169
 30
0.0
  0
VERTEX
  5
4D2
  8
0
  6
CONTINUOUS
 62
     7
 10
209.9643005104
 20
152.3762063222
 30
0.0
  0
VERTEX
  5
4D3
  8
0
  6
CONTINUOUS
 62
     7
 10
203.9472487801
 20
152.346702023
 30
0.0
  0
VERTEX
  5
4D4
  8
0
  6
CONTINUOUS
 62
     7
 10
201.5727078588
 20
152.3576454358
 30
0.0
  0
VERTEX
  5
4D5
  8
0
  6
CONTINUOUS
 62
     7
 10
199.3376547516
 20
152.3796753125
 30
0.0
  0
VERTEX
  5
4D6
  8
0
  6
CONTINUOUS
 62
     7
 10
197.2564226062
 20
152.4105028348
 30
0.0
  0
VERTEX
  5
4D7
  8
0
  6
CONTINUOUS
 62
     7
 10
195.3290356369
 20
152.4480597215
 30
0.0
  0
VERTEX
  5
4D8
  8
0
  6
CONTINUOUS
 62
     7
 10
193.5457697184
 20
152.4906949239
 30
0.0
  0
VERTEX
  5
4D9
  8
0
  6
CONTINUOUS
 62
     7
 10
192.6363466353
 20
152.5154189305
 30
0.0
  0
VERTEX
  5
4DA
  8
0
  6
CONTINUOUS
 62
     7
 10
191.6842049034
 20
152.5435344415
 30
0.0
  0
VERTEX
  5
4DB
  8
0
  6
CONTINUOUS
 62
     7
 10
190.6893676193
 20
152.5754288869
 30
0.0
  0
VERTEX
  5
4DC
  8
0
  6
CONTINUOUS
 62
     7
 10
189.6518563897
 20
152.6115314202
 30
0.0
  0
VERTEX
  5
4DD
  8
0
  6
CONTINUOUS
 62
     7
 10
188.6275013955
 20
152.6501194673
 30
0.0
  0
VERTEX
  5
4DE
  8
0
  6
CONTINUOUS
 62
     7
 10
187.9591798456
 20
152.6769177156
 30
0.0
  0
VERTEX
  5
4DF
  8
0
  6
CONTINUOUS
 62
     7
 10
187.4785101087
 20
152.6969985204
 30
0.0
  0
VERTEX
  5
4E0
  8
0
  6
CONTINUOUS
 62
     7
 10
187.1644711168
 20
152.7104751306
 30
0.0
  0
VERTEX
  5
4E1
  8
0
  6
CONTINUOUS
 62
     7
 10
186.6835897834
 20
152.7312831121
 30
0.0
  0
VERTEX
  5
4E2
  8
0
  6
CONTINUOUS
 62
     7
 10
186.1276781232
 20
152.7543501096
 30
0.0
  0
VERTEX
  5
4E3
  8
0
  6
CONTINUOUS
 62
     7
 10
185.4967972309
 20
152.7784780698
 30
0.0
  0
VERTEX
  5
4E4
  8
0
  6
CONTINUOUS
 62
     7
 10
184.7909500868
 20
152.8058842855
 30
0.0
  0
VERTEX
  5
4E5
  8
0
  6
CONTINUOUS
 62
     7
 10
184.0092202694
 20
152.840103312
 30
0.0
  0
VERTEX
  5
4E6
  8
0
  6
CONTINUOUS
 62
     7
 10
183.1470688851
 20
152.8849379258
 30
0.0
  0
VERTEX
  5
4E7
  8
0
  6
CONTINUOUS
 62
     7
 10
182.2039237292
 20
152.941288157
 30
0.0
  0
VERTEX
  5
4E8
  8
0
  6
CONTINUOUS
 62
     7
 10
181.1798995407
 20
153.0097142892
 30
0.0
  0
VERTEX
  5
4E9
  8
0
  6
CONTINUOUS
 62
     7
 10
180.075118509
 20
153.0909136968
 30
0.0
  0
VERTEX
  5
4EA
  8
0
  6
CONTINUOUS
 62
     7
 10
178.8897117646
 20
153.1857029634
 30
0.0
  0
VERTEX
  5
4EB
  8
0
  6
CONTINUOUS
 62
     7
 10
176.8257280857
 20
153.3680693345
 30
0.0
  0
VERTEX
  5
4EC
  8
0
  6
CONTINUOUS
 62
     7
 10
174.5704671414
 20
153.5907642083
 30
0.0
  0
VERTEX
  5
4ED
  8
0
  6
CONTINUOUS
 62
     7
 10
172.2246250183
 20
153.8471595483
 30
0.0
  0
VERTEX
  5
4EE
  8
0
  6
CONTINUOUS
 62
     7
 10
169.8081931145
 20
154.1370109754
 30
0.0
  0
VERTEX
  5
4EF
  8
0
  6
CONTINUOUS
 62
     7
 10
167.3215469391
 20
154.4618205266
 30
0.0
  0
SEQEND
  5
B96
  8
0
  6
CONTINUOUS
 62
     7
  0
POLYLINE
  5
52
  8
0
  6
CONTINUOUS
 62
     7
 66
     1
 10
0.0
 20
0.0
 30
0.0
  0
VERTEX
  5
4F0
  8
0
  6
CONTINUOUS
 62
     7
 10
242.3585614235
 20
153.8780645566
 30
0.0
  0
VERTEX
  5
4F1
  8
0
  6
CONTINUOUS
 62
     7
 10
242.2763457568
 20
154.2390600877
 30
0.0
  0
VERTEX
  5
4F2
  8
0
  6
CONTINUOUS
 62
     7
 10
242.1423306734
 20
154.828043385
 30
0.0
  0
SEQEND
  5
B95
  8
0
  6
CONTINUOUS
 62
     7
  0
POLYLINE
  5
53
  8
0
  6
CONTINUOUS
 62
     7
 66
     1
 10
0.0
 20
0.0
 30
0.0
  0
VERTEX
  5
4F3
  8
0
  6
CONTINUOUS
 62
     7
 10
167.3746636183
 20
154.828043385
 30
0.0
  0
VERTEX
  5
4F4
  8
0
  6
CONTINUOUS
 62
     7
 10
167.2419747383
 20
154.2448953824
 30
0.0
  0
VERTEX
  5
4F5
  8
0
  6
CONTINUOUS
 62
     7
 10
167.1562245161
 20
153.8683728414
 30
0.0
  0
SEQEND
  5
B94
  8
0
  6
CONTINUOUS
 62
     7
  0
LINE
  5
54
  8
0
  6
CONTINUOUS
 62
     7
 10
62.5855645211
 20
62.4737671675
 30
0.0
 11
66.3442095787
 21
62.4737671675
 31
0.0
  0
LINE
  5
55
  8
0
  6
CONTINUOUS
 62
     7
 10
66.3442095787
 20
61.2737671571
 30
0.0
 11
62.5855645211
 21
61.2737671571
 31
0.0
  0
LINE
  5
56
  8
0
  6
CONTINUOUS
 62
     7
 10
66.3442095787
 20
62.4737671675
 30
0.0
 11
73.1727799446
 21
62.4737671675
 31
0.0
  0
LINE
  5
57
  8
0
  6
CONTINUOUS
 62
     7
 10
66.3442095787
 20
61.2737671571
 30
0.0
 11
73.1727799446
 21
61.2737671571
 31
0.0
  0
LINE
  5
58
  8
0
  6
CONTINUOUS
 62
     7
 10
73.1727799446
 20
62.4737671675
 30
0.0
 11
76.9314250023
 21
62.4737671675
 31
0.0
  0
LINE
  5
59
  8
0
  6
CONTINUOUS
 62
     7
 10
76.9314250023
 20
61.2737671571
 30
0.0
 11
73.1727799446
 21
61.2737671571
 31
0.0
  0
LINE
  5
5A
  8
0
  6
CONTINUOUS
 62
     7
 10
336.3442143471
 20
61.2737671571
 30
0.0
 11
332.5855692894
 21
61.2737671571
 31
0.0
  0
LINE
  5
5B
  8
0
  6
CONTINUOUS
 62
     7
 10
332.5855692894
 20
62.4737671675
 30
0.0
 11
336.3442143471
 21
62.4737671675
 31
0.0
  0
LINE
  5
5C
  8
0
  6
CONTINUOUS
 62
     7
 10
346.9314297707
 20
61.2737671571
 30
0.0
 11
343.172784713
 21
61.2737671571
 31
0.0
  0
LINE
  5
5D
  8
0
  6
CONTINUOUS
 62
     7
 10
343.172784713
 20
62.4737671675
 30
0.0
 11
346.9314297707
 21
62.4737671675
 31
0.0
  0
LINE
  5
5E
  8
0
  6
CONTINUOUS
 62
     7
 10
336.3442143471
 20
61.2737671571
 30
0.0
 11
343.172784713
 21
61.2737671571
 31
0.0
  0
LINE
  5
5F
  8
0
  6
CONTINUOUS
 62
     7
 10
336.3442143471
 20
62.4737671675
 30
0.0
 11
343.172784713
 21
62.4737671675
 31
0.0
  0
LINE
  5
60
  8
0
  6
CONTINUOUS
 62
     7
 10
81.7584952385
 20
61.2737671571
 30
0.0
 11
81.7584952385
 21
62.4737671675
 31
0.0
  0
LINE
  5
61
  8
0
  6
CONTINUOUS
 62
     7
 10
81.7584952385
 20
62.4737671675
 30
0.0
 11
76.9314250023
 21
62.4737671675
 31
0.0
  0
LINE
  5
62
  8
0
  6
CONTINUOUS
 62
     7
 10
76.9314250023
 20
61.2737671571
 30
0.0
 11
81.7584952385
 21
61.2737671571
 31
0.0
  0
LINE
  5
63
  8
0
  6
CONTINUOUS
 62
     7
 10
57.7584942849
 20
61.2737671571
 30
0.0
 11
57.7584942849
 21
62.4737671675
 31
0.0
  0
LINE
  5
64
  8
0
  6
CONTINUOUS
 62
     7
 10
62.5855645211
 20
62.4737671675
 30
0.0
 11
57.7584942849
 21
62.4737671675
 31
0.0
  0
LINE
  5
65
  8
0
  6
CONTINUOUS
 62
     7
 10
57.7584942849
 20
61.2737671571
 30
0.0
 11
62.5855645211
 21
61.2737671571
 31
0.0
  0
LINE
  5
66
  8
0
  6
CONTINUOUS
 62
     7
 10
351.7585000069
 20
61.2737671571
 30
0.0
 11
351.7585000069
 21
62.4737671675
 31
0.0
  0
LINE
  5
67
  8
0
  6
CONTINUOUS
 62
     7
 10
346.9314297707
 20
61.2737671571
 30
0.0
 11
351.7585000069
 21
61.2737671571
 31
0.0
  0
LINE
  5
68
  8
0
  6
CONTINUOUS
 62
     7
 10
351.7585000069
 20
62.4737671675
 30
0.0
 11
346.9314297707
 21
62.4737671675
 31
0.0
  0
LINE
  5
69
  8
0
  6
CONTINUOUS
 62
     7
 10
327.7584990532
 20
61.2737671571
 30
0.0
 11
327.7584990532
 21
62.4737671675
 31
0.0
  0
LINE
  5
6A
  8
0
  6
CONTINUOUS
 62
     7
 10
327.7584990532
 20
61.2737671571
 30
0.0
 11
332.5855692894
 21
61.2737671571
 31
0.0
  0
LINE
  5
6B
  8
0
  6
CONTINUOUS
 62
     7
 10
332.5855692894
 20
62.4737671675
 30
0.0
 11
327.7584990532
 21
62.4737671675
 31
0.0
  0
LINE
  5
6C
  8
0
  6
CONTINUOUS
 62
     7
 10
368.3585008652
 20
127.4737672048
 30
0.0
 11
368.3585008652
 21
126.8737689691
 31
0.0
  0
ARC
  5
6D
  8
0
  6
CONTINUOUS
 62
     7
 10
367.9584971459
 20
126.8737671571
 30
0.0
 40
0.4000000000000057
 50
270.0
 51
0.0
  0
LINE
  5
6E
  8
0
  6
CONTINUOUS
 62
     7
 10
64.7584995301
 20
62.4737671675
 30
0.0
 11
64.7584995301
 21
126.4737681585
 31
0.0
  0
POLYLINE
  5
6F
  8
0
  6
CONTINUOUS
 62
     7
 66
     1
 10
0.0
 20
0.0
 30
0.0
  0
VERTEX
  5
4F6
  8
0
  6
CONTINUOUS
 62
     7
 10
64.7584995301
 20
126.4737681585
 30
0.0
  0
VERTEX
  5
4F7
  8
0
  6
CONTINUOUS
 62
     7
 10
64.7777160675
 20
126.4929846959
 30
0.0
  0
VERTEX
  5
4F8
  8
0
  6
CONTINUOUS
 62
     7
 10
64.8346146614
 20
126.5498892503
 30
0.0
  0
VERTEX
  5
4F9
  8
0
  6
CONTINUOUS
 62
     7
 10
64.9270257027
 20
126.6423002916
 30
0.0
  0
VERTEX
  5
4FA
  8
0
  6
CONTINUOUS
 62
     7
 10
65.0513848336
 20
126.7666594224
 30
0.0
  0
VERTEX
  5
4FB
  8
0
  6
CONTINUOUS
 62
     7
 10
65.2029236824
 20
126.9181982713
 30
0.0
  0
VERTEX
  5
4FC
  8
0
  6
CONTINUOUS
 62
     7
 10
65.3758129151
 20
127.0910815435
 30
0.0
  0
VERTEX
  5
4FD
  8
0
  6
CONTINUOUS
 62
     7
 10
65.563412574
 20
127.278675242
 30
0.0
  0
VERTEX
  5
4FE
  8
0
  6
CONTINUOUS
 62
     7
 10
65.7584985764
 20
127.4737672048
 30
0.0
  0
SEQEND
  5
B93
  8
0
  6
CONTINUOUS
 62
     7
  0
LINE
  5
70
  8
0
  6
CONTINUOUS
 62
     7
 10
64.7584995301
 20
126.4737681585
 30
0.0
 11
41.5585001976
 21
126.4737681585
 31
0.0
  0
ARC
  5
71
  8
0
  6
CONTINUOUS
 62
     7
 10
367.9584971459
 20
136.0737671571
 30
0.0
 40
0.4000000000000057
 50
0.0
 51
90.0
  0
LINE
  5
72
  8
0
  6
CONTINUOUS
 62
     7
 10
368.3585008652
 20
136.073769732
 30
0.0
 11
368.3585008652
 21
135.4737655358
 31
0.0
  0
POLYLINE
  5
73
  8
0
  6
CONTINUOUS
 62
     7
 66
     1
 10
0.0
 20
0.0
 30
0.0
  0
VERTEX
  5
4FF
  8
0
  6
CONTINUOUS
 62
     7
 10
344.7584947617
 20
126.4737681585
 30
0.0
  0
VERTEX
  5
500
  8
0
  6
CONTINUOUS
 62
     7
 10
344.7392782242
 20
126.4929846959
 30
0.0
  0
VERTEX
  5
501
  8
0
  6
CONTINUOUS
 62
     7
 10
344.6823796303
 20
126.5498892503
 30
0.0
  0
VERTEX
  5
502
  8
0
  6
CONTINUOUS
 62
     7
 10
344.5899685891
 20
126.6423002916
 30
0.0
  0
VERTEX
  5
503
  8
0
  6
CONTINUOUS
 62
     7
 10
344.4656094582
 20
126.7666594224
 30
0.0
  0
VERTEX
  5
504
  8
0
  6
CONTINUOUS
 62
     7
 10
344.3140706093
 20
126.9181982713
 30
0.0
  0
VERTEX
  5
505
  8
0
  6
CONTINUOUS
 62
     7
 10
344.1411813767
 20
127.0910815435
 30
0.0
  0
VERTEX
  5
506
  8
0
  6
CONTINUOUS
 62
     7
 10
343.9535817177
 20
127.278675242
 30
0.0
  0
VERTEX
  5
507
  8
0
  6
CONTINUOUS
 62
     7
 10
343.7584957154
 20
127.4737672048
 30
0.0
  0
SEQEND
  5
B92
  8
0
  6
CONTINUOUS
 62
     7
  0
LINE
  5
74
  8
0
  6
CONTINUOUS
 62
     7
 10
367.9584940941
 20
126.4737681585
 30
0.0
 11
344.7584947617
 21
126.4737681585
 31
0.0
  0
LINE
  5
75
  8
0
  6
CONTINUOUS
 62
     7
 10
334.7584923775
 20
62.4737671675
 30
0.0
 11
334.7584923775
 21
126.4737681585
 31
0.0
  0
POLYLINE
  5
76
  8
0
  6
CONTINUOUS
 62
     7
 66
     1
 10
0.0
 20
0.0
 30
0.0
  0
VERTEX
  5
508
  8
0
  6
CONTINUOUS
 62
     7
 10
334.9585017235
 20
126.6737655835
 30
0.0
  0
VERTEX
  5
509
  8
0
  6
CONTINUOUS
 62
     7
 10
334.9270304711
 20
126.6423002916
 30
0.0
  0
VERTEX
  5
50A
  8
0
  6
CONTINUOUS
 62
     7
 10
334.8346194298
 20
126.5498892503
 30
0.0
  0
VERTEX
  5
50B
  8
0
  6
CONTINUOUS
 62
     7
 10
334.777708915
 20
126.4929846959
 30
0.0
  0
VERTEX
  5
50C
  8
0
  6
CONTINUOUS
 62
     7
 10
334.7584923775
 20
126.4737681585
 30
0.0
  0
SEQEND
  5
B91
  8
0
  6
CONTINUOUS
 62
     7
  0
LINE
  5
77
  8
0
  6
CONTINUOUS
 62
     7
 10
41.1584934265
 20
127.4737672048
 30
0.0
 11
41.1584934265
 21
135.4737655358
 31
0.0
  0
LINE
  5
78
  8
0
  6
CONTINUOUS
 62
     7
 10
368.3585008652
 20
135.4737655358
 30
0.0
 11
368.3585008652
 21
127.4737672048
 31
0.0
  0
LINE
  5
79
  8
0
  6
CONTINUOUS
 62
     7
 10
334.7584923775
 20
126.4737681585
 30
0.0
 11
74.7585019143
 21
126.4737681585
 31
0.0
  0
POLYLINE
  5
7A
  8
0
  6
CONTINUOUS
 62
     7
 66
     1
 10
0.0
 20
0.0
 30
0.0
  0
VERTEX
  5
50D
  8
0
  6
CONTINUOUS
 62
     7
 10
74.5584925682
 20
126.6737655835
 30
0.0
  0
VERTEX
  5
50E
  8
0
  6
CONTINUOUS
 62
     7
 10
74.5899638207
 20
126.6423002916
 30
0.0
  0
VERTEX
  5
50F
  8
0
  6
CONTINUOUS
 62
     7
 10
74.6823748619
 20
126.5498892503
 30
0.0
  0
VERTEX
  5
510
  8
0
  6
CONTINUOUS
 62
     7
 10
74.7392853768
 20
126.4929846959
 30
0.0
  0
VERTEX
  5
511
  8
0
  6
CONTINUOUS
 62
     7
 10
74.7585019143
 20
126.4737681585
 30
0.0
  0
SEQEND
  5
B90
  8
0
  6
CONTINUOUS
 62
     7
  0
LINE
  5
7B
  8
0
  6
CONTINUOUS
 62
     7
 10
41.5585001976
 20
136.4737645822
 30
0.0
 11
42.2584971459
 21
136.4737645822
 31
0.0
  0
LINE
  5
7C
  8
0
  6
CONTINUOUS
 62
     7
 10
52.2584995301
 20
136.4737645822
 30
0.0
 11
66.7584976227
 21
136.4737645822
 31
0.0
  0
LINE
  5
7D
  8
0
  6
CONTINUOUS
 62
     7
 10
102.7584990532
 20
136.4737645822
 30
0.0
 11
117.2584971459
 21
136.4737645822
 31
0.0
  0
LINE
  5
7E
  8
0
  6
CONTINUOUS
 62
     7
 10
127.2584995301
 20
136.4737645822
 30
0.0
 11
162.2584959538
 21
136.4737645822
 31
0.0
  0
LINE
  5
7F
  8
0
  6
CONTINUOUS
 62
     7
 10
172.258498338
 20
136.4737645822
 30
0.0
 11
186.7584964306
 21
136.4737645822
 31
0.0
  0
LINE
  5
80
  8
0
  6
CONTINUOUS
 62
     7
 10
222.7584978611
 20
136.4737645822
 30
0.0
 11
237.2584959538
 21
136.4737645822
 31
0.0
  0
LINE
  5
81
  8
0
  6
CONTINUOUS
 62
     7
 10
247.258498338
 20
136.4737645822
 30
0.0
 11
282.2584947617
 21
136.4737645822
 31
0.0
  0
LINE
  5
82
  8
0
  6
CONTINUOUS
 62
     7
 10
292.2584971459
 20
136.4737645822
 30
0.0
 11
306.7584952385
 21
136.4737645822
 31
0.0
  0
LINE
  5
83
  8
0
  6
CONTINUOUS
 62
     7
 10
342.758496669
 20
136.4737645822
 30
0.0
 11
357.2584947617
 21
136.4737645822
 31
0.0
  0
LINE
  5
84
  8
0
  6
CONTINUOUS
 62
     7
 10
367.2584971459
 20
136.4737645822
 30
0.0
 11
367.9584940941
 21
136.4737645822
 31
0.0
  0
LINE
  5
85
  8
0
  6
CONTINUOUS
 62
     7
 10
74.7585019143
 20
126.4737681585
 30
0.0
 11
74.7585019143
 21
62.4737671675
 31
0.0
  0
LINE
  5
86
  8
0
  6
CONTINUOUS
 62
     7
 10
41.1584934265
 20
126.8737689691
 30
0.0
 11
41.1584934265
 21
127.4737672048
 31
0.0
  0
ARC
  5
87
  8
0
  6
CONTINUOUS
 62
     7
 10
41.5584971459
 20
126.8737671571
 30
0.0
 40
0.4000000000000057
 50
180.0
 51
270.0
  0
LINE
  5
88
  8
0
  6
CONTINUOUS
 62
     7
 10
41.1584934265
 20
135.4737655358
 30
0.0
 11
41.1584934265
 21
136.073769732
 31
0.0
  0
ARC
  5
89
  8
0
  6
CONTINUOUS
 62
     7
 10
41.5584971459
 20
136.0737671571
 30
0.0
 40
0.4000000000000057
 50
90.0
 51
180.0
  0
LINE
  5
8A
  8
0
  6
CONTINUOUS
 62
     7
 10
344.7584947617
 20
126.4737681585
 30
0.0
 11
344.7584947617
 21
62.4737671675
 31
0.0
  0
POLYLINE
  5
8B
  8
0
  6
CONTINUOUS
 62
     7
 66
     1
 10
0.0
 20
0.0
 30
0.0
  0
VERTEX
  5
512
  8
0
  6
CONTINUOUS
 62
     7
 10
119.7838207753
 20
221.201826735
 30
0.0
  0
VERTEX
  5
513
  8
0
  6
CONTINUOUS
 62
     7
 10
119.8112329514
 20
222.5132958131
 30
0.0
  0
VERTEX
  5
514
  8
0
  6
CONTINUOUS
 62
     7
 10
119.6493944199
 20
223.7826244073
 30
0.0
  0
VERTEX
  5
515
  8
0
  6
CONTINUOUS
 62
     7
 10
119.297256139
 20
224.9741570192
 30
0.0
  0
VERTEX
  5
516
  8
0
  6
CONTINUOUS
 62
     7
 10
118.7625428707
 20
226.0576740937
 30
0.0
  0
VERTEX
  5
517
  8
0
  6
CONTINUOUS
 62
     7
 10
118.0522045166
 20
227.0037905412
 30
0.0
  0
VERTEX
  5
518
  8
0
  6
CONTINUOUS
 62
     7
 10
117.1850046189
 20
227.788592978
 30
0.0
  0
VERTEX
  5
519
  8
0
  6
CONTINUOUS
 62
     7
 10
116.1840995819
 20
228.3872262674
 30
0.0
  0
VERTEX
  5
51A
  8
0
  6
CONTINUOUS
 62
     7
 10
115.0750597985
 20
228.7900344567
 30
0.0
  0
VERTEX
  5
51B
  8
0
  6
CONTINUOUS
 62
     7
 10
114.0466710598
 20
228.9710537629
 30
0.0
  0
VERTEX
  5
51C
  8
0
  6
CONTINUOUS
 62
     7
 10
112.9811605484
 20
228.9937512117
 30
0.0
  0
SEQEND
  5
B8F
  8
0
  6
CONTINUOUS
 62
     7
  0
POLYLINE
  5
8C
  8
0
  6
CONTINUOUS
 62
     7
 66
     1
 10
0.0
 20
0.0
 30
0.0
  0
VERTEX
  5
51D
  8
0
  6
CONTINUOUS
 62
     7
 10
118.4422275097
 20
206.6282407479
 30
0.0
  0
VERTEX
  5
51E
  8
0
  6
CONTINUOUS
 62
     7
 10
118.7761267693
 20
210.2762357431
 30
0.0
  0
VERTEX
  5
51F
  8
0
  6
CONTINUOUS
 62
     7
 10
119.11209431
 20
213.9214412408
 30
0.0
  0
VERTEX
  5
520
  8
0
  6
CONTINUOUS
 62
     7
 10
119.4488307507
 20
217.5738112168
 30
0.0
  0
VERTEX
  5
521
  8
0
  6
CONTINUOUS
 62
     7
 10
119.7838207753
 20
221.201826735
 30
0.0
  0
SEQEND
  5
B8E
  8
0
  6
CONTINUOUS
 62
     7
  0
POLYLINE
  5
8D
  8
0
  6
CONTINUOUS
 62
     7
 66
     1
 10
0.0
 20
0.0
 30
0.0
  0
VERTEX
  5
522
  8
0
  6
CONTINUOUS
 62
     7
 10
110.3184124501
 20
198.1242076593
 30
0.0
  0
VERTEX
  5
523
  8
0
  6
CONTINUOUS
 62
     7
 10
111.7197236092
 20
198.319389029
 30
0.0
  0
VERTEX
  5
524
  8
0
  6
CONTINUOUS
 62
     7
 10
113.0690893204
 20
198.7619773584
 30
0.0
  0
VERTEX
  5
525
  8
0
  6
CONTINUOUS
 62
     7
 10
114.3288215668
 20
199.4441525178
 30
0.0
  0
VERTEX
  5
526
  8
0
  6
CONTINUOUS
 62
     7
 10
115.46660271
 20
200.3432409005
 30
0.0
  0
VERTEX
  5
527
  8
0
  6
CONTINUOUS
 62
     7
 10
116.4478739769
 20
201.4316932397
 30
0.0
  0
VERTEX
  5
528
  8
0
  6
CONTINUOUS
 62
     7
 10
117.255713609
 20
202.6783720689
 30
0.0
  0
VERTEX
  5
529
  8
0
  6
CONTINUOUS
 62
     7
 10
117.870088485
 20
204.0522114473
 30
0.0
  0
VERTEX
  5
52A
  8
0
  6
CONTINUOUS
 62
     7
 10
118.2783504994
 20
205.5094973283
 30
0.0
  0
VERTEX
  5
52B
  8
0
  6
CONTINUOUS
 62
     7
 10
118.4422275097
 20
206.6282407479
 30
0.0
  0
SEQEND
  5
B8D
  8
0
  6
CONTINUOUS
 62
     7
  0
POLYLINE
  5
8E
  8
0
  6
CONTINUOUS
 62
     7
 66
     1
 10
0.0
 20
0.0
 30
0.0
  0
VERTEX
  5
52C
  8
0
  6
CONTINUOUS
 62
     7
 10
59.1985782654
 20
198.1242076593
 30
0.0
  0
VERTEX
  5
52D
  8
0
  6
CONTINUOUS
 62
     7
 10
62.0230158837
 20
197.9973808961
 30
0.0
  0
VERTEX
  5
52E
  8
0
  6
CONTINUOUS
 62
     7
 10
64.8887833626
 20
197.8854910569
 30
0.0
  0
VERTEX
  5
52F
  8
0
  6
CONTINUOUS
 62
     7
 10
67.7905758889
 20
197.7887527185
 30
0.0
  0
VERTEX
  5
530
  8
0
  6
CONTINUOUS
 62
     7
 10
71.9775399239
 20
197.677411242
 30
0.0
  0
VERTEX
  5
531
  8
0
  6
CONTINUOUS
 62
     7
 10
76.2115797074
 20
197.5975767808
 30
0.0
  0
VERTEX
  5
532
  8
0
  6
CONTINUOUS
 62
     7
 10
80.4771503479
 20
197.5495711999
 30
0.0
  0
VERTEX
  5
533
  8
0
  6
CONTINUOUS
 62
     7
 10
84.7584923775
 20
197.5335494714
 30
0.0
  0
VERTEX
  5
534
  8
0
  6
CONTINUOUS
 62
     7
 10
89.039846328
 20
197.5495711999
 30
0.0
  0
VERTEX
  5
535
  8
0
  6
CONTINUOUS
 62
     7
 10
93.3054050476
 20
197.5975767808
 30
0.0
  0
VERTEX
  5
536
  8
0
  6
CONTINUOUS
 62
     7
 10
97.539456752
 20
197.677411242
 30
0.0
  0
VERTEX
  5
537
  8
0
  6
CONTINUOUS
 62
     7
 10
101.7264207871
 20
197.7887527185
 30
0.0
  0
VERTEX
  5
538
  8
0
  6
CONTINUOUS
 62
     7
 10
104.6282133133
 20
197.8854910569
 30
0.0
  0
VERTEX
  5
539
  8
0
  6
CONTINUOUS
 62
     7
 10
107.4939748318
 20
197.9973808961
 30
0.0
  0
VERTEX
  5
53A
  8
0
  6
CONTINUOUS
 62
     7
 10
110.3184124501
 20
198.1242076593
 30
0.0
  0
SEQEND
  5
B8C
  8
0
  6
CONTINUOUS
 62
     7
  0
POLYLINE
  5
8F
  8
0
  6
CONTINUOUS
 62
     7
 66
     1
 10
0.0
 20
0.0
 30
0.0
  0
VERTEX
  5
53B
  8
0
  6
CONTINUOUS
 62
     7
 10
51.0747632058
 20
206.6282407479
 30
0.0
  0
VERTEX
  5
53C
  8
0
  6
CONTINUOUS
 62
     7
 10
51.3228735001
 20
205.1328317361
 30
0.0
  0
VERTEX
  5
53D
  8
0
  6
CONTINUOUS
 62
     7
 10
51.7845472367
 20
203.6901370721
 30
0.0
  0
VERTEX
  5
53E
  8
0
  6
CONTINUOUS
 62
     7
 10
52.4528821976
 20
202.3428694444
 30
0.0
  0
VERTEX
  5
53F
  8
0
  6
CONTINUOUS
 62
     7
 10
53.3102950127
 20
201.1286513047
 30
0.0
  0
VERTEX
  5
540
  8
0
  6
CONTINUOUS
 62
     7
 10
54.3385108979
 20
200.0856773095
 30
0.0
  0
VERTEX
  5
541
  8
0
  6
CONTINUOUS
 62
     7
 10
55.5102905304
 20
199.2409960466
 30
0.0
  0
VERTEX
  5
542
  8
0
  6
CONTINUOUS
 62
     7
 10
56.793483165
 20
198.6234800058
 30
0.0
  0
VERTEX
  5
543
  8
0
  6
CONTINUOUS
 62
     7
 10
58.1554612191
 20
198.2441679673
 30
0.0
  0
VERTEX
  5
544
  8
0
  6
CONTINUOUS
 62
     7
 10
59.1985782654
 20
198.1242076593
 30
0.0
  0
SEQEND
  5
B8B
  8
0
  6
CONTINUOUS
 62
     7
  0
POLYLINE
  5
90
  8
0
  6
CONTINUOUS
 62
     7
 66
     1
 10
0.0
 20
0.0
 30
0.0
  0
VERTEX
  5
545
  8
0
  6
CONTINUOUS
 62
     7
 10
49.7331699402
 20
221.2018624978
 30
0.0
  0
VERTEX
  5
546
  8
0
  6
CONTINUOUS
 62
     7
 10
50.0681599648
 20
217.5738589006
 30
0.0
  0
VERTEX
  5
547
  8
0
  6
CONTINUOUS
 62
     7
 10
50.4049023659
 20
213.9214650827
 30
0.0
  0
VERTEX
  5
548
  8
0
  6
CONTINUOUS
 62
     7
 10
50.7408699067
 20
210.276247664
 30
0.0
  0
VERTEX
  5
549
  8
0
  6
CONTINUOUS
 62
     7
 10
51.0747632058
 20
206.6282407479
 30
0.0
  0
SEQEND
  5
B8A
  8
0
  6
CONTINUOUS
 62
     7
  0
POLYLINE
  5
91
  8
0
  6
CONTINUOUS
 62
     7
 66
     1
 10
0.0
 20
0.0
 30
0.0
  0
VERTEX
  5
54A
  8
0
  6
CONTINUOUS
 62
     7
 10
56.5358838112
 20
228.9937512117
 30
0.0
  0
VERTEX
  5
54B
  8
0
  6
CONTINUOUS
 62
     7
 10
55.308504966
 20
228.9530412393
 30
0.0
  0
VERTEX
  5
54C
  8
0
  6
CONTINUOUS
 62
     7
 10
54.1350444825
 20
228.7020937638
 30
0.0
  0
VERTEX
  5
54D
  8
0
  6
CONTINUOUS
 62
     7
 10
53.0492862732
 20
228.2434121804
 30
0.0
  0
VERTEX
  5
54E
  8
0
  6
CONTINUOUS
 62
     7
 10
52.0799597771
 20
227.5913850503
 30
0.0
  0
VERTEX
  5
54F
  8
0
  6
CONTINUOUS
 62
     7
 10
51.258285907
 20
226.7650143342
 30
0.0
  0
VERTEX
  5
550
  8
0
  6
CONTINUOUS
 62
     7
 10
50.5964836151
 20
225.785292788
 30
0.0
  0
VERTEX
  5
551
  8
0
  6
CONTINUOUS
 62
     7
 10
50.1102050812
 20
224.6730105119
 30
0.0
  0
VERTEX
  5
552
  8
0
  6
CONTINUOUS
 62
     7
 10
49.8074611695
 20
223.4610931115
 30
0.0
  0
VERTEX
  5
553
  8
0
  6
CONTINUOUS
 62
     7
 10
49.6984323532
 20
222.3457471566
 30
0.0
  0
VERTEX
  5
554
  8
0
  6
CONTINUOUS
 62
     7
 10
49.7331699402
 20
221.2018624978
 30
0.0
  0
SEQEND
  5
B89
  8
0
  6
CONTINUOUS
 62
     7
  0
POLYLINE
  5
92
  8
0
  6
CONTINUOUS
 62
     7
 66
     1
 10
0.0
 20
0.0
 30
0.0
  0
VERTEX
  5
555
  8
0
  6
CONTINUOUS
 62
     7
 10
112.9811605484
 20
228.9937512117
 30
0.0
  0
VERTEX
  5
556
  8
0
  6
CONTINUOUS
 62
     7
 10
109.7976585896
 20
228.8350121217
 30
0.0
  0
VERTEX
  5
557
  8
0
  6
CONTINUOUS
 62
     7
 10
106.5590580971
 20
228.6953942018
 30
0.0
  0
VERTEX
  5
558
  8
0
  6
CONTINUOUS
 62
     7
 10
103.2726129563
 20
228.575207396
 30
0.0
  0
VERTEX
  5
559
  8
0
  6
CONTINUOUS
 62
     7
 10
99.6286472351
 20
228.4662620263
 30
0.0
  0
VERTEX
  5
55A
  8
0
  6
CONTINUOUS
 62
     7
 10
95.9454854996
 20
228.3812181192
 30
0.0
  0
VERTEX
  5
55B
  8
0
  6
CONTINUOUS
 62
     7
 10
92.2329505951
 20
228.3203140931
 30
0.0
  0
VERTEX
  5
55C
  8
0
  6
CONTINUOUS
 62
     7
 10
88.5006269486
 20
228.2837049203
 30
0.0
  0
VERTEX
  5
55D
  8
0
  6
CONTINUOUS
 62
     7
 10
84.7584923775
 20
228.2714978891
 30
0.0
  0
VERTEX
  5
55E
  8
0
  6
CONTINUOUS
 62
     7
 10
81.0163578064
 20
228.2837049203
 30
0.0
  0
VERTEX
  5
55F
  8
0
  6
CONTINUOUS
 62
     7
 10
77.2840460808
 20
228.3203140931
 30
0.0
  0
VERTEX
  5
560
  8
0
  6
CONTINUOUS
 62
     7
 10
73.5714992554
 20
228.3812181192
 30
0.0
  0
VERTEX
  5
561
  8
0
  6
CONTINUOUS
 62
     7
 10
69.8883494408
 20
228.4662620263
 30
0.0
  0
VERTEX
  5
562
  8
0
  6
CONTINUOUS
 62
     7
 10
66.2443837197
 20
228.575207396
 30
0.0
  0
VERTEX
  5
563
  8
0
  6
CONTINUOUS
 62
     7
 10
62.9579504998
 20
228.6953942018
 30
0.0
  0
VERTEX
  5
564
  8
0
  6
CONTINUOUS
 62
     7
 10
59.7193678887
 20
228.8350121217
 30
0.0
  0
VERTEX
  5
565
  8
0
  6
CONTINUOUS
 62
     7
 10
56.5358838112
 20
228.9937512117
 30
0.0
  0
SEQEND
  5
B88
  8
0
  6
CONTINUOUS
 62
     7
  0
POLYLINE
  5
93
  8
0
  6
CONTINUOUS
 62
     7
 66
     1
 10
0.0
 20
0.0
 30
0.0
  0
VERTEX
  5
566
  8
0
  6
CONTINUOUS
 62
     7
 10
119.0137883694
 20
206.4972535806
 30
0.0
  0
VERTEX
  5
567
  8
0
  6
CONTINUOUS
 62
     7
 10
118.7623223336
 20
205.0023452478
 30
0.0
  0
VERTEX
  5
568
  8
0
  6
CONTINUOUS
 62
     7
 10
118.297453788
 20
203.560783072
 30
0.0
  0
VERTEX
  5
569
  8
0
  6
CONTINUOUS
 62
     7
 10
117.62620416
 20
202.2152558999
 30
0.0
  0
VERTEX
  5
56A
  8
0
  6
CONTINUOUS
 62
     7
 10
116.7662641079
 20
201.0033146577
 30
0.0
  0
VERTEX
  5
56B
  8
0
  6
CONTINUOUS
 62
     7
 10
115.7360157044
 20
199.9630586343
 30
0.0
  0
VERTEX
  5
56C
  8
0
  6
CONTINUOUS
 62
     7
 10
114.5628174813
 20
199.1214648919
 30
0.0
  0
VERTEX
  5
56D
  8
0
  6
CONTINUOUS
 62
     7
 10
113.2788023026
 20
198.5072628694
 30
0.0
  0
VERTEX
  5
56E
  8
0
  6
CONTINUOUS
 62
     7
 10
111.9167229206
 20
198.1314913469
 30
0.0
  0
VERTEX
  5
56F
  8
0
  6
CONTINUOUS
 62
     7
 10
110.8927270443
 20
198.0151430803
 30
0.0
  0
SEQEND
  5
B87
  8
0
  6
CONTINUOUS
 62
     7
  0
POLYLINE
  5
94
  8
0
  6
CONTINUOUS
 62
     7
 66
     1
 10
0.0
 20
0.0
 30
0.0
  0
VERTEX
  5
570
  8
0
  6
CONTINUOUS
 62
     7
 10
58.6242636711
 20
198.0151430803
 30
0.0
  0
VERTEX
  5
571
  8
0
  6
CONTINUOUS
 62
     7
 10
57.2239598305
 20
198.2099668222
 30
0.0
  0
VERTEX
  5
572
  8
0
  6
CONTINUOUS
 62
     7
 10
55.8753332169
 20
198.6522332864
 30
0.0
  0
VERTEX
  5
573
  8
0
  6
CONTINUOUS
 62
     7
 10
54.6160658867
 20
199.3340865808
 30
0.0
  0
VERTEX
  5
574
  8
0
  6
CONTINUOUS
 62
     7
 10
53.4784993203
 20
200.2328650193
 30
0.0
  0
VERTEX
  5
575
  8
0
  6
CONTINUOUS
 62
     7
 10
52.4970850022
 20
201.3211504655
 30
0.0
  0
VERTEX
  5
576
  8
0
  6
CONTINUOUS
 62
     7
 10
51.6889533074
 20
202.5677339273
 30
0.0
  0
VERTEX
  5
577
  8
0
  6
CONTINUOUS
 62
     7
 10
51.074226764
 20
203.9414660173
 30
0.0
  0
VERTEX
  5
578
  8
0
  6
CONTINUOUS
 62
     7
 10
50.6655415566
 20
205.3987161355
 30
0.0
  0
VERTEX
  5
579
  8
0
  6
CONTINUOUS
 62
     7
 10
50.5032023461
 20
206.4972535806
 30
0.0
  0
SEQEND
  5
B86
  8
0
  6
CONTINUOUS
 62
     7
  0
POLYLINE
  5
95
  8
0
  6
CONTINUOUS
 62
     7
 66
     1
 10
0.0
 20
0.0
 30
0.0
  0
VERTEX
  5
57A
  8
0
  6
CONTINUOUS
 62
     7
 10
119.0137883694
 20
206.4972535806
 30
0.0
  0
VERTEX
  5
57B
  8
0
  6
CONTINUOUS
 62
     7
 10
119.3535050423
 20
210.1196066575
 30
0.0
  0
VERTEX
  5
57C
  8
0
  6
CONTINUOUS
 62
     7
 10
119.6933647663
 20
213.7379900651
 30
0.0
  0
VERTEX
  5
57D
  8
0
  6
CONTINUOUS
 62
     7
 10
120.0327893765
 20
217.3414961534
 30
0.0
  0
VERTEX
  5
57E
  8
0
  6
CONTINUOUS
 62
     7
 10
120.3710695774
 20
220.9143773751
 30
0.0
  0
SEQEND
  5
B85
  8
0
  6
CONTINUOUS
 62
     7
  0
POLYLINE
  5
96
  8
0
  6
CONTINUOUS
 62
     7
 66
     1
 10
0.0
 20
0.0
 30
0.0
  0
VERTEX
  5
57F
  8
0
  6
CONTINUOUS
 62
     7
 10
49.145921138
 20
220.9144131379
 30
0.0
  0
VERTEX
  5
580
  8
0
  6
CONTINUOUS
 62
     7
 10
49.484201339
 20
217.3415319162
 30
0.0
  0
VERTEX
  5
581
  8
0
  6
CONTINUOUS
 62
     7
 10
49.8236259491
 20
213.738013907
 30
0.0
  0
VERTEX
  5
582
  8
0
  6
CONTINUOUS
 62
     7
 10
50.1634916336
 20
210.1196185785
 30
0.0
  0
VERTEX
  5
583
  8
0
  6
CONTINUOUS
 62
     7
 10
50.5032023461
 20
206.4972535806
 30
0.0
  0
SEQEND
  5
B84
  8
0
  6
CONTINUOUS
 62
     7
  0
POLYLINE
  5
97
  8
0
  6
CONTINUOUS
 62
     7
 66
     1
 10
0.0
 20
0.0
 30
0.0
  0
VERTEX
  5
584
  8
0
  6
CONTINUOUS
 62
     7
 10
116.6783651383
 20
228.1344906526
 30
0.0
  0
VERTEX
  5
585
  8
0
  6
CONTINUOUS
 62
     7
 10
117.0721313031
 20
227.9668943124
 30
0.0
  0
VERTEX
  5
586
  8
0
  6
CONTINUOUS
 62
     7
 10
118.0390974553
 20
227.3124829965
 30
0.0
  0
VERTEX
  5
587
  8
0
  6
CONTINUOUS
 62
     7
 10
118.8584467442
 20
226.4837638574
 30
0.0
  0
VERTEX
  5
588
  8
0
  6
CONTINUOUS
 62
     7
 10
119.5177575619
 20
225.5019084649
 30
0.0
  0
VERTEX
  5
589
  8
0
  6
CONTINUOUS
 62
     7
 10
120.0014134915
 20
224.3878142076
 30
0.0
  0
VERTEX
  5
58A
  8
0
  6
CONTINUOUS
 62
     7
 10
120.3014513523
 20
223.1744543748
 30
0.0
  0
VERTEX
  5
58B
  8
0
  6
CONTINUOUS
 62
     7
 10
120.4080900223
 20
222.0585004525
 30
0.0
  0
VERTEX
  5
58C
  8
0
  6
CONTINUOUS
 62
     7
 10
120.3710695774
 20
220.9143773751
 30
0.0
  0
SEQEND
  5
B83
  8
0
  6
CONTINUOUS
 62
     7
  0
POLYLINE
  5
98
  8
0
  6
CONTINUOUS
 62
     7
 66
     1
 10
0.0
 20
0.0
 30
0.0
  0
VERTEX
  5
58D
  8
0
  6
CONTINUOUS
 62
     7
 10
49.145921138
 20
220.9144131379
 30
0.0
  0
VERTEX
  5
58E
  8
0
  6
CONTINUOUS
 62
     7
 10
49.1158803971
 20
222.2262279229
 30
0.0
  0
VERTEX
  5
58F
  8
0
  6
CONTINUOUS
 62
     7
 10
49.2750009568
 20
223.4964029031
 30
0.0
  0
VERTEX
  5
590
  8
0
  6
CONTINUOUS
 62
     7
 10
49.6243914635
 20
224.6892229753
 30
0.0
  0
VERTEX
  5
591
  8
0
  6
CONTINUOUS
 62
     7
 10
50.1563509972
 20
225.7744566636
 30
0.0
  0
VERTEX
  5
592
  8
0
  6
CONTINUOUS
 62
     7
 10
50.8640488655
 20
226.7226711946
 30
0.0
  0
VERTEX
  5
593
  8
0
  6
CONTINUOUS
 62
     7
 10
51.7287215264
 20
227.5098578172
 30
0.0
  0
VERTEX
  5
594
  8
0
  6
CONTINUOUS
 62
     7
 10
52.7274807961
 20
228.1111375528
 30
0.0
  0
VERTEX
  5
595
  8
0
  6
CONTINUOUS
 62
     7
 10
52.8307160408
 20
228.1489507394
 30
0.0
  0
SEQEND
  5
B82
  8
0
  6
CONTINUOUS
 62
     7
  0
POLYLINE
  5
99
  8
0
  6
CONTINUOUS
 62
     7
 66
     1
 10
0.0
 20
0.0
 30
0.0
  0
VERTEX
  5
596
  8
0
  6
CONTINUOUS
 62
     7
 10
58.6242636711
 20
198.0151430803
 30
0.0
  0
VERTEX
  5
597
  8
0
  6
CONTINUOUS
 62
     7
 10
61.5418514283
 20
197.8848950105
 30
0.0
  0
VERTEX
  5
598
  8
0
  6
CONTINUOUS
 62
     7
 10
64.502962497
 20
197.7701679902
 30
0.0
  0
VERTEX
  5
599
  8
0
  6
CONTINUOUS
 62
     7
 10
67.5020417244
 20
197.6711646753
 30
0.0
  0
VERTEX
  5
59A
  8
0
  6
CONTINUOUS
 62
     7
 10
71.7602094681
 20
197.5591913896
 30
0.0
  0
VERTEX
  5
59B
  8
0
  6
CONTINUOUS
 62
     7
 10
76.0662635834
 20
197.478915854
 30
0.0
  0
VERTEX
  5
59C
  8
0
  6
CONTINUOUS
 62
     7
 10
80.4043611557
 20
197.4306360917
 30
0.0
  0
VERTEX
  5
59D
  8
0
  6
CONTINUOUS
 62
     7
 10
84.7584923775
 20
197.4145189958
 30
0.0
  0
VERTEX
  5
59E
  8
0
  6
CONTINUOUS
 62
     7
 10
89.1126355202
 20
197.4306360917
 30
0.0
  0
VERTEX
  5
59F
  8
0
  6
CONTINUOUS
 62
     7
 10
93.4507330925
 20
197.478915854
 30
0.0
  0
VERTEX
  5
5A0
  8
0
  6
CONTINUOUS
 62
     7
 10
97.7567872078
 20
197.5591913896
 30
0.0
  0
VERTEX
  5
5A1
  8
0
  6
CONTINUOUS
 62
     7
 10
102.0149549515
 20
197.6711646753
 30
0.0
  0
VERTEX
  5
5A2
  8
0
  6
CONTINUOUS
 62
     7
 10
105.0140282185
 20
197.7701679902
 30
0.0
  0
VERTEX
  5
5A3
  8
0
  6
CONTINUOUS
 62
     7
 10
107.9751452477
 20
197.8848950105
 30
0.0
  0
VERTEX
  5
5A4
  8
0
  6
CONTINUOUS
 62
     7
 10
110.8927270443
 20
198.0151430803
 30
0.0
  0
SEQEND
  5
B81
  8
0
  6
CONTINUOUS
 62
     7
  0
POLYLINE
  5
9A
  8
0
  6
CONTINUOUS
 62
     7
 66
     1
 10
0.0
 20
0.0
 30
0.0
  0
VERTEX
  5
5A5
  8
0
  6
CONTINUOUS
 62
     7
 10
359.7838243515
 20
221.201826735
 30
0.0
  0
VERTEX
  5
5A6
  8
0
  6
CONTINUOUS
 62
     7
 10
359.8112305672
 20
222.5132958131
 30
0.0
  0
VERTEX
  5
5A7
  8
0
  6
CONTINUOUS
 62
     7
 10
359.6493920357
 20
223.7826244073
 30
0.0
  0
VERTEX
  5
5A8
  8
0
  6
CONTINUOUS
 62
     7
 10
359.2972597153
 20
224.9741570192
 30
0.0
  0
VERTEX
  5
5A9
  8
0
  6
CONTINUOUS
 62
     7
 10
358.762546447
 20
226.0576740937
 30
0.0
  0
VERTEX
  5
5AA
  8
0
  6
CONTINUOUS
 62
     7
 10
358.0522021325
 20
227.0037905412
 30
0.0
  0
VERTEX
  5
5AB
  8
0
  6
CONTINUOUS
 62
     7
 10
357.1850022347
 20
227.788592978
 30
0.0
  0
VERTEX
  5
5AC
  8
0
  6
CONTINUOUS
 62
     7
 10
356.1840971978
 20
228.3872262674
 30
0.0
  0
VERTEX
  5
5AD
  8
0
  6
CONTINUOUS
 62
     7
 10
355.0750574143
 20
228.7900344567
 30
0.0
  0
VERTEX
  5
5AE
  8
0
  6
CONTINUOUS
 62
     7
 10
354.0466746361
 20
228.9710537629
 30
0.0
  0
VERTEX
  5
5AF
  8
0
  6
CONTINUOUS
 62
     7
 10
352.9811581643
 20
228.9937512117
 30
0.0
  0
SEQEND
  5
B80
  8
0
  6
CONTINUOUS
 62
     7
  0
POLYLINE
  5
9B
  8
0
  6
CONTINUOUS
 62
     7
 66
     1
 10
0.0
 20
0.0
 30
0.0
  0
VERTEX
  5
5B0
  8
0
  6
CONTINUOUS
 62
     7
 10
358.442231086
 20
206.6282407479
 30
0.0
  0
VERTEX
  5
5B1
  8
0
  6
CONTINUOUS
 62
     7
 10
358.7761243851
 20
210.2762357431
 30
0.0
  0
VERTEX
  5
5B2
  8
0
  6
CONTINUOUS
 62
     7
 10
359.1120919258
 20
213.9214412408
 30
0.0
  0
VERTEX
  5
5B3
  8
0
  6
CONTINUOUS
 62
     7
 10
359.448834327
 20
217.5738112168
 30
0.0
  0
VERTEX
  5
5B4
  8
0
  6
CONTINUOUS
 62
     7
 10
359.7838243515
 20
221.201826735
 30
0.0
  0
SEQEND
  5
B7F
  8
0
  6
CONTINUOUS
 62
     7
  0
POLYLINE
  5
9C
  8
0
  6
CONTINUOUS
 62
     7
 66
     1
 10
0.0
 20
0.0
 30
0.0
  0
VERTEX
  5
5B5
  8
0
  6
CONTINUOUS
 62
     7
 10
350.3184160263
 20
198.1242076593
 30
0.0
  0
VERTEX
  5
5B6
  8
0
  6
CONTINUOUS
 62
     7
 10
351.719721225
 20
198.319389029
 30
0.0
  0
VERTEX
  5
5B7
  8
0
  6
CONTINUOUS
 62
     7
 10
353.0690869362
 20
198.7619773584
 30
0.0
  0
VERTEX
  5
5B8
  8
0
  6
CONTINUOUS
 62
     7
 10
354.3288191826
 20
199.4441525178
 30
0.0
  0
VERTEX
  5
5B9
  8
0
  6
CONTINUOUS
 62
     7
 10
355.4666003258
 20
200.3432409005
 30
0.0
  0
VERTEX
  5
5BA
  8
0
  6
CONTINUOUS
 62
     7
 10
356.4478715927
 20
201.4316932397
 30
0.0
  0
VERTEX
  5
5BB
  8
0
  6
CONTINUOUS
 62
     7
 10
357.2557171852
 20
202.6783720689
 30
0.0
  0
VERTEX
  5
5BC
  8
0
  6
CONTINUOUS
 62
     7
 10
357.8700861008
 20
204.0522114473
 30
0.0
  0
VERTEX
  5
5BD
  8
0
  6
CONTINUOUS
 62
     7
 10
358.2783540757
 20
205.5094973283
 30
0.0
  0
VERTEX
  5
5BE
  8
0
  6
CONTINUOUS
 62
     7
 10
358.442231086
 20
206.6282407479
 30
0.0
  0
SEQEND
  5
B7E
  8
0
  6
CONTINUOUS
 62
     7
  0
POLYLINE
  5
9D
  8
0
  6
CONTINUOUS
 62
     7
 66
     1
 10
0.0
 20
0.0
 30
0.0
  0
VERTEX
  5
5BF
  8
0
  6
CONTINUOUS
 62
     7
 10
299.1985818417
 20
198.1242076593
 30
0.0
  0
VERTEX
  5
5C0
  8
0
  6
CONTINUOUS
 62
     7
 10
302.02301946
 20
197.9973808961
 30
0.0
  0
VERTEX
  5
5C1
  8
0
  6
CONTINUOUS
 62
     7
 10
304.8887809784
 20
197.8854910569
 30
0.0
  0
VERTEX
  5
5C2
  8
0
  6
CONTINUOUS
 62
     7
 10
307.7905735047
 20
197.7887527185
 30
0.0
  0
VERTEX
  5
5C3
  8
0
  6
CONTINUOUS
 62
     7
 10
311.9775375397
 20
197.677411242
 30
0.0
  0
VERTEX
  5
5C4
  8
0
  6
CONTINUOUS
 62
     7
 10
316.2115892441
 20
197.5975767808
 30
0.0
  0
VERTEX
  5
5C5
  8
0
  6
CONTINUOUS
 62
     7
 10
320.4771479638
 20
197.5495711999
 30
0.0
  0
VERTEX
  5
5C6
  8
0
  6
CONTINUOUS
 62
     7
 10
324.7585019143
 20
197.5335494714
 30
0.0
  0
VERTEX
  5
5C7
  8
0
  6
CONTINUOUS
 62
     7
 10
329.0398439438
 20
197.5495711999
 30
0.0
  0
VERTEX
  5
5C8
  8
0
  6
CONTINUOUS
 62
     7
 10
333.3054145844
 20
197.5975767808
 30
0.0
  0
VERTEX
  5
5C9
  8
0
  6
CONTINUOUS
 62
     7
 10
337.5394543679
 20
197.677411242
 30
0.0
  0
VERTEX
  5
5CA
  8
0
  6
CONTINUOUS
 62
     7
 10
341.7264184029
 20
197.7887527185
 30
0.0
  0
VERTEX
  5
5CB
  8
0
  6
CONTINUOUS
 62
     7
 10
344.6282109291
 20
197.8854910569
 30
0.0
  0
VERTEX
  5
5CC
  8
0
  6
CONTINUOUS
 62
     7
 10
347.4939784081
 20
197.9973808961
 30
0.0
  0
VERTEX
  5
5CD
  8
0
  6
CONTINUOUS
 62
     7
 10
350.3184160263
 20
198.1242076593
 30
0.0
  0
SEQEND
  5
B7D
  8
0
  6
CONTINUOUS
 62
     7
  0
POLYLINE
  5
9E
  8
0
  6
CONTINUOUS
 62
     7
 66
     1
 10
0.0
 20
0.0
 30
0.0
  0
VERTEX
  5
5CE
  8
0
  6
CONTINUOUS
 62
     7
 10
291.074766782
 20
206.6282407479
 30
0.0
  0
VERTEX
  5
5CF
  8
0
  6
CONTINUOUS
 62
     7
 10
291.3228770764
 20
205.1328317361
 30
0.0
  0
VERTEX
  5
5D0
  8
0
  6
CONTINUOUS
 62
     7
 10
291.7845508129
 20
203.6901370721
 30
0.0
  0
VERTEX
  5
5D1
  8
0
  6
CONTINUOUS
 62
     7
 10
292.4528857739
 20
202.3428694444
 30
0.0
  0
VERTEX
  5
5D2
  8
0
  6
CONTINUOUS
 62
     7
 10
293.310298589
 20
201.1286513047
 30
0.0
  0
VERTEX
  5
5D3
  8
0
  6
CONTINUOUS
 62
     7
 10
294.3385144741
 20
200.0856773095
 30
0.0
  0
VERTEX
  5
5D4
  8
0
  6
CONTINUOUS
 62
     7
 10
295.5102881462
 20
199.2409960466
 30
0.0
  0
VERTEX
  5
5D5
  8
0
  6
CONTINUOUS
 62
     7
 10
296.7934807808
 20
198.6234800058
 30
0.0
  0
VERTEX
  5
5D6
  8
0
  6
CONTINUOUS
 62
     7
 10
298.1554588349
 20
198.2441679673
 30
0.0
  0
VERTEX
  5
5D7
  8
0
  6
CONTINUOUS
 62
     7
 10
299.1985818417
 20
198.1242076593
 30
0.0
  0
SEQEND
  5
B7C
  8
0
  6
CONTINUOUS
 62
     7
  0
POLYLINE
  5
9F
  8
0
  6
CONTINUOUS
 62
     7
 66
     1
 10
0.0
 20
0.0
 30
0.0
  0
VERTEX
  5
5D8
  8
0
  6
CONTINUOUS
 62
     7
 10
289.733167556
 20
221.2018624978
 30
0.0
  0
VERTEX
  5
5D9
  8
0
  6
CONTINUOUS
 62
     7
 10
290.0681635411
 20
217.5738589006
 30
0.0
  0
VERTEX
  5
5DA
  8
0
  6
CONTINUOUS
 62
     7
 10
290.4048999817
 20
213.9214650827
 30
0.0
  0
VERTEX
  5
5DB
  8
0
  6
CONTINUOUS
 62
     7
 10
290.7408675225
 20
210.276247664
 30
0.0
  0
VERTEX
  5
5DC
  8
0
  6
CONTINUOUS
 62
     7
 10
291.074766782
 20
206.6282407479
 30
0.0
  0
SEQEND
  5
B7B
  8
0
  6
CONTINUOUS
 62
     7
  0
POLYLINE
  5
A0
  8
0
  6
CONTINUOUS
 62
     7
 66
     1
 10
0.0
 20
0.0
 30
0.0
  0
VERTEX
  5
5DD
  8
0
  6
CONTINUOUS
 62
     7
 10
296.535881427
 20
228.9937512117
 30
0.0
  0
VERTEX
  5
5DE
  8
0
  6
CONTINUOUS
 62
     7
 10
295.3085025818
 20
228.9530412393
 30
0.0
  0
VERTEX
  5
5DF
  8
0
  6
CONTINUOUS
 62
     7
 10
294.1350420983
 20
228.7020937638
 30
0.0
  0
VERTEX
  5
5E0
  8
0
  6
CONTINUOUS
 62
     7
 10
293.0492898495
 20
228.2434121804
 30
0.0
  0
VERTEX
  5
5E1
  8
0
  6
CONTINUOUS
 62
     7
 10
292.0799633534
 20
227.5913850503
 30
0.0
  0
VERTEX
  5
5E2
  8
0
  6
CONTINUOUS
 62
     7
 10
291.2582894833
 20
226.7650143342
 30
0.0
  0
VERTEX
  5
5E3
  8
0
  6
CONTINUOUS
 62
     7
 10
290.5964871914
 20
225.785292788
 30
0.0
  0
VERTEX
  5
5E4
  8
0
  6
CONTINUOUS
 62
     7
 10
290.110202697
 20
224.6730105119
 30
0.0
  0
VERTEX
  5
5E5
  8
0
  6
CONTINUOUS
 62
     7
 10
289.8074587853
 20
223.4610931115
 30
0.0
  0
VERTEX
  5
5E6
  8
0
  6
CONTINUOUS
 62
     7
 10
289.6984299691
 20
222.3457471566
 30
0.0
  0
VERTEX
  5
5E7
  8
0
  6
CONTINUOUS
 62
     7
 10
289.733167556
 20
221.2018624978
 30
0.0
  0
SEQEND
  5
B7A
  8
0
  6
CONTINUOUS
 62
     7
  0
POLYLINE
  5
A1
  8
0
  6
CONTINUOUS
 62
     7
 66
     1
 10
0.0
 20
0.0
 30
0.0
  0
VERTEX
  5
5E8
  8
0
  6
CONTINUOUS
 62
     7
 10
352.9811581643
 20
228.9937512117
 30
0.0
  0
VERTEX
  5
5E9
  8
0
  6
CONTINUOUS
 62
     7
 10
349.7976502449
 20
228.8350121217
 30
0.0
  0
VERTEX
  5
5EA
  8
0
  6
CONTINUOUS
 62
     7
 10
346.5590557129
 20
228.6953942018
 30
0.0
  0
VERTEX
  5
5EB
  8
0
  6
CONTINUOUS
 62
     7
 10
343.2726105721
 20
228.575207396
 30
0.0
  0
VERTEX
  5
5EC
  8
0
  6
CONTINUOUS
 62
     7
 10
339.628644851
 20
228.4662620263
 30
0.0
  0
VERTEX
  5
5ED
  8
0
  6
CONTINUOUS
 62
     7
 10
335.9454950364
 20
228.3812181192
 30
0.0
  0
VERTEX
  5
5EE
  8
0
  6
CONTINUOUS
 62
     7
 10
332.2329482109
 20
228.3203140931
 30
0.0
  0
VERTEX
  5
5EF
  8
0
  6
CONTINUOUS
 62
     7
 10
328.5006364853
 20
228.2837049203
 30
0.0
  0
VERTEX
  5
5F0
  8
0
  6
CONTINUOUS
 62
     7
 10
324.7585019143
 20
228.2714978891
 30
0.0
  0
VERTEX
  5
5F1
  8
0
  6
CONTINUOUS
 62
     7
 10
321.0163673432
 20
228.2837049203
 30
0.0
  0
VERTEX
  5
5F2
  8
0
  6
CONTINUOUS
 62
     7
 10
317.2840436966
 20
228.3203140931
 30
0.0
  0
VERTEX
  5
5F3
  8
0
  6
CONTINUOUS
 62
     7
 10
313.5715087921
 20
228.3812181192
 30
0.0
  0
VERTEX
  5
5F4
  8
0
  6
CONTINUOUS
 62
     7
 10
309.8883470566
 20
228.4662620263
 30
0.0
  0
VERTEX
  5
5F5
  8
0
  6
CONTINUOUS
 62
     7
 10
306.2443813355
 20
228.575207396
 30
0.0
  0
VERTEX
  5
5F6
  8
0
  6
CONTINUOUS
 62
     7
 10
302.957954076
 20
228.6953942018
 30
0.0
  0
VERTEX
  5
5F7
  8
0
  6
CONTINUOUS
 62
     7
 10
299.719371465
 20
228.8350121217
 30
0.0
  0
VERTEX
  5
5F8
  8
0
  6
CONTINUOUS
 62
     7
 10
296.535881427
 20
228.9937512117
 30
0.0
  0
SEQEND
  5
B79
  8
0
  6
CONTINUOUS
 62
     7
  0
POLYLINE
  5
A2
  8
0
  6
CONTINUOUS
 62
     7
 66
     1
 10
0.0
 20
0.0
 30
0.0
  0
VERTEX
  5
5F9
  8
0
  6
CONTINUOUS
 62
     7
 10
359.0137919457
 20
206.4972535806
 30
0.0
  0
VERTEX
  5
5FA
  8
0
  6
CONTINUOUS
 62
     7
 10
358.7623199494
 20
205.0023452478
 30
0.0
  0
VERTEX
  5
5FB
  8
0
  6
CONTINUOUS
 62
     7
 10
358.2974514038
 20
203.560783072
 30
0.0
  0
VERTEX
  5
5FC
  8
0
  6
CONTINUOUS
 62
     7
 10
357.6262077362
 20
202.2152558999
 30
0.0
  0
VERTEX
  5
5FD
  8
0
  6
CONTINUOUS
 62
     7
 10
356.7662676842
 20
201.0033146577
 30
0.0
  0
VERTEX
  5
5FE
  8
0
  6
CONTINUOUS
 62
     7
 10
355.7360133202
 20
199.9630586343
 30
0.0
  0
VERTEX
  5
5FF
  8
0
  6
CONTINUOUS
 62
     7
 10
354.5628150971
 20
199.1214648919
 30
0.0
  0
VERTEX
  5
600
  8
0
  6
CONTINUOUS
 62
     7
 10
353.2787999184
 20
198.5072628694
 30
0.0
  0
VERTEX
  5
601
  8
0
  6
CONTINUOUS
 62
     7
 10
351.9167264969
 20
198.1314913469
 30
0.0
  0
VERTEX
  5
602
  8
0
  6
CONTINUOUS
 62
     7
 10
350.8927306206
 20
198.0151430803
 30
0.0
  0
SEQEND
  5
B78
  8
0
  6
CONTINUOUS
 62
     7
  0
POLYLINE
  5
A3
  8
0
  6
CONTINUOUS
 62
     7
 66
     1
 10
0.0
 20
0.0
 30
0.0
  0
VERTEX
  5
603
  8
0
  6
CONTINUOUS
 62
     7
 10
298.6242672474
 20
198.0151430803
 30
0.0
  0
VERTEX
  5
604
  8
0
  6
CONTINUOUS
 62
     7
 10
297.2239574463
 20
198.2099668222
 30
0.0
  0
VERTEX
  5
605
  8
0
  6
CONTINUOUS
 62
     7
 10
295.8753308327
 20
198.6522332864
 30
0.0
  0
VERTEX
  5
606
  8
0
  6
CONTINUOUS
 62
     7
 10
294.616069463
 20
199.3340865808
 30
0.0
  0
VERTEX
  5
607
  8
0
  6
CONTINUOUS
 62
     7
 10
293.4784969361
 20
200.2328650193
 30
0.0
  0
VERTEX
  5
608
  8
0
  6
CONTINUOUS
 62
     7
 10
292.4970885785
 20
201.3211504655
 30
0.0
  0
VERTEX
  5
609
  8
0
  6
CONTINUOUS
 62
     7
 10
291.6889568837
 20
202.5677339273
 30
0.0
  0
VERTEX
  5
60A
  8
0
  6
CONTINUOUS
 62
     7
 10
291.0742303402
 20
203.9414660173
 30
0.0
  0
VERTEX
  5
60B
  8
0
  6
CONTINUOUS
 62
     7
 10
290.6655451329
 20
205.3987161355
 30
0.0
  0
VERTEX
  5
60C
  8
0
  6
CONTINUOUS
 62
     7
 10
290.5032059224
 20
206.4972535806
 30
0.0
  0
SEQEND
  5
B77
  8
0
  6
CONTINUOUS
 62
     7
  0
POLYLINE
  5
A4
  8
0
  6
CONTINUOUS
 62
     7
 66
     1
 10
0.0
 20
0.0
 30
0.0
  0
VERTEX
  5
60D
  8
0
  6
CONTINUOUS
 62
     7
 10
359.0137919457
 20
206.4972535806
 30
0.0
  0
VERTEX
  5
60E
  8
0
  6
CONTINUOUS
 62
     7
 10
359.3535026581
 20
210.1196066575
 30
0.0
  0
VERTEX
  5
60F
  8
0
  6
CONTINUOUS
 62
     7
 10
359.6933683426
 20
213.7379900651
 30
0.0
  0
VERTEX
  5
610
  8
0
  6
CONTINUOUS
 62
     7
 10
360.0327929528
 20
217.3414961534
 30
0.0
  0
VERTEX
  5
611
  8
0
  6
CONTINUOUS
 62
     7
 10
360.3710731537
 20
220.9143773751
 30
0.0
  0
SEQEND
  5
B76
  8
0
  6
CONTINUOUS
 62
     7
  0
POLYLINE
  5
A5
  8
0
  6
CONTINUOUS
 62
     7
 66
     1
 10
0.0
 20
0.0
 30
0.0
  0
VERTEX
  5
612
  8
0
  6
CONTINUOUS
 62
     7
 10
289.1459187539
 20
220.9144131379
 30
0.0
  0
VERTEX
  5
613
  8
0
  6
CONTINUOUS
 62
     7
 10
289.4841989548
 20
217.3415319162
 30
0.0
  0
VERTEX
  5
614
  8
0
  6
CONTINUOUS
 62
     7
 10
289.8236295254
 20
213.738013907
 30
0.0
  0
VERTEX
  5
615
  8
0
  6
CONTINUOUS
 62
     7
 10
290.1634892495
 20
210.1196185785
 30
0.0
  0
VERTEX
  5
616
  8
0
  6
CONTINUOUS
 62
     7
 10
290.5032059224
 20
206.4972535806
 30
0.0
  0
SEQEND
  5
B75
  8
0
  6
CONTINUOUS
 62
     7
  0
POLYLINE
  5
A6
  8
0
  6
CONTINUOUS
 62
     7
 66
     1
 10
0.0
 20
0.0
 30
0.0
  0
VERTEX
  5
617
  8
0
  6
CONTINUOUS
 62
     7
 10
356.6783627541
 20
228.1344906526
 30
0.0
  0
VERTEX
  5
618
  8
0
  6
CONTINUOUS
 62
     7
 10
357.0721348793
 20
227.9668943124
 30
0.0
  0
VERTEX
  5
619
  8
0
  6
CONTINUOUS
 62
     7
 10
358.0391010315
 20
227.3124829965
 30
0.0
  0
VERTEX
  5
61A
  8
0
  6
CONTINUOUS
 62
     7
 10
358.8584503205
 20
226.4837638574
 30
0.0
  0
VERTEX
  5
61B
  8
0
  6
CONTINUOUS
 62
     7
 10
359.5177611382
 20
225.5019084649
 30
0.0
  0
VERTEX
  5
61C
  8
0
  6
CONTINUOUS
 62
     7
 10
360.0014170678
 20
224.3878142076
 30
0.0
  0
VERTEX
  5
61D
  8
0
  6
CONTINUOUS
 62
     7
 10
360.3014549286
 20
223.1744543748
 30
0.0
  0
VERTEX
  5
61E
  8
0
  6
CONTINUOUS
 62
     7
 10
360.4080876381
 20
222.0585004525
 30
0.0
  0
VERTEX
  5
61F
  8
0
  6
CONTINUOUS
 62
     7
 10
360.3710731537
 20
220.9143773751
 30
0.0
  0
SEQEND
  5
B74
  8
0
  6
CONTINUOUS
 62
     7
  0
POLYLINE
  5
A7
  8
0
  6
CONTINUOUS
 62
     7
 66
     1
 10
0.0
 20
0.0
 30
0.0
  0
VERTEX
  5
620
  8
0
  6
CONTINUOUS
 62
     7
 10
289.1459187539
 20
220.9144131379
 30
0.0
  0
VERTEX
  5
621
  8
0
  6
CONTINUOUS
 62
     7
 10
289.1158839733
 20
222.2262279229
 30
0.0
  0
VERTEX
  5
622
  8
0
  6
CONTINUOUS
 62
     7
 10
289.275004533
 20
223.4964029031
 30
0.0
  0
VERTEX
  5
623
  8
0
  6
CONTINUOUS
 62
     7
 10
289.6243890793
 20
224.6892229753
 30
0.0
  0
VERTEX
  5
624
  8
0
  6
CONTINUOUS
 62
     7
 10
290.1563545735
 20
225.7744566636
 30
0.0
  0
VERTEX
  5
625
  8
0
  6
CONTINUOUS
 62
     7
 10
290.8640464814
 20
226.7226711946
 30
0.0
  0
VERTEX
  5
626
  8
0
  6
CONTINUOUS
 62
     7
 10
291.7287131817
 20
227.5098578172
 30
0.0
  0
VERTEX
  5
627
  8
0
  6
CONTINUOUS
 62
     7
 10
292.7274843724
 20
228.1111375528
 30
0.0
  0
VERTEX
  5
628
  8
0
  6
CONTINUOUS
 62
     7
 10
292.8307136567
 20
228.1489507394
 30
0.0
  0
SEQEND
  5
B73
  8
0
  6
CONTINUOUS
 62
     7
  0
POLYLINE
  5
A8
  8
0
  6
CONTINUOUS
 62
     7
 66
     1
 10
0.0
 20
0.0
 30
0.0
  0
VERTEX
  5
629
  8
0
  6
CONTINUOUS
 62
     7
 10
298.6242672474
 20
198.0151430803
 30
0.0
  0
VERTEX
  5
62A
  8
0
  6
CONTINUOUS
 62
     7
 10
301.5418490441
 20
197.8848950105
 30
0.0
  0
VERTEX
  5
62B
  8
0
  6
CONTINUOUS
 62
     7
 10
304.5029660733
 20
197.7701679902
 30
0.0
  0
VERTEX
  5
62C
  8
0
  6
CONTINUOUS
 62
     7
 10
307.5020393402
 20
197.6711646753
 30
0.0
  0
VERTEX
  5
62D
  8
0
  6
CONTINUOUS
 62
     7
 10
311.7602070839
 20
197.5591913896
 30
0.0
  0
VERTEX
  5
62E
  8
0
  6
CONTINUOUS
 62
     7
 10
316.0662611992
 20
197.478915854
 30
0.0
  0
VERTEX
  5
62F
  8
0
  6
CONTINUOUS
 62
     7
 10
320.4043587716
 20
197.4306360917
 30
0.0
  0
VERTEX
  5
630
  8
0
  6
CONTINUOUS
 62
     7
 10
324.7585019143
 20
197.4145189958
 30
0.0
  0
VERTEX
  5
631
  8
0
  6
CONTINUOUS
 62
     7
 10
329.112633136
 20
197.4306360917
 30
0.0
  0
VERTEX
  5
632
  8
0
  6
CONTINUOUS
 62
     7
 10
333.4507307083
 20
197.478915854
 30
0.0
  0
VERTEX
  5
633
  8
0
  6
CONTINUOUS
 62
     7
 10
337.7567848236
 20
197.5591913896
 30
0.0
  0
VERTEX
  5
634
  8
0
  6
CONTINUOUS
 62
     7
 10
342.0149525673
 20
197.6711646753
 30
0.0
  0
VERTEX
  5
635
  8
0
  6
CONTINUOUS
 62
     7
 10
345.0140317948
 20
197.7701679902
 30
0.0
  0
VERTEX
  5
636
  8
0
  6
CONTINUOUS
 62
     7
 10
347.9751428635
 20
197.8848950105
 30
0.0
  0
VERTEX
  5
637
  8
0
  6
CONTINUOUS
 62
     7
 10
350.8927306206
 20
198.0151430803
 30
0.0
  0
SEQEND
  5
B72
  8
0
  6
CONTINUOUS
 62
     7
  0
POLYLINE
  5
A9
  8
0
  6
CONTINUOUS
 62
     7
 66
     1
 10
0.0
 20
0.0
 30
0.0
  0
VERTEX
  5
638
  8
0
  6
CONTINUOUS
 62
     7
 10
239.7838225634
 20
221.201826735
 30
0.0
  0
VERTEX
  5
639
  8
0
  6
CONTINUOUS
 62
     7
 10
239.8112317593
 20
222.5132958131
 30
0.0
  0
VERTEX
  5
63A
  8
0
  6
CONTINUOUS
 62
     7
 10
239.6493932278
 20
223.7826244073
 30
0.0
  0
VERTEX
  5
63B
  8
0
  6
CONTINUOUS
 62
     7
 10
239.2972549469
 20
224.9741570192
 30
0.0
  0
VERTEX
  5
63C
  8
0
  6
CONTINUOUS
 62
     7
 10
238.7625446589
 20
226.0576740937
 30
0.0
  0
VERTEX
  5
63D
  8
0
  6
CONTINUOUS
 62
     7
 10
238.0522063048
 20
227.0037905412
 30
0.0
  0
VERTEX
  5
63E
  8
0
  6
CONTINUOUS
 62
     7
 10
237.185006407
 20
227.788592978
 30
0.0
  0
VERTEX
  5
63F
  8
0
  6
CONTINUOUS
 62
     7
 10
236.1840983899
 20
228.3872262674
 30
0.0
  0
VERTEX
  5
640
  8
0
  6
CONTINUOUS
 62
     7
 10
235.0750586064
 20
228.7900344567
 30
0.0
  0
VERTEX
  5
641
  8
0
  6
CONTINUOUS
 62
     7
 10
234.0466698677
 20
228.9710537629
 30
0.0
  0
VERTEX
  5
642
  8
0
  6
CONTINUOUS
 62
     7
 10
232.9811623366
 20
228.9937512117
 30
0.0
  0
SEQEND
  5
B71
  8
0
  6
CONTINUOUS
 62
     7
  0
POLYLINE
  5
AA
  8
0
  6
CONTINUOUS
 62
     7
 66
     1
 10
0.0
 20
0.0
 30
0.0
  0
VERTEX
  5
643
  8
0
  6
CONTINUOUS
 62
     7
 10
238.4422292979
 20
206.6282407479
 30
0.0
  0
VERTEX
  5
644
  8
0
  6
CONTINUOUS
 62
     7
 10
238.7761255772
 20
210.2762357431
 30
0.0
  0
VERTEX
  5
645
  8
0
  6
CONTINUOUS
 62
     7
 10
239.1120931179
 20
213.9214412408
 30
0.0
  0
VERTEX
  5
646
  8
0
  6
CONTINUOUS
 62
     7
 10
239.4488295586
 20
217.5738112168
 30
0.0
  0
VERTEX
  5
647
  8
0
  6
CONTINUOUS
 62
     7
 10
239.7838225634
 20
221.201826735
 30
0.0
  0
SEQEND
  5
B70
  8
0
  6
CONTINUOUS
 62
     7
  0
POLYLINE
  5
AB
  8
0
  6
CONTINUOUS
 62
     7
 66
     1
 10
0.0
 20
0.0
 30
0.0
  0
VERTEX
  5
648
  8
0
  6
CONTINUOUS
 62
     7
 10
230.3184142382
 20
198.1242076593
 30
0.0
  0
VERTEX
  5
649
  8
0
  6
CONTINUOUS
 62
     7
 10
231.7197224171
 20
198.319389029
 30
0.0
  0
VERTEX
  5
64A
  8
0
  6
CONTINUOUS
 62
     7
 10
233.0690911085
 20
198.7619773584
 30
0.0
  0
VERTEX
  5
64B
  8
0
  6
CONTINUOUS
 62
     7
 10
234.3288203747
 20
199.4441525178
 30
0.0
  0
VERTEX
  5
64C
  8
0
  6
CONTINUOUS
 62
     7
 10
235.4666015179
 20
200.3432409005
 30
0.0
  0
VERTEX
  5
64D
  8
0
  6
CONTINUOUS
 62
     7
 10
236.4478698046
 20
201.4316932397
 30
0.0
  0
VERTEX
  5
64E
  8
0
  6
CONTINUOUS
 62
     7
 10
237.2557153971
 20
202.6783720689
 30
0.0
  0
VERTEX
  5
64F
  8
0
  6
CONTINUOUS
 62
     7
 10
237.8700902731
 20
204.0522114473
 30
0.0
  0
VERTEX
  5
650
  8
0
  6
CONTINUOUS
 62
     7
 10
238.2783522875
 20
205.5094973283
 30
0.0
  0
VERTEX
  5
651
  8
0
  6
CONTINUOUS
 62
     7
 10
238.4422292979
 20
206.6282407479
 30
0.0
  0
SEQEND
  5
B6F
  8
0
  6
CONTINUOUS
 62
     7
  0
POLYLINE
  5
AC
  8
0
  6
CONTINUOUS
 62
     7
 66
     1
 10
0.0
 20
0.0
 30
0.0
  0
VERTEX
  5
652
  8
0
  6
CONTINUOUS
 62
     7
 10
179.1985800536
 20
198.1242076593
 30
0.0
  0
VERTEX
  5
653
  8
0
  6
CONTINUOUS
 62
     7
 10
182.023020652
 20
197.9973808961
 30
0.0
  0
VERTEX
  5
654
  8
0
  6
CONTINUOUS
 62
     7
 10
184.8887851508
 20
197.8854910569
 30
0.0
  0
VERTEX
  5
655
  8
0
  6
CONTINUOUS
 62
     7
 10
187.7905717165
 20
197.7887527185
 30
0.0
  0
VERTEX
  5
656
  8
0
  6
CONTINUOUS
 62
     7
 10
191.9775372417
 20
197.677411242
 30
0.0
  0
VERTEX
  5
657
  8
0
  6
CONTINUOUS
 62
     7
 10
196.2115852208
 20
197.5975767808
 30
0.0
  0
VERTEX
  5
658
  8
0
  6
CONTINUOUS
 62
     7
 10
200.4771484108
 20
197.5495711999
 30
0.0
  0
VERTEX
  5
659
  8
0
  6
CONTINUOUS
 62
     7
 10
204.7584971459
 20
197.5335494714
 30
0.0
  0
VERTEX
  5
65A
  8
0
  6
CONTINUOUS
 62
     7
 10
209.039845881
 20
197.5495711999
 30
0.0
  0
VERTEX
  5
65B
  8
0
  6
CONTINUOUS
 62
     7
 10
213.305409071
 20
197.5975767808
 30
0.0
  0
VERTEX
  5
65C
  8
0
  6
CONTINUOUS
 62
     7
 10
217.5394570501
 20
197.677411242
 30
0.0
  0
VERTEX
  5
65D
  8
0
  6
CONTINUOUS
 62
     7
 10
221.7264225752
 20
197.7887527185
 30
0.0
  0
VERTEX
  5
65E
  8
0
  6
CONTINUOUS
 62
     7
 10
224.628209141
 20
197.8854910569
 30
0.0
  0
VERTEX
  5
65F
  8
0
  6
CONTINUOUS
 62
     7
 10
227.4939736397
 20
197.9973808961
 30
0.0
  0
VERTEX
  5
660
  8
0
  6
CONTINUOUS
 62
     7
 10
230.3184142382
 20
198.1242076593
 30
0.0
  0
SEQEND
  5
B6E
  8
0
  6
CONTINUOUS
 62
     7
  0
POLYLINE
  5
AD
  8
0
  6
CONTINUOUS
 62
     7
 66
     1
 10
0.0
 20
0.0
 30
0.0
  0
VERTEX
  5
661
  8
0
  6
CONTINUOUS
 62
     7
 10
171.0747649939
 20
206.6282407479
 30
0.0
  0
VERTEX
  5
662
  8
0
  6
CONTINUOUS
 62
     7
 10
171.3228752882
 20
205.1328317361
 30
0.0
  0
VERTEX
  5
663
  8
0
  6
CONTINUOUS
 62
     7
 10
171.784552005
 20
203.6901370721
 30
0.0
  0
VERTEX
  5
664
  8
0
  6
CONTINUOUS
 62
     7
 10
172.4528839857
 20
202.3428694444
 30
0.0
  0
VERTEX
  5
665
  8
0
  6
CONTINUOUS
 62
     7
 10
173.3102968008
 20
201.1286513047
 30
0.0
  0
VERTEX
  5
666
  8
0
  6
CONTINUOUS
 62
     7
 10
174.338512686
 20
200.0856773095
 30
0.0
  0
VERTEX
  5
667
  8
0
  6
CONTINUOUS
 62
     7
 10
175.5102923186
 20
199.2409960466
 30
0.0
  0
VERTEX
  5
668
  8
0
  6
CONTINUOUS
 62
     7
 10
176.7934789927
 20
198.6234800058
 30
0.0
  0
VERTEX
  5
669
  8
0
  6
CONTINUOUS
 62
     7
 10
178.1554570467
 20
198.2441679673
 30
0.0
  0
VERTEX
  5
66A
  8
0
  6
CONTINUOUS
 62
     7
 10
179.1985800536
 20
198.1242076593
 30
0.0
  0
SEQEND
  5
B6D
  8
0
  6
CONTINUOUS
 62
     7
  0
POLYLINE
  5
AE
  8
0
  6
CONTINUOUS
 62
     7
 66
     1
 10
0.0
 20
0.0
 30
0.0
  0
VERTEX
  5
66B
  8
0
  6
CONTINUOUS
 62
     7
 10
169.7331657679
 20
221.2018624978
 30
0.0
  0
VERTEX
  5
66C
  8
0
  6
CONTINUOUS
 62
     7
 10
170.0681617529
 20
217.5738589006
 30
0.0
  0
VERTEX
  5
66D
  8
0
  6
CONTINUOUS
 62
     7
 10
170.4048981936
 20
213.9214650827
 30
0.0
  0
VERTEX
  5
66E
  8
0
  6
CONTINUOUS
 62
     7
 10
170.7408687146
 20
210.276247664
 30
0.0
  0
VERTEX
  5
66F
  8
0
  6
CONTINUOUS
 62
     7
 10
171.0747649939
 20
206.6282407479
 30
0.0
  0
SEQEND
  5
B6C
  8
0
  6
CONTINUOUS
 62
     7
  0
POLYLINE
  5
AF
  8
0
  6
CONTINUOUS
 62
     7
 66
     1
 10
0.0
 20
0.0
 30
0.0
  0
VERTEX
  5
670
  8
0
  6
CONTINUOUS
 62
     7
 10
176.5358796389
 20
228.9937512117
 30
0.0
  0
VERTEX
  5
671
  8
0
  6
CONTINUOUS
 62
     7
 10
175.3085067541
 20
228.9530412393
 30
0.0
  0
VERTEX
  5
672
  8
0
  6
CONTINUOUS
 62
     7
 10
174.1350432904
 20
228.7020937638
 30
0.0
  0
VERTEX
  5
673
  8
0
  6
CONTINUOUS
 62
     7
 10
173.0492910416
 20
228.2434121804
 30
0.0
  0
VERTEX
  5
674
  8
0
  6
CONTINUOUS
 62
     7
 10
172.0799645455
 20
227.5913850503
 30
0.0
  0
VERTEX
  5
675
  8
0
  6
CONTINUOUS
 62
     7
 10
171.2582876952
 20
226.7650143342
 30
0.0
  0
VERTEX
  5
676
  8
0
  6
CONTINUOUS
 62
     7
 10
170.5964854033
 20
225.785292788
 30
0.0
  0
VERTEX
  5
677
  8
0
  6
CONTINUOUS
 62
     7
 10
170.1102009089
 20
224.6730105119
 30
0.0
  0
VERTEX
  5
678
  8
0
  6
CONTINUOUS
 62
     7
 10
169.8074599774
 20
223.4610931115
 30
0.0
  0
VERTEX
  5
679
  8
0
  6
CONTINUOUS
 62
     7
 10
169.6984311612
 20
222.3457471566
 30
0.0
  0
VERTEX
  5
67A
  8
0
  6
CONTINUOUS
 62
     7
 10
169.7331657679
 20
221.2018624978
 30
0.0
  0
SEQEND
  5
B6B
  8
0
  6
CONTINUOUS
 62
     7
  0
POLYLINE
  5
B0
  8
0
  6
CONTINUOUS
 62
     7
 66
     1
 10
0.0
 20
0.0
 30
0.0
  0
VERTEX
  5
67B
  8
0
  6
CONTINUOUS
 62
     7
 10
232.9811623366
 20
228.9937512117
 30
0.0
  0
VERTEX
  5
67C
  8
0
  6
CONTINUOUS
 62
     7
 10
229.7976573975
 20
228.8350121217
 30
0.0
  0
VERTEX
  5
67D
  8
0
  6
CONTINUOUS
 62
     7
 10
226.5590583951
 20
228.6953942018
 30
0.0
  0
VERTEX
  5
67E
  8
0
  6
CONTINUOUS
 62
     7
 10
223.2726132543
 20
228.575207396
 30
0.0
  0
VERTEX
  5
67F
  8
0
  6
CONTINUOUS
 62
     7
 10
219.6286430628
 20
228.4662620263
 30
0.0
  0
VERTEX
  5
680
  8
0
  6
CONTINUOUS
 62
     7
 10
215.945491013
 20
228.3812181192
 30
0.0
  0
VERTEX
  5
681
  8
0
  6
CONTINUOUS
 62
     7
 10
212.232948658
 20
228.3203140931
 30
0.0
  0
VERTEX
  5
682
  8
0
  6
CONTINUOUS
 62
     7
 10
208.500631717
 20
228.2837049203
 30
0.0
  0
VERTEX
  5
683
  8
0
  6
CONTINUOUS
 62
     7
 10
204.7584971459
 20
228.2714978891
 30
0.0
  0
VERTEX
  5
684
  8
0
  6
CONTINUOUS
 62
     7
 10
201.0163625748
 20
228.2837049203
 30
0.0
  0
VERTEX
  5
685
  8
0
  6
CONTINUOUS
 62
     7
 10
197.2840456338
 20
228.3203140931
 30
0.0
  0
VERTEX
  5
686
  8
0
  6
CONTINUOUS
 62
     7
 10
193.5715032787
 20
228.3812181192
 30
0.0
  0
VERTEX
  5
687
  8
0
  6
CONTINUOUS
 62
     7
 10
189.8883512289
 20
228.4662620263
 30
0.0
  0
VERTEX
  5
688
  8
0
  6
CONTINUOUS
 62
     7
 10
186.2443810375
 20
228.575207396
 30
0.0
  0
VERTEX
  5
689
  8
0
  6
CONTINUOUS
 62
     7
 10
182.9579522879
 20
228.6953942018
 30
0.0
  0
VERTEX
  5
68A
  8
0
  6
CONTINUOUS
 62
     7
 10
179.719372657
 20
228.8350121217
 30
0.0
  0
VERTEX
  5
68B
  8
0
  6
CONTINUOUS
 62
     7
 10
176.5358796389
 20
228.9937512117
 30
0.0
  0
SEQEND
  5
B6A
  8
0
  6
CONTINUOUS
 62
     7
  0
POLYLINE
  5
B1
  8
0
  6
CONTINUOUS
 62
     7
 66
     1
 10
0.0
 20
0.0
 30
0.0
  0
VERTEX
  5
68C
  8
0
  6
CONTINUOUS
 62
     7
 10
239.0137871773
 20
206.4972535806
 30
0.0
  0
VERTEX
  5
68D
  8
0
  6
CONTINUOUS
 62
     7
 10
238.7623211415
 20
205.0023452478
 30
0.0
  0
VERTEX
  5
68E
  8
0
  6
CONTINUOUS
 62
     7
 10
238.2974555762
 20
203.560783072
 30
0.0
  0
VERTEX
  5
68F
  8
0
  6
CONTINUOUS
 62
     7
 10
237.6262059481
 20
202.2152558999
 30
0.0
  0
VERTEX
  5
690
  8
0
  6
CONTINUOUS
 62
     7
 10
236.7662658961
 20
201.0033146577
 30
0.0
  0
VERTEX
  5
691
  8
0
  6
CONTINUOUS
 62
     7
 10
235.7360174925
 20
199.9630586343
 30
0.0
  0
VERTEX
  5
692
  8
0
  6
CONTINUOUS
 62
     7
 10
234.5628192694
 20
199.1214648919
 30
0.0
  0
VERTEX
  5
693
  8
0
  6
CONTINUOUS
 62
     7
 10
233.2788040907
 20
198.5072628694
 30
0.0
  0
VERTEX
  5
694
  8
0
  6
CONTINUOUS
 62
     7
 10
231.9167247088
 20
198.1314913469
 30
0.0
  0
VERTEX
  5
695
  8
0
  6
CONTINUOUS
 62
     7
 10
230.8927258522
 20
198.0151430803
 30
0.0
  0
SEQEND
  5
B69
  8
0
  6
CONTINUOUS
 62
     7
  0
POLYLINE
  5
B2
  8
0
  6
CONTINUOUS
 62
     7
 66
     1
 10
0.0
 20
0.0
 30
0.0
  0
VERTEX
  5
696
  8
0
  6
CONTINUOUS
 62
     7
 10
178.6242684395
 20
198.0151430803
 30
0.0
  0
VERTEX
  5
697
  8
0
  6
CONTINUOUS
 62
     7
 10
177.2239586384
 20
198.2099668222
 30
0.0
  0
VERTEX
  5
698
  8
0
  6
CONTINUOUS
 62
     7
 10
175.8753290446
 20
198.6522332864
 30
0.0
  0
VERTEX
  5
699
  8
0
  6
CONTINUOUS
 62
     7
 10
174.6160706551
 20
199.3340865808
 30
0.0
  0
VERTEX
  5
69A
  8
0
  6
CONTINUOUS
 62
     7
 10
173.4784981282
 20
200.2328650193
 30
0.0
  0
VERTEX
  5
69B
  8
0
  6
CONTINUOUS
 62
     7
 10
172.4970897705
 20
201.3211504655
 30
0.0
  0
VERTEX
  5
69C
  8
0
  6
CONTINUOUS
 62
     7
 10
171.6889550955
 20
202.5677339273
 30
0.0
  0
VERTEX
  5
69D
  8
0
  6
CONTINUOUS
 62
     7
 10
171.0742315323
 20
203.9414660173
 30
0.0
  0
VERTEX
  5
69E
  8
0
  6
CONTINUOUS
 62
     7
 10
170.6655433447
 20
205.3987161355
 30
0.0
  0
VERTEX
  5
69F
  8
0
  6
CONTINUOUS
 62
     7
 10
170.5032071144
 20
206.4972535806
 30
0.0
  0
SEQEND
  5
B68
  8
0
  6
CONTINUOUS
 62
     7
  0
POLYLINE
  5
B3
  8
0
  6
CONTINUOUS
 62
     7
 66
     1
 10
0.0
 20
0.0
 30
0.0
  0
VERTEX
  5
6A0
  8
0
  6
CONTINUOUS
 62
     7
 10
239.0137871773
 20
206.4972535806
 30
0.0
  0
VERTEX
  5
6A1
  8
0
  6
CONTINUOUS
 62
     7
 10
239.3535038502
 20
210.1196066575
 30
0.0
  0
VERTEX
  5
6A2
  8
0
  6
CONTINUOUS
 62
     7
 10
239.6933635743
 20
213.7379900651
 30
0.0
  0
VERTEX
  5
6A3
  8
0
  6
CONTINUOUS
 62
     7
 10
240.0327911646
 20
217.3414961534
 30
0.0
  0
VERTEX
  5
6A4
  8
0
  6
CONTINUOUS
 62
     7
 10
240.3710683854
 20
220.9143773751
 30
0.0
  0
SEQEND
  5
B67
  8
0
  6
CONTINUOUS
 62
     7
  0
POLYLINE
  5
B4
  8
0
  6
CONTINUOUS
 62
     7
 66
     1
 10
0.0
 20
0.0
 30
0.0
  0
VERTEX
  5
6A5
  8
0
  6
CONTINUOUS
 62
     7
 10
169.1459199459
 20
220.9144131379
 30
0.0
  0
VERTEX
  5
6A6
  8
0
  6
CONTINUOUS
 62
     7
 10
169.4842001469
 20
217.3415319162
 30
0.0
  0
VERTEX
  5
6A7
  8
0
  6
CONTINUOUS
 62
     7
 10
169.8236277373
 20
213.738013907
 30
0.0
  0
VERTEX
  5
6A8
  8
0
  6
CONTINUOUS
 62
     7
 10
170.1634874613
 20
210.1196185785
 30
0.0
  0
VERTEX
  5
6A9
  8
0
  6
CONTINUOUS
 62
     7
 10
170.5032071144
 20
206.4972535806
 30
0.0
  0
SEQEND
  5
B66
  8
0
  6
CONTINUOUS
 62
     7
  0
POLYLINE
  5
B5
  8
0
  6
CONTINUOUS
 62
     7
 66
     1
 10
0.0
 20
0.0
 30
0.0
  0
VERTEX
  5
6AA
  8
0
  6
CONTINUOUS
 62
     7
 10
236.6783639462
 20
228.1344906526
 30
0.0
  0
VERTEX
  5
6AB
  8
0
  6
CONTINUOUS
 62
     7
 10
237.072130111
 20
227.9668943124
 30
0.0
  0
VERTEX
  5
6AC
  8
0
  6
CONTINUOUS
 62
     7
 10
238.0390962632
 20
227.3124829965
 30
0.0
  0
VERTEX
  5
6AD
  8
0
  6
CONTINUOUS
 62
     7
 10
238.8584455521
 20
226.4837638574
 30
0.0
  0
VERTEX
  5
6AE
  8
0
  6
CONTINUOUS
 62
     7
 10
239.51775935
 20
225.5019084649
 30
0.0
  0
VERTEX
  5
6AF
  8
0
  6
CONTINUOUS
 62
     7
 10
240.0014122994
 20
224.3878142076
 30
0.0
  0
VERTEX
  5
6B0
  8
0
  6
CONTINUOUS
 62
     7
 10
240.3014501603
 20
223.1744543748
 30
0.0
  0
VERTEX
  5
6B1
  8
0
  6
CONTINUOUS
 62
     7
 10
240.4080918105
 20
222.0585004525
 30
0.0
  0
VERTEX
  5
6B2
  8
0
  6
CONTINUOUS
 62
     7
 10
240.3710683854
 20
220.9143773751
 30
0.0
  0
SEQEND
  5
B65
  8
0
  6
CONTINUOUS
 62
     7
  0
POLYLINE
  5
B6
  8
0
  6
CONTINUOUS
 62
     7
 66
     1
 10
0.0
 20
0.0
 30
0.0
  0
VERTEX
  5
6B3
  8
0
  6
CONTINUOUS
 62
     7
 10
169.1459199459
 20
220.9144131379
 30
0.0
  0
VERTEX
  5
6B4
  8
0
  6
CONTINUOUS
 62
     7
 10
169.1158851654
 20
222.2262279229
 30
0.0
  0
VERTEX
  5
6B5
  8
0
  6
CONTINUOUS
 62
     7
 10
169.2750027449
 20
223.4964029031
 30
0.0
  0
VERTEX
  5
6B6
  8
0
  6
CONTINUOUS
 62
     7
 10
169.6243872912
 20
224.6892229753
 30
0.0
  0
VERTEX
  5
6B7
  8
0
  6
CONTINUOUS
 62
     7
 10
170.1563557656
 20
225.7744566636
 30
0.0
  0
VERTEX
  5
6B8
  8
0
  6
CONTINUOUS
 62
     7
 10
170.8640446932
 20
226.7226711946
 30
0.0
  0
VERTEX
  5
6B9
  8
0
  6
CONTINUOUS
 62
     7
 10
171.728717354
 20
227.5098578172
 30
0.0
  0
VERTEX
  5
6BA
  8
0
  6
CONTINUOUS
 62
     7
 10
172.7274825842
 20
228.1111375528
 30
0.0
  0
VERTEX
  5
6BB
  8
0
  6
CONTINUOUS
 62
     7
 10
172.8307118685
 20
228.1489507394
 30
0.0
  0
SEQEND
  5
B64
  8
0
  6
CONTINUOUS
 62
     7
  0
POLYLINE
  5
B7
  8
0
  6
CONTINUOUS
 62
     7
 66
     1
 10
0.0
 20
0.0
 30
0.0
  0
VERTEX
  5
6BC
  8
0
  6
CONTINUOUS
 62
     7
 10
178.6242684395
 20
198.0151430803
 30
0.0
  0
VERTEX
  5
6BD
  8
0
  6
CONTINUOUS
 62
     7
 10
181.541848746
 20
197.8848950105
 30
0.0
  0
VERTEX
  5
6BE
  8
0
  6
CONTINUOUS
 62
     7
 10
184.502962795
 20
197.7701679902
 30
0.0
  0
VERTEX
  5
6BF
  8
0
  6
CONTINUOUS
 62
     7
 10
187.5020450027
 20
197.6711646753
 30
0.0
  0
VERTEX
  5
6C0
  8
0
  6
CONTINUOUS
 62
     7
 10
191.760208276
 20
197.5591913896
 30
0.0
  0
VERTEX
  5
6C1
  8
0
  6
CONTINUOUS
 62
     7
 10
196.066258666
 20
197.478915854
 30
0.0
  0
VERTEX
  5
6C2
  8
0
  6
CONTINUOUS
 62
     7
 10
200.4043554933
 20
197.4306360917
 30
0.0
  0
VERTEX
  5
6C3
  8
0
  6
CONTINUOUS
 62
     7
 10
204.7584971459
 20
197.4145189958
 30
0.0
  0
VERTEX
  5
6C4
  8
0
  6
CONTINUOUS
 62
     7
 10
209.1126387985
 20
197.4306360917
 30
0.0
  0
VERTEX
  5
6C5
  8
0
  6
CONTINUOUS
 62
     7
 10
213.4507356257
 20
197.478915854
 30
0.0
  0
VERTEX
  5
6C6
  8
0
  6
CONTINUOUS
 62
     7
 10
217.7567860157
 20
197.5591913896
 30
0.0
  0
VERTEX
  5
6C7
  8
0
  6
CONTINUOUS
 62
     7
 10
222.0149492891
 20
197.6711646753
 30
0.0
  0
VERTEX
  5
6C8
  8
0
  6
CONTINUOUS
 62
     7
 10
225.0140314968
 20
197.7701679902
 30
0.0
  0
VERTEX
  5
6C9
  8
0
  6
CONTINUOUS
 62
     7
 10
227.9751455457
 20
197.8848950105
 30
0.0
  0
VERTEX
  5
6CA
  8
0
  6
CONTINUOUS
 62
     7
 10
230.8927258522
 20
198.0151430803
 30
0.0
  0
SEQEND
  5
B63
  8
0
  6
CONTINUOUS
 62
     7
  0
ARC
  5
B8
  8
0
  6
CONTINUOUS
 62
     7
 10
99.7584971459
 20
129.6737671571
 30
0.0
 40
3.000000000000014
 50
270.0
 51
0.0
  0
LINE
  5
B9
  8
0
  6
CONTINUOUS
 62
     7
 10
99.7585019143
 20
126.6737655835
 30
0.0
 11
69.7584947617
 21
126.6737655835
 31
0.0
  0
ARC
  5
BA
  8
0
  6
CONTINUOUS
 62
     7
 10
69.7584971459
 20
129.6737671571
 30
0.0
 40
3.000000000000014
 50
180.0
 51
270.0
  0
LINE
  5
BB
  8
0
  6
CONTINUOUS
 62
     7
 10
66.7584976227
 20
129.673768683
 30
0.0
 11
66.7584976227
 21
136.073769732
 31
0.0
  0
LINE
  5
BC
  8
0
  6
CONTINUOUS
 62
     7
 10
102.7584990532
 20
129.673768683
 30
0.0
 11
102.7584990532
 21
136.073769732
 31
0.0
  0
LINE
  5
BD
  8
0
  6
CONTINUOUS
 62
     7
 10
66.7584976227
 20
136.073769732
 30
0.0
 11
66.7584976227
 21
137.0737687783
 31
0.0
  0
LINE
  5
BE
  8
0
  6
CONTINUOUS
 62
     7
 10
66.7584976227
 20
137.0737687783
 30
0.0
 11
102.7584990532
 21
137.0737687783
 31
0.0
  0
LINE
  5
BF
  8
0
  6
CONTINUOUS
 62
     7
 10
102.7584990532
 20
137.0737687783
 30
0.0
 11
102.7584990532
 21
136.073769732
 31
0.0
  0
LINE
  5
C0
  8
0
  6
CONTINUOUS
 62
     7
 10
87.7585014374
 20
147.095926209
 30
0.0
 11
87.7585014374
 21
146.7950538831
 31
0.0
  0
LINE
  5
C1
  8
0
  6
CONTINUOUS
 62
     7
 10
81.7584952385
 20
146.7950538831
 30
0.0
 11
81.7584952385
 21
147.103472157
 31
0.0
  0
LINE
  5
C2
  8
0
  6
CONTINUOUS
 62
     7
 10
81.7584952385
 20
137.0737687783
 30
0.0
 11
81.7584952385
 21
146.7950538831
 31
0.0
  0
LINE
  5
C3
  8
0
  6
CONTINUOUS
 62
     7
 10
87.7585014374
 20
146.7950538831
 30
0.0
 11
87.7585014374
 21
137.0737687783
 31
0.0
  0
LINE
  5
C4
  8
0
  6
CONTINUOUS
 62
     7
 10
87.7585014374
 20
192.175437613
 30
0.0
 11
87.7585014374
 21
152.3653880792
 31
0.0
  0
LINE
  5
C5
  8
0
  6
CONTINUOUS
 62
     7
 10
81.7584952385
 20
152.3567930894
 30
0.0
 11
81.7584952385
 21
192.175437613
 31
0.0
  0
LINE
  5
C6
  8
0
  6
CONTINUOUS
 62
     7
 10
87.7585014374
 20
193.721665545
 30
0.0
 11
87.7585014374
 21
192.175437613
 31
0.0
  0
LINE
  5
C7
  8
0
  6
CONTINUOUS
 62
     7
 10
81.7584952385
 20
192.175437613
 30
0.0
 11
81.7584952385
 21
193.721665545
 31
0.0
  0
LINE
  5
C8
  8
0
  6
CONTINUOUS
 62
     7
 10
87.7585014374
 20
197.4256293016
 30
0.0
 11
87.7585014374
 21
193.721665545
 31
0.0
  0
LINE
  5
C9
  8
0
  6
CONTINUOUS
 62
     7
 10
81.7584952385
 20
193.721665545
 30
0.0
 11
81.7584952385
 21
197.4256293016
 31
0.0
  0
ARC
  5
CA
  8
0
  6
CONTINUOUS
 62
     7
 10
309.7584971459
 20
129.6737671571
 30
0.0
 40
3.000000000000014
 50
180.0
 51
270.0
  0
LINE
  5
CB
  8
0
  6
CONTINUOUS
 62
     7
 10
339.7584995301
 20
126.6737655835
 30
0.0
 11
309.7584923775
 21
126.6737655835
 31
0.0
  0
ARC
  5
CC
  8
0
  6
CONTINUOUS
 62
     7
 10
339.7584971459
 20
129.6737671571
 30
0.0
 40
3.000000000000014
 50
270.0
 51
0.0
  0
LINE
  5
CD
  8
0
  6
CONTINUOUS
 62
     7
 10
342.758496669
 20
129.673768683
 30
0.0
 11
342.758496669
 21
136.073769732
 31
0.0
  0
LINE
  5
CE
  8
0
  6
CONTINUOUS
 62
     7
 10
306.7584952385
 20
129.673768683
 30
0.0
 11
306.7584952385
 21
136.073769732
 31
0.0
  0
LINE
  5
CF
  8
0
  6
CONTINUOUS
 62
     7
 10
306.7584952385
 20
137.0737687783
 30
0.0
 11
342.758496669
 21
137.0737687783
 31
0.0
  0
LINE
  5
D0
  8
0
  6
CONTINUOUS
 62
     7
 10
342.758496669
 20
137.0737687783
 30
0.0
 11
342.758496669
 21
136.073769732
 31
0.0
  0
LINE
  5
D1
  8
0
  6
CONTINUOUS
 62
     7
 10
306.7584952385
 20
136.073769732
 30
0.0
 11
306.7584952385
 21
137.0737687783
 31
0.0
  0
LINE
  5
D2
  8
0
  6
CONTINUOUS
 62
     7
 10
327.7584990532
 20
147.095926209
 30
0.0
 11
327.7584990532
 21
146.7950538831
 31
0.0
  0
LINE
  5
D3
  8
0
  6
CONTINUOUS
 62
     7
 10
321.7584928543
 20
146.7950538831
 30
0.0
 11
321.7584928543
 21
147.103472157
 31
0.0
  0
LINE
  5
D4
  8
0
  6
CONTINUOUS
 62
     7
 10
327.7584990532
 20
146.7950538831
 30
0.0
 11
327.7584990532
 21
137.0737687783
 31
0.0
  0
LINE
  5
D5
  8
0
  6
CONTINUOUS
 62
     7
 10
321.7584928543
 20
137.0737687783
 30
0.0
 11
321.7584928543
 21
146.7950538831
 31
0.0
  0
LINE
  5
D6
  8
0
  6
CONTINUOUS
 62
     7
 10
327.7584990532
 20
192.175437613
 30
0.0
 11
327.7584990532
 21
152.3653880792
 31
0.0
  0
LINE
  5
D7
  8
0
  6
CONTINUOUS
 62
     7
 10
321.7584928543
 20
152.3567930894
 30
0.0
 11
321.7584928543
 21
192.175437613
 31
0.0
  0
LINE
  5
D8
  8
0
  6
CONTINUOUS
 62
     7
 10
321.7584928543
 20
192.175437613
 30
0.0
 11
321.7584928543
 21
193.721665545
 31
0.0
  0
LINE
  5
D9
  8
0
  6
CONTINUOUS
 62
     7
 10
327.7584990532
 20
193.721665545
 30
0.0
 11
327.7584990532
 21
192.175437613
 31
0.0
  0
LINE
  5
DA
  8
0
  6
CONTINUOUS
 62
     7
 10
327.7584990532
 20
197.4256293016
 30
0.0
 11
327.7584990532
 21
193.721665545
 31
0.0
  0
LINE
  5
DB
  8
0
  6
CONTINUOUS
 62
     7
 10
321.7584928543
 20
193.721665545
 30
0.0
 11
321.7584928543
 21
197.4256293016
 31
0.0
  0
ARC
  5
DC
  8
0
  6
CONTINUOUS
 62
     7
 10
219.7584971459
 20
129.6737671571
 30
0.0
 40
3.000000000000014
 50
270.0
 51
0.0
  0
LINE
  5
DD
  8
0
  6
CONTINUOUS
 62
     7
 10
219.7584977419
 20
126.6737655835
 30
0.0
 11
189.7584965498
 21
126.6737655835
 31
0.0
  0
LINE
  5
DE
  8
0
  6
CONTINUOUS
 62
     7
 10
186.7584964306
 20
129.673768683
 30
0.0
 11
186.7584964306
 21
136.073769732
 31
0.0
  0
LINE
  5
DF
  8
0
  6
CONTINUOUS
 62
     7
 10
222.7584978611
 20
129.673768683
 30
0.0
 11
222.7584978611
 21
136.073769732
 31
0.0
  0
ARC
  5
E0
  8
0
  6
CONTINUOUS
 62
     7
 10
189.7584971459
 20
129.6737671571
 30
0.0
 40
3.000000000000014
 50
180.0
 51
270.0
  0
LINE
  5
E1
  8
0
  6
CONTINUOUS
 62
     7
 10
186.7584964306
 20
136.073769732
 30
0.0
 11
186.7584964306
 21
137.0737687783
 31
0.0
  0
LINE
  5
E2
  8
0
  6
CONTINUOUS
 62
     7
 10
186.7584964306
 20
137.0737687783
 30
0.0
 11
222.7584978611
 21
137.0737687783
 31
0.0
  0
LINE
  5
E3
  8
0
  6
CONTINUOUS
 62
     7
 10
222.7584978611
 20
137.0737687783
 30
0.0
 11
222.7584978611
 21
136.073769732
 31
0.0
  0
LINE
  5
E4
  8
0
  6
CONTINUOUS
 62
     7
 10
207.7584970788
 20
147.095926209
 30
0.0
 11
207.7584970788
 21
146.7950538831
 31
0.0
  0
LINE
  5
E5
  8
0
  6
CONTINUOUS
 62
     7
 10
201.7584972129
 20
146.7950538831
 30
0.0
 11
201.7584972129
 21
147.103472157
 31
0.0
  0
LINE
  5
E6
  8
0
  6
CONTINUOUS
 62
     7
 10
207.7584970788
 20
146.7950538831
 30
0.0
 11
207.7584970788
 21
137.0737687783
 31
0.0
  0
LINE
  5
E7
  8
0
  6
CONTINUOUS
 62
     7
 10
201.7584972129
 20
137.0737687783
 30
0.0
 11
201.7584972129
 21
146.7950538831
 31
0.0
  0
LINE
  5
E8
  8
0
  6
CONTINUOUS
 62
     7
 10
207.7584970788
 20
192.175437613
 30
0.0
 11
207.7584970788
 21
152.3653880792
 31
0.0
  0
LINE
  5
E9
  8
0
  6
CONTINUOUS
 62
     7
 10
201.7584972129
 20
152.3567930894
 30
0.0
 11
201.7584972129
 21
192.175437613
 31
0.0
  0
LINE
  5
EA
  8
0
  6
CONTINUOUS
 62
     7
 10
207.7584970788
 20
193.721665545
 30
0.0
 11
207.7584970788
 21
192.175437613
 31
0.0
  0
LINE
  5
EB
  8
0
  6
CONTINUOUS
 62
     7
 10
201.7584972129
 20
192.175437613
 30
0.0
 11
201.7584972129
 21
193.721665545
 31
0.0
  0
LINE
  5
EC
  8
0
  6
CONTINUOUS
 62
     7
 10
201.7584972129
 20
193.721665545
 30
0.0
 11
201.7584972129
 21
197.4256293016
 31
0.0
  0
LINE
  5
ED
  8
0
  6
CONTINUOUS
 62
     7
 10
207.7584970788
 20
197.4256293016
 30
0.0
 11
207.7584970788
 21
193.721665545
 31
0.0
  0
POLYLINE
  5
EE
  8
0
  6
CONTINUOUS
 62
     7
 66
     1
 10
0.0
 20
0.0
 30
0.0
  0
VERTEX
  5
6CB
  8
0
  6
CONTINUOUS
 62
     7
 10
122.3585685761
 20
152.8044656949
 30
0.0
  0
VERTEX
  5
6CC
  8
0
  6
CONTINUOUS
 62
     7
 10
122.2706934483
 20
152.5503770547
 30
0.0
  0
VERTEX
  5
6CD
  8
0
  6
CONTINUOUS
 62
     7
 10
122.0053812535
 20
152.19536583
 30
0.0
  0
VERTEX
  5
6CE
  8
0
  6
CONTINUOUS
 62
     7
 10
121.5963801415
 20
151.7636195855
 30
0.0
  0
VERTEX
  5
6CF
  8
0
  6
CONTINUOUS
 62
     7
 10
121.0379680664
 20
151.2616829114
 30
0.0
  0
VERTEX
  5
6D0
  8
0
  6
CONTINUOUS
 62
     7
 10
120.3020056755
 20
150.7062033849
 30
0.0
  0
VERTEX
  5
6D1
  8
0
  6
CONTINUOUS
 62
     7
 10
119.3999251397
 20
150.1580015855
 30
0.0
  0
VERTEX
  5
6D2
  8
0
  6
CONTINUOUS
 62
     7
 10
118.533547786
 20
149.750174685
 30
0.0
  0
VERTEX
  5
6D3
  8
0
  6
CONTINUOUS
 62
     7
 10
117.5498744519
 20
149.4126931863
 30
0.0
  0
VERTEX
  5
6D4
  8
0
  6
CONTINUOUS
 62
     7
 10
116.9248065026
 20
149.2624239164
 30
0.0
  0
VERTEX
  5
6D5
  8
0
  6
CONTINUOUS
 62
     7
 10
116.2709971936
 20
149.1559700208
 30
0.0
  0
SEQEND
  5
B62
  8
0
  6
CONTINUOUS
 62
     7
  0
POLYLINE
  5
EF
  8
0
  6
CONTINUOUS
 62
     7
 66
     1
 10
0.0
 20
0.0
 30
0.0
  0
VERTEX
  5
6D6
  8
0
  6
CONTINUOUS
 62
     7
 10
122.3585685761
 20
152.8044656949
 30
0.0
  0
VERTEX
  5
6D7
  8
0
  6
CONTINUOUS
 62
     7
 10
122.3585685761
 20
152.8592542844
 30
0.0
  0
VERTEX
  5
6D8
  8
0
  6
CONTINUOUS
 62
     7
 10
122.3583539994
 20
153.151948853
 30
0.0
  0
VERTEX
  5
6D9
  8
0
  6
CONTINUOUS
 62
     7
 10
122.3578771622
 20
153.2746569352
 30
0.0
  0
VERTEX
  5
6DA
  8
0
  6
CONTINUOUS
 62
     7
 10
122.3575254948
 20
153.2882885175
 30
0.0
  0
VERTEX
  5
6DB
  8
0
  6
CONTINUOUS
 62
     7
 10
122.3577698738
 20
153.2754317956
 30
0.0
  0
SEQEND
  5
B61
  8
0
  6
CONTINUOUS
 62
     7
  0
POLYLINE
  5
F0
  8
0
  6
CONTINUOUS
 62
     7
 66
     1
 10
0.0
 20
0.0
 30
0.0
  0
VERTEX
  5
6DC
  8
0
  6
CONTINUOUS
 62
     7
 10
122.3584970505
 20
153.5718635755
 30
0.0
  0
VERTEX
  5
6DD
  8
0
  6
CONTINUOUS
 62
     7
 10
122.3437866242
 20
153.5241023736
 30
0.0
  0
VERTEX
  5
6DE
  8
0
  6
CONTINUOUS
 62
     7
 10
122.358503011
 20
153.3973054128
 30
0.0
  0
SEQEND
  5
B60
  8
0
  6
CONTINUOUS
 62
     7
  0
POLYLINE
  5
F1
  8
0
  6
CONTINUOUS
 62
     7
 66
     1
 10
0.0
 20
0.0
 30
0.0
  0
VERTEX
  5
6DF
  8
0
  6
CONTINUOUS
 62
     7
 10
47.1584996254
 20
153.3973054128
 30
0.0
  0
VERTEX
  5
6E0
  8
0
  6
CONTINUOUS
 62
     7
 10
47.1732100518
 20
153.5241023736
 30
0.0
  0
VERTEX
  5
6E1
  8
0
  6
CONTINUOUS
 62
     7
 10
47.1584996254
 20
153.5718635755
 30
0.0
  0
SEQEND
  5
B5F
  8
0
  6
CONTINUOUS
 62
     7
  0
POLYLINE
  5
F2
  8
0
  6
CONTINUOUS
 62
     7
 66
     1
 10
0.0
 20
0.0
 30
0.0
  0
VERTEX
  5
6E2
  8
0
  6
CONTINUOUS
 62
     7
 10
47.1584280999
 20
152.8046445089
 30
0.0
  0
VERTEX
  5
6E3
  8
0
  6
CONTINUOUS
 62
     7
 10
47.1584280999
 20
152.8093413549
 30
0.0
  0
VERTEX
  5
6E4
  8
0
  6
CONTINUOUS
 62
     7
 10
47.1585949929
 20
153.1278387742
 30
0.0
  0
VERTEX
  5
6E5
  8
0
  6
CONTINUOUS
 62
     7
 10
47.1590599091
 20
153.2670811849
 30
0.0
  0
VERTEX
  5
6E6
  8
0
  6
CONTINUOUS
 62
     7
 10
47.1594532997
 20
153.2904462056
 30
0.0
  0
VERTEX
  5
6E7
  8
0
  6
CONTINUOUS
 62
     7
 10
47.1593936951
 20
153.2730356889
 30
0.0
  0
SEQEND
  5
B5E
  8
0
  6
CONTINUOUS
 62
     7
  0
POLYLINE
  5
F3
  8
0
  6
CONTINUOUS
 62
     7
 66
     1
 10
0.0
 20
0.0
 30
0.0
  0
VERTEX
  5
6E8
  8
0
  6
CONTINUOUS
 62
     7
 10
53.2459935219
 20
149.1559700208
 30
0.0
  0
VERTEX
  5
6E9
  8
0
  6
CONTINUOUS
 62
     7
 10
52.2319516213
 20
149.3431345658
 30
0.0
  0
VERTEX
  5
6EA
  8
0
  6
CONTINUOUS
 62
     7
 10
51.2466391594
 20
149.6473149495
 30
0.0
  0
VERTEX
  5
6EB
  8
0
  6
CONTINUOUS
 62
     7
 10
50.3778060944
 20
150.0237063604
 30
0.0
  0
VERTEX
  5
6EC
  8
0
  6
CONTINUOUS
 62
     7
 10
49.5845278771
 20
150.4652754502
 30
0.0
  0
VERTEX
  5
6ED
  8
0
  6
CONTINUOUS
 62
     7
 10
48.8270601303
 20
150.9856418805
 30
0.0
  0
VERTEX
  5
6EE
  8
0
  6
CONTINUOUS
 62
     7
 10
48.1857618363
 20
151.515199347
 30
0.0
  0
VERTEX
  5
6EF
  8
0
  6
CONTINUOUS
 62
     7
 10
47.6395329506
 20
152.0522073941
 30
0.0
  0
VERTEX
  5
6F0
  8
0
  6
CONTINUOUS
 62
     7
 10
47.4313935311
 20
152.290828629
 30
0.0
  0
VERTEX
  5
6F1
  8
0
  6
CONTINUOUS
 62
     7
 10
47.2792705567
 20
152.4968580442
 30
0.0
  0
VERTEX
  5
6F2
  8
0
  6
CONTINUOUS
 62
     7
 10
47.1584280999
 20
152.8046445089
 30
0.0
  0
SEQEND
  5
B5D
  8
0
  6
CONTINUOUS
 62
     7
  0
POLYLINE
  5
F4
  8
0
  6
CONTINUOUS
 62
     7
 66
     1
 10
0.0
 20
0.0
 30
0.0
  0
VERTEX
  5
6F3
  8
0
  6
CONTINUOUS
 62
     7
 10
116.2709971936
 20
149.1559700208
 30
0.0
  0
VERTEX
  5
6F4
  8
0
  6
CONTINUOUS
 62
     7
 10
109.1816684277
 20
148.3550564485
 30
0.0
  0
VERTEX
  5
6F5
  8
0
  6
CONTINUOUS
 62
     7
 10
102.0646056206
 20
147.7276162343
 30
0.0
  0
VERTEX
  5
6F6
  8
0
  6
CONTINUOUS
 62
     7
 10
94.8916992218
 20
147.3010496335
 30
0.0
  0
VERTEX
  5
6F7
  8
0
  6
CONTINUOUS
 62
     7
 10
87.7047738106
 20
147.093834086
 30
0.0
  0
VERTEX
  5
6F8
  8
0
  6
CONTINUOUS
 62
     7
 10
82.6417287857
 20
147.0846370893
 30
0.0
  0
VERTEX
  5
6F9
  8
0
  6
CONTINUOUS
 62
     7
 10
77.5802096398
 20
147.1883074479
 30
0.0
  0
VERTEX
  5
6FA
  8
0
  6
CONTINUOUS
 62
     7
 10
72.5095471413
 20
147.404243155
 30
0.0
  0
VERTEX
  5
6FB
  8
0
  6
CONTINUOUS
 62
     7
 10
67.4472650559
 20
147.727997704
 30
0.0
  0
VERTEX
  5
6FC
  8
0
  6
CONTINUOUS
 62
     7
 10
60.3363832505
 20
148.354549809
 30
0.0
  0
VERTEX
  5
6FD
  8
0
  6
CONTINUOUS
 62
     7
 10
53.2459935219
 20
149.1559700208
 30
0.0
  0
SEQEND
  5
B5C
  8
0
  6
CONTINUOUS
 62
     7
  0
POLYLINE
  5
F5
  8
0
  6
CONTINUOUS
 62
     7
 66
     1
 10
0.0
 20
0.0
 30
0.0
  0
VERTEX
  5
6FE
  8
0
  6
CONTINUOUS
 62
     7
 10
53.4258922608
 20
154.4885412889
 30
0.0
  0
VERTEX
  5
6FF
  8
0
  6
CONTINUOUS
 62
     7
 10
52.41942015
 20
154.7061876493
 30
0.0
  0
VERTEX
  5
700
  8
0
  6
CONTINUOUS
 62
     7
 10
51.4948329003
 20
154.8959986406
 30
0.0
  0
VERTEX
  5
701
  8
0
  6
CONTINUOUS
 62
     7
 10
50.7273396523
 20
155.0339714723
 30
0.0
  0
VERTEX
  5
702
  8
0
  6
CONTINUOUS
 62
     7
 10
50.0918587716
 20
155.1178948121
 30
0.0
  0
VERTEX
  5
703
  8
0
  6
CONTINUOUS
 62
     7
 10
49.7901281388
 20
155.1386491494
 30
0.0
  0
VERTEX
  5
704
  8
0
  6
CONTINUOUS
 62
     7
 10
49.5521387131
 20
155.1372245984
 30
0.0
  0
SEQEND
  5
B5B
  8
0
  6
CONTINUOUS
 62
     7
  0
ARC
  5
F6
  8
0
  6
CONTINUOUS
 62
     7
 10
84.6428795224
 20
293.724497464
 30
0.0
 40
142.692507812081
 50
257.3631399214
 51
260.3830426002
  0
ARC
  5
F7
  8
0
  6
CONTINUOUS
 62
     7
 10
84.1569497559
 20
297.3502100023
 30
0.0
 40
146.3873158463803
 50
279.6013439636
 51
282.6002988363
  0
POLYLINE
  5
F8
  8
0
  6
CONTINUOUS
 62
     7
 66
     1
 10
0.0
 20
0.0
 30
0.0
  0
VERTEX
  5
705
  8
0
  6
CONTINUOUS
 62
     7
 10
119.9648579628
 20
155.1372245984
 30
0.0
  0
VERTEX
  5
706
  8
0
  6
CONTINUOUS
 62
     7
 10
119.545771745
 20
155.128313704
 30
0.0
  0
VERTEX
  5
707
  8
0
  6
CONTINUOUS
 62
     7
 10
118.9361413987
 20
155.0565973954
 30
0.0
  0
VERTEX
  5
708
  8
0
  6
CONTINUOUS
 62
     7
 10
118.1848963768
 20
154.9273387628
 30
0.0
  0
VERTEX
  5
709
  8
0
  6
CONTINUOUS
 62
     7
 10
117.2675212891
 20
154.7421471315
 30
0.0
  0
VERTEX
  5
70A
  8
0
  6
CONTINUOUS
 62
     7
 10
116.0910984547
 20
154.4885412889
 30
0.0
  0
SEQEND
  5
B5A
  8
0
  6
CONTINUOUS
 62
     7
  0
POLYLINE
  5
F9
  8
0
  6
CONTINUOUS
 62
     7
 66
     1
 10
0.0
 20
0.0
 30
0.0
  0
VERTEX
  5
70B
  8
0
  6
CONTINUOUS
 62
     7
 10
119.9648400814
 20
155.1373020845
 30
0.0
  0
VERTEX
  5
70C
  8
0
  6
CONTINUOUS
 62
     7
 10
120.881905225
 20
155.0824896531
 30
0.0
  0
VERTEX
  5
70D
  8
0
  6
CONTINUOUS
 62
     7
 10
121.4830836327
 20
155.0279514032
 30
0.0
  0
VERTEX
  5
70E
  8
0
  6
CONTINUOUS
 62
     7
 10
121.840604213
 20
154.9722210603
 30
0.0
  0
VERTEX
  5
70F
  8
0
  6
CONTINUOUS
 62
     7
 10
122.0553597481
 20
154.9156085687
 30
0.0
  0
VERTEX
  5
710
  8
0
  6
CONTINUOUS
 62
     7
 10
122.1371075184
 20
154.8571781354
 30
0.0
  0
VERTEX
  5
711
  8
0
  6
CONTINUOUS
 62
     7
 10
122.1339425118
 20
154.7996238904
 30
0.0
  0
VERTEX
  5
712
  8
0
  6
CONTINUOUS
 62
     7
 10
122.1068402798
 20
154.7467724519
 30
0.0
  0
VERTEX
  5
713
  8
0
  6
CONTINUOUS
 62
     7
 10
122.1046825917
 20
154.6999112802
 30
0.0
  0
VERTEX
  5
714
  8
0
  6
CONTINUOUS
 62
     7
 10
122.1516212494
 20
154.5916156011
 30
0.0
  0
VERTEX
  5
715
  8
0
  6
CONTINUOUS
 62
     7
 10
122.1608540089
 20
154.5500592427
 30
0.0
  0
SEQEND
  5
B59
  8
0
  6
CONTINUOUS
 62
     7
  0
ARC
  5
FA
  8
0
  6
CONTINUOUS
 62
     7
 10
117.3134792231
 20
153.7210880581
 30
0.0
 40
4.946513259035558
 50
3.5868728639
 51
8.4287436192
  0
POLYLINE
  5
FB
  8
0
  6
CONTINUOUS
 62
     7
 66
     1
 10
0.0
 20
0.0
 30
0.0
  0
VERTEX
  5
716
  8
0
  6
CONTINUOUS
 62
     7
 10
116.1616584332
 20
150.6527201371
 30
0.0
  0
VERTEX
  5
717
  8
0
  6
CONTINUOUS
 62
     7
 10
117.1853562863
 20
150.8316473203
 30
0.0
  0
VERTEX
  5
718
  8
0
  6
CONTINUOUS
 62
     7
 10
118.1813379795
 20
151.1224285798
 30
0.0
  0
VERTEX
  5
719
  8
0
  6
CONTINUOUS
 62
     7
 10
119.0615853341
 20
151.4813737111
 30
0.0
  0
VERTEX
  5
71A
  8
0
  6
CONTINUOUS
 62
     7
 10
119.8662182362
 20
151.9001797872
 30
0.0
  0
VERTEX
  5
71B
  8
0
  6
CONTINUOUS
 62
     7
 10
120.6259390385
 20
152.3838834005
 30
0.0
  0
VERTEX
  5
71C
  8
0
  6
CONTINUOUS
 62
     7
 10
121.2673386605
 20
152.8704599576
 30
0.0
  0
VERTEX
  5
71D
  8
0
  6
CONTINUOUS
 62
     7
 10
121.7950603039
 20
153.3437565999
 30
0.0
  0
VERTEX
  5
71E
  8
0
  6
CONTINUOUS
 62
     7
 10
122.1382936509
 20
153.736884995
 30
0.0
  0
VERTEX
  5
71F
  8
0
  6
CONTINUOUS
 62
     7
 10
122.2263714344
 20
153.897549315
 30
0.0
  0
VERTEX
  5
720
  8
0
  6
CONTINUOUS
 62
     7
 10
122.2503026993
 20
154.0305451589
 30
0.0
  0
SEQEND
  5
B58
  8
0
  6
CONTINUOUS
 62
     7
  0
POLYLINE
  5
FC
  8
0
  6
CONTINUOUS
 62
     7
 66
     1
 10
0.0
 20
0.0
 30
0.0
  0
VERTEX
  5
721
  8
0
  6
CONTINUOUS
 62
     7
 10
116.1616584332
 20
150.6527201371
 30
0.0
  0
VERTEX
  5
722
  8
0
  6
CONTINUOUS
 62
     7
 10
110.8108362229
 20
150.066126986
 30
0.0
  0
VERTEX
  5
723
  8
0
  6
CONTINUOUS
 62
     7
 10
105.4446777375
 20
149.5681242185
 30
0.0
  0
VERTEX
  5
724
  8
0
  6
CONTINUOUS
 62
     7
 10
100.0524243386
 20
149.1709725099
 30
0.0
  0
VERTEX
  5
725
  8
0
  6
CONTINUOUS
 62
     7
 10
94.6493348153
 20
148.8859907823
 30
0.0
  0
VERTEX
  5
726
  8
0
  6
CONTINUOUS
 62
     7
 10
88.7478431733
 20
148.7123266893
 30
0.0
  0
VERTEX
  5
727
  8
0
  6
CONTINUOUS
 62
     7
 10
82.8426918061
 20
148.6859933572
 30
0.0
  0
VERTEX
  5
728
  8
0
  6
CONTINUOUS
 62
     7
 10
76.9175251992
 20
148.8092676835
 30
0.0
  0
VERTEX
  5
729
  8
0
  6
CONTINUOUS
 62
     7
 10
70.9994873078
 20
149.0780369477
 30
0.0
  0
VERTEX
  5
72A
  8
0
  6
CONTINUOUS
 62
     7
 10
66.5781935723
 20
149.3700520234
 30
0.0
  0
VERTEX
  5
72B
  8
0
  6
CONTINUOUS
 62
     7
 10
62.165256408
 20
149.7339503007
 30
0.0
  0
VERTEX
  5
72C
  8
0
  6
CONTINUOUS
 62
     7
 10
57.7550133736
 20
150.1641706662
 30
0.0
  0
VERTEX
  5
72D
  8
0
  6
CONTINUOUS
 62
     7
 10
53.3553322823
 20
150.6527201371
 30
0.0
  0
SEQEND
  5
B57
  8
0
  6
CONTINUOUS
 62
     7
  0
POLYLINE
  5
FD
  8
0
  6
CONTINUOUS
 62
     7
 66
     1
 10
0.0
 20
0.0
 30
0.0
  0
VERTEX
  5
72E
  8
0
  6
CONTINUOUS
 62
     7
 10
47.2666939766
 20
154.0305451589
 30
0.0
  0
VERTEX
  5
72F
  8
0
  6
CONTINUOUS
 62
     7
 10
47.3410328896
 20
153.7958876329
 30
0.0
  0
VERTEX
  5
730
  8
0
  6
CONTINUOUS
 62
     7
 10
47.5982746155
 20
153.4704820352
 30
0.0
  0
VERTEX
  5
731
  8
0
  6
CONTINUOUS
 62
     7
 10
48.0080327065
 20
153.0768529611
 30
0.0
  0
VERTEX
  5
732
  8
0
  6
CONTINUOUS
 62
     7
 10
48.5757907898
 20
152.6130334573
 30
0.0
  0
VERTEX
  5
733
  8
0
  6
CONTINUOUS
 62
     7
 10
49.308522609
 20
152.1067933278
 30
0.0
  0
VERTEX
  5
734
  8
0
  6
CONTINUOUS
 62
     7
 10
50.204714206
 20
151.6021923261
 30
0.0
  0
VERTEX
  5
735
  8
0
  6
CONTINUOUS
 62
     7
 10
51.0848244698
 20
151.2146488862
 30
0.0
  0
VERTEX
  5
736
  8
0
  6
CONTINUOUS
 62
     7
 10
52.0825585396
 20
150.8933262067
 30
0.0
  0
VERTEX
  5
737
  8
0
  6
CONTINUOUS
 62
     7
 10
52.7053674729
 20
150.7525579171
 30
0.0
  0
VERTEX
  5
738
  8
0
  6
CONTINUOUS
 62
     7
 10
53.3553322823
 20
150.6527201371
 30
0.0
  0
SEQEND
  5
B56
  8
0
  6
CONTINUOUS
 62
     7
  0
POLYLINE
  5
FE
  8
0
  6
CONTINUOUS
 62
     7
 66
     1
 10
0.0
 20
0.0
 30
0.0
  0
VERTEX
  5
739
  8
0
  6
CONTINUOUS
 62
     7
 10
47.2666939766
 20
154.0305511193
 30
0.0
  0
VERTEX
  5
73A
  8
0
  6
CONTINUOUS
 62
     7
 10
47.2950061829
 20
154.3268875318
 30
0.0
  0
VERTEX
  5
73B
  8
0
  6
CONTINUOUS
 62
     7
 10
47.3108371765
 20
154.4515625673
 30
0.0
  0
SEQEND
  5
B55
  8
0
  6
CONTINUOUS
 62
     7
  0
POLYLINE
  5
FF
  8
0
  6
CONTINUOUS
 62
     7
 66
     1
 10
0.0
 20
0.0
 30
0.0
  0
VERTEX
  5
73C
  8
0
  6
CONTINUOUS
 62
     7
 10
47.3562082322
 20
154.5495526033
 30
0.0
  0
VERTEX
  5
73D
  8
0
  6
CONTINUOUS
 62
     7
 10
47.3663171799
 20
154.5941964822
 30
0.0
  0
VERTEX
  5
73E
  8
0
  6
CONTINUOUS
 62
     7
 10
47.4123081238
 20
154.6999112802
 30
0.0
  0
VERTEX
  5
73F
  8
0
  6
CONTINUOUS
 62
     7
 10
47.4101504357
 20
154.7467724519
 30
0.0
  0
VERTEX
  5
740
  8
0
  6
CONTINUOUS
 62
     7
 10
47.3830541642
 20
154.7996238904
 30
0.0
  0
VERTEX
  5
741
  8
0
  6
CONTINUOUS
 62
     7
 10
47.3798831971
 20
154.8571781354
 30
0.0
  0
VERTEX
  5
742
  8
0
  6
CONTINUOUS
 62
     7
 10
47.4616369278
 20
154.9156085687
 30
0.0
  0
VERTEX
  5
743
  8
0
  6
CONTINUOUS
 62
     7
 10
47.676392463
 20
154.9722210603
 30
0.0
  0
VERTEX
  5
744
  8
0
  6
CONTINUOUS
 62
     7
 10
48.0339130432
 20
155.0279514032
 30
0.0
  0
VERTEX
  5
745
  8
0
  6
CONTINUOUS
 62
     7
 10
48.6350854905
 20
155.0824896531
 30
0.0
  0
VERTEX
  5
746
  8
0
  6
CONTINUOUS
 62
     7
 10
49.552150634
 20
155.1373020845
 30
0.0
  0
SEQEND
  5
B54
  8
0
  6
CONTINUOUS
 62
     7
  0
LINE
  5
100
  8
0
  6
CONTINUOUS
 62
     7
 10
122.3584970505
 20
153.5723523336
 30
0.0
 11
122.3584970505
 21
153.8780526357
 31
0.0
  0
LINE
  5
101
  8
0
  6
CONTINUOUS
 62
     7
 10
47.1584996254
 20
153.3973054128
 30
0.0
 11
47.1584996254
 21
153.2228426175
 31
0.0
  0
LINE
  5
102
  8
0
  6
CONTINUOUS
 62
     7
 10
47.1584996254
 20
153.8678602414
 30
0.0
 11
47.1584996254
 21
153.5723523336
 31
0.0
  0
POLYLINE
  5
103
  8
0
  6
CONTINUOUS
 62
     7
 66
     1
 10
0.0
 20
0.0
 30
0.0
  0
VERTEX
  5
747
  8
0
  6
CONTINUOUS
 62
     7
 10
362.3585661919
 20
152.8044656949
 30
0.0
  0
VERTEX
  5
748
  8
0
  6
CONTINUOUS
 62
     7
 10
362.2706970246
 20
152.5503770547
 30
0.0
  0
VERTEX
  5
749
  8
0
  6
CONTINUOUS
 62
     7
 10
362.0053848297
 20
152.19536583
 30
0.0
  0
VERTEX
  5
74A
  8
0
  6
CONTINUOUS
 62
     7
 10
361.5963777573
 20
151.7636195855
 30
0.0
  0
VERTEX
  5
74B
  8
0
  6
CONTINUOUS
 62
     7
 10
361.0379656823
 20
151.2616829114
 30
0.0
  0
VERTEX
  5
74C
  8
0
  6
CONTINUOUS
 62
     7
 10
360.3020032914
 20
150.7062033849
 30
0.0
  0
VERTEX
  5
74D
  8
0
  6
CONTINUOUS
 62
     7
 10
359.3999227555
 20
150.1580015855
 30
0.0
  0
VERTEX
  5
74E
  8
0
  6
CONTINUOUS
 62
     7
 10
358.5335454018
 20
149.750174685
 30
0.0
  0
VERTEX
  5
74F
  8
0
  6
CONTINUOUS
 62
     7
 10
357.5498780281
 20
149.4126931863
 30
0.0
  0
VERTEX
  5
750
  8
0
  6
CONTINUOUS
 62
     7
 10
356.9248041184
 20
149.2624239164
 30
0.0
  0
VERTEX
  5
751
  8
0
  6
CONTINUOUS
 62
     7
 10
356.2710007698
 20
149.1559700208
 30
0.0
  0
SEQEND
  5
B53
  8
0
  6
CONTINUOUS
 62
     7
  0
POLYLINE
  5
104
  8
0
  6
CONTINUOUS
 62
     7
 66
     1
 10
0.0
 20
0.0
 30
0.0
  0
VERTEX
  5
752
  8
0
  6
CONTINUOUS
 62
     7
 10
362.3585661919
 20
152.8044656949
 30
0.0
  0
VERTEX
  5
753
  8
0
  6
CONTINUOUS
 62
     7
 10
362.3585661919
 20
152.8592542844
 30
0.0
  0
VERTEX
  5
754
  8
0
  6
CONTINUOUS
 62
     7
 10
362.3583516152
 20
153.151948853
 30
0.0
  0
VERTEX
  5
755
  8
0
  6
CONTINUOUS
 62
     7
 10
362.357874778
 20
153.2746569352
 30
0.0
  0
VERTEX
  5
756
  8
0
  6
CONTINUOUS
 62
     7
 10
362.3575290711
 20
153.2882885175
 30
0.0
  0
VERTEX
  5
757
  8
0
  6
CONTINUOUS
 62
     7
 10
362.3577674897
 20
153.2754317956
 30
0.0
  0
SEQEND
  5
B52
  8
0
  6
CONTINUOUS
 62
     7
  0
POLYLINE
  5
105
  8
0
  6
CONTINUOUS
 62
     7
 66
     1
 10
0.0
 20
0.0
 30
0.0
  0
VERTEX
  5
758
  8
0
  6
CONTINUOUS
 62
     7
 10
362.3584946663
 20
153.5718635755
 30
0.0
  0
VERTEX
  5
759
  8
0
  6
CONTINUOUS
 62
     7
 10
362.34378424
 20
153.5241023736
 30
0.0
  0
VERTEX
  5
75A
  8
0
  6
CONTINUOUS
 62
     7
 10
362.3584946663
 20
153.3973054128
 30
0.0
  0
SEQEND
  5
B51
  8
0
  6
CONTINUOUS
 62
     7
  0
POLYLINE
  5
106
  8
0
  6
CONTINUOUS
 62
     7
 66
     1
 10
0.0
 20
0.0
 30
0.0
  0
VERTEX
  5
75B
  8
0
  6
CONTINUOUS
 62
     7
 10
287.1584912808
 20
153.3973054128
 30
0.0
  0
VERTEX
  5
75C
  8
0
  6
CONTINUOUS
 62
     7
 10
287.1732076676
 20
153.5241023736
 30
0.0
  0
VERTEX
  5
75D
  8
0
  6
CONTINUOUS
 62
     7
 10
287.1584972412
 20
153.5718635755
 30
0.0
  0
SEQEND
  5
B50
  8
0
  6
CONTINUOUS
 62
     7
  0
POLYLINE
  5
107
  8
0
  6
CONTINUOUS
 62
     7
 66
     1
 10
0.0
 20
0.0
 30
0.0
  0
VERTEX
  5
75E
  8
0
  6
CONTINUOUS
 62
     7
 10
287.1584257157
 20
152.8046445089
 30
0.0
  0
VERTEX
  5
75F
  8
0
  6
CONTINUOUS
 62
     7
 10
287.1584257157
 20
152.8093413549
 30
0.0
  0
VERTEX
  5
760
  8
0
  6
CONTINUOUS
 62
     7
 10
287.1585985691
 20
153.1278387742
 30
0.0
  0
VERTEX
  5
761
  8
0
  6
CONTINUOUS
 62
     7
 10
287.1590634854
 20
153.2670811849
 30
0.0
  0
VERTEX
  5
762
  8
0
  6
CONTINUOUS
 62
     7
 10
287.1594449551
 20
153.2904462056
 30
0.0
  0
VERTEX
  5
763
  8
0
  6
CONTINUOUS
 62
     7
 10
287.1593972714
 20
153.2730356889
 30
0.0
  0
SEQEND
  5
B4F
  8
0
  6
CONTINUOUS
 62
     7
  0
POLYLINE
  5
108
  8
0
  6
CONTINUOUS
 62
     7
 66
     1
 10
0.0
 20
0.0
 30
0.0
  0
VERTEX
  5
764
  8
0
  6
CONTINUOUS
 62
     7
 10
293.2459970982
 20
149.1559700208
 30
0.0
  0
VERTEX
  5
765
  8
0
  6
CONTINUOUS
 62
     7
 10
292.2319492371
 20
149.3431345658
 30
0.0
  0
VERTEX
  5
766
  8
0
  6
CONTINUOUS
 62
     7
 10
291.2466427357
 20
149.6473149495
 30
0.0
  0
VERTEX
  5
767
  8
0
  6
CONTINUOUS
 62
     7
 10
290.3778037102
 20
150.0237063604
 30
0.0
  0
VERTEX
  5
768
  8
0
  6
CONTINUOUS
 62
     7
 10
289.5845314534
 20
150.4652754502
 30
0.0
  0
VERTEX
  5
769
  8
0
  6
CONTINUOUS
 62
     7
 10
288.8270637066
 20
150.9856418805
 30
0.0
  0
VERTEX
  5
76A
  8
0
  6
CONTINUOUS
 62
     7
 10
288.1857654126
 20
151.515199347
 30
0.0
  0
VERTEX
  5
76B
  8
0
  6
CONTINUOUS
 62
     7
 10
287.6395305664
 20
152.0522073941
 30
0.0
  0
VERTEX
  5
76C
  8
0
  6
CONTINUOUS
 62
     7
 10
287.4313911469
 20
152.290828629
 30
0.0
  0
VERTEX
  5
76D
  8
0
  6
CONTINUOUS
 62
     7
 10
287.279274133
 20
152.4968580442
 30
0.0
  0
VERTEX
  5
76E
  8
0
  6
CONTINUOUS
 62
     7
 10
287.1584257157
 20
152.8046445089
 30
0.0
  0
SEQEND
  5
B4E
  8
0
  6
CONTINUOUS
 62
     7
  0
POLYLINE
  5
109
  8
0
  6
CONTINUOUS
 62
     7
 66
     1
 10
0.0
 20
0.0
 30
0.0
  0
VERTEX
  5
76F
  8
0
  6
CONTINUOUS
 62
     7
 10
356.2710007698
 20
149.1559700208
 30
0.0
  0
VERTEX
  5
770
  8
0
  6
CONTINUOUS
 62
     7
 10
349.181672004
 20
148.3550564485
 30
0.0
  0
VERTEX
  5
771
  8
0
  6
CONTINUOUS
 62
     7
 10
342.0646032364
 20
147.7276162343
 30
0.0
  0
VERTEX
  5
772
  8
0
  6
CONTINUOUS
 62
     7
 10
334.8916968377
 20
147.3010496335
 30
0.0
  0
VERTEX
  5
773
  8
0
  6
CONTINUOUS
 62
     7
 10
327.7047714264
 20
147.093834086
 30
0.0
  0
VERTEX
  5
774
  8
0
  6
CONTINUOUS
 62
     7
 10
322.6417383225
 20
147.0846370893
 30
0.0
  0
VERTEX
  5
775
  8
0
  6
CONTINUOUS
 62
     7
 10
317.5802072556
 20
147.1883074479
 30
0.0
  0
VERTEX
  5
776
  8
0
  6
CONTINUOUS
 62
     7
 10
312.5095447571
 20
147.404243155
 30
0.0
  0
VERTEX
  5
777
  8
0
  6
CONTINUOUS
 62
     7
 10
307.4472626717
 20
147.727997704
 30
0.0
  0
VERTEX
  5
778
  8
0
  6
CONTINUOUS
 62
     7
 10
300.3363868267
 20
148.354549809
 30
0.0
  0
VERTEX
  5
779
  8
0
  6
CONTINUOUS
 62
     7
 10
293.2459970982
 20
149.1559700208
 30
0.0
  0
SEQEND
  5
B4D
  8
0
  6
CONTINUOUS
 62
     7
  0
POLYLINE
  5
10A
  8
0
  6
CONTINUOUS
 62
     7
 66
     1
 10
0.0
 20
0.0
 30
0.0
  0
VERTEX
  5
77A
  8
0
  6
CONTINUOUS
 62
     7
 10
293.4258958371
 20
154.4885412889
 30
0.0
  0
VERTEX
  5
77B
  8
0
  6
CONTINUOUS
 62
     7
 10
292.4194237263
 20
154.7061876493
 30
0.0
  0
VERTEX
  5
77C
  8
0
  6
CONTINUOUS
 62
     7
 10
291.4948305161
 20
154.8959986406
 30
0.0
  0
VERTEX
  5
77D
  8
0
  6
CONTINUOUS
 62
     7
 10
290.7273372681
 20
155.0339714723
 30
0.0
  0
VERTEX
  5
77E
  8
0
  6
CONTINUOUS
 62
     7
 10
290.0918563874
 20
155.1178948121
 30
0.0
  0
VERTEX
  5
77F
  8
0
  6
CONTINUOUS
 62
     7
 10
289.7901257546
 20
155.1386491494
 30
0.0
  0
VERTEX
  5
780
  8
0
  6
CONTINUOUS
 62
     7
 10
289.5521363289
 20
155.1372245984
 30
0.0
  0
SEQEND
  5
B4C
  8
0
  6
CONTINUOUS
 62
     7
  0
ARC
  5
10B
  8
0
  6
CONTINUOUS
 62
     7
 10
324.6425501389
 20
293.7227066569
 30
0.0
 40
142.6906875431635
 50
257.3631130655
 51
260.3830519281
  0
ARC
  5
10C
  8
0
  6
CONTINUOUS
 62
     7
 10
324.1565671299
 20
297.3521783424
 30
0.0
 40
146.3893210295837
 50
279.6013645076
 51
282.6002782923
  0
POLYLINE
  5
10D
  8
0
  6
CONTINUOUS
 62
     7
 66
     1
 10
0.0
 20
0.0
 30
0.0
  0
VERTEX
  5
781
  8
0
  6
CONTINUOUS
 62
     7
 10
359.9648555786
 20
155.1372245984
 30
0.0
  0
VERTEX
  5
782
  8
0
  6
CONTINUOUS
 62
     7
 10
359.5457753212
 20
155.128313704
 30
0.0
  0
VERTEX
  5
783
  8
0
  6
CONTINUOUS
 62
     7
 10
358.9361390145
 20
155.0565973954
 30
0.0
  0
VERTEX
  5
784
  8
0
  6
CONTINUOUS
 62
     7
 10
358.1848939927
 20
154.9273387628
 30
0.0
  0
VERTEX
  5
785
  8
0
  6
CONTINUOUS
 62
     7
 10
357.2675189049
 20
154.7421471315
 30
0.0
  0
VERTEX
  5
786
  8
0
  6
CONTINUOUS
 62
     7
 10
356.091102031
 20
154.4885412889
 30
0.0
  0
SEQEND
  5
B4B
  8
0
  6
CONTINUOUS
 62
     7
  0
POLYLINE
  5
10E
  8
0
  6
CONTINUOUS
 62
     7
 66
     1
 10
0.0
 20
0.0
 30
0.0
  0
VERTEX
  5
787
  8
0
  6
CONTINUOUS
 62
     7
 10
359.9648436577
 20
155.1373020845
 30
0.0
  0
VERTEX
  5
788
  8
0
  6
CONTINUOUS
 62
     7
 10
360.8819088013
 20
155.0824896531
 30
0.0
  0
VERTEX
  5
789
  8
0
  6
CONTINUOUS
 62
     7
 10
361.4830812485
 20
155.0279514032
 30
0.0
  0
VERTEX
  5
78A
  8
0
  6
CONTINUOUS
 62
     7
 10
361.8406018288
 20
154.9722210603
 30
0.0
  0
VERTEX
  5
78B
  8
0
  6
CONTINUOUS
 62
     7
 10
362.0553573639
 20
154.9156085687
 30
0.0
  0
VERTEX
  5
78C
  8
0
  6
CONTINUOUS
 62
     7
 10
362.1371110947
 20
154.8571781354
 30
0.0
  0
VERTEX
  5
78D
  8
0
  6
CONTINUOUS
 62
     7
 10
362.1339401276
 20
154.7996238904
 30
0.0
  0
VERTEX
  5
78E
  8
0
  6
CONTINUOUS
 62
     7
 10
362.1068438561
 20
154.7467724519
 30
0.0
  0
VERTEX
  5
78F
  8
0
  6
CONTINUOUS
 62
     7
 10
362.1046861679
 20
154.6999112802
 30
0.0
  0
VERTEX
  5
790
  8
0
  6
CONTINUOUS
 62
     7
 10
362.1516188652
 20
154.5916156011
 30
0.0
  0
VERTEX
  5
791
  8
0
  6
CONTINUOUS
 62
     7
 10
362.1608575852
 20
154.5500592427
 30
0.0
  0
SEQEND
  5
B4A
  8
0
  6
CONTINUOUS
 62
     7
  0
ARC
  5
10F
  8
0
  6
CONTINUOUS
 62
     7
 10
357.3144602306
 20
153.7211915522
 30
0.0
 40
4.945525319047557
 50
3.586388959
 51
8.4292275241
  0
POLYLINE
  5
110
  8
0
  6
CONTINUOUS
 62
     7
 66
     1
 10
0.0
 20
0.0
 30
0.0
  0
VERTEX
  5
792
  8
0
  6
CONTINUOUS
 62
     7
 10
356.1616620095
 20
150.6527201371
 30
0.0
  0
VERTEX
  5
793
  8
0
  6
CONTINUOUS
 62
     7
 10
357.1853598626
 20
150.8316473203
 30
0.0
  0
VERTEX
  5
794
  8
0
  6
CONTINUOUS
 62
     7
 10
358.1813296349
 20
151.1224285798
 30
0.0
  0
VERTEX
  5
795
  8
0
  6
CONTINUOUS
 62
     7
 10
359.0615829499
 20
151.4813737111
 30
0.0
  0
VERTEX
  5
796
  8
0
  6
CONTINUOUS
 62
     7
 10
359.8662218125
 20
151.9001797872
 30
0.0
  0
VERTEX
  5
797
  8
0
  6
CONTINUOUS
 62
     7
 10
360.6259426148
 20
152.3838834005
 30
0.0
  0
VERTEX
  5
798
  8
0
  6
CONTINUOUS
 62
     7
 10
361.2673362763
 20
152.8704599576
 30
0.0
  0
VERTEX
  5
799
  8
0
  6
CONTINUOUS
 62
     7
 10
361.7950638802
 20
153.3437565999
 30
0.0
  0
VERTEX
  5
79A
  8
0
  6
CONTINUOUS
 62
     7
 10
362.1382912667
 20
153.736884995
 30
0.0
  0
VERTEX
  5
79B
  8
0
  6
CONTINUOUS
 62
     7
 10
362.2263750107
 20
153.897549315
 30
0.0
  0
VERTEX
  5
79C
  8
0
  6
CONTINUOUS
 62
     7
 10
362.2503003151
 20
154.0305451589
 30
0.0
  0
SEQEND
  5
B49
  8
0
  6
CONTINUOUS
 62
     7
  0
POLYLINE
  5
111
  8
0
  6
CONTINUOUS
 62
     7
 66
     1
 10
0.0
 20
0.0
 30
0.0
  0
VERTEX
  5
79D
  8
0
  6
CONTINUOUS
 62
     7
 10
356.1616620095
 20
150.6527201371
 30
0.0
  0
VERTEX
  5
79E
  8
0
  6
CONTINUOUS
 62
     7
 10
350.8108338387
 20
150.066126986
 30
0.0
  0
VERTEX
  5
79F
  8
0
  6
CONTINUOUS
 62
     7
 10
345.4446753533
 20
149.5681242185
 30
0.0
  0
VERTEX
  5
7A0
  8
0
  6
CONTINUOUS
 62
     7
 10
340.0524219544
 20
149.1709725099
 30
0.0
  0
VERTEX
  5
7A1
  8
0
  6
CONTINUOUS
 62
     7
 10
334.6493324311
 20
148.8859907823
 30
0.0
  0
VERTEX
  5
7A2
  8
0
  6
CONTINUOUS
 62
     7
 10
328.7478407891
 20
148.7123266893
 30
0.0
  0
VERTEX
  5
7A3
  8
0
  6
CONTINUOUS
 62
     7
 10
322.8426894219
 20
148.6859933572
 30
0.0
  0
VERTEX
  5
7A4
  8
0
  6
CONTINUOUS
 62
     7
 10
316.917522815
 20
148.8092676835
 30
0.0
  0
VERTEX
  5
7A5
  8
0
  6
CONTINUOUS
 62
     7
 10
310.9994849236
 20
149.0780369477
 30
0.0
  0
VERTEX
  5
7A6
  8
0
  6
CONTINUOUS
 62
     7
 10
306.5781911881
 20
149.3700520234
 30
0.0
  0
VERTEX
  5
7A7
  8
0
  6
CONTINUOUS
 62
     7
 10
302.1652540238
 20
149.7339503007
 30
0.0
  0
VERTEX
  5
7A8
  8
0
  6
CONTINUOUS
 62
     7
 10
297.7550109894
 20
150.1641706662
 30
0.0
  0
VERTEX
  5
7A9
  8
0
  6
CONTINUOUS
 62
     7
 10
293.3553358586
 20
150.6527201371
 30
0.0
  0
SEQEND
  5
B48
  8
0
  6
CONTINUOUS
 62
     7
  0
POLYLINE
  5
112
  8
0
  6
CONTINUOUS
 62
     7
 66
     1
 10
0.0
 20
0.0
 30
0.0
  0
VERTEX
  5
7AA
  8
0
  6
CONTINUOUS
 62
     7
 10
287.2666915924
 20
154.0305451589
 30
0.0
  0
VERTEX
  5
7AB
  8
0
  6
CONTINUOUS
 62
     7
 10
287.3410364659
 20
153.7958876329
 30
0.0
  0
VERTEX
  5
7AC
  8
0
  6
CONTINUOUS
 62
     7
 10
287.5982781918
 20
153.4704820352
 30
0.0
  0
VERTEX
  5
7AD
  8
0
  6
CONTINUOUS
 62
     7
 10
288.0080303223
 20
153.0768529611
 30
0.0
  0
VERTEX
  5
7AE
  8
0
  6
CONTINUOUS
 62
     7
 10
288.5757943661
 20
152.6130334573
 30
0.0
  0
VERTEX
  5
7AF
  8
0
  6
CONTINUOUS
 62
     7
 10
289.3085142643
 20
152.1067933278
 30
0.0
  0
VERTEX
  5
7B0
  8
0
  6
CONTINUOUS
 62
     7
 10
290.2047118218
 20
151.6021923261
 30
0.0
  0
VERTEX
  5
7B1
  8
0
  6
CONTINUOUS
 62
     7
 10
291.0848220856
 20
151.2146488862
 30
0.0
  0
VERTEX
  5
7B2
  8
0
  6
CONTINUOUS
 62
     7
 10
292.0825621159
 20
150.8933262067
 30
0.0
  0
VERTEX
  5
7B3
  8
0
  6
CONTINUOUS
 62
     7
 10
292.7053710492
 20
150.7525579171
 30
0.0
  0
VERTEX
  5
7B4
  8
0
  6
CONTINUOUS
 62
     7
 10
293.3553358586
 20
150.6527201371
 30
0.0
  0
SEQEND
  5
B47
  8
0
  6
CONTINUOUS
 62
     7
  0
POLYLINE
  5
113
  8
0
  6
CONTINUOUS
 62
     7
 66
     1
 10
0.0
 20
0.0
 30
0.0
  0
VERTEX
  5
7B5
  8
0
  6
CONTINUOUS
 62
     7
 10
287.2666915924
 20
154.0305511193
 30
0.0
  0
VERTEX
  5
7B6
  8
0
  6
CONTINUOUS
 62
     7
 10
287.2950097592
 20
154.3268875318
 30
0.0
  0
VERTEX
  5
7B7
  8
0
  6
CONTINUOUS
 62
     7
 10
287.3108407528
 20
154.4515625673
 30
0.0
  0
SEQEND
  5
B46
  8
0
  6
CONTINUOUS
 62
     7
  0
POLYLINE
  5
114
  8
0
  6
CONTINUOUS
 62
     7
 66
     1
 10
0.0
 20
0.0
 30
0.0
  0
VERTEX
  5
7B8
  8
0
  6
CONTINUOUS
 62
     7
 10
287.356205848
 20
154.5495526033
 30
0.0
  0
VERTEX
  5
7B9
  8
0
  6
CONTINUOUS
 62
     7
 10
287.3663207562
 20
154.5941964822
 30
0.0
  0
VERTEX
  5
7BA
  8
0
  6
CONTINUOUS
 62
     7
 10
287.4123117001
 20
154.6999112802
 30
0.0
  0
VERTEX
  5
7BB
  8
0
  6
CONTINUOUS
 62
     7
 10
287.410154012
 20
154.7467724519
 30
0.0
  0
VERTEX
  5
7BC
  8
0
  6
CONTINUOUS
 62
     7
 10
287.38305178
 20
154.7996238904
 30
0.0
  0
VERTEX
  5
7BD
  8
0
  6
CONTINUOUS
 62
     7
 10
287.3798867733
 20
154.8571781354
 30
0.0
  0
VERTEX
  5
7BE
  8
0
  6
CONTINUOUS
 62
     7
 10
287.4616345436
 20
154.9156085687
 30
0.0
  0
VERTEX
  5
7BF
  8
0
  6
CONTINUOUS
 62
     7
 10
287.6763900788
 20
154.9722210603
 30
0.0
  0
VERTEX
  5
7C0
  8
0
  6
CONTINUOUS
 62
     7
 10
288.0339106591
 20
155.0279514032
 30
0.0
  0
VERTEX
  5
7C1
  8
0
  6
CONTINUOUS
 62
     7
 10
288.6350890667
 20
155.0824896531
 30
0.0
  0
VERTEX
  5
7C2
  8
0
  6
CONTINUOUS
 62
     7
 10
289.5521542103
 20
155.1373020845
 30
0.0
  0
SEQEND
  5
B45
  8
0
  6
CONTINUOUS
 62
     7
  0
LINE
  5
115
  8
0
  6
CONTINUOUS
 62
     7
 10
362.3584946663
 20
153.5723523336
 30
0.0
 11
362.3584946663
 21
153.8780526357
 31
0.0
  0
LINE
  5
116
  8
0
  6
CONTINUOUS
 62
     7
 10
287.1584972412
 20
153.3973054128
 30
0.0
 11
287.1584972412
 21
153.2228426175
 31
0.0
  0
LINE
  5
117
  8
0
  6
CONTINUOUS
 62
     7
 10
287.1584972412
 20
153.8678602414
 30
0.0
 11
287.1584972412
 21
153.5723523336
 31
0.0
  0
POLYLINE
  5
118
  8
0
  6
CONTINUOUS
 62
     7
 66
     1
 10
0.0
 20
0.0
 30
0.0
  0
VERTEX
  5
7C3
  8
0
  6
CONTINUOUS
 62
     7
 10
242.358567384
 20
152.8044656949
 30
0.0
  0
VERTEX
  5
7C4
  8
0
  6
CONTINUOUS
 62
     7
 10
242.2706952364
 20
152.5503770547
 30
0.0
  0
VERTEX
  5
7C5
  8
0
  6
CONTINUOUS
 62
     7
 10
242.0053800614
 20
152.19536583
 30
0.0
  0
VERTEX
  5
7C6
  8
0
  6
CONTINUOUS
 62
     7
 10
241.5963819296
 20
151.7636195855
 30
0.0
  0
VERTEX
  5
7C7
  8
0
  6
CONTINUOUS
 62
     7
 10
241.0379668743
 20
151.2616829114
 30
0.0
  0
VERTEX
  5
7C8
  8
0
  6
CONTINUOUS
 62
     7
 10
240.3020044834
 20
150.7062033849
 30
0.0
  0
VERTEX
  5
7C9
  8
0
  6
CONTINUOUS
 62
     7
 10
239.3999269278
 20
150.1580015855
 30
0.0
  0
VERTEX
  5
7CA
  8
0
  6
CONTINUOUS
 62
     7
 10
238.5335465939
 20
149.750174685
 30
0.0
  0
VERTEX
  5
7CB
  8
0
  6
CONTINUOUS
 62
     7
 10
237.5498732598
 20
149.4126931863
 30
0.0
  0
VERTEX
  5
7CC
  8
0
  6
CONTINUOUS
 62
     7
 10
236.9248053105
 20
149.2624239164
 30
0.0
  0
VERTEX
  5
7CD
  8
0
  6
CONTINUOUS
 62
     7
 10
236.2709989817
 20
149.1559700208
 30
0.0
  0
SEQEND
  5
B44
  8
0
  6
CONTINUOUS
 62
     7
  0
POLYLINE
  5
119
  8
0
  6
CONTINUOUS
 62
     7
 66
     1
 10
0.0
 20
0.0
 30
0.0
  0
VERTEX
  5
7CE
  8
0
  6
CONTINUOUS
 62
     7
 10
242.358567384
 20
152.8044656949
 30
0.0
  0
VERTEX
  5
7CF
  8
0
  6
CONTINUOUS
 62
     7
 10
242.358567384
 20
152.8592542844
 30
0.0
  0
VERTEX
  5
7D0
  8
0
  6
CONTINUOUS
 62
     7
 10
242.3583528073
 20
153.151948853
 30
0.0
  0
VERTEX
  5
7D1
  8
0
  6
CONTINUOUS
 62
     7
 10
242.3578759701
 20
153.2746569352
 30
0.0
  0
VERTEX
  5
7D2
  8
0
  6
CONTINUOUS
 62
     7
 10
242.3575243027
 20
153.2882885175
 30
0.0
  0
VERTEX
  5
7D3
  8
0
  6
CONTINUOUS
 62
     7
 10
242.357771662
 20
153.2754317956
 30
0.0
  0
SEQEND
  5
B43
  8
0
  6
CONTINUOUS
 62
     7
  0
POLYLINE
  5
11A
  8
0
  6
CONTINUOUS
 62
     7
 66
     1
 10
0.0
 20
0.0
 30
0.0
  0
VERTEX
  5
7D4
  8
0
  6
CONTINUOUS
 62
     7
 10
242.3584958584
 20
153.5718635755
 30
0.0
  0
VERTEX
  5
7D5
  8
0
  6
CONTINUOUS
 62
     7
 10
242.3437884123
 20
153.5241023736
 30
0.0
  0
VERTEX
  5
7D6
  8
0
  6
CONTINUOUS
 62
     7
 10
242.3585018189
 20
153.3973054128
 30
0.0
  0
SEQEND
  5
B42
  8
0
  6
CONTINUOUS
 62
     7
  0
POLYLINE
  5
11B
  8
0
  6
CONTINUOUS
 62
     7
 66
     1
 10
0.0
 20
0.0
 30
0.0
  0
VERTEX
  5
7D7
  8
0
  6
CONTINUOUS
 62
     7
 10
167.1584924729
 20
153.3973054128
 30
0.0
  0
VERTEX
  5
7D8
  8
0
  6
CONTINUOUS
 62
     7
 10
167.1732058794
 20
153.5241023736
 30
0.0
  0
VERTEX
  5
7D9
  8
0
  6
CONTINUOUS
 62
     7
 10
167.1584984333
 20
153.5718635755
 30
0.0
  0
SEQEND
  5
B41
  8
0
  6
CONTINUOUS
 62
     7
  0
POLYLINE
  5
11C
  8
0
  6
CONTINUOUS
 62
     7
 66
     1
 10
0.0
 20
0.0
 30
0.0
  0
VERTEX
  5
7DA
  8
0
  6
CONTINUOUS
 62
     7
 10
167.1584269078
 20
152.8046445089
 30
0.0
  0
VERTEX
  5
7DB
  8
0
  6
CONTINUOUS
 62
     7
 10
167.1584269078
 20
152.8093413549
 30
0.0
  0
VERTEX
  5
7DC
  8
0
  6
CONTINUOUS
 62
     7
 10
167.158596781
 20
153.1278387742
 30
0.0
  0
VERTEX
  5
7DD
  8
0
  6
CONTINUOUS
 62
     7
 10
167.1590616972
 20
153.2670811849
 30
0.0
  0
VERTEX
  5
7DE
  8
0
  6
CONTINUOUS
 62
     7
 10
167.1594461472
 20
153.2904462056
 30
0.0
  0
VERTEX
  5
7DF
  8
0
  6
CONTINUOUS
 62
     7
 10
167.1593954832
 20
153.2730356889
 30
0.0
  0
SEQEND
  5
B40
  8
0
  6
CONTINUOUS
 62
     7
  0
POLYLINE
  5
11D
  8
0
  6
CONTINUOUS
 62
     7
 66
     1
 10
0.0
 20
0.0
 30
0.0
  0
VERTEX
  5
7E0
  8
0
  6
CONTINUOUS
 62
     7
 10
173.2459953101
 20
149.1559700208
 30
0.0
  0
VERTEX
  5
7E1
  8
0
  6
CONTINUOUS
 62
     7
 10
172.231947449
 20
149.3431345658
 30
0.0
  0
VERTEX
  5
7E2
  8
0
  6
CONTINUOUS
 62
     7
 10
171.2466409476
 20
149.6473149495
 30
0.0
  0
VERTEX
  5
7E3
  8
0
  6
CONTINUOUS
 62
     7
 10
170.3778019221
 20
150.0237063604
 30
0.0
  0
VERTEX
  5
7E4
  8
0
  6
CONTINUOUS
 62
     7
 10
169.5845326455
 20
150.4652754502
 30
0.0
  0
VERTEX
  5
7E5
  8
0
  6
CONTINUOUS
 62
     7
 10
168.8270619185
 20
150.9856418805
 30
0.0
  0
VERTEX
  5
7E6
  8
0
  6
CONTINUOUS
 62
     7
 10
168.1857666046
 20
151.515199347
 30
0.0
  0
VERTEX
  5
7E7
  8
0
  6
CONTINUOUS
 62
     7
 10
167.6395317585
 20
152.0522073941
 30
0.0
  0
VERTEX
  5
7E8
  8
0
  6
CONTINUOUS
 62
     7
 10
167.4313893587
 20
152.290828629
 30
0.0
  0
VERTEX
  5
7E9
  8
0
  6
CONTINUOUS
 62
     7
 10
167.279275325
 20
152.4968580442
 30
0.0
  0
VERTEX
  5
7EA
  8
0
  6
CONTINUOUS
 62
     7
 10
167.1584269078
 20
152.8046445089
 30
0.0
  0
SEQEND
  5
B3F
  8
0
  6
CONTINUOUS
 62
     7
  0
POLYLINE
  5
11E
  8
0
  6
CONTINUOUS
 62
     7
 66
     1
 10
0.0
 20
0.0
 30
0.0
  0
VERTEX
  5
7EB
  8
0
  6
CONTINUOUS
 62
     7
 10
236.2709989817
 20
149.1559700208
 30
0.0
  0
VERTEX
  5
7EC
  8
0
  6
CONTINUOUS
 62
     7
 10
229.1816687257
 20
148.3550564485
 30
0.0
  0
VERTEX
  5
7ED
  8
0
  6
CONTINUOUS
 62
     7
 10
222.0646029384
 20
147.7276162343
 30
0.0
  0
VERTEX
  5
7EE
  8
0
  6
CONTINUOUS
 62
     7
 10
214.8916950495
 20
147.3010496335
 30
0.0
  0
VERTEX
  5
7EF
  8
0
  6
CONTINUOUS
 62
     7
 10
207.7047709421
 20
147.093834086
 30
0.0
  0
VERTEX
  5
7F0
  8
0
  6
CONTINUOUS
 62
     7
 10
202.6417342992
 20
147.0846370893
 30
0.0
  0
VERTEX
  5
7F1
  8
0
  6
CONTINUOUS
 62
     7
 10
197.5802077026
 20
147.1883074479
 30
0.0
  0
VERTEX
  5
7F2
  8
0
  6
CONTINUOUS
 62
     7
 10
192.5095422239
 20
147.404243155
 30
0.0
  0
VERTEX
  5
7F3
  8
0
  6
CONTINUOUS
 62
     7
 10
187.4472653539
 20
147.727997704
 30
0.0
  0
VERTEX
  5
7F4
  8
0
  6
CONTINUOUS
 62
     7
 10
180.3363850386
 20
148.354549809
 30
0.0
  0
VERTEX
  5
7F5
  8
0
  6
CONTINUOUS
 62
     7
 10
173.2459953101
 20
149.1559700208
 30
0.0
  0
SEQEND
  5
B3E
  8
0
  6
CONTINUOUS
 62
     7
  0
POLYLINE
  5
11F
  8
0
  6
CONTINUOUS
 62
     7
 66
     1
 10
0.0
 20
0.0
 30
0.0
  0
VERTEX
  5
7F6
  8
0
  6
CONTINUOUS
 62
     7
 10
173.4258970291
 20
154.4885412889
 30
0.0
  0
VERTEX
  5
7F7
  8
0
  6
CONTINUOUS
 62
     7
 10
172.4194219382
 20
154.7061876493
 30
0.0
  0
VERTEX
  5
7F8
  8
0
  6
CONTINUOUS
 62
     7
 10
171.4948287279
 20
154.8959986406
 30
0.0
  0
VERTEX
  5
7F9
  8
0
  6
CONTINUOUS
 62
     7
 10
170.7273384602
 20
155.0339714723
 30
0.0
  0
VERTEX
  5
7FA
  8
0
  6
CONTINUOUS
 62
     7
 10
170.0918545992
 20
155.1178948121
 30
0.0
  0
VERTEX
  5
7FB
  8
0
  6
CONTINUOUS
 62
     7
 10
169.7901269467
 20
155.1386491494
 30
0.0
  0
VERTEX
  5
7FC
  8
0
  6
CONTINUOUS
 62
     7
 10
169.5521345408
 20
155.1372245984
 30
0.0
  0
SEQEND
  5
B3D
  8
0
  6
CONTINUOUS
 62
     7
  0
ARC
  5
120
  8
0
  6
CONTINUOUS
 62
     7
 10
204.6421170342
 20
293.7204985194
 30
0.0
 40
142.6884378835733
 50
257.3630892534
 51
260.3830757402
  0
ARC
  5
121
  8
0
  6
CONTINUOUS
 62
     7
 10
204.1569485638
 20
297.3502100023
 30
0.0
 40
146.3873158463709
 50
279.6013439636
 51
282.6002988363
  0
POLYLINE
  5
122
  8
0
  6
CONTINUOUS
 62
     7
 66
     1
 10
0.0
 20
0.0
 30
0.0
  0
VERTEX
  5
7FD
  8
0
  6
CONTINUOUS
 62
     7
 10
239.964859751
 20
155.1372245984
 30
0.0
  0
VERTEX
  5
7FE
  8
0
  6
CONTINUOUS
 62
     7
 10
239.5457705529
 20
155.128313704
 30
0.0
  0
VERTEX
  5
7FF
  8
0
  6
CONTINUOUS
 62
     7
 10
238.9361402066
 20
155.0565973954
 30
0.0
  0
VERTEX
  5
800
  8
0
  6
CONTINUOUS
 62
     7
 10
238.1848951847
 20
154.9273387628
 30
0.0
  0
VERTEX
  5
801
  8
0
  6
CONTINUOUS
 62
     7
 10
237.267520097
 20
154.7421471315
 30
0.0
  0
VERTEX
  5
802
  8
0
  6
CONTINUOUS
 62
     7
 10
236.0910972626
 20
154.4885412889
 30
0.0
  0
SEQEND
  5
B3C
  8
0
  6
CONTINUOUS
 62
     7
  0
POLYLINE
  5
123
  8
0
  6
CONTINUOUS
 62
     7
 66
     1
 10
0.0
 20
0.0
 30
0.0
  0
VERTEX
  5
803
  8
0
  6
CONTINUOUS
 62
     7
 10
239.9648418696
 20
155.1373020845
 30
0.0
  0
VERTEX
  5
804
  8
0
  6
CONTINUOUS
 62
     7
 10
240.8819070132
 20
155.0824896531
 30
0.0
  0
VERTEX
  5
805
  8
0
  6
CONTINUOUS
 62
     7
 10
241.4830824406
 20
155.0279514032
 30
0.0
  0
VERTEX
  5
806
  8
0
  6
CONTINUOUS
 62
     7
 10
241.8406030209
 20
154.9722210603
 30
0.0
  0
VERTEX
  5
807
  8
0
  6
CONTINUOUS
 62
     7
 10
242.0553615363
 20
154.9156085687
 30
0.0
  0
VERTEX
  5
808
  8
0
  6
CONTINUOUS
 62
     7
 10
242.1371093066
 20
154.8571781354
 30
0.0
  0
VERTEX
  5
809
  8
0
  6
CONTINUOUS
 62
     7
 10
242.1339442999
 20
154.7996238904
 30
0.0
  0
VERTEX
  5
80A
  8
0
  6
CONTINUOUS
 62
     7
 10
242.1068420679
 20
154.7467724519
 30
0.0
  0
VERTEX
  5
80B
  8
0
  6
CONTINUOUS
 62
     7
 10
242.1046843798
 20
154.6999112802
 30
0.0
  0
VERTEX
  5
80C
  8
0
  6
CONTINUOUS
 62
     7
 10
242.1516200573
 20
154.5916156011
 30
0.0
  0
VERTEX
  5
80D
  8
0
  6
CONTINUOUS
 62
     7
 10
242.160855797
 20
154.5500592427
 30
0.0
  0
SEQEND
  5
B3B
  8
0
  6
CONTINUOUS
 62
     7
  0
ARC
  5
124
  8
0
  6
CONTINUOUS
 62
     7
 10
237.313478031
 20
153.7210880581
 30
0.0
 40
4.946513259028514
 50
3.5868728639
 51
8.4287436192
  0
POLYLINE
  5
125
  8
0
  6
CONTINUOUS
 62
     7
 66
     1
 10
0.0
 20
0.0
 30
0.0
  0
VERTEX
  5
80E
  8
0
  6
CONTINUOUS
 62
     7
 10
236.1616602213
 20
150.6527201371
 30
0.0
  0
VERTEX
  5
80F
  8
0
  6
CONTINUOUS
 62
     7
 10
237.1853550942
 20
150.8316473203
 30
0.0
  0
VERTEX
  5
810
  8
0
  6
CONTINUOUS
 62
     7
 10
238.1813367875
 20
151.1224285798
 30
0.0
  0
VERTEX
  5
811
  8
0
  6
CONTINUOUS
 62
     7
 10
239.0615871222
 20
151.4813737111
 30
0.0
  0
VERTEX
  5
812
  8
0
  6
CONTINUOUS
 62
     7
 10
239.8662170441
 20
151.9001797872
 30
0.0
  0
VERTEX
  5
813
  8
0
  6
CONTINUOUS
 62
     7
 10
240.6259378464
 20
152.3838834005
 30
0.0
  0
VERTEX
  5
814
  8
0
  6
CONTINUOUS
 62
     7
 10
241.2673404486
 20
152.8704599576
 30
0.0
  0
VERTEX
  5
815
  8
0
  6
CONTINUOUS
 62
     7
 10
241.7950591118
 20
153.3437565999
 30
0.0
  0
VERTEX
  5
816
  8
0
  6
CONTINUOUS
 62
     7
 10
242.1382924588
 20
153.736884995
 30
0.0
  0
VERTEX
  5
817
  8
0
  6
CONTINUOUS
 62
     7
 10
242.2263732226
 20
153.897549315
 30
0.0
  0
VERTEX
  5
818
  8
0
  6
CONTINUOUS
 62
     7
 10
242.2503015072
 20
154.0305451589
 30
0.0
  0
SEQEND
  5
B3A
  8
0
  6
CONTINUOUS
 62
     7
  0
POLYLINE
  5
126
  8
0
  6
CONTINUOUS
 62
     7
 66
     1
 10
0.0
 20
0.0
 30
0.0
  0
VERTEX
  5
819
  8
0
  6
CONTINUOUS
 62
     7
 10
236.1616602213
 20
150.6527201371
 30
0.0
  0
VERTEX
  5
81A
  8
0
  6
CONTINUOUS
 62
     7
 10
230.8108350308
 20
150.066126986
 30
0.0
  0
VERTEX
  5
81B
  8
0
  6
CONTINUOUS
 62
     7
 10
225.4446780355
 20
149.5681242185
 30
0.0
  0
VERTEX
  5
81C
  8
0
  6
CONTINUOUS
 62
     7
 10
220.0524231465
 20
149.1709725099
 30
0.0
  0
VERTEX
  5
81D
  8
0
  6
CONTINUOUS
 62
     7
 10
214.6493298979
 20
148.8859907823
 30
0.0
  0
VERTEX
  5
81E
  8
0
  6
CONTINUOUS
 62
     7
 10
208.7478401185
 20
148.7123266893
 30
0.0
  0
VERTEX
  5
81F
  8
0
  6
CONTINUOUS
 62
     7
 10
202.842691359
 20
148.6859933572
 30
0.0
  0
VERTEX
  5
820
  8
0
  6
CONTINUOUS
 62
     7
 10
196.9175284774
 20
148.8092676835
 30
0.0
  0
VERTEX
  5
821
  8
0
  6
CONTINUOUS
 62
     7
 10
190.9994831354
 20
149.0780369477
 30
0.0
  0
VERTEX
  5
822
  8
0
  6
CONTINUOUS
 62
     7
 10
186.5781968505
 20
149.3700520234
 30
0.0
  0
VERTEX
  5
823
  8
0
  6
CONTINUOUS
 62
     7
 10
182.1652537258
 20
149.7339503007
 30
0.0
  0
VERTEX
  5
824
  8
0
  6
CONTINUOUS
 62
     7
 10
177.7550121815
 20
150.1641706662
 30
0.0
  0
VERTEX
  5
825
  8
0
  6
CONTINUOUS
 62
     7
 10
173.3553340704
 20
150.6527201371
 30
0.0
  0
SEQEND
  5
B39
  8
0
  6
CONTINUOUS
 62
     7
  0
POLYLINE
  5
127
  8
0
  6
CONTINUOUS
 62
     7
 66
     1
 10
0.0
 20
0.0
 30
0.0
  0
VERTEX
  5
826
  8
0
  6
CONTINUOUS
 62
     7
 10
167.2666927845
 20
154.0305451589
 30
0.0
  0
VERTEX
  5
827
  8
0
  6
CONTINUOUS
 62
     7
 10
167.3410346777
 20
153.7958876329
 30
0.0
  0
VERTEX
  5
828
  8
0
  6
CONTINUOUS
 62
     7
 10
167.5982793839
 20
153.4704820352
 30
0.0
  0
VERTEX
  5
829
  8
0
  6
CONTINUOUS
 62
     7
 10
168.0080315144
 20
153.0768529611
 30
0.0
  0
VERTEX
  5
82A
  8
0
  6
CONTINUOUS
 62
     7
 10
168.575792578
 20
152.6130334573
 30
0.0
  0
VERTEX
  5
82B
  8
0
  6
CONTINUOUS
 62
     7
 10
169.3085184367
 20
152.1067933278
 30
0.0
  0
VERTEX
  5
82C
  8
0
  6
CONTINUOUS
 62
     7
 10
170.2047100336
 20
151.6021923261
 30
0.0
  0
VERTEX
  5
82D
  8
0
  6
CONTINUOUS
 62
     7
 10
171.0848232777
 20
151.2146488862
 30
0.0
  0
VERTEX
  5
82E
  8
0
  6
CONTINUOUS
 62
     7
 10
172.0825603278
 20
150.8933262067
 30
0.0
  0
VERTEX
  5
82F
  8
0
  6
CONTINUOUS
 62
     7
 10
172.705369261
 20
150.7525579171
 30
0.0
  0
VERTEX
  5
830
  8
0
  6
CONTINUOUS
 62
     7
 10
173.3553340704
 20
150.6527201371
 30
0.0
  0
SEQEND
  5
B38
  8
0
  6
CONTINUOUS
 62
     7
  0
POLYLINE
  5
128
  8
0
  6
CONTINUOUS
 62
     7
 66
     1
 10
0.0
 20
0.0
 30
0.0
  0
VERTEX
  5
831
  8
0
  6
CONTINUOUS
 62
     7
 10
167.2666927845
 20
154.0305511193
 30
0.0
  0
VERTEX
  5
832
  8
0
  6
CONTINUOUS
 62
     7
 10
167.2950109513
 20
154.3268875318
 30
0.0
  0
VERTEX
  5
833
  8
0
  6
CONTINUOUS
 62
     7
 10
167.3108389647
 20
154.4515625673
 30
0.0
  0
SEQEND
  5
B37
  8
0
  6
CONTINUOUS
 62
     7
  0
POLYLINE
  5
129
  8
0
  6
CONTINUOUS
 62
     7
 66
     1
 10
0.0
 20
0.0
 30
0.0
  0
VERTEX
  5
834
  8
0
  6
CONTINUOUS
 62
     7
 10
167.3562070401
 20
154.5495526033
 30
0.0
  0
VERTEX
  5
835
  8
0
  6
CONTINUOUS
 62
     7
 10
167.366318968
 20
154.5941964822
 30
0.0
  0
VERTEX
  5
836
  8
0
  6
CONTINUOUS
 62
     7
 10
167.412309912
 20
154.6999112802
 30
0.0
  0
VERTEX
  5
837
  8
0
  6
CONTINUOUS
 62
     7
 10
167.4101522238
 20
154.7467724519
 30
0.0
  0
VERTEX
  5
838
  8
0
  6
CONTINUOUS
 62
     7
 10
167.3830499918
 20
154.7996238904
 30
0.0
  0
VERTEX
  5
839
  8
0
  6
CONTINUOUS
 62
     7
 10
167.3798849852
 20
154.8571781354
 30
0.0
  0
VERTEX
  5
83A
  8
0
  6
CONTINUOUS
 62
     7
 10
167.4616327555
 20
154.9156085687
 30
0.0
  0
VERTEX
  5
83B
  8
0
  6
CONTINUOUS
 62
     7
 10
167.6763912709
 20
154.9722210603
 30
0.0
  0
VERTEX
  5
83C
  8
0
  6
CONTINUOUS
 62
     7
 10
168.0339118512
 20
155.0279514032
 30
0.0
  0
VERTEX
  5
83D
  8
0
  6
CONTINUOUS
 62
     7
 10
168.6350872786
 20
155.0824896531
 30
0.0
  0
VERTEX
  5
83E
  8
0
  6
CONTINUOUS
 62
     7
 10
169.5521524222
 20
155.1373020845
 30
0.0
  0
SEQEND
  5
B36
  8
0
  6
CONTINUOUS
 62
     7
  0
LINE
  5
12A
  8
0
  6
CONTINUOUS
 62
     7
 10
242.3584958584
 20
153.5723523336
 30
0.0
 11
242.3584958584
 21
153.8780526357
 31
0.0
  0
LINE
  5
12B
  8
0
  6
CONTINUOUS
 62
     7
 10
167.1584984333
 20
153.3973054128
 30
0.0
 11
167.1584984333
 21
153.2228426175
 31
0.0
  0
LINE
  5
12C
  8
0
  6
CONTINUOUS
 62
     7
 10
167.1584984333
 20
153.8678602414
 30
0.0
 11
167.1584984333
 21
153.5723523336
 31
0.0
  0
ARC
  5
12D
  8
0
  6
CONTINUOUS
 62
     7
 10
48.0584971459
 20
151.77655309
 30
0.0
 40
1.00000000000001
 50
138.1768700679
 51
180.0
  0
LINE
  5
12E
  8
0
  6
CONTINUOUS
 62
     7
 10
47.0584949524
 20
151.7765537934
 30
0.0
 11
47.0584949524
 21
150.5253986554
 31
0.0
  0
LINE
  5
12F
  8
0
  6
CONTINUOUS
 62
     7
 10
47.8584965737
 20
150.5253986554
 30
0.0
 11
47.8584965737
 21
151.8369392591
 31
0.0
  0
LINE
  5
130
  8
0
  6
CONTINUOUS
 62
     7
 10
47.0584949524
 20
148.560692473
 30
0.0
 11
47.0584949524
 21
150.5253986554
 31
0.0
  0
LINE
  5
131
  8
0
  6
CONTINUOUS
 62
     7
 10
47.8584965737
 20
150.5253986554
 30
0.0
 11
47.8584965737
 21
148.560692473
 31
0.0
  0
LINE
  5
132
  8
0
  6
CONTINUOUS
 62
     7
 10
47.0584949524
 20
142.7384392457
 30
0.0
 11
47.0584949524
 21
148.560692473
 31
0.0
  0
LINE
  5
133
  8
0
  6
CONTINUOUS
 62
     7
 10
47.8584965737
 20
148.560692473
 30
0.0
 11
47.8584965737
 21
142.7384392457
 31
0.0
  0
LINE
  5
134
  8
0
  6
CONTINUOUS
 62
     7
 10
47.0584949524
 20
142.7384392457
 30
0.0
 11
47.0584949524
 21
142.4738482671
 31
0.0
  0
LINE
  5
135
  8
0
  6
CONTINUOUS
 62
     7
 10
47.8584965737
 20
142.4738482671
 30
0.0
 11
47.8584965737
 21
142.7384392457
 31
0.0
  0
LINE
  5
136
  8
0
  6
CONTINUOUS
 62
     7
 10
47.0584949524
 20
140.5814782815
 30
0.0
 11
47.0584949524
 21
142.4738482671
 31
0.0
  0
LINE
  5
137
  8
0
  6
CONTINUOUS
 62
     7
 10
47.8584965737
 20
142.4738482671
 30
0.0
 11
47.8584965737
 21
140.5814782815
 31
0.0
  0
LINE
  5
138
  8
0
  6
CONTINUOUS
 62
     7
 10
47.0584949524
 20
137.1695057588
 30
0.0
 11
47.0584949524
 21
140.5814782815
 31
0.0
  0
LINE
  5
139
  8
0
  6
CONTINUOUS
 62
     7
 10
47.8584965737
 20
140.5814782815
 30
0.0
 11
47.8584965737
 21
137.1695057588
 31
0.0
  0
LINE
  5
13A
  8
0
  6
CONTINUOUS
 62
     7
 10
47.0584949524
 20
135.2737681108
 30
0.0
 11
47.0584949524
 21
137.1695057588
 31
0.0
  0
LINE
  5
13B
  8
0
  6
CONTINUOUS
 62
     7
 10
47.8584965737
 20
137.1695057588
 30
0.0
 11
47.8584965737
 21
135.2737681108
 31
0.0
  0
LINE
  5
13C
  8
0
  6
CONTINUOUS
 62
     7
 10
47.8584965737
 20
133.2737700181
 30
0.0
 11
47.0584949524
 21
133.2737700181
 31
0.0
  0
LINE
  5
13D
  8
0
  6
CONTINUOUS
 62
     7
 10
47.0584949524
 20
133.2737700181
 30
0.0
 11
47.0584949524
 21
135.2737681108
 31
0.0
  0
LINE
  5
13E
  8
0
  6
CONTINUOUS
 62
     7
 10
47.8584965737
 20
135.2737681108
 30
0.0
 11
47.8584965737
 21
133.2737700181
 31
0.0
  0
LINE
  5
13F
  8
0
  6
CONTINUOUS
 62
     7
 10
42.2584971459
 20
136.073769732
 30
0.0
 11
42.2584971459
 21
128.6737696366
 31
0.0
  0
LINE
  5
140
  8
0
  6
CONTINUOUS
 62
     7
 10
52.2584995301
 20
136.073769732
 30
0.0
 11
52.2584995301
 21
128.6737696366
 31
0.0
  0
LINE
  5
141
  8
0
  6
CONTINUOUS
 62
     7
 10
50.2585014374
 20
126.6737655835
 30
0.0
 11
44.2584952385
 21
126.6737655835
 31
0.0
  0
ARC
  5
142
  8
0
  6
CONTINUOUS
 62
     7
 10
50.2584971459
 20
128.6737671571
 30
0.0
 40
2.000000000000014
 50
270.0
 51
0.0
  0
ARC
  5
143
  8
0
  6
CONTINUOUS
 62
     7
 10
44.2584971459
 20
128.6737671571
 30
0.0
 40
2.000000000000014
 50
180.0
 51
270.0
  0
LINE
  5
144
  8
0
  6
CONTINUOUS
 62
     7
 10
47.0584949524
 20
137.0737687783
 30
0.0
 11
42.2584971459
 21
137.0737687783
 31
0.0
  0
LINE
  5
145
  8
0
  6
CONTINUOUS
 62
     7
 10
42.2584971459
 20
137.0737687783
 30
0.0
 11
42.2584971459
 21
136.073769732
 31
0.0
  0
LINE
  5
146
  8
0
  6
CONTINUOUS
 62
     7
 10
52.2584995301
 20
137.0737687783
 30
0.0
 11
47.8584965737
 21
137.0737687783
 31
0.0
  0
LINE
  5
147
  8
0
  6
CONTINUOUS
 62
     7
 10
52.2584995301
 20
137.0737687783
 30
0.0
 11
52.2584995301
 21
136.073769732
 31
0.0
  0
LINE
  5
148
  8
0
  6
CONTINUOUS
 62
     7
 10
167.8584983618
 20
150.5253986554
 30
0.0
 11
167.8584983618
 21
151.8369392591
 31
0.0
  0
LINE
  5
149
  8
0
  6
CONTINUOUS
 62
     7
 10
167.0584967406
 20
151.7765537934
 30
0.0
 11
167.0584967406
 21
150.5253986554
 31
0.0
  0
ARC
  5
14A
  8
0
  6
CONTINUOUS
 62
     7
 10
168.0584971459
 20
151.77655309
 30
0.0
 40
1.0
 50
138.1768700679
 51
180.0
  0
LINE
  5
14B
  8
0
  6
CONTINUOUS
 62
     7
 10
167.8584983618
 20
150.5253986554
 30
0.0
 11
167.8584983618
 21
148.560692473
 31
0.0
  0
LINE
  5
14C
  8
0
  6
CONTINUOUS
 62
     7
 10
167.0584967406
 20
148.560692473
 30
0.0
 11
167.0584967406
 21
150.5253986554
 31
0.0
  0
LINE
  5
14D
  8
0
  6
CONTINUOUS
 62
     7
 10
167.8584983618
 20
148.560692473
 30
0.0
 11
167.8584983618
 21
142.7384392457
 31
0.0
  0
LINE
  5
14E
  8
0
  6
CONTINUOUS
 62
     7
 10
167.0584967406
 20
142.7384392457
 30
0.0
 11
167.0584967406
 21
148.560692473
 31
0.0
  0
LINE
  5
14F
  8
0
  6
CONTINUOUS
 62
     7
 10
167.8584983618
 20
142.4738482671
 30
0.0
 11
167.8584983618
 21
142.7384392457
 31
0.0
  0
LINE
  5
150
  8
0
  6
CONTINUOUS
 62
     7
 10
167.0584967406
 20
142.7384392457
 30
0.0
 11
167.0584967406
 21
142.4738482671
 31
0.0
  0
LINE
  5
151
  8
0
  6
CONTINUOUS
 62
     7
 10
167.8584983618
 20
142.4738482671
 30
0.0
 11
167.8584983618
 21
140.5814782815
 31
0.0
  0
LINE
  5
152
  8
0
  6
CONTINUOUS
 62
     7
 10
167.0584967406
 20
140.5814782815
 30
0.0
 11
167.0584967406
 21
142.4738482671
 31
0.0
  0
LINE
  5
153
  8
0
  6
CONTINUOUS
 62
     7
 10
167.8584983618
 20
140.5814782815
 30
0.0
 11
167.8584983618
 21
137.1695057588
 31
0.0
  0
LINE
  5
154
  8
0
  6
CONTINUOUS
 62
     7
 10
167.0584967406
 20
137.1695057588
 30
0.0
 11
167.0584967406
 21
140.5814782815
 31
0.0
  0
LINE
  5
155
  8
0
  6
CONTINUOUS
 62
     7
 10
167.8584983618
 20
133.2737700181
 30
0.0
 11
167.0584967406
 21
133.2737700181
 31
0.0
  0
LINE
  5
156
  8
0
  6
CONTINUOUS
 62
     7
 10
167.8584983618
 20
135.2737681108
 30
0.0
 11
167.8584983618
 21
133.2737700181
 31
0.0
  0
LINE
  5
157
  8
0
  6
CONTINUOUS
 62
     7
 10
167.0584967406
 20
133.2737700181
 30
0.0
 11
167.0584967406
 21
135.2737681108
 31
0.0
  0
LINE
  5
158
  8
0
  6
CONTINUOUS
 62
     7
 10
167.8584983618
 20
137.1695057588
 30
0.0
 11
167.8584983618
 21
135.2737681108
 31
0.0
  0
LINE
  5
159
  8
0
  6
CONTINUOUS
 62
     7
 10
167.0584967406
 20
135.2737681108
 30
0.0
 11
167.0584967406
 21
137.1695057588
 31
0.0
  0
LINE
  5
15A
  8
0
  6
CONTINUOUS
 62
     7
 10
162.2584959538
 20
136.073769732
 30
0.0
 11
162.2584959538
 21
128.6737696366
 31
0.0
  0
LINE
  5
15B
  8
0
  6
CONTINUOUS
 62
     7
 10
172.258498338
 20
136.073769732
 30
0.0
 11
172.258498338
 21
128.6737696366
 31
0.0
  0
ARC
  5
15C
  8
0
  6
CONTINUOUS
 62
     7
 10
164.2584971459
 20
128.6737671571
 30
0.0
 40
2.000000000000014
 50
180.0
 51
270.0
  0
LINE
  5
15D
  8
0
  6
CONTINUOUS
 62
     7
 10
170.2584972651
 20
126.6737655835
 30
0.0
 11
164.2584970267
 21
126.6737655835
 31
0.0
  0
ARC
  5
15E
  8
0
  6
CONTINUOUS
 62
     7
 10
170.2584971459
 20
128.6737671571
 30
0.0
 40
2.000000000000014
 50
270.0
 51
0.0
  0
LINE
  5
15F
  8
0
  6
CONTINUOUS
 62
     7
 10
172.258498338
 20
137.0737687783
 30
0.0
 11
167.8584983618
 21
137.0737687783
 31
0.0
  0
LINE
  5
160
  8
0
  6
CONTINUOUS
 62
     7
 10
172.258498338
 20
137.0737687783
 30
0.0
 11
172.258498338
 21
136.073769732
 31
0.0
  0
LINE
  5
161
  8
0
  6
CONTINUOUS
 62
     7
 10
167.0584967406
 20
137.0737687783
 30
0.0
 11
162.2584959538
 21
137.0737687783
 31
0.0
  0
LINE
  5
162
  8
0
  6
CONTINUOUS
 62
     7
 10
162.2584959538
 20
137.0737687783
 30
0.0
 11
162.2584959538
 21
136.073769732
 31
0.0
  0
LINE
  5
163
  8
0
  6
CONTINUOUS
 62
     7
 10
287.8584941895
 20
150.5253986554
 30
0.0
 11
287.8584941895
 21
151.8369392591
 31
0.0
  0
ARC
  5
164
  8
0
  6
CONTINUOUS
 62
     7
 10
288.0584971459
 20
151.77655309
 30
0.0
 40
1.00000000000001
 50
138.1768700679
 51
180.0
  0
LINE
  5
165
  8
0
  6
CONTINUOUS
 62
     7
 10
287.0584985287
 20
151.7765537934
 30
0.0
 11
287.0584985287
 21
150.5253986554
 31
0.0
  0
LINE
  5
166
  8
0
  6
CONTINUOUS
 62
     7
 10
287.8584941895
 20
150.5253986554
 30
0.0
 11
287.8584941895
 21
148.560692473
 31
0.0
  0
LINE
  5
167
  8
0
  6
CONTINUOUS
 62
     7
 10
287.0584985287
 20
148.560692473
 30
0.0
 11
287.0584985287
 21
150.5253986554
 31
0.0
  0
LINE
  5
168
  8
0
  6
CONTINUOUS
 62
     7
 10
287.8584941895
 20
148.560692473
 30
0.0
 11
287.8584941895
 21
142.7384392457
 31
0.0
  0
LINE
  5
169
  8
0
  6
CONTINUOUS
 62
     7
 10
287.0584985287
 20
142.7384392457
 30
0.0
 11
287.0584985287
 21
148.560692473
 31
0.0
  0
LINE
  5
16A
  8
0
  6
CONTINUOUS
 62
     7
 10
287.8584941895
 20
142.4738482671
 30
0.0
 11
287.8584941895
 21
142.7384392457
 31
0.0
  0
LINE
  5
16B
  8
0
  6
CONTINUOUS
 62
     7
 10
287.0584985287
 20
142.7384392457
 30
0.0
 11
287.0584985287
 21
142.4738482671
 31
0.0
  0
LINE
  5
16C
  8
0
  6
CONTINUOUS
 62
     7
 10
287.8584941895
 20
142.4738482671
 30
0.0
 11
287.8584941895
 21
140.5814782815
 31
0.0
  0
LINE
  5
16D
  8
0
  6
CONTINUOUS
 62
     7
 10
287.0584985287
 20
140.5814782815
 30
0.0
 11
287.0584985287
 21
142.4738482671
 31
0.0
  0
LINE
  5
16E
  8
0
  6
CONTINUOUS
 62
     7
 10
287.8584941895
 20
140.5814782815
 30
0.0
 11
287.8584941895
 21
137.1695057588
 31
0.0
  0
LINE
  5
16F
  8
0
  6
CONTINUOUS
 62
     7
 10
287.0584985287
 20
137.1695057588
 30
0.0
 11
287.0584985287
 21
140.5814782815
 31
0.0
  0
LINE
  5
170
  8
0
  6
CONTINUOUS
 62
     7
 10
287.8584941895
 20
133.2737700181
 30
0.0
 11
287.0584985287
 21
133.2737700181
 31
0.0
  0
LINE
  5
171
  8
0
  6
CONTINUOUS
 62
     7
 10
287.8584941895
 20
135.2737681108
 30
0.0
 11
287.8584941895
 21
133.2737700181
 31
0.0
  0
LINE
  5
172
  8
0
  6
CONTINUOUS
 62
     7
 10
287.0584985287
 20
133.2737700181
 30
0.0
 11
287.0584985287
 21
135.2737681108
 31
0.0
  0
LINE
  5
173
  8
0
  6
CONTINUOUS
 62
     7
 10
287.8584941895
 20
137.1695057588
 30
0.0
 11
287.8584941895
 21
135.2737681108
 31
0.0
  0
LINE
  5
174
  8
0
  6
CONTINUOUS
 62
     7
 10
287.0584985287
 20
135.2737681108
 30
0.0
 11
287.0584985287
 21
137.1695057588
 31
0.0
  0
LINE
  5
175
  8
0
  6
CONTINUOUS
 62
     7
 10
282.2584947617
 20
136.073769732
 30
0.0
 11
282.2584947617
 21
128.6737696366
 31
0.0
  0
LINE
  5
176
  8
0
  6
CONTINUOUS
 62
     7
 10
292.2584971459
 20
136.073769732
 30
0.0
 11
292.2584971459
 21
128.6737696366
 31
0.0
  0
LINE
  5
177
  8
0
  6
CONTINUOUS
 62
     7
 10
290.2584990532
 20
126.6737655835
 30
0.0
 11
284.2584988148
 21
126.6737655835
 31
0.0
  0
ARC
  5
178
  8
0
  6
CONTINUOUS
 62
     7
 10
290.2584971459
 20
128.6737671571
 30
0.0
 40
2.000000000000014
 50
270.0
 51
0.0
  0
ARC
  5
179
  8
0
  6
CONTINUOUS
 62
     7
 10
284.2584971459
 20
128.6737671571
 30
0.0
 40
2.000000000000014
 50
180.0
 51
270.0
  0
LINE
  5
17A
  8
0
  6
CONTINUOUS
 62
     7
 10
292.2584971459
 20
137.0737687783
 30
0.0
 11
287.8584941895
 21
137.0737687783
 31
0.0
  0
LINE
  5
17B
  8
0
  6
CONTINUOUS
 62
     7
 10
292.2584971459
 20
137.0737687783
 30
0.0
 11
292.2584971459
 21
136.073769732
 31
0.0
  0
LINE
  5
17C
  8
0
  6
CONTINUOUS
 62
     7
 10
287.0584985287
 20
137.0737687783
 30
0.0
 11
282.2584947617
 21
137.0737687783
 31
0.0
  0
LINE
  5
17D
  8
0
  6
CONTINUOUS
 62
     7
 10
282.2584947617
 20
137.0737687783
 30
0.0
 11
282.2584947617
 21
136.073769732
 31
0.0
  0
ARC
  5
17E
  8
0
  6
CONTINUOUS
 62
     7
 10
121.4584971459
 20
151.77655309
 30
0.0
 40
1.0
 50
0.0
 51
42.187202839
  0
LINE
  5
17F
  8
0
  6
CONTINUOUS
 62
     7
 10
122.4584957631
 20
151.7765537934
 30
0.0
 11
122.4584957631
 21
150.5253986554
 31
0.0
  0
LINE
  5
180
  8
0
  6
CONTINUOUS
 62
     7
 10
121.6585001023
 20
150.5253986554
 30
0.0
 11
121.6585001023
 21
151.8291906552
 31
0.0
  0
LINE
  5
181
  8
0
  6
CONTINUOUS
 62
     7
 10
122.4584957631
 20
148.560692473
 30
0.0
 11
122.4584957631
 21
150.5253986554
 31
0.0
  0
LINE
  5
182
  8
0
  6
CONTINUOUS
 62
     7
 10
121.6585001023
 20
150.5253986554
 30
0.0
 11
121.6585001023
 21
148.560692473
 31
0.0
  0
LINE
  5
183
  8
0
  6
CONTINUOUS
 62
     7
 10
122.4584957631
 20
142.7384392457
 30
0.0
 11
122.4584957631
 21
148.560692473
 31
0.0
  0
LINE
  5
184
  8
0
  6
CONTINUOUS
 62
     7
 10
121.6585001023
 20
148.560692473
 30
0.0
 11
121.6585001023
 21
142.7384392457
 31
0.0
  0
LINE
  5
185
  8
0
  6
CONTINUOUS
 62
     7
 10
122.4584957631
 20
142.7384392457
 30
0.0
 11
122.4584957631
 21
142.4738482671
 31
0.0
  0
LINE
  5
186
  8
0
  6
CONTINUOUS
 62
     7
 10
121.6585001023
 20
142.4738482671
 30
0.0
 11
121.6585001023
 21
142.7384392457
 31
0.0
  0
LINE
  5
187
  8
0
  6
CONTINUOUS
 62
     7
 10
122.4584957631
 20
140.5814782815
 30
0.0
 11
122.4584957631
 21
142.4738482671
 31
0.0
  0
LINE
  5
188
  8
0
  6
CONTINUOUS
 62
     7
 10
121.6585001023
 20
142.4738482671
 30
0.0
 11
121.6585001023
 21
140.5814782815
 31
0.0
  0
LINE
  5
189
  8
0
  6
CONTINUOUS
 62
     7
 10
122.4584957631
 20
137.1695057588
 30
0.0
 11
122.4584957631
 21
140.5814782815
 31
0.0
  0
LINE
  5
18A
  8
0
  6
CONTINUOUS
 62
     7
 10
121.6585001023
 20
140.5814782815
 30
0.0
 11
121.6585001023
 21
137.1695057588
 31
0.0
  0
LINE
  5
18B
  8
0
  6
CONTINUOUS
 62
     7
 10
121.6585001023
 20
133.2737700181
 30
0.0
 11
122.4584957631
 21
133.2737700181
 31
0.0
  0
LINE
  5
18C
  8
0
  6
CONTINUOUS
 62
     7
 10
122.4584957631
 20
133.2737700181
 30
0.0
 11
122.4584957631
 21
135.2737681108
 31
0.0
  0
LINE
  5
18D
  8
0
  6
CONTINUOUS
 62
     7
 10
121.6585001023
 20
135.2737681108
 30
0.0
 11
121.6585001023
 21
133.2737700181
 31
0.0
  0
LINE
  5
18E
  8
0
  6
CONTINUOUS
 62
     7
 10
122.4584957631
 20
135.2737681108
 30
0.0
 11
122.4584957631
 21
137.1695057588
 31
0.0
  0
LINE
  5
18F
  8
0
  6
CONTINUOUS
 62
     7
 10
121.6585001023
 20
137.1695057588
 30
0.0
 11
121.6585001023
 21
135.2737681108
 31
0.0
  0
LINE
  5
190
  8
0
  6
CONTINUOUS
 62
     7
 10
117.2584971459
 20
136.073769732
 30
0.0
 11
117.2584971459
 21
128.6737696366
 31
0.0
  0
LINE
  5
191
  8
0
  6
CONTINUOUS
 62
     7
 10
127.2584995301
 20
136.073769732
 30
0.0
 11
127.2584995301
 21
128.6737696366
 31
0.0
  0
LINE
  5
192
  8
0
  6
CONTINUOUS
 62
     7
 10
119.2584952385
 20
126.6737655835
 30
0.0
 11
125.2584954769
 21
126.6737655835
 31
0.0
  0
ARC
  5
193
  8
0
  6
CONTINUOUS
 62
     7
 10
119.2584971459
 20
128.6737671571
 30
0.0
 40
2.000000000000014
 50
180.0
 51
270.0
  0
ARC
  5
194
  8
0
  6
CONTINUOUS
 62
     7
 10
125.2584971459
 20
128.6737671571
 30
0.0
 40
2.000000000000014
 50
270.0
 51
0.0
  0
LINE
  5
195
  8
0
  6
CONTINUOUS
 62
     7
 10
122.4584957631
 20
137.0737687783
 30
0.0
 11
127.2584995301
 21
137.0737687783
 31
0.0
  0
LINE
  5
196
  8
0
  6
CONTINUOUS
 62
     7
 10
127.2584995301
 20
137.0737687783
 30
0.0
 11
127.2584995301
 21
136.073769732
 31
0.0
  0
LINE
  5
197
  8
0
  6
CONTINUOUS
 62
     7
 10
117.2584971459
 20
137.0737687783
 30
0.0
 11
121.6585001023
 21
137.0737687783
 31
0.0
  0
LINE
  5
198
  8
0
  6
CONTINUOUS
 62
     7
 10
117.2584971459
 20
137.0737687783
 30
0.0
 11
117.2584971459
 21
136.073769732
 31
0.0
  0
ARC
  5
199
  8
0
  6
CONTINUOUS
 62
     7
 10
241.4584971459
 20
151.77655309
 30
0.0
 40
1.0
 50
0.0
 51
42.187202839
  0
LINE
  5
19A
  8
0
  6
CONTINUOUS
 62
     7
 10
241.6584959299
 20
150.5253986554
 30
0.0
 11
241.6584959299
 21
151.8291906552
 31
0.0
  0
LINE
  5
19B
  8
0
  6
CONTINUOUS
 62
     7
 10
242.4584975512
 20
151.7765537934
 30
0.0
 11
242.4584975512
 21
150.5253986554
 31
0.0
  0
LINE
  5
19C
  8
0
  6
CONTINUOUS
 62
     7
 10
241.6584959299
 20
150.5253986554
 30
0.0
 11
241.6584959299
 21
148.560692473
 31
0.0
  0
LINE
  5
19D
  8
0
  6
CONTINUOUS
 62
     7
 10
242.4584975512
 20
148.560692473
 30
0.0
 11
242.4584975512
 21
150.5253986554
 31
0.0
  0
LINE
  5
19E
  8
0
  6
CONTINUOUS
 62
     7
 10
241.6584959299
 20
148.560692473
 30
0.0
 11
241.6584959299
 21
142.7384392457
 31
0.0
  0
LINE
  5
19F
  8
0
  6
CONTINUOUS
 62
     7
 10
242.4584975512
 20
142.7384392457
 30
0.0
 11
242.4584975512
 21
148.560692473
 31
0.0
  0
LINE
  5
1A0
  8
0
  6
CONTINUOUS
 62
     7
 10
241.6584959299
 20
142.4738482671
 30
0.0
 11
241.6584959299
 21
142.7384392457
 31
0.0
  0
LINE
  5
1A1
  8
0
  6
CONTINUOUS
 62
     7
 10
242.4584975512
 20
142.7384392457
 30
0.0
 11
242.4584975512
 21
142.4738482671
 31
0.0
  0
LINE
  5
1A2
  8
0
  6
CONTINUOUS
 62
     7
 10
241.6584959299
 20
142.4738482671
 30
0.0
 11
241.6584959299
 21
140.5814782815
 31
0.0
  0
LINE
  5
1A3
  8
0
  6
CONTINUOUS
 62
     7
 10
242.4584975512
 20
140.5814782815
 30
0.0
 11
242.4584975512
 21
142.4738482671
 31
0.0
  0
LINE
  5
1A4
  8
0
  6
CONTINUOUS
 62
     7
 10
241.6584959299
 20
140.5814782815
 30
0.0
 11
241.6584959299
 21
137.1695057588
 31
0.0
  0
LINE
  5
1A5
  8
0
  6
CONTINUOUS
 62
     7
 10
242.4584975512
 20
137.1695057588
 30
0.0
 11
242.4584975512
 21
140.5814782815
 31
0.0
  0
LINE
  5
1A6
  8
0
  6
CONTINUOUS
 62
     7
 10
241.6584959299
 20
137.1695057588
 30
0.0
 11
241.6584959299
 21
135.2737681108
 31
0.0
  0
LINE
  5
1A7
  8
0
  6
CONTINUOUS
 62
     7
 10
242.4584975512
 20
135.2737681108
 30
0.0
 11
242.4584975512
 21
137.1695057588
 31
0.0
  0
LINE
  5
1A8
  8
0
  6
CONTINUOUS
 62
     7
 10
241.6584959299
 20
133.2737700181
 30
0.0
 11
242.4584975512
 21
133.2737700181
 31
0.0
  0
LINE
  5
1A9
  8
0
  6
CONTINUOUS
 62
     7
 10
241.6584959299
 20
135.2737681108
 30
0.0
 11
241.6584959299
 21
133.2737700181
 31
0.0
  0
LINE
  5
1AA
  8
0
  6
CONTINUOUS
 62
     7
 10
242.4584975512
 20
133.2737700181
 30
0.0
 11
242.4584975512
 21
135.2737681108
 31
0.0
  0
ARC
  5
1AB
  8
0
  6
CONTINUOUS
 62
     7
 10
239.2584971459
 20
128.6737671571
 30
0.0
 40
2.000000000000014
 50
180.0
 51
270.0
  0
LINE
  5
1AC
  8
0
  6
CONTINUOUS
 62
     7
 10
237.2584959538
 20
136.073769732
 30
0.0
 11
237.2584959538
 21
128.6737696366
 31
0.0
  0
LINE
  5
1AD
  8
0
  6
CONTINUOUS
 62
     7
 10
247.258498338
 20
136.073769732
 30
0.0
 11
247.258498338
 21
128.6737696366
 31
0.0
  0
LINE
  5
1AE
  8
0
  6
CONTINUOUS
 62
     7
 10
239.2584970267
 20
126.6737655835
 30
0.0
 11
245.2584972651
 21
126.6737655835
 31
0.0
  0
ARC
  5
1AF
  8
0
  6
CONTINUOUS
 62
     7
 10
245.2584971459
 20
128.6737671571
 30
0.0
 40
2.000000000000014
 50
270.0
 51
0.0
  0
LINE
  5
1B0
  8
0
  6
CONTINUOUS
 62
     7
 10
237.2584959538
 20
137.0737687783
 30
0.0
 11
241.6584959299
 21
137.0737687783
 31
0.0
  0
LINE
  5
1B1
  8
0
  6
CONTINUOUS
 62
     7
 10
237.2584959538
 20
137.0737687783
 30
0.0
 11
237.2584959538
 21
136.073769732
 31
0.0
  0
LINE
  5
1B2
  8
0
  6
CONTINUOUS
 62
     7
 10
242.4584975512
 20
137.0737687783
 30
0.0
 11
247.258498338
 21
137.0737687783
 31
0.0
  0
LINE
  5
1B3
  8
0
  6
CONTINUOUS
 62
     7
 10
247.258498338
 20
137.0737687783
 30
0.0
 11
247.258498338
 21
136.073769732
 31
0.0
  0
ARC
  5
1B4
  8
0
  6
CONTINUOUS
 62
     7
 10
361.4584971459
 20
151.77655309
 30
0.0
 40
1.000000000000057
 50
0.0
 51
42.187202839
  0
LINE
  5
1B5
  8
0
  6
CONTINUOUS
 62
     7
 10
361.6584977181
 20
150.5253986554
 30
0.0
 11
361.6584977181
 21
151.8291906552
 31
0.0
  0
LINE
  5
1B6
  8
0
  6
CONTINUOUS
 62
     7
 10
362.4584993393
 20
151.7765537934
 30
0.0
 11
362.4584993393
 21
150.5253986554
 31
0.0
  0
LINE
  5
1B7
  8
0
  6
CONTINUOUS
 62
     7
 10
361.6584977181
 20
150.5253986554
 30
0.0
 11
361.6584977181
 21
148.560692473
 31
0.0
  0
LINE
  5
1B8
  8
0
  6
CONTINUOUS
 62
     7
 10
362.4584993393
 20
148.560692473
 30
0.0
 11
362.4584993393
 21
150.5253986554
 31
0.0
  0
LINE
  5
1B9
  8
0
  6
CONTINUOUS
 62
     7
 10
361.6584977181
 20
148.560692473
 30
0.0
 11
361.6584977181
 21
142.7384392457
 31
0.0
  0
LINE
  5
1BA
  8
0
  6
CONTINUOUS
 62
     7
 10
362.4584993393
 20
142.7384392457
 30
0.0
 11
362.4584993393
 21
148.560692473
 31
0.0
  0
LINE
  5
1BB
  8
0
  6
CONTINUOUS
 62
     7
 10
361.6584977181
 20
142.4738482671
 30
0.0
 11
361.6584977181
 21
142.7384392457
 31
0.0
  0
LINE
  5
1BC
  8
0
  6
CONTINUOUS
 62
     7
 10
362.4584993393
 20
142.7384392457
 30
0.0
 11
362.4584993393
 21
142.4738482671
 31
0.0
  0
LINE
  5
1BD
  8
0
  6
CONTINUOUS
 62
     7
 10
361.6584977181
 20
142.4738482671
 30
0.0
 11
361.6584977181
 21
140.5814782815
 31
0.0
  0
LINE
  5
1BE
  8
0
  6
CONTINUOUS
 62
     7
 10
362.4584993393
 20
140.5814782815
 30
0.0
 11
362.4584993393
 21
142.4738482671
 31
0.0
  0
LINE
  5
1BF
  8
0
  6
CONTINUOUS
 62
     7
 10
361.6584977181
 20
140.5814782815
 30
0.0
 11
361.6584977181
 21
137.1695057588
 31
0.0
  0
LINE
  5
1C0
  8
0
  6
CONTINUOUS
 62
     7
 10
362.4584993393
 20
137.1695057588
 30
0.0
 11
362.4584993393
 21
140.5814782815
 31
0.0
  0
LINE
  5
1C1
  8
0
  6
CONTINUOUS
 62
     7
 10
361.6584977181
 20
133.2737700181
 30
0.0
 11
362.4584993393
 21
133.2737700181
 31
0.0
  0
LINE
  5
1C2
  8
0
  6
CONTINUOUS
 62
     7
 10
361.6584977181
 20
135.2737681108
 30
0.0
 11
361.6584977181
 21
133.2737700181
 31
0.0
  0
LINE
  5
1C3
  8
0
  6
CONTINUOUS
 62
     7
 10
362.4584993393
 20
133.2737700181
 30
0.0
 11
362.4584993393
 21
135.2737681108
 31
0.0
  0
LINE
  5
1C4
  8
0
  6
CONTINUOUS
 62
     7
 10
361.6584977181
 20
137.1695057588
 30
0.0
 11
361.6584977181
 21
135.2737681108
 31
0.0
  0
LINE
  5
1C5
  8
0
  6
CONTINUOUS
 62
     7
 10
362.4584993393
 20
135.2737681108
 30
0.0
 11
362.4584993393
 21
137.1695057588
 31
0.0
  0
ARC
  5
1C6
  8
0
  6
CONTINUOUS
 62
     7
 10
359.2584971459
 20
128.6737671571
 30
0.0
 40
2.000000000000014
 50
180.0
 51
270.0
  0
LINE
  5
1C7
  8
0
  6
CONTINUOUS
 62
     7
 10
357.2584947617
 20
136.073769732
 30
0.0
 11
357.2584947617
 21
128.6737696366
 31
0.0
  0
LINE
  5
1C8
  8
0
  6
CONTINUOUS
 62
     7
 10
367.2584971459
 20
136.073769732
 30
0.0
 11
367.2584971459
 21
128.6737696366
 31
0.0
  0
ARC
  5
1C9
  8
0
  6
CONTINUOUS
 62
     7
 10
365.2584971459
 20
128.6737671571
 30
0.0
 40
2.000000000000014
 50
270.0
 51
0.0
  0
LINE
  5
1CA
  8
0
  6
CONTINUOUS
 62
     7
 10
359.2584928543
 20
126.6737655835
 30
0.0
 11
365.2584990532
 21
126.6737655835
 31
0.0
  0
LINE
  5
1CB
  8
0
  6
CONTINUOUS
 62
     7
 10
357.2584947617
 20
137.0737687783
 30
0.0
 11
361.6584977181
 21
137.0737687783
 31
0.0
  0
LINE
  5
1CC
  8
0
  6
CONTINUOUS
 62
     7
 10
357.2584947617
 20
137.0737687783
 30
0.0
 11
357.2584947617
 21
136.073769732
 31
0.0
  0
LINE
  5
1CD
  8
0
  6
CONTINUOUS
 62
     7
 10
362.4584993393
 20
137.0737687783
 30
0.0
 11
367.2584971459
 21
137.0737687783
 31
0.0
  0
LINE
  5
1CE
  8
0
  6
CONTINUOUS
 62
     7
 10
367.2584971459
 20
137.0737687783
 30
0.0
 11
367.2584971459
 21
136.073769732
 31
0.0
  0
POLYLINE
  5
1CF
  8
0
  6
CONTINUOUS
 62
     7
 66
     1
 10
0.0
 20
0.0
 30
0.0
  0
VERTEX
  5
83F
  8
0
  6
CONTINUOUS
 62
     7
 10
457.1271620295
 20
228.0128375726
 30
0.0
  0
VERTEX
  5
840
  8
0
  6
CONTINUOUS
 62
     7
 10
457.712439408
 20
225.3733412461
 30
0.0
  0
VERTEX
  5
841
  8
0
  6
CONTINUOUS
 62
     7
 10
458.2718021772
 20
222.9115740495
 30
0.0
  0
VERTEX
  5
842
  8
0
  6
CONTINUOUS
 62
     7
 10
458.8103718659
 20
220.6285373407
 30
0.0
  0
VERTEX
  5
843
  8
0
  6
CONTINUOUS
 62
     7
 10
459.3023143313
 20
218.5192481713
 30
0.0
  0
VERTEX
  5
844
  8
0
  6
CONTINUOUS
 62
     7
 10
459.7125105164
 20
216.5971056657
 30
0.0
  0
VERTEX
  5
845
  8
0
  6
CONTINUOUS
 62
     7
 10
460.0247807405
 20
214.8965493875
 30
0.0
  0
VERTEX
  5
846
  8
0
  6
CONTINUOUS
 62
     7
 10
460.1565114758
 20
214.0781537728
 30
0.0
  0
SEQEND
  5
B35
  8
0
  6
CONTINUOUS
 62
     7
  0
ARC
  5
1D0
  8
0
  6
CONTINUOUS
 62
     7
 10
246.8256687584
 20
177.4044718507
 30
0.0
 40
216.3961531960966
 50
5.3056924443
 51
8.16556371
  0
LINE
  5
1D1
  8
0
  6
CONTINUOUS
 62
     7
 10
458.298953583
 20
228.2714978891
 30
0.0
 11
457.1271620295
 21
228.0128375726
 31
0.0
  0
LINE
  5
1D2
  8
0
  6
CONTINUOUS
 62
     7
 10
462.2946761152
 20
197.4145189958
 30
0.0
 11
463.4887590608
 21
197.5335494714
 31
0.0
  0
POLYLINE
  5
1D3
  8
0
  6
CONTINUOUS
 62
     7
 66
     1
 10
0.0
 20
0.0
 30
0.0
  0
VERTEX
  5
847
  8
0
  6
CONTINUOUS
 62
     7
 10
542.3701323173
 20
150.9020702081
 30
0.0
  0
VERTEX
  5
848
  8
0
  6
CONTINUOUS
 62
     7
 10
544.1541470191
 20
150.9982959466
 30
0.0
  0
VERTEX
  5
849
  8
0
  6
CONTINUOUS
 62
     7
 10
546.5752400062
 20
151.1426345544
 30
0.0
  0
VERTEX
  5
84A
  8
0
  6
CONTINUOUS
 62
     7
 10
547.7669275901
 20
151.1325375276
 30
0.0
  0
VERTEX
  5
84B
  8
0
  6
CONTINUOUS
 62
     7
 10
548.9167369506
 20
150.9829835134
 30
0.0
  0
VERTEX
  5
84C
  8
0
  6
CONTINUOUS
 62
     7
 10
550.0076330802
 20
150.6453410821
 30
0.0
  0
VERTEX
  5
84D
  8
0
  6
CONTINUOUS
 62
     7
 10
551.0445989272
 20
150.1365617948
 30
0.0
  0
VERTEX
  5
84E
  8
0
  6
CONTINUOUS
 62
     7
 10
552.3619748256
 20
149.2511407571
 30
0.0
  0
VERTEX
  5
84F
  8
0
  6
CONTINUOUS
 62
     7
 10
553.6282218597
 20
148.2034639554
 30
0.0
  0
VERTEX
  5
850
  8
0
  6
CONTINUOUS
 62
     7
 10
554.8689044616
 20
147.0746533113
 30
0.0
  0
SEQEND
  5
B34
  8
0
  6
CONTINUOUS
 62
     7
  0
LINE
  5
1D4
  8
0
  6
CONTINUOUS
 62
     7
 10
554.8691428802
 20
147.0883206563
 30
0.0
 11
554.8971809051
 21
148.6943380075
 31
0.0
  0
LINE
  5
1D5
  8
0
  6
CONTINUOUS
 62
     7
 10
542.3701323173
 20
152.7765528398
 30
0.0
 11
481.2356005958
 21
152.7765528398
 31
0.0
  0
ARC
  5
1D6
  8
0
  6
CONTINUOUS
 62
     7
 10
471.8701301715
 20
135.4737671571
 30
0.0
 40
1.0
 50
90.0
 51
180.0
  0
LINE
  5
1D7
  8
0
  6
CONTINUOUS
 62
     7
 10
470.870130097
 20
127.4737672048
 30
0.0
 11
470.870130097
 21
135.4737655358
 31
0.0
  0
LINE
  5
1D8
  8
0
  6
CONTINUOUS
 62
     7
 10
471.8701302609
 20
136.4737645822
 30
0.0
 11
479.8701300821
 21
136.4737645822
 31
0.0
  0
ARC
  5
1D9
  8
0
  6
CONTINUOUS
 62
     7
 10
471.8701301715
 20
127.4737671571
 30
0.0
 40
1.0
 50
180.0
 51
270.0
  0
LINE
  5
1DA
  8
0
  6
CONTINUOUS
 62
     7
 10
479.8701300821
 20
126.4737681585
 30
0.0
 11
471.8701302609
 21
126.4737681585
 31
0.0
  0
LINE
  5
1DB
  8
0
  6
CONTINUOUS
 62
     7
 10
480.870130246
 20
135.4737655358
 30
0.0
 11
480.870130246
 21
127.4737672048
 31
0.0
  0
ARC
  5
1DC
  8
0
  6
CONTINUOUS
 62
     7
 10
479.8701301715
 20
127.4737671571
 30
0.0
 40
1.0
 50
270.0
 51
0.0
  0
ARC
  5
1DD
  8
0
  6
CONTINUOUS
 62
     7
 10
479.8701301715
 20
135.4737671571
 30
0.0
 40
1.0
 50
0.0
 51
90.0
  0
LINE
  5
1DE
  8
0
  6
CONTINUOUS
 62
     7
 10
467.8701303503
 20
61.2737671571
 30
0.0
 11
463.8701304397
 21
61.2737671571
 31
0.0
  0
LINE
  5
1DF
  8
0
  6
CONTINUOUS
 62
     7
 10
463.8701304397
 20
61.2737671571
 30
0.0
 11
463.8701304397
 21
62.4737671675
 31
0.0
  0
LINE
  5
1E0
  8
0
  6
CONTINUOUS
 62
     7
 10
463.8701304397
 20
62.4737671675
 30
0.0
 11
467.8701303503
 21
62.4737671675
 31
0.0
  0
LINE
  5
1E1
  8
0
  6
CONTINUOUS
 62
     7
 10
467.8701303503
 20
61.2737671571
 30
0.0
 11
469.8701303056
 21
61.2737671571
 31
0.0
  0
LINE
  5
1E2
  8
0
  6
CONTINUOUS
 62
     7
 10
467.8701303503
 20
62.4737671675
 30
0.0
 11
469.8701303056
 21
62.4737671675
 31
0.0
  0
LINE
  5
1E3
  8
0
  6
CONTINUOUS
 62
     7
 10
469.8701303056
 20
61.2737671571
 30
0.0
 11
497.2385517857
 21
61.2737671571
 31
0.0
  0
LINE
  5
1E4
  8
0
  6
CONTINUOUS
 62
     7
 10
497.2385517857
 20
62.4737671675
 30
0.0
 11
469.8701303056
 21
62.4737671675
 31
0.0
  0
LINE
  5
1E5
  8
0
  6
CONTINUOUS
 62
     7
 10
499.8701296351
 20
62.4737671675
 30
0.0
 11
499.8701296351
 21
61.2737671571
 31
0.0
  0
LINE
  5
1E6
  8
0
  6
CONTINUOUS
 62
     7
 10
499.8701296351
 20
61.2737671571
 30
0.0
 11
497.2385517857
 21
61.2737671571
 31
0.0
  0
LINE
  5
1E7
  8
0
  6
CONTINUOUS
 62
     7
 10
497.2385517857
 20
62.4737671675
 30
0.0
 11
499.8701296351
 21
62.4737671675
 31
0.0
  0
LINE
  5
1E8
  8
0
  6
CONTINUOUS
 62
     7
 10
470.870130097
 20
62.4737671675
 30
0.0
 11
470.870130097
 21
126.6737655835
 31
0.0
  0
LINE
  5
1E9
  8
0
  6
CONTINUOUS
 62
     7
 10
480.870130246
 20
126.6737655835
 30
0.0
 11
480.870130246
 21
62.4737671675
 31
0.0
  0
POLYLINE
  5
1EA
  8
0
  6
CONTINUOUS
 62
     7
 66
     1
 10
0.0
 20
0.0
 30
0.0
  0
VERTEX
  5
851
  8
0
  6
CONTINUOUS
 62
     7
 10
467.1863779029
 20
198.0151430803
 30
0.0
  0
VERTEX
  5
852
  8
0
  6
CONTINUOUS
 62
     7
 10
467.7339307568
 20
198.2099668222
 30
0.0
  0
VERTEX
  5
853
  8
0
  6
CONTINUOUS
 62
     7
 10
468.2668566308
 20
198.6522332864
 30
0.0
  0
VERTEX
  5
854
  8
0
  6
CONTINUOUS
 62
     7
 10
468.7658339343
 20
199.3340865808
 30
0.0
  0
VERTEX
  5
855
  8
0
  6
CONTINUOUS
 62
     7
 10
469.2105285427
 20
200.2328650193
 30
0.0
  0
VERTEX
  5
856
  8
0
  6
CONTINUOUS
 62
     7
 10
469.5786431036
 20
201.3211504655
 30
0.0
  0
VERTEX
  5
857
  8
0
  6
CONTINUOUS
 62
     7
 10
469.8543853662
 20
202.5677339273
 30
0.0
  0
VERTEX
  5
858
  8
0
  6
CONTINUOUS
 62
     7
 10
470.0205839774
 20
203.9414660173
 30
0.0
  0
VERTEX
  5
859
  8
0
  6
CONTINUOUS
 62
     7
 10
470.0662407628
 20
205.3987161355
 30
0.0
  0
VERTEX
  5
85A
  8
0
  6
CONTINUOUS
 62
     7
 10
470.0177844218
 20
206.4972535806
 30
0.0
  0
SEQEND
  5
B33
  8
0
  6
CONTINUOUS
 62
     7
  0
POLYLINE
  5
1EB
  8
0
  6
CONTINUOUS
 62
     7
 66
     1
 10
0.0
 20
0.0
 30
0.0
  0
VERTEX
  5
85B
  8
0
  6
CONTINUOUS
 62
     7
 10
467.1863779029
 20
198.0151430803
 30
0.0
  0
VERTEX
  5
85C
  8
0
  6
CONTINUOUS
 62
     7
 10
466.1256171367
 20
197.8848950105
 30
0.0
  0
VERTEX
  5
85D
  8
0
  6
CONTINUOUS
 62
     7
 10
465.1912048063
 20
197.7701679902
 30
0.0
  0
VERTEX
  5
85E
  8
0
  6
CONTINUOUS
 62
     7
 10
464.3848649761
 20
197.6711646753
 30
0.0
  0
VERTEX
  5
85F
  8
0
  6
CONTINUOUS
 62
     7
 10
463.4729668102
 20
197.5591913896
 30
0.0
  0
VERTEX
  5
860
  8
0
  6
CONTINUOUS
 62
     7
 10
462.8191329143
 20
197.478915854
 30
0.0
  0
VERTEX
  5
861
  8
0
  6
CONTINUOUS
 62
     7
 10
462.4259478948
 20
197.4306360917
 30
0.0
  0
VERTEX
  5
862
  8
0
  6
CONTINUOUS
 62
     7
 10
462.2946761152
 20
197.4145189958
 30
0.0
  0
SEQEND
  5
B32
  8
0
  6
CONTINUOUS
 62
     7
  0
POLYLINE
  5
1EC
  8
0
  6
CONTINUOUS
 62
     7
 66
     1
 10
0.0
 20
0.0
 30
0.0
  0
VERTEX
  5
863
  8
0
  6
CONTINUOUS
 62
     7
 10
457.1271620295
 20
228.0128375726
 30
0.0
  0
VERTEX
  5
864
  8
0
  6
CONTINUOUS
 62
     7
 10
457.2241790197
 20
228.0247465806
 30
0.0
  0
VERTEX
  5
865
  8
0
  6
CONTINUOUS
 62
     7
 10
457.5148187182
 20
228.060425921
 30
0.0
  0
VERTEX
  5
866
  8
0
  6
CONTINUOUS
 62
     7
 10
457.9984344146
 20
228.119815989
 30
0.0
  0
VERTEX
  5
867
  8
0
  6
CONTINUOUS
 62
     7
 10
458.6737550399
 20
228.2027260499
 30
0.0
  0
VERTEX
  5
868
  8
0
  6
CONTINUOUS
 62
     7
 10
459.5388792059
 20
228.3089534478
 30
0.0
  0
VERTEX
  5
869
  8
0
  6
CONTINUOUS
 62
     7
 10
460.5092562339
 20
228.4281031327
 30
0.0
  0
VERTEX
  5
86A
  8
0
  6
CONTINUOUS
 62
     7
 10
461.6388044855
 20
228.5667912202
 30
0.0
  0
VERTEX
  5
86B
  8
0
  6
CONTINUOUS
 62
     7
 10
462.9250220558
 20
228.724719687
 30
0.0
  0
SEQEND
  5
B31
  8
0
  6
CONTINUOUS
 62
     7
  0
POLYLINE
  5
1ED
  8
0
  6
CONTINUOUS
 62
     7
 66
     1
 10
0.0
 20
0.0
 30
0.0
  0
VERTEX
  5
86C
  8
0
  6
CONTINUOUS
 62
     7
 10
468.3831825456
 20
220.9144131379
 30
0.0
  0
VERTEX
  5
86D
  8
0
  6
CONTINUOUS
 62
     7
 10
468.0806018016
 20
222.2262279229
 30
0.0
  0
VERTEX
  5
86E
  8
0
  6
CONTINUOUS
 62
     7
 10
467.6626465818
 20
223.4964029031
 30
0.0
  0
VERTEX
  5
86F
  8
0
  6
CONTINUOUS
 62
     7
 10
467.1447768411
 20
224.6892229753
 30
0.0
  0
VERTEX
  5
870
  8
0
  6
CONTINUOUS
 62
     7
 10
466.5511712036
 20
225.7744566636
 30
0.0
  0
VERTEX
  5
871
  8
0
  6
CONTINUOUS
 62
     7
 10
465.9057221911
 20
226.7226711946
 30
0.0
  0
VERTEX
  5
872
  8
0
  6
CONTINUOUS
 62
     7
 10
465.2355298004
 20
227.5098578172
 30
0.0
  0
VERTEX
  5
873
  8
0
  6
CONTINUOUS
 62
     7
 10
464.5684219501
 20
228.1111375528
 30
0.0
  0
VERTEX
  5
874
  8
0
  6
CONTINUOUS
 62
     7
 10
463.9250889024
 20
228.5166398721
 30
0.0
  0
VERTEX
  5
875
  8
0
  6
CONTINUOUS
 62
     7
 10
463.4024783573
 20
228.6999003129
 30
0.0
  0
VERTEX
  5
876
  8
0
  6
CONTINUOUS
 62
     7
 10
462.9250220558
 20
228.724719687
 30
0.0
  0
SEQEND
  5
B30
  8
0
  6
CONTINUOUS
 62
     7
  0
POLYLINE
  5
1EE
  8
0
  6
CONTINUOUS
 62
     7
 66
     1
 10
0.0
 20
0.0
 30
0.0
  0
VERTEX
  5
877
  8
0
  6
CONTINUOUS
 62
     7
 10
468.3831825456
 20
220.9144131379
 30
0.0
  0
VERTEX
  5
878
  8
0
  6
CONTINUOUS
 62
     7
 10
468.9562879107
 20
217.3415319162
 30
0.0
  0
VERTEX
  5
879
  8
0
  6
CONTINUOUS
 62
     7
 10
469.3805455765
 20
213.738013907
 30
0.0
  0
VERTEX
  5
87A
  8
0
  6
CONTINUOUS
 62
     7
 10
469.7207927308
 20
210.1196185785
 30
0.0
  0
VERTEX
  5
87B
  8
0
  6
CONTINUOUS
 62
     7
 10
470.0177844218
 20
206.4972535806
 30
0.0
  0
SEQEND
  5
B2F
  8
0
  6
CONTINUOUS
 62
     7
  0
POLYLINE
  5
1EF
  8
0
  6
CONTINUOUS
 62
     7
 66
     1
 10
0.0
 20
0.0
 30
0.0
  0
VERTEX
  5
87C
  8
0
  6
CONTINUOUS
 62
     7
 10
463.9356098673
 20
228.9937512117
 30
0.0
  0
VERTEX
  5
87D
  8
0
  6
CONTINUOUS
 62
     7
 10
464.4881777069
 20
228.9530412393
 30
0.0
  0
VERTEX
  5
87E
  8
0
  6
CONTINUOUS
 62
     7
 10
465.09911414
 20
228.7020937638
 30
0.0
  0
VERTEX
  5
87F
  8
0
  6
CONTINUOUS
 62
     7
 10
465.7512217364
 20
228.2434121804
 30
0.0
  0
VERTEX
  5
880
  8
0
  6
CONTINUOUS
 62
     7
 10
466.4218350849
 20
227.5913850503
 30
0.0
  0
VERTEX
  5
881
  8
0
  6
CONTINUOUS
 62
     7
 10
467.0838057599
 20
226.7650143342
 30
0.0
  0
VERTEX
  5
882
  8
0
  6
CONTINUOUS
 62
     7
 10
467.7150725922
 20
225.785292788
 30
0.0
  0
VERTEX
  5
883
  8
0
  6
CONTINUOUS
 62
     7
 10
468.2906299433
 20
224.6730105119
 30
0.0
  0
VERTEX
  5
884
  8
0
  6
CONTINUOUS
 62
     7
 10
468.7850899598
 20
223.4610931115
 30
0.0
  0
VERTEX
  5
885
  8
0
  6
CONTINUOUS
 62
     7
 10
469.1322721145
 20
222.3457471566
 30
0.0
  0
VERTEX
  5
886
  8
0
  6
CONTINUOUS
 62
     7
 10
469.3905494711
 20
221.2018624978
 30
0.0
  0
SEQEND
  5
B2E
  8
0
  6
CONTINUOUS
 62
     7
  0
POLYLINE
  5
1F0
  8
0
  6
CONTINUOUS
 62
     7
 66
     1
 10
0.0
 20
0.0
 30
0.0
  0
VERTEX
  5
887
  8
0
  6
CONTINUOUS
 62
     7
 10
469.3905494711
 20
221.2018624978
 30
0.0
  0
VERTEX
  5
888
  8
0
  6
CONTINUOUS
 62
     7
 10
469.9791702977
 20
217.5738589006
 30
0.0
  0
VERTEX
  5
889
  8
0
  6
CONTINUOUS
 62
     7
 10
470.4144712141
 20
213.9214650827
 30
0.0
  0
VERTEX
  5
88A
  8
0
  6
CONTINUOUS
 62
     7
 10
470.7610871247
 20
210.276247664
 30
0.0
  0
VERTEX
  5
88B
  8
0
  6
CONTINUOUS
 62
     7
 10
471.064763104
 20
206.6282407479
 30
0.0
  0
SEQEND
  5
B2D
  8
0
  6
CONTINUOUS
 62
     7
  0
POLYLINE
  5
1F1
  8
0
  6
CONTINUOUS
 62
     7
 66
     1
 10
0.0
 20
0.0
 30
0.0
  0
VERTEX
  5
88C
  8
0
  6
CONTINUOUS
 62
     7
 10
468.2448498509
 20
198.1242076593
 30
0.0
  0
VERTEX
  5
88D
  8
0
  6
CONTINUOUS
 62
     7
 10
467.2236352763
 20
197.9973808961
 30
0.0
  0
VERTEX
  5
88E
  8
0
  6
CONTINUOUS
 62
     7
 10
466.3227080903
 20
197.8854910569
 30
0.0
  0
VERTEX
  5
88F
  8
0
  6
CONTINUOUS
 62
     7
 10
465.5437111458
 20
197.7887527185
 30
0.0
  0
VERTEX
  5
890
  8
0
  6
CONTINUOUS
 62
     7
 10
464.6471887431
 20
197.677411242
 30
0.0
  0
VERTEX
  5
891
  8
0
  6
CONTINUOUS
 62
     7
 10
464.0043750009
 20
197.5975767808
 30
0.0
  0
VERTEX
  5
892
  8
0
  6
CONTINUOUS
 62
     7
 10
463.617819508
 20
197.5495711999
 30
0.0
  0
VERTEX
  5
893
  8
0
  6
CONTINUOUS
 62
     7
 10
463.4887590608
 20
197.5335494714
 30
0.0
  0
SEQEND
  5
B2C
  8
0
  6
CONTINUOUS
 62
     7
  0
POLYLINE
  5
1F2
  8
0
  6
CONTINUOUS
 62
     7
 66
     1
 10
0.0
 20
0.0
 30
0.0
  0
VERTEX
  5
894
  8
0
  6
CONTINUOUS
 62
     7
 10
471.0647634766
 20
206.6282407479
 30
0.0
  0
VERTEX
  5
895
  8
0
  6
CONTINUOUS
 62
     7
 10
471.1148436716
 20
205.1328317361
 30
0.0
  0
VERTEX
  5
896
  8
0
  6
CONTINUOUS
 62
     7
 10
471.0384383401
 20
203.6901370721
 30
0.0
  0
VERTEX
  5
897
  8
0
  6
CONTINUOUS
 62
     7
 10
470.8419333747
 20
202.3428694444
 30
0.0
  0
VERTEX
  5
898
  8
0
  6
CONTINUOUS
 62
     7
 10
470.5404843739
 20
201.1286513047
 30
0.0
  0
VERTEX
  5
899
  8
0
  6
CONTINUOUS
 62
     7
 10
470.1499528787
 20
200.0856773095
 30
0.0
  0
VERTEX
  5
89A
  8
0
  6
CONTINUOUS
 62
     7
 10
469.6906823269
 20
199.2409960466
 30
0.0
  0
VERTEX
  5
89B
  8
0
  6
CONTINUOUS
 62
     7
 10
469.184122195
 20
198.6234800058
 30
0.0
  0
VERTEX
  5
89C
  8
0
  6
CONTINUOUS
 62
     7
 10
468.6495393118
 20
198.2441679673
 30
0.0
  0
VERTEX
  5
89D
  8
0
  6
CONTINUOUS
 62
     7
 10
468.2448498509
 20
198.1242076593
 30
0.0
  0
SEQEND
  5
B2B
  8
0
  6
CONTINUOUS
 62
     7
  0
LINE
  5
1F3
  8
0
  6
CONTINUOUS
 62
     7
 10
463.9356307289
 20
228.9937512117
 30
0.0
 11
463.0876116058
 21
228.8851038652
 31
0.0
  0
POLYLINE
  5
1F4
  8
0
  6
CONTINUOUS
 62
     7
 66
     1
 10
0.0
 20
0.0
 30
0.0
  0
VERTEX
  5
89E
  8
0
  6
CONTINUOUS
 62
     7
 10
458.298953583
 20
228.2714978891
 30
0.0
  0
VERTEX
  5
89F
  8
0
  6
CONTINUOUS
 62
     7
 10
458.3942986629
 20
228.2837049203
 30
0.0
  0
VERTEX
  5
8A0
  8
0
  6
CONTINUOUS
 62
     7
 10
458.6799226305
 20
228.3203140931
 30
0.0
  0
VERTEX
  5
8A1
  8
0
  6
CONTINUOUS
 62
     7
 10
459.1551817557
 20
228.3812181192
 30
0.0
  0
VERTEX
  5
8A2
  8
0
  6
CONTINUOUS
 62
     7
 10
459.8188452026
 20
228.4662620263
 30
0.0
  0
VERTEX
  5
8A3
  8
0
  6
CONTINUOUS
 62
     7
 10
460.6690220139
 20
228.575207396
 30
0.0
  0
VERTEX
  5
8A4
  8
0
  6
CONTINUOUS
 62
     7
 10
461.6069413325
 20
228.6953942018
 30
0.0
  0
VERTEX
  5
8A5
  8
0
  6
CONTINUOUS
 62
     7
 10
462.6965991757
 20
228.8350121217
 30
0.0
  0
VERTEX
  5
8A6
  8
0
  6
CONTINUOUS
 62
     7
 10
463.9356098673
 20
228.9937512117
 30
0.0
  0
SEQEND
  5
B2A
  8
0
  6
CONTINUOUS
 62
     7
  0
LINE
  5
1F5
  8
0
  6
CONTINUOUS
 62
     7
 10
465.4687001905
 20
208.6853400903
 30
0.0
 11
465.3121247491
 21
209.9605457025
 31
0.0
  0
LINE
  5
1F6
  8
0
  6
CONTINUOUS
 62
     7
 10
464.9023197195
 20
208.6158053117
 30
0.0
 11
464.1711040935
 21
214.5710841851
 31
0.0
  0
LINE
  5
1F7
  8
0
  6
CONTINUOUS
 62
     7
 10
465.4687001905
 20
208.6853400903
 30
0.0
 11
464.9023197195
 21
208.6158053117
 31
0.0
  0
LINE
  5
1F8
  8
0
  6
CONTINUOUS
 62
     7
 10
464.6302893362
 20
214.6274582582
 30
0.0
 11
464.1711040935
 21
214.5710841851
 31
0.0
  0
LINE
  5
1F9
  8
0
  6
CONTINUOUS
 62
     7
 10
464.9023197195
 20
208.6158053117
 30
0.0
 11
463.1797737977
 21
208.4043041902
 31
0.0
  0
LINE
  5
1FA
  8
0
  6
CONTINUOUS
 62
     7
 10
464.1711040935
 20
214.5710841851
 30
0.0
 11
462.4485589168
 21
214.3595830636
 31
0.0
  0
POLYLINE
  5
1FB
  8
0
  6
CONTINUOUS
 62
     7
 66
     1
 10
0.0
 20
0.0
 30
0.0
  0
VERTEX
  5
8A7
  8
0
  6
CONTINUOUS
 62
     7
 10
463.1797737977
 20
208.4043041902
 30
0.0
  0
VERTEX
  5
8A8
  8
0
  6
CONTINUOUS
 62
     7
 10
463.1477497122
 20
208.4003702836
 30
0.0
  0
VERTEX
  5
8A9
  8
0
  6
CONTINUOUS
 62
     7
 10
463.1080738804
 20
208.3954946237
 30
0.0
  0
VERTEX
  5
8AA
  8
0
  6
CONTINUOUS
 62
     7
 10
463.0610785982
 20
208.3897248941
 30
0.0
  0
VERTEX
  5
8AB
  8
0
  6
CONTINUOUS
 62
     7
 10
463.0071602366
 20
208.3831087785
 30
0.0
  0
VERTEX
  5
8AC
  8
0
  6
CONTINUOUS
 62
     7
 10
462.9467703006
 20
208.3756939607
 30
0.0
  0
VERTEX
  5
8AD
  8
0
  6
CONTINUOUS
 62
     7
 10
462.8804139397
 20
208.3675400453
 30
0.0
  0
VERTEX
  5
8AE
  8
0
  6
CONTINUOUS
 62
     7
 10
462.8086499474
 20
208.3587304788
 30
0.0
  0
VERTEX
  5
8AF
  8
0
  6
CONTINUOUS
 62
     7
 10
462.7320803306
 20
208.3493248658
 30
0.0
  0
SEQEND
  5
B29
  8
0
  6
CONTINUOUS
 62
     7
  0
POLYLINE
  5
1FC
  8
0
  6
CONTINUOUS
 62
     7
 66
     1
 10
0.0
 20
0.0
 30
0.0
  0
VERTEX
  5
8B0
  8
0
  6
CONTINUOUS
 62
     7
 10
462.0008639595
 20
214.3046037393
 30
0.0
  0
VERTEX
  5
8B1
  8
0
  6
CONTINUOUS
 62
     7
 10
462.0774335763
 20
214.3140093522
 30
0.0
  0
VERTEX
  5
8B2
  8
0
  6
CONTINUOUS
 62
     7
 10
462.1491975686
 20
214.3228189187
 30
0.0
  0
VERTEX
  5
8B3
  8
0
  6
CONTINUOUS
 62
     7
 10
462.2155539295
 20
214.3309728341
 30
0.0
  0
VERTEX
  5
8B4
  8
0
  6
CONTINUOUS
 62
     7
 10
462.2759438655
 20
214.3383876519
 30
0.0
  0
VERTEX
  5
8B5
  8
0
  6
CONTINUOUS
 62
     7
 10
462.3298622272
 20
214.3450037675
 30
0.0
  0
VERTEX
  5
8B6
  8
0
  6
CONTINUOUS
 62
     7
 10
462.3768575093
 20
214.3507734971
 30
0.0
  0
VERTEX
  5
8B7
  8
0
  6
CONTINUOUS
 62
     7
 10
462.4165333411
 20
214.3556491571
 30
0.0
  0
VERTEX
  5
8B8
  8
0
  6
CONTINUOUS
 62
     7
 10
462.4485589168
 20
214.3595830636
 30
0.0
  0
SEQEND
  5
B28
  8
0
  6
CONTINUOUS
 62
     7
  0
LINE
  5
1FD
  8
0
  6
CONTINUOUS
 62
     7
 10
462.7320803306
 20
208.3493248658
 30
0.0
 11
458.4008894465
 21
207.8175322251
 31
0.0
  0
LINE
  5
1FE
  8
0
  6
CONTINUOUS
 62
     7
 10
462.0008639595
 20
214.3046037393
 30
0.0
 11
457.6696745655
 21
213.7727991777
 31
0.0
  0
LINE
  5
1FF
  8
0
  6
CONTINUOUS
 62
     7
 10
457.9046167037
 20
207.7565924363
 30
0.0
 11
457.1734003327
 21
213.7118713098
 31
0.0
  0
POLYLINE
  5
200
  8
0
  6
CONTINUOUS
 62
     7
 66
     1
 10
0.0
 20
0.0
 30
0.0
  0
VERTEX
  5
8B9
  8
0
  6
CONTINUOUS
 62
     7
 10
458.4008894465
 20
207.8175322251
 30
0.0
  0
VERTEX
  5
8BA
  8
0
  6
CONTINUOUS
 62
     7
 10
458.2929394743
 20
207.8042761522
 30
0.0
  0
VERTEX
  5
8BB
  8
0
  6
CONTINUOUS
 62
     7
 10
458.1953264377
 20
207.7922836976
 30
0.0
  0
VERTEX
  5
8BC
  8
0
  6
CONTINUOUS
 62
     7
 10
458.109723737
 20
207.7817813592
 30
0.0
  0
VERTEX
  5
8BD
  8
0
  6
CONTINUOUS
 62
     7
 10
458.0375931761
 20
207.772924109
 30
0.0
  0
VERTEX
  5
8BE
  8
0
  6
CONTINUOUS
 62
     7
 10
457.9801700613
 20
207.7658669191
 30
0.0
  0
VERTEX
  5
8BF
  8
0
  6
CONTINUOUS
 62
     7
 10
457.9384378693
 20
207.7607409196
 30
0.0
  0
VERTEX
  5
8C0
  8
0
  6
CONTINUOUS
 62
     7
 10
457.9131088755
 20
207.7576295571
 30
0.0
  0
VERTEX
  5
8C1
  8
0
  6
CONTINUOUS
 62
     7
 10
457.9046167037
 20
207.7565924363
 30
0.0
  0
SEQEND
  5
B27
  8
0
  6
CONTINUOUS
 62
     7
  0
POLYLINE
  5
201
  8
0
  6
CONTINUOUS
 62
     7
 66
     1
 10
0.0
 20
0.0
 30
0.0
  0
VERTEX
  5
8C2
  8
0
  6
CONTINUOUS
 62
     7
 10
457.1734003327
 20
213.7118713098
 30
0.0
  0
VERTEX
  5
8C3
  8
0
  6
CONTINUOUS
 62
     7
 10
457.1818925044
 20
213.7129084306
 30
0.0
  0
VERTEX
  5
8C4
  8
0
  6
CONTINUOUS
 62
     7
 10
457.2072214982
 20
213.7160197931
 30
0.0
  0
VERTEX
  5
8C5
  8
0
  6
CONTINUOUS
 62
     7
 10
457.2489536903
 20
213.7211457925
 30
0.0
  0
VERTEX
  5
8C6
  8
0
  6
CONTINUOUS
 62
     7
 10
457.306376805
 20
213.7282029824
 30
0.0
  0
VERTEX
  5
8C7
  8
0
  6
CONTINUOUS
 62
     7
 10
457.3785073659
 20
213.7370483117
 30
0.0
  0
VERTEX
  5
8C8
  8
0
  6
CONTINUOUS
 62
     7
 10
457.4641115567
 20
213.7475625711
 30
0.0
  0
VERTEX
  5
8C9
  8
0
  6
CONTINUOUS
 62
     7
 10
457.5617231032
 20
213.7595550256
 30
0.0
  0
VERTEX
  5
8CA
  8
0
  6
CONTINUOUS
 62
     7
 10
457.6696745655
 20
213.7727991777
 30
0.0
  0
SEQEND
  5
B26
  8
0
  6
CONTINUOUS
 62
     7
  0
LINE
  5
202
  8
0
  6
CONTINUOUS
 62
     7
 10
465.2701302967
 20
126.6737655835
 30
0.0
 11
470.2701299986
 21
126.6737655835
 31
0.0
  0
LINE
  5
203
  8
0
  6
CONTINUOUS
 62
     7
 10
456.5749145648
 20
213.6383787828
 30
0.0
 11
452.6047296426
 21
213.1509081559
 31
0.0
  0
LINE
  5
204
  8
0
  6
CONTINUOUS
 62
     7
 10
454.0576494834
 20
193.1123153405
 30
0.0
 11
451.612182667
 21
213.0290404992
 31
0.0
  0
POLYLINE
  5
205
  8
0
  6
CONTINUOUS
 62
     7
 66
     1
 10
0.0
 20
0.0
 30
0.0
  0
VERTEX
  5
8CB
  8
0
  6
CONTINUOUS
 62
     7
 10
451.612182667
 20
213.0290404992
 30
0.0
  0
VERTEX
  5
8CC
  8
0
  6
CONTINUOUS
 62
     7
 10
451.6312546632
 20
213.0313770013
 30
0.0
  0
VERTEX
  5
8CD
  8
0
  6
CONTINUOUS
 62
     7
 10
451.6877360246
 20
213.038314982
 30
0.0
  0
VERTEX
  5
8CE
  8
0
  6
CONTINUOUS
 62
     7
 10
451.7794571421
 20
213.0495802598
 30
0.0
  0
VERTEX
  5
8CF
  8
0
  6
CONTINUOUS
 62
     7
 10
451.9028938911
 20
213.0647317605
 30
0.0
  0
VERTEX
  5
8D0
  8
0
  6
CONTINUOUS
 62
     7
 10
452.0533002517
 20
213.0831972795
 30
0.0
  0
VERTEX
  5
8D1
  8
0
  6
CONTINUOUS
 62
     7
 10
452.2248990438
 20
213.1042734819
 30
0.0
  0
VERTEX
  5
8D2
  8
0
  6
CONTINUOUS
 62
     7
 10
452.4110935232
 20
213.1271259027
 30
0.0
  0
VERTEX
  5
8D3
  8
0
  6
CONTINUOUS
 62
     7
 10
452.6047296426
 20
213.1509081559
 30
0.0
  0
SEQEND
  5
B25
  8
0
  6
CONTINUOUS
 62
     7
  0
LINE
  5
206
  8
0
  6
CONTINUOUS
 62
     7
 10
460.2673910162
 20
192.4003855424
 30
0.0
 11
469.7575315437
 21
151.2940780358
 31
0.0
  0
LINE
  5
207
  8
0
  6
CONTINUOUS
 62
     7
 10
458.2986764214
 20
207.804979487
 30
0.0
 11
460.0129253766
 21
193.8435332017
 31
0.0
  0
POLYLINE
  5
208
  8
0
  6
CONTINUOUS
 62
     7
 66
     1
 10
0.0
 20
0.0
 30
0.0
  0
VERTEX
  5
8D4
  8
0
  6
CONTINUOUS
 62
     7
 10
456.5749145648
 20
213.6383787828
 30
0.0
  0
VERTEX
  5
8D5
  8
0
  6
CONTINUOUS
 62
     7
 10
456.6551275155
 20
213.648237391
 30
0.0
  0
VERTEX
  5
8D6
  8
0
  6
CONTINUOUS
 62
     7
 10
456.7348159453
 20
213.6580125528
 30
0.0
  0
VERTEX
  5
8D7
  8
0
  6
CONTINUOUS
 62
     7
 10
456.8134598038
 20
213.6676685052
 30
0.0
  0
VERTEX
  5
8D8
  8
0
  6
CONTINUOUS
 62
     7
 10
456.8905405304
 20
213.6771337228
 30
0.0
  0
VERTEX
  5
8D9
  8
0
  6
CONTINUOUS
 62
     7
 10
456.9655589363
 20
213.6863486009
 30
0.0
  0
VERTEX
  5
8DA
  8
0
  6
CONTINUOUS
 62
     7
 10
457.038020303
 20
213.6952416139
 30
0.0
  0
VERTEX
  5
8DB
  8
0
  6
CONTINUOUS
 62
     7
 10
457.1074522636
 20
213.703776999
 30
0.0
  0
VERTEX
  5
8DC
  8
0
  6
CONTINUOUS
 62
     7
 10
457.1734003327
 20
213.7118713098
 30
0.0
  0
SEQEND
  5
B24
  8
0
  6
CONTINUOUS
 62
     7
  0
ARC
  5
209
  8
0
  6
CONTINUOUS
 62
     7
 10
473.908572015
 20
195.5497048481
 30
0.0
 40
20.00000000000003
 50
187.0
 51
193.0
  0
ARC
  5
20A
  8
0
  6
CONTINUOUS
 62
     7
 10
473.908572015
 20
195.5497048481
 30
0.0
 40
14.00000000000004
 50
187.0
 51
193.0
  0
LINE
  5
20B
  8
0
  6
CONTINUOUS
 62
     7
 10
463.9113112888
 20
149.9443725782
 30
0.0
 11
454.4211707613
 21
191.0506860452
 31
0.0
  0
LINE
  5
20C
  8
0
  6
CONTINUOUS
 62
     7
 10
464.2701305053
 20
126.6737655835
 30
0.0
 11
464.2701305053
 21
146.7950538831
 31
0.0
  0
LINE
  5
20D
  8
0
  6
CONTINUOUS
 62
     7
 10
465.2701302967
 20
126.6737655835
 30
0.0
 11
464.2701305053
 21
126.6737655835
 31
0.0
  0
ARC
  5
20E
  8
0
  6
CONTINUOUS
 62
     7
 10
450.2701301715
 20
146.7950549911
 30
0.0
 40
14.00000000000004
 50
0.0
 51
13.0
  0
LINE
  5
20F
  8
0
  6
CONTINUOUS
 62
     7
 10
470.2701299986
 20
146.7950538831
 30
0.0
 11
470.2701299986
 21
145.0112477975
 31
0.0
  0
ARC
  5
210
  8
0
  6
CONTINUOUS
 62
     7
 10
450.2701301715
 20
146.7950549911
 30
0.0
 40
20.00000000000002
 50
0.0
 51
13.0
  0
LINE
  5
211
  8
0
  6
CONTINUOUS
 62
     7
 10
487.3258545599
 20
153.3423737722
 30
0.0
 11
486.1135869822
 21
152.7765528398
 31
0.0
  0
POLYLINE
  5
212
  8
0
  6
CONTINUOUS
 62
     7
 66
     1
 10
0.0
 20
0.0
 30
0.0
  0
VERTEX
  5
8DD
  8
0
  6
CONTINUOUS
 62
     7
 10
491.9585458538
 20
153.9736644464
 30
0.0
  0
VERTEX
  5
8DE
  8
0
  6
CONTINUOUS
 62
     7
 10
490.8260665438
 20
153.9656416612
 30
0.0
  0
VERTEX
  5
8DF
  8
0
  6
CONTINUOUS
 62
     7
 10
489.7473878762
 20
153.8953916269
 30
0.0
  0
VERTEX
  5
8E0
  8
0
  6
CONTINUOUS
 62
     7
 10
488.8135574362
 20
153.767515822
 30
0.0
  0
VERTEX
  5
8E1
  8
0
  6
CONTINUOUS
 62
     7
 10
487.9997633001
 20
153.5827414231
 30
0.0
  0
VERTEX
  5
8E2
  8
0
  6
CONTINUOUS
 62
     7
 10
487.3258545599
 20
153.3423737722
 30
0.0
  0
SEQEND
  5
B23
  8
0
  6
CONTINUOUS
 62
     7
  0
POLYLINE
  5
213
  8
0
  6
CONTINUOUS
 62
     7
 66
     1
 10
0.0
 20
0.0
 30
0.0
  0
VERTEX
  5
8E3
  8
0
  6
CONTINUOUS
 62
     7
 10
494.9792690179
 20
153.9209143357
 30
0.0
  0
VERTEX
  5
8E4
  8
0
  6
CONTINUOUS
 62
     7
 10
493.4689052007
 20
153.947301312
 30
0.0
  0
VERTEX
  5
8E5
  8
0
  6
CONTINUOUS
 62
     7
 10
491.9585458538
 20
153.9736644464
 30
0.0
  0
SEQEND
  5
B22
  8
0
  6
CONTINUOUS
 62
     7
  0
POLYLINE
  5
214
  8
0
  6
CONTINUOUS
 62
     7
 66
     1
 10
0.0
 20
0.0
 30
0.0
  0
VERTEX
  5
8E6
  8
0
  6
CONTINUOUS
 62
     7
 10
499.9785072705
 20
153.8336471753
 30
0.0
  0
VERTEX
  5
8E7
  8
0
  6
CONTINUOUS
 62
     7
 10
497.4753655097
 20
153.8703755574
 30
0.0
  0
VERTEX
  5
8E8
  8
0
  6
CONTINUOUS
 62
     7
 10
494.9849016568
 20
153.9207653241
 30
0.0
  0
SEQEND
  5
B21
  8
0
  6
CONTINUOUS
 62
     7
  0
LINE
  5
215
  8
0
  6
CONTINUOUS
 62
     7
 10
500.004627516
 20
153.83319418
 30
0.0
 11
499.9785072705
 21
153.8336471753
 31
0.0
  0
POLYLINE
  5
216
  8
0
  6
CONTINUOUS
 62
     7
 66
     1
 10
0.0
 20
0.0
 30
0.0
  0
VERTEX
  5
8E9
  8
0
  6
CONTINUOUS
 62
     7
 10
505.0118274591
 20
153.745778008
 30
0.0
  0
VERTEX
  5
8EA
  8
0
  6
CONTINUOUS
 62
     7
 10
502.5080807111
 20
153.7897662358
 30
0.0
  0
VERTEX
  5
8EB
  8
0
  6
CONTINUOUS
 62
     7
 10
500.0046602985
 20
153.83319418
 30
0.0
  0
SEQEND
  5
B20
  8
0
  6
CONTINUOUS
 62
     7
  0
LINE
  5
217
  8
0
  6
CONTINUOUS
 62
     7
 10
506.8625337979
 20
153.7062422471
 30
0.0
 11
505.0118423602
 21
153.745700522
 31
0.0
  0
LINE
  5
218
  8
0
  6
CONTINUOUS
 62
     7
 10
514.9762250087
 20
153.5718635755
 30
0.0
 11
506.8625337979
 21
153.7062422471
 31
0.0
  0
POLYLINE
  5
219
  8
0
  6
CONTINUOUS
 62
     7
 66
     1
 10
0.0
 20
0.0
 30
0.0
  0
VERTEX
  5
8EC
  8
0
  6
CONTINUOUS
 62
     7
 10
524.976126065
 20
153.3973054128
 30
0.0
  0
VERTEX
  5
8ED
  8
0
  6
CONTINUOUS
 62
     7
 10
518.1481010816
 20
153.5241023736
 30
0.0
  0
VERTEX
  5
8EE
  8
0
  6
CONTINUOUS
 62
     7
 10
514.9762369296
 20
153.5718635755
 30
0.0
  0
SEQEND
  5
B1F
  8
0
  6
CONTINUOUS
 62
     7
  0
POLYLINE
  5
21A
  8
0
  6
CONTINUOUS
 62
     7
 66
     1
 10
0.0
 20
0.0
 30
0.0
  0
VERTEX
  5
8EF
  8
0
  6
CONTINUOUS
 62
     7
 10
534.973970761
 20
153.2228247361
 30
0.0
  0
VERTEX
  5
8F0
  8
0
  6
CONTINUOUS
 62
     7
 10
529.9754358432
 20
153.2676653104
 30
0.0
  0
VERTEX
  5
8F1
  8
0
  6
CONTINUOUS
 62
     7
 10
524.976126065
 20
153.3973054128
 30
0.0
  0
SEQEND
  5
B1E
  8
0
  6
CONTINUOUS
 62
     7
  0
POLYLINE
  5
21B
  8
0
  6
CONTINUOUS
 62
     7
 66
     1
 10
0.0
 20
0.0
 30
0.0
  0
VERTEX
  5
8F2
  8
0
  6
CONTINUOUS
 62
     7
 10
546.6296530864
 20
152.8046445089
 30
0.0
  0
VERTEX
  5
8F3
  8
0
  6
CONTINUOUS
 62
     7
 10
546.6043270728
 20
152.8093413549
 30
0.0
  0
VERTEX
  5
8F4
  8
0
  6
CONTINUOUS
 62
     7
 10
544.1913164756
 20
153.1278387742
 30
0.0
  0
VERTEX
  5
8F5
  8
0
  6
CONTINUOUS
 62
     7
 10
541.8028510711
 20
153.2670811849
 30
0.0
  0
VERTEX
  5
8F6
  8
0
  6
CONTINUOUS
 62
     7
 10
539.4369341037
 20
153.2904462056
 30
0.0
  0
VERTEX
  5
8F7
  8
0
  6
CONTINUOUS
 62
     7
 10
537.0821095607
 20
153.2557682233
 30
0.0
  0
VERTEX
  5
8F8
  8
0
  6
CONTINUOUS
 62
     7
 10
534.973970761
 20
153.2228426175
 30
0.0
  0
SEQEND
  5
B1D
  8
0
  6
CONTINUOUS
 62
     7
  0
ARC
  5
21C
  8
0
  6
CONTINUOUS
 62
     7
 10
544.3939920142
 20
140.5172580653
 30
0.0
 40
12.48911710425724
 50
43.7647639822
 51
79.6879731616
  0
POLYLINE
  5
21D
  8
0
  6
CONTINUOUS
 62
     7
 66
     1
 10
0.0
 20
0.0
 30
0.0
  0
VERTEX
  5
8F9
  8
0
  6
CONTINUOUS
 62
     7
 10
554.8597909114
 20
147.0884815889
 30
0.0
  0
VERTEX
  5
8FA
  8
0
  6
CONTINUOUS
 62
     7
 10
554.8623539111
 20
147.0846370893
 30
0.0
  0
VERTEX
  5
8FB
  8
0
  6
CONTINUOUS
 62
     7
 10
554.7936476371
 20
147.1883074479
 30
0.0
  0
VERTEX
  5
8FC
  8
0
  6
CONTINUOUS
 62
     7
 10
554.6496845386
 20
147.404243155
 30
0.0
  0
VERTEX
  5
8FD
  8
0
  6
CONTINUOUS
 62
     7
 10
554.4308282039
 20
147.727997704
 30
0.0
  0
VERTEX
  5
8FE
  8
0
  6
CONTINUOUS
 62
     7
 10
553.9960540435
 20
148.354549809
 30
0.0
  0
VERTEX
  5
8FF
  8
0
  6
CONTINUOUS
 62
     7
 10
553.4134544036
 20
149.1559700208
 30
0.0
  0
SEQEND
  5
B1C
  8
0
  6
CONTINUOUS
 62
     7
  0
POLYLINE
  5
21E
  8
0
  6
CONTINUOUS
 62
     7
 66
     1
 10
0.0
 20
0.0
 30
0.0
  0
VERTEX
  5
900
  8
0
  6
CONTINUOUS
 62
     7
 10
546.5633846423
 20
154.0305451589
 30
0.0
  0
VERTEX
  5
901
  8
0
  6
CONTINUOUS
 62
     7
 10
547.71148931
 20
153.7913159566
 30
0.0
  0
VERTEX
  5
902
  8
0
  6
CONTINUOUS
 62
     7
 10
548.8134659431
 20
153.4704820352
 30
0.0
  0
VERTEX
  5
903
  8
0
  6
CONTINUOUS
 62
     7
 10
549.8339570663
 20
153.0705050664
 30
0.0
  0
VERTEX
  5
904
  8
0
  6
CONTINUOUS
 62
     7
 10
550.7567323348
 20
152.6130334573
 30
0.0
  0
VERTEX
  5
905
  8
0
  6
CONTINUOUS
 62
     7
 10
551.614389529
 20
152.100212975
 30
0.0
  0
VERTEX
  5
906
  8
0
  6
CONTINUOUS
 62
     7
 10
552.3342527053
 20
151.6021923261
 30
0.0
  0
VERTEX
  5
907
  8
0
  6
CONTINUOUS
 62
     7
 10
552.8406358859
 20
151.2100593286
 30
0.0
  0
VERTEX
  5
908
  8
0
  6
CONTINUOUS
 62
     7
 10
553.2105780742
 20
150.8933262067
 30
0.0
  0
VERTEX
  5
909
  8
0
  6
CONTINUOUS
 62
     7
 10
553.3594108722
 20
150.7518903451
 30
0.0
  0
VERTEX
  5
90A
  8
0
  6
CONTINUOUS
 62
     7
 10
553.4499384067
 20
150.6527201371
 30
0.0
  0
SEQEND
  5
B1B
  8
0
  6
CONTINUOUS
 62
     7
  0
POLYLINE
  5
21F
  8
0
  6
CONTINUOUS
 62
     7
 66
     1
 10
0.0
 20
0.0
 30
0.0
  0
VERTEX
  5
90B
  8
0
  6
CONTINUOUS
 62
     7
 10
487.1586456499
 20
154.4885412889
 30
0.0
  0
VERTEX
  5
90C
  8
0
  6
CONTINUOUS
 62
     7
 10
487.7420641086
 20
154.7061876493
 30
0.0
  0
VERTEX
  5
90D
  8
0
  6
CONTINUOUS
 62
     7
 10
488.5118402145
 20
154.8959986406
 30
0.0
  0
VERTEX
  5
90E
  8
0
  6
CONTINUOUS
 62
     7
 10
489.4020683667
 20
155.0339714723
 30
0.0
  0
VERTEX
  5
90F
  8
0
  6
CONTINUOUS
 62
     7
 10
490.436791589
 20
155.1178948121
 30
0.0
  0
VERTEX
  5
910
  8
0
  6
CONTINUOUS
 62
     7
 10
491.1084062955
 20
155.1386491494
 30
0.0
  0
VERTEX
  5
911
  8
0
  6
CONTINUOUS
 62
     7
 10
491.8135188124
 20
155.1372245984
 30
0.0
  0
SEQEND
  5
B1A
  8
0
  6
CONTINUOUS
 62
     7
  0
ARC
  5
220
  8
0
  6
CONTINUOUS
 62
     7
 10
533.6480674845
 20
54.8479688802
 30
0.0
 40
109.952307899612
 50
115.0124018468
 51
117.0454636396
  0
POLYLINE
  5
221
  8
0
  6
CONTINUOUS
 62
     7
 66
     1
 10
0.0
 20
0.0
 30
0.0
  0
VERTEX
  5
912
  8
0
  6
CONTINUOUS
 62
     7
 10
554.8857189319
 20
148.6945347028
 30
0.0
  0
VERTEX
  5
913
  8
0
  6
CONTINUOUS
 62
     7
 10
554.8915303847
 20
148.6859933572
 30
0.0
  0
VERTEX
  5
914
  8
0
  6
CONTINUOUS
 62
     7
 10
554.8069990775
 20
148.8092676835
 30
0.0
  0
VERTEX
  5
915
  8
0
  6
CONTINUOUS
 62
     7
 10
554.6200014255
 20
149.0780369477
 30
0.0
  0
VERTEX
  5
916
  8
0
  6
CONTINUOUS
 62
     7
 10
554.413185229
 20
149.3700520234
 30
0.0
  0
VERTEX
  5
917
  8
0
  6
CONTINUOUS
 62
     7
 10
554.149333348
 20
149.7339503007
 30
0.0
  0
VERTEX
  5
918
  8
0
  6
CONTINUOUS
 62
     7
 10
553.8280702731
 20
150.1641706662
 30
0.0
  0
VERTEX
  5
919
  8
0
  6
CONTINUOUS
 62
     7
 10
553.4499384067
 20
150.6527201371
 30
0.0
  0
SEQEND
  5
B19
  8
0
  6
CONTINUOUS
 62
     7
  0
POLYLINE
  5
222
  8
0
  6
CONTINUOUS
 62
     7
 66
     1
 10
0.0
 20
0.0
 30
0.0
  0
VERTEX
  5
91A
  8
0
  6
CONTINUOUS
 62
     7
 10
546.5633846423
 20
154.0305511193
 30
0.0
  0
VERTEX
  5
91B
  8
0
  6
CONTINUOUS
 62
     7
 10
544.1663600108
 20
154.3268875318
 30
0.0
  0
VERTEX
  5
91C
  8
0
  6
CONTINUOUS
 62
     7
 10
541.8266690871
 20
154.4571713643
 30
0.0
  0
VERTEX
  5
91D
  8
0
  6
CONTINUOUS
 62
     7
 10
539.5322657725
 20
154.4804171758
 30
0.0
  0
VERTEX
  5
91E
  8
0
  6
CONTINUOUS
 62
     7
 10
537.2743941447
 20
154.4485167699
 30
0.0
  0
VERTEX
  5
91F
  8
0
  6
CONTINUOUS
 62
     7
 10
535.0438631675
 20
154.4121698575
 30
0.0
  0
VERTEX
  5
920
  8
0
  6
CONTINUOUS
 62
     7
 10
532.8164256713
 20
154.4107691484
 30
0.0
  0
VERTEX
  5
921
  8
0
  6
CONTINUOUS
 62
     7
 10
530.5755234859
 20
154.4426218705
 30
0.0
  0
VERTEX
  5
922
  8
0
  6
CONTINUOUS
 62
     7
 10
524.36946403
 20
154.5941964822
 30
0.0
  0
VERTEX
  5
923
  8
0
  6
CONTINUOUS
 62
     7
 10
518.1655235192
 20
154.6999112802
 30
0.0
  0
VERTEX
  5
924
  8
0
  6
CONTINUOUS
 62
     7
 10
514.8680068156
 20
154.7467724519
 30
0.0
  0
VERTEX
  5
925
  8
0
  6
CONTINUOUS
 62
     7
 10
511.5677393577
 20
154.7996238904
 30
0.0
  0
VERTEX
  5
926
  8
0
  6
CONTINUOUS
 62
     7
 10
508.2669175765
 20
154.8571781354
 30
0.0
  0
VERTEX
  5
927
  8
0
  6
CONTINUOUS
 62
     7
 10
504.9687273404
 20
154.9156085687
 30
0.0
  0
VERTEX
  5
928
  8
0
  6
CONTINUOUS
 62
     7
 10
501.6735441587
 20
154.9722210603
 30
0.0
  0
VERTEX
  5
929
  8
0
  6
CONTINUOUS
 62
     7
 10
498.381403794
 20
155.0279514032
 30
0.0
  0
VERTEX
  5
92A
  8
0
  6
CONTINUOUS
 62
     7
 10
495.1051286957
 20
155.0824896531
 30
0.0
  0
VERTEX
  5
92B
  8
0
  6
CONTINUOUS
 62
     7
 10
491.8135247728
 20
155.1373020845
 30
0.0
  0
SEQEND
  5
B18
  8
0
  6
CONTINUOUS
 62
     7
  0
POLYLINE
  5
223
  8
0
  6
CONTINUOUS
 62
     7
 66
     1
 10
0.0
 20
0.0
 30
0.0
  0
VERTEX
  5
92C
  8
0
  6
CONTINUOUS
 62
     7
 10
524.976126065
 20
153.3973054128
 30
0.0
  0
VERTEX
  5
92D
  8
0
  6
CONTINUOUS
 62
     7
 10
527.3819304607
 20
153.3559695916
 30
0.0
  0
VERTEX
  5
92E
  8
0
  6
CONTINUOUS
 62
     7
 10
531.1773992679
 20
153.2646671968
 30
0.0
  0
VERTEX
  5
92F
  8
0
  6
CONTINUOUS
 62
     7
 10
534.973970761
 20
153.2228426175
 30
0.0
  0
SEQEND
  5
B17
  8
0
  6
CONTINUOUS
 62
     7
  0
POLYLINE
  5
224
  8
0
  6
CONTINUOUS
 62
     7
 66
     1
 10
0.0
 20
0.0
 30
0.0
  0
VERTEX
  5
930
  8
0
  6
CONTINUOUS
 62
     7
 10
506.8646974465
 20
153.8301066594
 30
0.0
  0
VERTEX
  5
931
  8
0
  6
CONTINUOUS
 62
     7
 10
509.2730827233
 20
153.8878754811
 30
0.0
  0
VERTEX
  5
932
  8
0
  6
CONTINUOUS
 62
     7
 10
512.1307886741
 20
153.75927846
 30
0.0
  0
VERTEX
  5
933
  8
0
  6
CONTINUOUS
 62
     7
 10
514.976254811
 20
153.5723523336
 30
0.0
  0
SEQEND
  5
B16
  8
0
  6
CONTINUOUS
 62
     7
  0
LINE
  5
225
  8
0
  6
CONTINUOUS
 62
     7
 10
505.0118423602
 20
153.7457541661
 30
0.0
 11
506.8646974465
 21
153.8301066594
 31
0.0
  0
POLYLINE
  5
226
  8
0
  6
CONTINUOUS
 62
     7
 66
     1
 10
0.0
 20
0.0
 30
0.0
  0
VERTEX
  5
934
  8
0
  6
CONTINUOUS
 62
     7
 10
494.9849016568
 20
153.9208130078
 30
0.0
  0
VERTEX
  5
935
  8
0
  6
CONTINUOUS
 62
     7
 10
496.1646623513
 20
154.0039734082
 30
0.0
  0
VERTEX
  5
936
  8
0
  6
CONTINUOUS
 62
     7
 10
497.3591617844
 20
153.9974109368
 30
0.0
  0
VERTEX
  5
937
  8
0
  6
CONTINUOUS
 62
     7
 10
498.6798055074
 20
153.9244608121
 30
0.0
  0
VERTEX
  5
938
  8
0
  6
CONTINUOUS
 62
     7
 10
500.0046304962
 20
153.8332657056
 30
0.0
  0
SEQEND
  5
B15
  8
0
  6
CONTINUOUS
 62
     7
  0
ARC
  5
227
  8
0
  6
CONTINUOUS
 62
     7
 10
471.2701301715
 20
136.0737671571
 30
0.0
 40
1.000000000000057
 50
90.0
 51
180.0
  0
LINE
  5
228
  8
0
  6
CONTINUOUS
 62
     7
 10
471.2701301626
 20
137.0737687783
 30
0.0
 11
480.4701301804
 21
137.0737687783
 31
0.0
  0
ARC
  5
229
  8
0
  6
CONTINUOUS
 62
     7
 10
480.4701301715
 20
136.0737671571
 30
0.0
 40
1.0
 50
0.0
 51
90.0
  0
LINE
  5
22A
  8
0
  6
CONTINUOUS
 62
     7
 10
481.4701303444
 20
136.073769732
 30
0.0
 11
481.4701303444
 21
128.6737696366
 31
0.0
  0
LINE
  5
22B
  8
0
  6
CONTINUOUS
 62
     7
 10
480.870130246
 20
136.073769732
 30
0.0
 11
480.870130246
 21
135.4737655358
 31
0.0
  0
ARC
  5
22C
  8
0
  6
CONTINUOUS
 62
     7
 10
480.4701301715
 20
136.0737671571
 30
0.0
 40
0.4000000000000341
 50
0.0
 51
90.0
  0
LINE
  5
22D
  8
0
  6
CONTINUOUS
 62
     7
 10
471.2701301626
 20
136.4737645822
 30
0.0
 11
471.8701302609
 21
136.4737645822
 31
0.0
  0
LINE
  5
22E
  8
0
  6
CONTINUOUS
 62
     7
 10
479.8701300821
 20
136.4737645822
 30
0.0
 11
480.4701301804
 21
136.4737645822
 31
0.0
  0
ARC
  5
22F
  8
0
  6
CONTINUOUS
 62
     7
 10
471.2701301715
 20
136.0737671571
 30
0.0
 40
0.4000000000000341
 50
90.0
 51
180.0
  0
LINE
  5
230
  8
0
  6
CONTINUOUS
 62
     7
 10
470.870130097
 20
135.4737655358
 30
0.0
 11
470.870130097
 21
136.073769732
 31
0.0
  0
LINE
  5
231
  8
0
  6
CONTINUOUS
 62
     7
 10
470.2701299986
 20
128.6737696366
 30
0.0
 11
470.2701299986
 21
136.073769732
 31
0.0
  0
LINE
  5
232
  8
0
  6
CONTINUOUS
 62
     7
 10
470.870130097
 20
126.6737655835
 30
0.0
 11
470.2701299986
 21
126.6737655835
 31
0.0
  0
LINE
  5
233
  8
0
  6
CONTINUOUS
 62
     7
 10
470.2701299986
 20
126.6737655835
 30
0.0
 11
470.2701299986
 21
128.6737696366
 31
0.0
  0
LINE
  5
234
  8
0
  6
CONTINUOUS
 62
     7
 10
470.870130097
 20
127.4737672048
 30
0.0
 11
470.870130097
 21
126.6737655835
 31
0.0
  0
LINE
  5
235
  8
0
  6
CONTINUOUS
 62
     7
 10
481.4701303444
 20
126.6737655835
 30
0.0
 11
480.870130246
 21
126.6737655835
 31
0.0
  0
LINE
  5
236
  8
0
  6
CONTINUOUS
 62
     7
 10
481.4701303444
 20
128.6737696366
 30
0.0
 11
481.4701303444
 21
126.6737655835
 31
0.0
  0
LINE
  5
237
  8
0
  6
CONTINUOUS
 62
     7
 10
480.870130246
 20
126.6737655835
 30
0.0
 11
480.870130246
 21
127.4737672048
 31
0.0
  0
ARC
  5
238
  8
0
  6
CONTINUOUS
 62
     7
 10
540.3701301715
 20
150.5253972753
 30
0.0
 40
2.0
 50
280.7804509646
 51
0.0
  0
ARC
  5
239
  8
0
  6
CONTINUOUS
 62
     7
 10
465.9257616143
 20
541.5011458712
 30
0.0
 40
400.0000000000002
 50
274.5077079787
 51
280.7804509646
  0
ARC
  5
23A
  8
0
  6
CONTINUOUS
 62
     7
 10
484.7881319937
 20
302.2435211574
 30
0.0
 40
160.0000000000002
 50
273.0746772222
 51
274.5077079787
  0
ARC
  5
23B
  8
0
  6
CONTINUOUS
 62
     7
 10
494.0674175234
 20
129.4925591918
 30
0.0
 40
12.99999999999997
 50
93.0746772222
 51
121.4611845106
  0
ARC
  5
23C
  8
0
  6
CONTINUOUS
 62
     7
 10
489.3701301715
 20
137.1695046477
 30
0.0
 40
4.000000000000001
 50
121.4611845106
 51
180.0
  0
LINE
  5
23D
  8
0
  6
CONTINUOUS
 62
     7
 10
485.3701300523
 20
135.2737681108
 30
0.0
 11
485.3701300523
 21
137.1695057588
 31
0.0
  0
ARC
  5
23E
  8
0
  6
CONTINUOUS
 62
     7
 10
483.3701301715
 20
135.2737671571
 30
0.0
 40
2.000000000000028
 50
270.0
 51
0.0
  0
LINE
  5
23F
  8
0
  6
CONTINUOUS
 62
     7
 10
481.4701303444
 20
133.2737700181
 30
0.0
 11
483.3701304695
 21
133.2737700181
 31
0.0
  0
LINE
  5
240
  8
0
  6
CONTINUOUS
 62
     7
 10
469.2701302073
 20
133.2737700181
 30
0.0
 11
470.2701299986
 21
133.2737700181
 31
0.0
  0
LINE
  5
241
  8
0
  6
CONTINUOUS
 62
     7
 10
467.2701298794
 20
138.3205966191
 30
0.0
 11
467.2701298794
 21
135.2737681108
 31
0.0
  0
LINE
  5
242
  8
0
  6
CONTINUOUS
 62
     7
 10
481.1701301089
 20
151.573766871
 30
0.0
 11
481.1701301089
 21
151.7765537934
 31
0.0
  0
LINE
  5
243
  8
0
  6
CONTINUOUS
 62
     7
 10
542.3701323173
 20
151.7765537934
 30
0.0
 11
542.3701323173
 21
150.5253986554
 31
0.0
  0
ARC
  5
244
  8
0
  6
CONTINUOUS
 62
     7
 10
475.2701301715
 20
138.3205948247
 30
0.0
 40
8.000000000000057
 50
148.4862321611
 51
180.0
  0
ARC
  5
245
  8
0
  6
CONTINUOUS
 62
     7
 10
469.2701301715
 20
135.2737671571
 30
0.0
 40
2.000000000000028
 50
180.0
 51
270.0
  0
ARC
  5
246
  8
0
  6
CONTINUOUS
 62
     7
 10
485.5003052084
 20
132.0481536162
 30
0.0
 40
19.99999999999991
 50
102.5040575207
 51
148.4862321611
  0
LINE
  5
247
  8
0
  6
CONTINUOUS
 62
     7
 10
481.1701301089
 20
152.768625422
 30
0.0
 11
481.2269493541
 21
152.768625422
 31
0.0
  0
LINE
  5
248
  8
0
  6
CONTINUOUS
 62
     7
 10
481.2269493541
 20
152.768625422
 30
0.0
 11
481.2356005958
 21
152.7705148893
 31
0.0
  0
LINE
  5
249
  8
0
  6
CONTINUOUS
 62
     7
 10
542.3701323173
 20
152.7765528398
 30
0.0
 11
542.3701323173
 21
151.7765537934
 31
0.0
  0
LINE
  5
24A
  8
0
  6
CONTINUOUS
 62
     7
 10
481.1701301089
 20
151.7765537934
 30
0.0
 11
481.1701301089
 21
152.768625422
 31
0.0
  0
LINE
  5
24B
  8
0
  6
CONTINUOUS
 62
     7
 10
49.3669470818
 20
-38.5531475168
 30
0.0
 11
49.9736031563
 21
-39.6067292762
 31
0.0
  0
LINE
  5
24C
  8
0
  6
CONTINUOUS
 62
     7
 10
119.5434531243
 20
-39.606681965
 30
0.0
 11
120.1501032383
 21
-38.5531102639
 31
0.0
  0
LINE
  5
24D
  8
0
  6
CONTINUOUS
 62
     7
 10
289.3669446976
 20
-38.5531475168
 30
0.0
 11
289.9736007721
 21
-39.6067292762
 31
0.0
  0
LINE
  5
24E
  8
0
  6
CONTINUOUS
 62
     7
 10
359.5434507401
 20
-39.606681965
 30
0.0
 11
360.1501068146
 21
-38.5531102639
 31
0.0
  0
LINE
  5
24F
  8
0
  6
CONTINUOUS
 62
     7
 10
169.3669458897
 20
-38.5531475168
 30
0.0
 11
169.9736019642
 21
-39.6067292762
 31
0.0
  0
LINE
  5
250
  8
0
  6
CONTINUOUS
 62
     7
 10
239.5434519322
 20
-39.606681965
 30
0.0
 11
240.1501020462
 21
-38.5531102639
 31
0.0
  0
ARC
  5
251
  8
0
  6
CONTINUOUS
 62
     7
 10
115.1851796852
 20
-115.1751128515
 30
0.0
 40
8.130070049112657
 50
287.2567479278
 51
289.6913094466
  0
ARC
  5
252
  8
0
  6
CONTINUOUS
 62
     7
 10
54.4403689146
 20
-114.8125368157
 30
0.0
 40
8.508388632144952
 50
250.4720046196
 51
252.7377055099
  0
ARC
  5
253
  8
0
  6
CONTINUOUS
 62
     7
 10
355.1853760767
 20
-115.1758391489
 30
0.0
 40
8.129319246694656
 50
287.2569686966
 51
289.6917152452
  0
ARC
  5
254
  8
0
  6
CONTINUOUS
 62
     7
 10
294.4418088226
 20
-114.8080580687
 30
0.0
 40
8.513091866309804
 50
250.4729318557
 51
252.737418923
  0
ARC
  5
255
  8
0
  6
CONTINUOUS
 62
     7
 10
235.1851936994
 20
-115.1752240336
 30
0.0
 40
8.129960244992974
 50
287.2568980878
 51
289.6914725677
  0
ARC
  5
256
  8
0
  6
CONTINUOUS
 62
     7
 10
174.4410886576
 20
-114.8102980967
 30
0.0
 40
8.51073956156866
 50
250.4724682313
 51
252.7375622255
  0
LINE
  5
257
  8
0
  6
CONTINUOUS
 62
     7
 10
368.3585008652
 20
-41.048023231
 30
0.0
 11
368.3585008652
 21
-41.6480233294
 31
0.0
  0
ARC
  5
258
  8
0
  6
CONTINUOUS
 62
     7
 10
367.9584971459
 20
-41.04802324
 30
0.0
 40
0.4000000000000057
 50
0.0
 51
90.0
  0
LINE
  5
259
  8
0
  6
CONTINUOUS
 62
     7
 10
41.1584934265
 20
-41.6480233294
 30
0.0
 11
41.1584934265
 21
-41.048023231
 31
0.0
  0
ARC
  5
25A
  8
0
  6
CONTINUOUS
 62
     7
 10
41.5584971459
 20
-41.04802324
 30
0.0
 40
0.4000000000000057
 50
90.0
 51
180.0
  0
LINE
  5
25B
  8
0
  6
CONTINUOUS
 62
     7
 10
41.5585001976
 20
-40.6480231654
 30
0.0
 11
42.2584971459
 21
-40.6480231654
 31
0.0
  0
LINE
  5
25C
  8
0
  6
CONTINUOUS
 62
     7
 10
52.3569783242
 20
-40.6480231654
 30
0.0
 11
66.7584976227
 21
-40.6480231654
 31
0.0
  0
LINE
  5
25D
  8
0
  6
CONTINUOUS
 62
     7
 10
102.7584990532
 20
-40.6480231654
 30
0.0
 11
117.1574911148
 21
-40.6480231654
 31
0.0
  0
LINE
  5
25E
  8
0
  6
CONTINUOUS
 62
     7
 10
127.2584995301
 20
-40.6480231654
 30
0.0
 11
162.2584959538
 21
-40.6480231654
 31
0.0
  0
LINE
  5
25F
  8
0
  6
CONTINUOUS
 62
     7
 10
172.3569830925
 20
-40.6480231654
 30
0.0
 11
186.7584964306
 21
-40.6480231654
 31
0.0
  0
LINE
  5
260
  8
0
  6
CONTINUOUS
 62
     7
 10
222.7584978611
 20
-40.6480231654
 30
0.0
 11
237.1574899227
 21
-40.6480231654
 31
0.0
  0
LINE
  5
261
  8
0
  6
CONTINUOUS
 62
     7
 10
247.258498338
 20
-40.6480231654
 30
0.0
 11
282.2584947617
 21
-40.6480231654
 31
0.0
  0
LINE
  5
262
  8
0
  6
CONTINUOUS
 62
     7
 10
292.3569819004
 20
-40.6480231654
 30
0.0
 11
306.7584952385
 21
-40.6480231654
 31
0.0
  0
LINE
  5
263
  8
0
  6
CONTINUOUS
 62
     7
 10
342.758496669
 20
-40.6480231654
 30
0.0
 11
357.1574887307
 21
-40.6480231654
 31
0.0
  0
LINE
  5
264
  8
0
  6
CONTINUOUS
 62
     7
 10
367.2584971459
 20
-40.6480231654
 30
0.0
 11
367.9584940941
 21
-40.6480231654
 31
0.0
  0
LINE
  5
265
  8
0
  6
CONTINUOUS
 62
     7
 10
41.1584934265
 20
-49.6480231505
 30
0.0
 11
41.1584934265
 21
-41.6480233294
 31
0.0
  0
LINE
  5
266
  8
0
  6
CONTINUOUS
 62
     7
 10
368.3585008652
 20
-41.6480233294
 30
0.0
 11
368.3585008652
 21
-49.6480231505
 31
0.0
  0
LINE
  5
267
  8
0
  6
CONTINUOUS
 62
     7
 10
367.9584940941
 20
-50.6480233145
 30
0.0
 11
367.2584971459
 21
-50.6480233145
 31
0.0
  0
LINE
  5
268
  8
0
  6
CONTINUOUS
 62
     7
 10
357.2584947617
 20
-50.6480233145
 30
0.0
 11
342.758496669
 21
-50.6480233145
 31
0.0
  0
LINE
  5
269
  8
0
  6
CONTINUOUS
 62
     7
 10
306.7584952385
 20
-50.6480233145
 30
0.0
 11
292.2584971459
 21
-50.6480233145
 31
0.0
  0
LINE
  5
26A
  8
0
  6
CONTINUOUS
 62
     7
 10
282.2584947617
 20
-50.6480233145
 30
0.0
 11
247.258498338
 21
-50.6480233145
 31
0.0
  0
LINE
  5
26B
  8
0
  6
CONTINUOUS
 62
     7
 10
237.2584959538
 20
-50.6480233145
 30
0.0
 11
222.7584978611
 21
-50.6480233145
 31
0.0
  0
LINE
  5
26C
  8
0
  6
CONTINUOUS
 62
     7
 10
186.7584964306
 20
-50.6480233145
 30
0.0
 11
172.258498338
 21
-50.6480233145
 31
0.0
  0
LINE
  5
26D
  8
0
  6
CONTINUOUS
 62
     7
 10
162.2584959538
 20
-50.6480233145
 30
0.0
 11
127.2584995301
 21
-50.6480233145
 31
0.0
  0
LINE
  5
26E
  8
0
  6
CONTINUOUS
 62
     7
 10
117.2584971459
 20
-50.6480233145
 30
0.0
 11
102.7584990532
 21
-50.6480233145
 31
0.0
  0
LINE
  5
26F
  8
0
  6
CONTINUOUS
 62
     7
 10
66.7584976227
 20
-50.6480233145
 30
0.0
 11
52.2584995301
 21
-50.6480233145
 31
0.0
  0
LINE
  5
270
  8
0
  6
CONTINUOUS
 62
     7
 10
42.2584971459
 20
-50.6480233145
 30
0.0
 11
41.5585001976
 21
-50.6480233145
 31
0.0
  0
ARC
  5
271
  8
0
  6
CONTINUOUS
 62
     7
 10
41.5584971459
 20
-50.24802324
 30
0.0
 40
0.3999999999999986
 50
180.0
 51
270.0
  0
LINE
  5
272
  8
0
  6
CONTINUOUS
 62
     7
 10
41.1584934265
 20
-50.2480232489
 30
0.0
 11
41.1584934265
 21
-49.6480231505
 31
0.0
  0
LINE
  5
273
  8
0
  6
CONTINUOUS
 62
     7
 10
368.3585008652
 20
-49.6480231505
 30
0.0
 11
368.3585008652
 21
-50.2480232489
 31
0.0
  0
ARC
  5
274
  8
0
  6
CONTINUOUS
 62
     7
 10
367.9584971459
 20
-50.24802324
 30
0.0
 40
0.3999999999999986
 50
270.0
 51
0.0
  0
LINE
  5
275
  8
0
  6
CONTINUOUS
 62
     7
 10
351.7585000069
 20
-39.6480233741
 30
0.0
 11
351.7585000069
 21
-38.5827948671
 31
0.0
  0
LINE
  5
276
  8
0
  6
CONTINUOUS
 62
     7
 10
351.7585000069
 20
-39.6480233741
 30
0.0
 11
351.7522415192
 21
-40.6480231654
 31
0.0
  0
POLYLINE
  5
277
  8
0
  6
CONTINUOUS
 62
     7
 66
     1
 10
0.0
 20
0.0
 30
0.0
  0
VERTEX
  5
939
  8
0
  6
CONTINUOUS
 62
     7
 10
350.9986361534
 20
-50.6480233145
 30
0.0
  0
VERTEX
  5
93A
  8
0
  6
CONTINUOUS
 62
     7
 10
350.7530888588
 20
-52.2913878184
 30
0.0
  0
VERTEX
  5
93B
  8
0
  6
CONTINUOUS
 62
     7
 10
350.3669461281
 20
-54.504380129
 30
0.0
  0
SEQEND
  5
B14
  8
0
  6
CONTINUOUS
 62
     7
  0
LINE
  5
278
  8
0
  6
CONTINUOUS
 62
     7
 10
327.7595004113
 20
-40.0480230671
 30
0.0
 11
327.7584990532
 21
-39.6480233741
 31
0.0
  0
ARC
  5
279
  8
0
  6
CONTINUOUS
 62
     7
 10
331.7584971459
 20
-37.64802324
 30
0.0
 40
4.0
 50
90.0
 51
180.0
  0
LINE
  5
27A
  8
0
  6
CONTINUOUS
 62
     7
 10
331.8240365059
 20
-33.6480235082
 30
0.0
 11
331.7584952385
 21
-33.6480235082
 31
0.0
  0
ARC
  5
27B
  8
0
  6
CONTINUOUS
 62
     7
 10
347.7584971459
 20
-37.64802324
 30
0.0
 40
1.500000000000042
 50
141.2936122605
 51
0.5532366202
  0
CIRCLE
  5
27C
  8
0
  6
CONTINUOUS
 62
     7
 10
331.7584971459
 20
-37.64802324
 30
0.0
 40
1.500000000000007
  0
POLYLINE
  5
27D
  8
0
  6
CONTINUOUS
 62
     7
 66
     1
 10
0.0
 20
0.0
 30
0.0
  0
VERTEX
  5
93C
  8
0
  6
CONTINUOUS
 62
     7
 10
59.1498812706
 20
-54.5035300177
 30
0.0
  0
VERTEX
  5
93D
  8
0
  6
CONTINUOUS
 62
     7
 10
58.7639054329
 20
-52.2913878184
 30
0.0
  0
VERTEX
  5
93E
  8
0
  6
CONTINUOUS
 62
     7
 10
58.5183581383
 20
-50.6480233145
 30
0.0
  0
SEQEND
  5
B13
  8
0
  6
CONTINUOUS
 62
     7
  0
LINE
  5
27E
  8
0
  6
CONTINUOUS
 62
     7
 10
57.7647527726
 20
-40.6480231654
 30
0.0
 11
57.7584942849
 21
-39.6480233741
 31
0.0
  0
LINE
  5
27F
  8
0
  6
CONTINUOUS
 62
     7
 10
57.7584942849
 20
-38.5832411569
 30
0.0
 11
57.7584942849
 21
-39.6480233741
 31
0.0
  0
LINE
  5
280
  8
0
  6
CONTINUOUS
 62
     7
 10
77.7584990532
 20
-33.6480235082
 30
0.0
 11
77.6929577858
 21
-33.6480235082
 31
0.0
  0
ARC
  5
281
  8
0
  6
CONTINUOUS
 62
     7
 10
77.7584971459
 20
-37.64802324
 30
0.0
 40
4.0
 50
0.0
 51
90.0
  0
LINE
  5
282
  8
0
  6
CONTINUOUS
 62
     7
 10
81.7584952385
 20
-39.6480233741
 30
0.0
 11
81.7574938805
 21
-40.0480230671
 31
0.0
  0
ARC
  5
283
  8
0
  6
CONTINUOUS
 62
     7
 10
61.7584971459
 20
-37.64802324
 30
0.0
 40
1.500000000000021
 50
270.0
 51
38.8386719473
  0
ARC
  5
284
  8
0
  6
CONTINUOUS
 62
     7
 10
61.7584971459
 20
-37.64802324
 30
0.0
 40
1.500000000000021
 50
179.2809376961
 51
270.0
  0
CIRCLE
  5
285
  8
0
  6
CONTINUOUS
 62
     7
 10
77.7584971459
 20
-37.64802324
 30
0.0
 40
1.500000000000014
  0
POLYLINE
  5
286
  8
0
  6
CONTINUOUS
 62
     7
 66
     1
 10
0.0
 20
0.0
 30
0.0
  0
VERTEX
  5
93F
  8
0
  6
CONTINUOUS
 62
     7
 10
119.7838207753
 20
-39.1685542983
 30
0.0
  0
VERTEX
  5
940
  8
0
  6
CONTINUOUS
 62
     7
 10
119.8112329514
 20
-38.863993935
 30
0.0
  0
VERTEX
  5
941
  8
0
  6
CONTINUOUS
 62
     7
 10
119.6493944199
 20
-38.4443779808
 30
0.0
  0
VERTEX
  5
942
  8
0
  6
CONTINUOUS
 62
     7
 10
119.297256139
 20
-37.925249092
 30
0.0
  0
VERTEX
  5
943
  8
0
  6
CONTINUOUS
 62
     7
 10
118.7625428707
 20
-37.3308723193
 30
0.0
  0
VERTEX
  5
944
  8
0
  6
CONTINUOUS
 62
     7
 10
118.0522045166
 20
-36.6852698248
 30
0.0
  0
VERTEX
  5
945
  8
0
  6
CONTINUOUS
 62
     7
 10
117.1850046189
 20
-36.0155848187
 30
0.0
  0
VERTEX
  5
946
  8
0
  6
CONTINUOUS
 62
     7
 10
116.1840995819
 20
-35.3498277587
 30
0.0
  0
VERTEX
  5
947
  8
0
  6
CONTINUOUS
 62
     7
 10
115.0750597985
 20
-34.7085518163
 30
0.0
  0
VERTEX
  5
948
  8
0
  6
CONTINUOUS
 62
     7
 10
114.0466710598
 20
-34.1882412654
 30
0.0
  0
VERTEX
  5
949
  8
0
  6
CONTINUOUS
 62
     7
 10
112.9811605484
 20
-33.7135237974
 30
0.0
  0
SEQEND
  5
B12
  8
0
  6
CONTINUOUS
 62
     7
  0
ARC
  5
287
  8
0
  6
CONTINUOUS
 62
     7
 10
115.2869235882
 20
-36.9394413322
 30
0.0
 40
5.019066539358612
 50
308.9515864466
 51
333.6323745761
  0
POLYLINE
  5
288
  8
0
  6
CONTINUOUS
 62
     7
 66
     1
 10
0.0
 20
0.0
 30
0.0
  0
VERTEX
  5
94A
  8
0
  6
CONTINUOUS
 62
     7
 10
110.3184124501
 20
-38.0227429193
 30
0.0
  0
VERTEX
  5
94B
  8
0
  6
CONTINUOUS
 62
     7
 10
111.7197236092
 20
-38.5675442737
 30
0.0
  0
VERTEX
  5
94C
  8
0
  6
CONTINUOUS
 62
     7
 10
113.0690893204
 20
-39.0982640308
 30
0.0
  0
VERTEX
  5
94D
  8
0
  6
CONTINUOUS
 62
     7
 10
114.3288215668
 20
-39.595575757
 30
0.0
  0
VERTEX
  5
94E
  8
0
  6
CONTINUOUS
 62
     7
 10
115.46660271
 20
-40.0390641165
 30
0.0
  0
VERTEX
  5
94F
  8
0
  6
CONTINUOUS
 62
     7
 10
116.4478739769
 20
-40.4063121748
 30
0.0
  0
VERTEX
  5
950
  8
0
  6
CONTINUOUS
 62
     7
 10
117.255713609
 20
-40.6814807427
 30
0.0
  0
VERTEX
  5
951
  8
0
  6
CONTINUOUS
 62
     7
 10
117.870088485
 20
-40.8473220986
 30
0.0
  0
VERTEX
  5
952
  8
0
  6
CONTINUOUS
 62
     7
 10
118.2783504994
 20
-40.8927583468
 30
0.0
  0
VERTEX
  5
953
  8
0
  6
CONTINUOUS
 62
     7
 10
118.4422275097
 20
-40.842656545
 30
0.0
  0
SEQEND
  5
B11
  8
0
  6
CONTINUOUS
 62
     7
  0
ARC
  5
289
  8
0
  6
CONTINUOUS
 62
     7
 10
84.7584953577
 20
-104.3154276994
 30
0.0
 40
71.04948569214042
 50
68.9152735458
 51
111.0847264542
  0
POLYLINE
  5
28A
  8
0
  6
CONTINUOUS
 62
     7
 66
     1
 10
0.0
 20
0.0
 30
0.0
  0
VERTEX
  5
954
  8
0
  6
CONTINUOUS
 62
     7
 10
51.0747632058
 20
-40.842656545
 30
0.0
  0
VERTEX
  5
955
  8
0
  6
CONTINUOUS
 62
     7
 10
51.3228735001
 20
-40.8927367401
 30
0.0
  0
VERTEX
  5
956
  8
0
  6
CONTINUOUS
 62
     7
 10
51.7845472367
 20
-40.8163314086
 30
0.0
  0
VERTEX
  5
957
  8
0
  6
CONTINUOUS
 62
     7
 10
52.4528821976
 20
-40.6198264432
 30
0.0
  0
VERTEX
  5
958
  8
0
  6
CONTINUOUS
 62
     7
 10
53.3102950127
 20
-40.3183774423
 30
0.0
  0
VERTEX
  5
959
  8
0
  6
CONTINUOUS
 62
     7
 10
54.3385108979
 20
-39.9278459471
 30
0.0
  0
VERTEX
  5
95A
  8
0
  6
CONTINUOUS
 62
     7
 10
55.5102905304
 20
-39.4685753953
 30
0.0
  0
VERTEX
  5
95B
  8
0
  6
CONTINUOUS
 62
     7
 10
56.793483165
 20
-38.9620152634
 30
0.0
  0
VERTEX
  5
95C
  8
0
  6
CONTINUOUS
 62
     7
 10
58.1554612191
 20
-38.4274323803
 30
0.0
  0
VERTEX
  5
95D
  8
0
  6
CONTINUOUS
 62
     7
 10
59.1985782654
 20
-38.0227429193
 30
0.0
  0
SEQEND
  5
B10
  8
0
  6
CONTINUOUS
 62
     7
  0
ARC
  5
28B
  8
0
  6
CONTINUOUS
 62
     7
 10
54.2297332515
 20
-36.9398576723
 30
0.0
 40
5.018532865560121
 50
206.3639164025
 51
231.0483896916
  0
POLYLINE
  5
28C
  8
0
  6
CONTINUOUS
 62
     7
 66
     1
 10
0.0
 20
0.0
 30
0.0
  0
VERTEX
  5
95E
  8
0
  6
CONTINUOUS
 62
     7
 10
56.5358838112
 20
-33.7135029357
 30
0.0
  0
VERTEX
  5
95F
  8
0
  6
CONTINUOUS
 62
     7
 10
55.308504966
 20
-34.2660707754
 30
0.0
  0
VERTEX
  5
960
  8
0
  6
CONTINUOUS
 62
     7
 10
54.1350444825
 20
-34.8770072084
 30
0.0
  0
VERTEX
  5
961
  8
0
  6
CONTINUOUS
 62
     7
 10
53.0492862732
 20
-35.5291148048
 30
0.0
  0
VERTEX
  5
962
  8
0
  6
CONTINUOUS
 62
     7
 10
52.0799597771
 20
-36.1997281533
 30
0.0
  0
VERTEX
  5
963
  8
0
  6
CONTINUOUS
 62
     7
 10
51.258285907
 20
-36.8616988283
 30
0.0
  0
VERTEX
  5
964
  8
0
  6
CONTINUOUS
 62
     7
 10
50.5964836151
 20
-37.4929656607
 30
0.0
  0
VERTEX
  5
965
  8
0
  6
CONTINUOUS
 62
     7
 10
50.1102050812
 20
-38.0685230118
 30
0.0
  0
VERTEX
  5
966
  8
0
  6
CONTINUOUS
 62
     7
 10
49.8074611695
 20
-38.5629830283
 30
0.0
  0
VERTEX
  5
967
  8
0
  6
CONTINUOUS
 62
     7
 10
49.6984323532
 20
-38.9101651829
 30
0.0
  0
VERTEX
  5
968
  8
0
  6
CONTINUOUS
 62
     7
 10
49.7331699402
 20
-39.1684425396
 30
0.0
  0
SEQEND
  5
B0F
  8
0
  6
CONTINUOUS
 62
     7
  0
ARC
  5
28D
  8
0
  6
CONTINUOUS
 62
     7
 10
84.7584971107
 20
-101.5430166886
 30
0.0
 40
73.46671925029358
 50
67.4086611322
 51
112.5912965159
  0
POLYLINE
  5
28E
  8
0
  6
CONTINUOUS
 62
     7
 66
     1
 10
0.0
 20
0.0
 30
0.0
  0
VERTEX
  5
969
  8
0
  6
CONTINUOUS
 62
     7
 10
49.145921138
 20
-38.1610756141
 30
0.0
  0
VERTEX
  5
96A
  8
0
  6
CONTINUOUS
 62
     7
 10
49.1158803971
 20
-37.85849487
 30
0.0
  0
VERTEX
  5
96B
  8
0
  6
CONTINUOUS
 62
     7
 10
49.2750009568
 20
-37.4405396503
 30
0.0
  0
VERTEX
  5
96C
  8
0
  6
CONTINUOUS
 62
     7
 10
49.6243914635
 20
-36.9226699096
 30
0.0
  0
VERTEX
  5
96D
  8
0
  6
CONTINUOUS
 62
     7
 10
50.1563509972
 20
-36.329064272
 30
0.0
  0
VERTEX
  5
96E
  8
0
  6
CONTINUOUS
 62
     7
 10
50.8640488655
 20
-35.6836152595
 30
0.0
  0
VERTEX
  5
96F
  8
0
  6
CONTINUOUS
 62
     7
 10
51.7287215264
 20
-35.0134228688
 30
0.0
  0
VERTEX
  5
970
  8
0
  6
CONTINUOUS
 62
     7
 10
52.7274807961
 20
-34.3463150185
 30
0.0
  0
VERTEX
  5
971
  8
0
  6
CONTINUOUS
 62
     7
 10
53.8346728356
 20
-33.7029819709
 30
0.0
  0
VERTEX
  5
972
  8
0
  6
CONTINUOUS
 62
     7
 10
54.8616608651
 20
-33.1803714257
 30
0.0
  0
VERTEX
  5
973
  8
0
  6
CONTINUOUS
 62
     7
 10
55.9260567696
 20
-32.7029151243
 30
0.0
  0
SEQEND
  5
B0E
  8
0
  6
CONTINUOUS
 62
     7
  0
POLYLINE
  5
28F
  8
0
  6
CONTINUOUS
 62
     7
 66
     1
 10
0.0
 20
0.0
 30
0.0
  0
VERTEX
  5
974
  8
0
  6
CONTINUOUS
 62
     7
 10
113.5909816296
 20
-32.7029344958
 30
0.0
  0
VERTEX
  5
975
  8
0
  6
CONTINUOUS
 62
     7
 10
114.8168882401
 20
-33.2585481328
 30
0.0
  0
VERTEX
  5
976
  8
0
  6
CONTINUOUS
 62
     7
 10
115.988518861
 20
-33.8719209057
 30
0.0
  0
VERTEX
  5
977
  8
0
  6
CONTINUOUS
 62
     7
 10
117.0721313031
 20
-34.525759272
 30
0.0
  0
VERTEX
  5
978
  8
0
  6
CONTINUOUS
 62
     7
 10
118.0390974553
 20
-35.1974015456
 30
0.0
  0
VERTEX
  5
979
  8
0
  6
CONTINUOUS
 62
     7
 10
118.8584467442
 20
-35.8598609787
 30
0.0
  0
VERTEX
  5
97A
  8
0
  6
CONTINUOUS
 62
     7
 10
119.5177575619
 20
-36.4909899753
 30
0.0
  0
VERTEX
  5
97B
  8
0
  6
CONTINUOUS
 62
     7
 10
120.0014134915
 20
-37.0658208948
 30
0.0
  0
VERTEX
  5
97C
  8
0
  6
CONTINUOUS
 62
     7
 10
120.3014513523
 20
-37.5590418798
 30
0.0
  0
VERTEX
  5
97D
  8
0
  6
CONTINUOUS
 62
     7
 10
120.4080900223
 20
-37.9046899599
 30
0.0
  0
VERTEX
  5
97E
  8
0
  6
CONTINUOUS
 62
     7
 10
120.3710695774
 20
-38.1611873728
 30
0.0
  0
SEQEND
  5
B0D
  8
0
  6
CONTINUOUS
 62
     7
  0
ARC
  5
290
  8
0
  6
CONTINUOUS
 62
     7
 10
84.7584960926
 20
-101.4875809731
 30
0.0
 40
74.5831067551238
 50
67.2580129375
 51
112.7419485675
  0
POLYLINE
  5
291
  8
0
  6
CONTINUOUS
 62
     7
 66
     1
 10
0.0
 20
0.0
 30
0.0
  0
VERTEX
  5
97F
  8
0
  6
CONTINUOUS
 62
     7
 10
359.7838243515
 20
-39.1685542983
 30
0.0
  0
VERTEX
  5
980
  8
0
  6
CONTINUOUS
 62
     7
 10
359.8112305672
 20
-38.863993935
 30
0.0
  0
VERTEX
  5
981
  8
0
  6
CONTINUOUS
 62
     7
 10
359.6493920357
 20
-38.4443779808
 30
0.0
  0
VERTEX
  5
982
  8
0
  6
CONTINUOUS
 62
     7
 10
359.2972597153
 20
-37.925249092
 30
0.0
  0
VERTEX
  5
983
  8
0
  6
CONTINUOUS
 62
     7
 10
358.762546447
 20
-37.3308723193
 30
0.0
  0
VERTEX
  5
984
  8
0
  6
CONTINUOUS
 62
     7
 10
358.0522021325
 20
-36.6852698248
 30
0.0
  0
VERTEX
  5
985
  8
0
  6
CONTINUOUS
 62
     7
 10
357.1850022347
 20
-36.0155848187
 30
0.0
  0
VERTEX
  5
986
  8
0
  6
CONTINUOUS
 62
     7
 10
356.1840971978
 20
-35.3498277587
 30
0.0
  0
VERTEX
  5
987
  8
0
  6
CONTINUOUS
 62
     7
 10
355.0750574143
 20
-34.7085518163
 30
0.0
  0
VERTEX
  5
988
  8
0
  6
CONTINUOUS
 62
     7
 10
354.0466746361
 20
-34.1882412654
 30
0.0
  0
VERTEX
  5
989
  8
0
  6
CONTINUOUS
 62
     7
 10
352.9811581643
 20
-33.7135237974
 30
0.0
  0
SEQEND
  5
B0C
  8
0
  6
CONTINUOUS
 62
     7
  0
ARC
  5
292
  8
0
  6
CONTINUOUS
 62
     7
 10
355.2867932538
 20
-36.9393340188
 30
0.0
 40
5.019234179454106
 50
308.9520051035
 51
333.6319559192
  0
POLYLINE
  5
293
  8
0
  6
CONTINUOUS
 62
     7
 66
     1
 10
0.0
 20
0.0
 30
0.0
  0
VERTEX
  5
98A
  8
0
  6
CONTINUOUS
 62
     7
 10
350.3184160263
 20
-38.0227429193
 30
0.0
  0
VERTEX
  5
98B
  8
0
  6
CONTINUOUS
 62
     7
 10
351.719721225
 20
-38.5675442737
 30
0.0
  0
VERTEX
  5
98C
  8
0
  6
CONTINUOUS
 62
     7
 10
353.0690869362
 20
-39.0982640308
 30
0.0
  0
VERTEX
  5
98D
  8
0
  6
CONTINUOUS
 62
     7
 10
354.3288191826
 20
-39.595575757
 30
0.0
  0
VERTEX
  5
98E
  8
0
  6
CONTINUOUS
 62
     7
 10
355.4666003258
 20
-40.0390641165
 30
0.0
  0
VERTEX
  5
98F
  8
0
  6
CONTINUOUS
 62
     7
 10
356.4478715927
 20
-40.4063121748
 30
0.0
  0
VERTEX
  5
990
  8
0
  6
CONTINUOUS
 62
     7
 10
357.2557171852
 20
-40.6814807427
 30
0.0
  0
VERTEX
  5
991
  8
0
  6
CONTINUOUS
 62
     7
 10
357.8700861008
 20
-40.8473220986
 30
0.0
  0
VERTEX
  5
992
  8
0
  6
CONTINUOUS
 62
     7
 10
358.2783540757
 20
-40.8927583468
 30
0.0
  0
VERTEX
  5
993
  8
0
  6
CONTINUOUS
 62
     7
 10
358.442231086
 20
-40.842656545
 30
0.0
  0
SEQEND
  5
B0B
  8
0
  6
CONTINUOUS
 62
     7
  0
ARC
  5
294
  8
0
  6
CONTINUOUS
 62
     7
 10
324.758498934
 20
-104.3154276994
 30
0.0
 40
71.04948569214048
 50
68.9152735458
 51
111.0847264542
  0
POLYLINE
  5
295
  8
0
  6
CONTINUOUS
 62
     7
 66
     1
 10
0.0
 20
0.0
 30
0.0
  0
VERTEX
  5
994
  8
0
  6
CONTINUOUS
 62
     7
 10
291.074766782
 20
-40.842656545
 30
0.0
  0
VERTEX
  5
995
  8
0
  6
CONTINUOUS
 62
     7
 10
291.3228770764
 20
-40.8927367401
 30
0.0
  0
VERTEX
  5
996
  8
0
  6
CONTINUOUS
 62
     7
 10
291.7845508129
 20
-40.8163314086
 30
0.0
  0
VERTEX
  5
997
  8
0
  6
CONTINUOUS
 62
     7
 10
292.4528857739
 20
-40.6198264432
 30
0.0
  0
VERTEX
  5
998
  8
0
  6
CONTINUOUS
 62
     7
 10
293.310298589
 20
-40.3183774423
 30
0.0
  0
VERTEX
  5
999
  8
0
  6
CONTINUOUS
 62
     7
 10
294.3385144741
 20
-39.9278459471
 30
0.0
  0
VERTEX
  5
99A
  8
0
  6
CONTINUOUS
 62
     7
 10
295.5102881462
 20
-39.4685753953
 30
0.0
  0
VERTEX
  5
99B
  8
0
  6
CONTINUOUS
 62
     7
 10
296.7934807808
 20
-38.9620152634
 30
0.0
  0
VERTEX
  5
99C
  8
0
  6
CONTINUOUS
 62
     7
 10
298.1554588349
 20
-38.4274323803
 30
0.0
  0
VERTEX
  5
99D
  8
0
  6
CONTINUOUS
 62
     7
 10
299.1985818417
 20
-38.0227429193
 30
0.0
  0
SEQEND
  5
B0A
  8
0
  6
CONTINUOUS
 62
     7
  0
ARC
  5
296
  8
0
  6
CONTINUOUS
 62
     7
 10
294.2296850818
 20
-36.9398831294
 30
0.0
 40
5.018480537435022
 50
206.3638881184
 51
231.0486664117
  0
POLYLINE
  5
297
  8
0
  6
CONTINUOUS
 62
     7
 66
     1
 10
0.0
 20
0.0
 30
0.0
  0
VERTEX
  5
99E
  8
0
  6
CONTINUOUS
 62
     7
 10
296.535881427
 20
-33.7135029357
 30
0.0
  0
VERTEX
  5
99F
  8
0
  6
CONTINUOUS
 62
     7
 10
295.3085025818
 20
-34.2660707754
 30
0.0
  0
VERTEX
  5
9A0
  8
0
  6
CONTINUOUS
 62
     7
 10
294.1350420983
 20
-34.8770072084
 30
0.0
  0
VERTEX
  5
9A1
  8
0
  6
CONTINUOUS
 62
     7
 10
293.0492898495
 20
-35.5291148048
 30
0.0
  0
VERTEX
  5
9A2
  8
0
  6
CONTINUOUS
 62
     7
 10
292.0799633534
 20
-36.1997281533
 30
0.0
  0
VERTEX
  5
9A3
  8
0
  6
CONTINUOUS
 62
     7
 10
291.2582894833
 20
-36.8616988283
 30
0.0
  0
VERTEX
  5
9A4
  8
0
  6
CONTINUOUS
 62
     7
 10
290.5964871914
 20
-37.4929656607
 30
0.0
  0
VERTEX
  5
9A5
  8
0
  6
CONTINUOUS
 62
     7
 10
290.110202697
 20
-38.0685230118
 30
0.0
  0
VERTEX
  5
9A6
  8
0
  6
CONTINUOUS
 62
     7
 10
289.8074587853
 20
-38.5629830283
 30
0.0
  0
VERTEX
  5
9A7
  8
0
  6
CONTINUOUS
 62
     7
 10
289.6984299691
 20
-38.9101651829
 30
0.0
  0
VERTEX
  5
9A8
  8
0
  6
CONTINUOUS
 62
     7
 10
289.733167556
 20
-39.1684425396
 30
0.0
  0
SEQEND
  5
B09
  8
0
  6
CONTINUOUS
 62
     7
  0
ARC
  5
298
  8
0
  6
CONTINUOUS
 62
     7
 10
324.7584947265
 20
-101.5430166886
 30
0.0
 40
73.4667192502929
 50
67.4086611322
 51
112.5912965159
  0
POLYLINE
  5
299
  8
0
  6
CONTINUOUS
 62
     7
 66
     1
 10
0.0
 20
0.0
 30
0.0
  0
VERTEX
  5
9A9
  8
0
  6
CONTINUOUS
 62
     7
 10
289.1459187539
 20
-38.1610756141
 30
0.0
  0
VERTEX
  5
9AA
  8
0
  6
CONTINUOUS
 62
     7
 10
289.1158839733
 20
-37.85849487
 30
0.0
  0
VERTEX
  5
9AB
  8
0
  6
CONTINUOUS
 62
     7
 10
289.275004533
 20
-37.4405396503
 30
0.0
  0
VERTEX
  5
9AC
  8
0
  6
CONTINUOUS
 62
     7
 10
289.6243890793
 20
-36.9226699096
 30
0.0
  0
VERTEX
  5
9AD
  8
0
  6
CONTINUOUS
 62
     7
 10
290.1563545735
 20
-36.329064272
 30
0.0
  0
VERTEX
  5
9AE
  8
0
  6
CONTINUOUS
 62
     7
 10
290.8640464814
 20
-35.6836152595
 30
0.0
  0
VERTEX
  5
9AF
  8
0
  6
CONTINUOUS
 62
     7
 10
291.7287131817
 20
-35.0134228688
 30
0.0
  0
VERTEX
  5
9B0
  8
0
  6
CONTINUOUS
 62
     7
 10
292.7274843724
 20
-34.3463150185
 30
0.0
  0
VERTEX
  5
9B1
  8
0
  6
CONTINUOUS
 62
     7
 10
293.8346704514
 20
-33.7029819709
 30
0.0
  0
VERTEX
  5
9B2
  8
0
  6
CONTINUOUS
 62
     7
 10
294.8616644413
 20
-33.1803714257
 30
0.0
  0
VERTEX
  5
9B3
  8
0
  6
CONTINUOUS
 62
     7
 10
295.9260603459
 20
-32.7029151243
 30
0.0
  0
SEQEND
  5
B08
  8
0
  6
CONTINUOUS
 62
     7
  0
POLYLINE
  5
29A
  8
0
  6
CONTINUOUS
 62
     7
 66
     1
 10
0.0
 20
0.0
 30
0.0
  0
VERTEX
  5
9B4
  8
0
  6
CONTINUOUS
 62
     7
 10
353.5909852059
 20
-32.7029344958
 30
0.0
  0
VERTEX
  5
9B5
  8
0
  6
CONTINUOUS
 62
     7
 10
354.8168858559
 20
-33.2585481328
 30
0.0
  0
VERTEX
  5
9B6
  8
0
  6
CONTINUOUS
 62
     7
 10
355.9885224373
 20
-33.8719209057
 30
0.0
  0
VERTEX
  5
9B7
  8
0
  6
CONTINUOUS
 62
     7
 10
357.0721348793
 20
-34.525759272
 30
0.0
  0
VERTEX
  5
9B8
  8
0
  6
CONTINUOUS
 62
     7
 10
358.0391010315
 20
-35.1974015456
 30
0.0
  0
VERTEX
  5
9B9
  8
0
  6
CONTINUOUS
 62
     7
 10
358.8584503205
 20
-35.8598609787
 30
0.0
  0
VERTEX
  5
9BA
  8
0
  6
CONTINUOUS
 62
     7
 10
359.5177611382
 20
-36.4909899753
 30
0.0
  0
VERTEX
  5
9BB
  8
0
  6
CONTINUOUS
 62
     7
 10
360.0014170678
 20
-37.0658208948
 30
0.0
  0
VERTEX
  5
9BC
  8
0
  6
CONTINUOUS
 62
     7
 10
360.3014549286
 20
-37.5590418798
 30
0.0
  0
VERTEX
  5
9BD
  8
0
  6
CONTINUOUS
 62
     7
 10
360.4080876381
 20
-37.9046899599
 30
0.0
  0
VERTEX
  5
9BE
  8
0
  6
CONTINUOUS
 62
     7
 10
360.3710731537
 20
-38.1611873728
 30
0.0
  0
SEQEND
  5
B07
  8
0
  6
CONTINUOUS
 62
     7
  0
ARC
  5
29B
  8
0
  6
CONTINUOUS
 62
     7
 10
324.7584996689
 20
-101.4875809731
 30
0.0
 40
74.58310675510765
 50
67.2580129375
 51
112.7419485675
  0
POLYLINE
  5
29C
  8
0
  6
CONTINUOUS
 62
     7
 66
     1
 10
0.0
 20
0.0
 30
0.0
  0
VERTEX
  5
9BF
  8
0
  6
CONTINUOUS
 62
     7
 10
239.7838225634
 20
-39.1685542983
 30
0.0
  0
VERTEX
  5
9C0
  8
0
  6
CONTINUOUS
 62
     7
 10
239.8112317593
 20
-38.863993935
 30
0.0
  0
VERTEX
  5
9C1
  8
0
  6
CONTINUOUS
 62
     7
 10
239.6493932278
 20
-38.4443779808
 30
0.0
  0
VERTEX
  5
9C2
  8
0
  6
CONTINUOUS
 62
     7
 10
239.2972549469
 20
-37.925249092
 30
0.0
  0
VERTEX
  5
9C3
  8
0
  6
CONTINUOUS
 62
     7
 10
238.7625446589
 20
-37.3308723193
 30
0.0
  0
VERTEX
  5
9C4
  8
0
  6
CONTINUOUS
 62
     7
 10
238.0522063048
 20
-36.6852698248
 30
0.0
  0
VERTEX
  5
9C5
  8
0
  6
CONTINUOUS
 62
     7
 10
237.185006407
 20
-36.0155848187
 30
0.0
  0
VERTEX
  5
9C6
  8
0
  6
CONTINUOUS
 62
     7
 10
236.1840983899
 20
-35.3498277587
 30
0.0
  0
VERTEX
  5
9C7
  8
0
  6
CONTINUOUS
 62
     7
 10
235.0750586064
 20
-34.7085518163
 30
0.0
  0
VERTEX
  5
9C8
  8
0
  6
CONTINUOUS
 62
     7
 10
234.0466698677
 20
-34.1882412654
 30
0.0
  0
VERTEX
  5
9C9
  8
0
  6
CONTINUOUS
 62
     7
 10
232.9811623366
 20
-33.7135237974
 30
0.0
  0
SEQEND
  5
B06
  8
0
  6
CONTINUOUS
 62
     7
  0
ARC
  5
29D
  8
0
  6
CONTINUOUS
 62
     7
 10
235.286830021
 20
-36.9393649164
 30
0.0
 40
5.019185912709943
 50
308.9518845672
 51
333.6320764555
  0
POLYLINE
  5
29E
  8
0
  6
CONTINUOUS
 62
     7
 66
     1
 10
0.0
 20
0.0
 30
0.0
  0
VERTEX
  5
9CA
  8
0
  6
CONTINUOUS
 62
     7
 10
230.3184142382
 20
-38.0227429193
 30
0.0
  0
VERTEX
  5
9CB
  8
0
  6
CONTINUOUS
 62
     7
 10
231.7197224171
 20
-38.5675442737
 30
0.0
  0
VERTEX
  5
9CC
  8
0
  6
CONTINUOUS
 62
     7
 10
233.0690911085
 20
-39.0982640308
 30
0.0
  0
VERTEX
  5
9CD
  8
0
  6
CONTINUOUS
 62
     7
 10
234.3288203747
 20
-39.595575757
 30
0.0
  0
VERTEX
  5
9CE
  8
0
  6
CONTINUOUS
 62
     7
 10
235.4666015179
 20
-40.0390641165
 30
0.0
  0
VERTEX
  5
9CF
  8
0
  6
CONTINUOUS
 62
     7
 10
236.4478698046
 20
-40.4063121748
 30
0.0
  0
VERTEX
  5
9D0
  8
0
  6
CONTINUOUS
 62
     7
 10
237.2557153971
 20
-40.6814807427
 30
0.0
  0
VERTEX
  5
9D1
  8
0
  6
CONTINUOUS
 62
     7
 10
237.8700902731
 20
-40.8473220986
 30
0.0
  0
VERTEX
  5
9D2
  8
0
  6
CONTINUOUS
 62
     7
 10
238.2783522875
 20
-40.8927583468
 30
0.0
  0
VERTEX
  5
9D3
  8
0
  6
CONTINUOUS
 62
     7
 10
238.4422292979
 20
-40.842656545
 30
0.0
  0
SEQEND
  5
B05
  8
0
  6
CONTINUOUS
 62
     7
  0
ARC
  5
29F
  8
0
  6
CONTINUOUS
 62
     7
 10
204.7584971459
 20
-104.3154152186
 30
0.0
 40
71.04947404698507
 50
68.915269925
 51
111.084730075
  0
POLYLINE
  5
2A0
  8
0
  6
CONTINUOUS
 62
     7
 66
     1
 10
0.0
 20
0.0
 30
0.0
  0
VERTEX
  5
9D4
  8
0
  6
CONTINUOUS
 62
     7
 10
171.0747649939
 20
-40.842656545
 30
0.0
  0
VERTEX
  5
9D5
  8
0
  6
CONTINUOUS
 62
     7
 10
171.3228752882
 20
-40.8927367401
 30
0.0
  0
VERTEX
  5
9D6
  8
0
  6
CONTINUOUS
 62
     7
 10
171.784552005
 20
-40.8163314086
 30
0.0
  0
VERTEX
  5
9D7
  8
0
  6
CONTINUOUS
 62
     7
 10
172.4528839857
 20
-40.6198264432
 30
0.0
  0
VERTEX
  5
9D8
  8
0
  6
CONTINUOUS
 62
     7
 10
173.3102968008
 20
-40.3183774423
 30
0.0
  0
VERTEX
  5
9D9
  8
0
  6
CONTINUOUS
 62
     7
 10
174.338512686
 20
-39.9278459471
 30
0.0
  0
VERTEX
  5
9DA
  8
0
  6
CONTINUOUS
 62
     7
 10
175.5102923186
 20
-39.4685753953
 30
0.0
  0
VERTEX
  5
9DB
  8
0
  6
CONTINUOUS
 62
     7
 10
176.7934789927
 20
-38.9620152634
 30
0.0
  0
VERTEX
  5
9DC
  8
0
  6
CONTINUOUS
 62
     7
 10
178.1554570467
 20
-38.4274323803
 30
0.0
  0
VERTEX
  5
9DD
  8
0
  6
CONTINUOUS
 62
     7
 10
179.1985800536
 20
-38.0227429193
 30
0.0
  0
SEQEND
  5
B04
  8
0
  6
CONTINUOUS
 62
     7
  0
ARC
  5
2A1
  8
0
  6
CONTINUOUS
 62
     7
 10
174.2297251908
 20
-36.9398495559
 30
0.0
 40
5.018532985869641
 50
206.364019141
 51
231.0485353891
  0
POLYLINE
  5
2A2
  8
0
  6
CONTINUOUS
 62
     7
 66
     1
 10
0.0
 20
0.0
 30
0.0
  0
VERTEX
  5
9DE
  8
0
  6
CONTINUOUS
 62
     7
 10
176.5358796389
 20
-33.7135029357
 30
0.0
  0
VERTEX
  5
9DF
  8
0
  6
CONTINUOUS
 62
     7
 10
175.3085067541
 20
-34.2660707754
 30
0.0
  0
VERTEX
  5
9E0
  8
0
  6
CONTINUOUS
 62
     7
 10
174.1350432904
 20
-34.8770072084
 30
0.0
  0
VERTEX
  5
9E1
  8
0
  6
CONTINUOUS
 62
     7
 10
173.0492910416
 20
-35.5291148048
 30
0.0
  0
VERTEX
  5
9E2
  8
0
  6
CONTINUOUS
 62
     7
 10
172.0799645455
 20
-36.1997281533
 30
0.0
  0
VERTEX
  5
9E3
  8
0
  6
CONTINUOUS
 62
     7
 10
171.2582876952
 20
-36.8616988283
 30
0.0
  0
VERTEX
  5
9E4
  8
0
  6
CONTINUOUS
 62
     7
 10
170.5964854033
 20
-37.4929656607
 30
0.0
  0
VERTEX
  5
9E5
  8
0
  6
CONTINUOUS
 62
     7
 10
170.1102009089
 20
-38.0685230118
 30
0.0
  0
VERTEX
  5
9E6
  8
0
  6
CONTINUOUS
 62
     7
 10
169.8074599774
 20
-38.5629830283
 30
0.0
  0
VERTEX
  5
9E7
  8
0
  6
CONTINUOUS
 62
     7
 10
169.6984311612
 20
-38.9101651829
 30
0.0
  0
VERTEX
  5
9E8
  8
0
  6
CONTINUOUS
 62
     7
 10
169.7331657679
 20
-39.1684425396
 30
0.0
  0
SEQEND
  5
B03
  8
0
  6
CONTINUOUS
 62
     7
  0
ARC
  5
2A3
  8
0
  6
CONTINUOUS
 62
     7
 10
204.7584959186
 20
-101.5430424599
 30
0.0
 40
73.46674418894807
 50
67.4086667073
 51
112.5912909408
  0
POLYLINE
  5
2A4
  8
0
  6
CONTINUOUS
 62
     7
 66
     1
 10
0.0
 20
0.0
 30
0.0
  0
VERTEX
  5
9E9
  8
0
  6
CONTINUOUS
 62
     7
 10
169.1459199459
 20
-38.1610756141
 30
0.0
  0
VERTEX
  5
9EA
  8
0
  6
CONTINUOUS
 62
     7
 10
169.1158851654
 20
-37.85849487
 30
0.0
  0
VERTEX
  5
9EB
  8
0
  6
CONTINUOUS
 62
     7
 10
169.2750027449
 20
-37.4405396503
 30
0.0
  0
VERTEX
  5
9EC
  8
0
  6
CONTINUOUS
 62
     7
 10
169.6243872912
 20
-36.9226699096
 30
0.0
  0
VERTEX
  5
9ED
  8
0
  6
CONTINUOUS
 62
     7
 10
170.1563557656
 20
-36.329064272
 30
0.0
  0
VERTEX
  5
9EE
  8
0
  6
CONTINUOUS
 62
     7
 10
170.8640446932
 20
-35.6836152595
 30
0.0
  0
VERTEX
  5
9EF
  8
0
  6
CONTINUOUS
 62
     7
 10
171.728717354
 20
-35.0134228688
 30
0.0
  0
VERTEX
  5
9F0
  8
0
  6
CONTINUOUS
 62
     7
 10
172.7274825842
 20
-34.3463150185
 30
0.0
  0
VERTEX
  5
9F1
  8
0
  6
CONTINUOUS
 62
     7
 10
173.8346686633
 20
-33.7029819709
 30
0.0
  0
VERTEX
  5
9F2
  8
0
  6
CONTINUOUS
 62
     7
 10
174.8616626532
 20
-33.1803714257
 30
0.0
  0
VERTEX
  5
9F3
  8
0
  6
CONTINUOUS
 62
     7
 10
175.9260585577
 20
-32.7029151243
 30
0.0
  0
SEQEND
  5
B02
  8
0
  6
CONTINUOUS
 62
     7
  0
POLYLINE
  5
2A5
  8
0
  6
CONTINUOUS
 62
     7
 66
     1
 10
0.0
 20
0.0
 30
0.0
  0
VERTEX
  5
9F4
  8
0
  6
CONTINUOUS
 62
     7
 10
233.5909834177
 20
-32.7029344958
 30
0.0
  0
VERTEX
  5
9F5
  8
0
  6
CONTINUOUS
 62
     7
 10
234.816887048
 20
-33.2585481328
 30
0.0
  0
VERTEX
  5
9F6
  8
0
  6
CONTINUOUS
 62
     7
 10
235.9885206492
 20
-33.8719209057
 30
0.0
  0
VERTEX
  5
9F7
  8
0
  6
CONTINUOUS
 62
     7
 10
237.072130111
 20
-34.525759272
 30
0.0
  0
VERTEX
  5
9F8
  8
0
  6
CONTINUOUS
 62
     7
 10
238.0390962632
 20
-35.1974015456
 30
0.0
  0
VERTEX
  5
9F9
  8
0
  6
CONTINUOUS
 62
     7
 10
238.8584455521
 20
-35.8598609787
 30
0.0
  0
VERTEX
  5
9FA
  8
0
  6
CONTINUOUS
 62
     7
 10
239.51775935
 20
-36.4909899753
 30
0.0
  0
VERTEX
  5
9FB
  8
0
  6
CONTINUOUS
 62
     7
 10
240.0014122994
 20
-37.0658208948
 30
0.0
  0
VERTEX
  5
9FC
  8
0
  6
CONTINUOUS
 62
     7
 10
240.3014501603
 20
-37.5590418798
 30
0.0
  0
VERTEX
  5
9FD
  8
0
  6
CONTINUOUS
 62
     7
 10
240.4080918105
 20
-37.9046899599
 30
0.0
  0
VERTEX
  5
9FE
  8
0
  6
CONTINUOUS
 62
     7
 10
240.3710683854
 20
-38.1611873728
 30
0.0
  0
SEQEND
  5
B01
  8
0
  6
CONTINUOUS
 62
     7
  0
ARC
  5
2A6
  8
0
  6
CONTINUOUS
 62
     7
 10
204.7584978807
 20
-101.4875880364
 30
0.0
 40
74.58311326932277
 50
67.2580150351
 51
112.7419464699
  0
ARC
  5
2A7
  8
0
  6
CONTINUOUS
 62
     7
 10
100.3297961126
 20
-28.548152854
 30
0.0
 40
1.00133254743324
 50
30.2905500975
 51
90.0802371884
  0
LINE
  5
2A8
  8
0
  6
CONTINUOUS
 62
     7
 10
69.1885909111
 20
-27.5468212884
 30
0.0
 11
75.1789053948
 21
-27.5468212884
 31
0.0
  0
LINE
  5
2A9
  8
0
  6
CONTINUOUS
 62
     7
 10
94.3380912812
 20
-27.5468212884
 30
0.0
 11
100.3283938439
 21
-27.5468212884
 31
0.0
  0
ARC
  5
2AA
  8
0
  6
CONTINUOUS
 62
     7
 10
69.1871931243
 20
-28.5481399061
 30
0.0
 40
1.001319593307547
 50
89.9200182297
 51
149.7098749392
  0
LINE
  5
2AB
  8
0
  6
CONTINUOUS
 62
     7
 10
67.8396424324
 20
-28.8733211678
 30
0.0
 11
68.3225711853
 21
-28.0430955213
 31
0.0
  0
LINE
  5
2AC
  8
0
  6
CONTINUOUS
 62
     7
 10
67.0378765137
 20
-29.0606079024
 30
0.0
 11
67.9761609108
 21
-27.447567634
 31
0.0
  0
ARC
  5
2AD
  8
0
  6
CONTINUOUS
 62
     7
 10
68.8407828498
 20
-27.9526120188
 30
0.0
 40
1.001319593307572
 50
89.9200182297
 51
149.7098749392
  0
LINE
  5
2AE
  8
0
  6
CONTINUOUS
 62
     7
 10
68.8421806366
 20
-26.9512934011
 30
0.0
 11
81.9607457192
 21
-26.9512934011
 31
0.0
  0
ARC
  5
2AF
  8
0
  6
CONTINUOUS
 62
     7
 10
82.746279899
 20
-26.3524154991
 30
0.0
 40
0.9877847382996019
 50
180.0227454777
 51
217.3212811101
  0
LINE
  5
2B0
  8
0
  6
CONTINUOUS
 62
     7
 10
81.7584952385
 20
-26.3528076333
 30
0.0
 11
81.7584952385
 21
-22.382622711
 31
0.0
  0
ARC
  5
2B1
  8
0
  6
CONTINUOUS
 62
     7
 10
82.7547911698
 20
-22.3863718388
 30
0.0
 40
0.9963029853184979
 50
89.787039327
 51
179.784393197
  0
LINE
  5
2B2
  8
0
  6
CONTINUOUS
 62
     7
 10
86.7585023911
 20
-21.3900757354
 30
0.0
 11
82.7584942849
 21
-21.3900757354
 31
0.0
  0
ARC
  5
2B3
  8
0
  6
CONTINUOUS
 62
     7
 10
86.7622005679
 20
-22.3863768141
 30
0.0
 40
0.9963079423291834
 50
0.2158918575
 51
90.2126756186
  0
LINE
  5
2B4
  8
0
  6
CONTINUOUS
 62
     7
 10
87.7585014374
 20
-26.3528076333
 30
0.0
 11
87.7585014374
 21
-22.382622711
 31
0.0
  0
ARC
  5
2B5
  8
0
  6
CONTINUOUS
 62
     7
 10
86.7707167769
 20
-26.3524154991
 30
0.0
 40
0.9877847382995892
 50
322.6787188899
 51
359.9772545223
  0
LINE
  5
2B6
  8
0
  6
CONTINUOUS
 62
     7
 10
87.5562509568
 20
-26.9512934011
 30
0.0
 11
100.6748041184
 21
-26.9512934011
 31
0.0
  0
ARC
  5
2B7
  8
0
  6
CONTINUOUS
 62
     7
 10
100.6762063871
 20
-27.9526249667
 30
0.0
 40
1.001332547433222
 50
30.2905500975
 51
90.0802371884
  0
LINE
  5
2B8
  8
0
  6
CONTINUOUS
 62
     7
 10
101.5408357651
 20
-27.447567634
 30
0.0
 11
102.4791201622
 21
-29.0606079024
 31
0.0
  0
LINE
  5
2B9
  8
0
  6
CONTINUOUS
 62
     7
 10
101.1944254906
 20
-28.0430955213
 30
0.0
 11
101.6773542435
 21
-28.8733211678
 31
0.0
  0
ARC
  5
2BA
  8
0
  6
CONTINUOUS
 62
     7
 10
100.3297992141
 20
-29.2793653293
 30
0.0
 40
1.001328655991121
 50
30.2905207486
 51
90.0804149658
  0
ARC
  5
2BB
  8
0
  6
CONTINUOUS
 62
     7
 10
69.1871900226
 20
-29.2793523811
 30
0.0
 40
1.001315701579119
 50
89.9198404409
 51
149.7099042986
  0
LINE
  5
2BC
  8
0
  6
CONTINUOUS
 62
     7
 10
69.1885909111
 20
-28.2780376595
 30
0.0
 11
70.6071337731
 21
-28.2780376595
 31
0.0
  0
LINE
  5
2BD
  8
0
  6
CONTINUOUS
 62
     7
 10
98.9098509819
 20
-28.2780376595
 30
0.0
 11
100.3283938439
 21
-28.2780376595
 31
0.0
  0
LINE
  5
2BE
  8
0
  6
CONTINUOUS
 62
     7
 10
87.7585014374
 20
-26.3528076333
 30
0.0
 11
87.7585014374
 21
-26.9512934011
 31
0.0
  0
LINE
  5
2BF
  8
0
  6
CONTINUOUS
 62
     7
 10
81.7584952385
 20
-26.9512934011
 30
0.0
 11
81.7584952385
 21
-26.3528076333
 31
0.0
  0
LINE
  5
2C0
  8
0
  6
CONTINUOUS
 62
     7
 10
81.7584952385
 20
-38.561054818
 30
0.0
 11
81.7584952385
 21
-33.3570865315
 31
0.0
  0
LINE
  5
2C1
  8
0
  6
CONTINUOUS
 62
     7
 10
87.7585014374
 20
-33.3570865315
 30
0.0
 11
87.7585014374
 21
-38.561054818
 31
0.0
  0
ARC
  5
2C2
  8
0
  6
CONTINUOUS
 62
     7
 10
86.7584971459
 20
-39.04802324
 30
0.0
 40
1.0
 50
270.0
 51
0.0
  0
LINE
  5
2C3
  8
0
  6
CONTINUOUS
 62
     7
 10
87.7585014374
 20
-38.561054818
 30
0.0
 11
87.7585014374
 21
-39.0480232757
 31
0.0
  0
LINE
  5
2C4
  8
0
  6
CONTINUOUS
 62
     7
 10
86.7585023911
 20
-40.0480230671
 30
0.0
 11
82.7584942849
 21
-40.0480230671
 31
0.0
  0
ARC
  5
2C5
  8
0
  6
CONTINUOUS
 62
     7
 10
82.7584971459
 20
-39.04802324
 30
0.0
 40
1.0
 50
180.0
 51
270.0
  0
LINE
  5
2C6
  8
0
  6
CONTINUOUS
 62
     7
 10
81.7584952385
 20
-39.0480232757
 30
0.0
 11
81.7584952385
 21
-38.561054818
 31
0.0
  0
LINE
  5
2C7
  8
0
  6
CONTINUOUS
 62
     7
 10
87.7585014374
 20
-40.0480230671
 30
0.0
 11
102.7584990532
 21
-40.0480230671
 31
0.0
  0
LINE
  5
2C8
  8
0
  6
CONTINUOUS
 62
     7
 10
102.7584990532
 20
-40.0480230671
 30
0.0
 11
102.7584990532
 21
-41.048023231
 31
0.0
  0
LINE
  5
2C9
  8
0
  6
CONTINUOUS
 62
     7
 10
66.7584976227
 20
-41.048023231
 30
0.0
 11
66.7584976227
 21
-40.0480230671
 31
0.0
  0
LINE
  5
2CA
  8
0
  6
CONTINUOUS
 62
     7
 10
66.7584976227
 20
-40.0480230671
 30
0.0
 11
81.7584952385
 21
-40.0480230671
 31
0.0
  0
LINE
  5
2CB
  8
0
  6
CONTINUOUS
 62
     7
 10
66.7584976227
 20
-50.2480232489
 30
0.0
 11
66.7584976227
 21
-41.048023231
 31
0.0
  0
LINE
  5
2CC
  8
0
  6
CONTINUOUS
 62
     7
 10
102.7584990532
 20
-50.2480232489
 30
0.0
 11
102.7584990532
 21
-41.048023231
 31
0.0
  0
LINE
  5
2CD
  8
0
  6
CONTINUOUS
 62
     7
 10
87.7585014374
 20
-39.0480232757
 30
0.0
 11
87.7585014374
 21
-41.048023231
 31
0.0
  0
LINE
  5
2CE
  8
0
  6
CONTINUOUS
 62
     7
 10
81.7584952385
 20
-41.048023231
 30
0.0
 11
81.7584952385
 21
-39.0480232757
 31
0.0
  0
LINE
  5
2CF
  8
0
  6
CONTINUOUS
 62
     7
 10
102.7584990532
 20
-51.2480234128
 30
0.0
 11
98.7323245079
 21
-51.2480234128
 31
0.0
  0
LINE
  5
2D0
  8
0
  6
CONTINUOUS
 62
     7
 10
70.7855781586
 20
-51.2480234128
 30
0.0
 11
66.7584976227
 21
-51.2480234128
 31
0.0
  0
LINE
  5
2D1
  8
0
  6
CONTINUOUS
 62
     7
 10
66.7584976227
 20
-51.2480234128
 30
0.0
 11
66.7584976227
 21
-50.2480232489
 31
0.0
  0
LINE
  5
2D2
  8
0
  6
CONTINUOUS
 62
     7
 10
102.7584990532
 20
-50.2480232489
 30
0.0
 11
102.7584990532
 21
-51.2480234128
 31
0.0
  0
ARC
  5
2D3
  8
0
  6
CONTINUOUS
 62
     7
 10
340.3298011675
 20
-28.5481399061
 30
0.0
 40
1.001319593307557
 50
30.2901250608
 51
90.0799817703
  0
LINE
  5
2D4
  8
0
  6
CONTINUOUS
 62
     7
 10
309.1886004479
 20
-27.5468212884
 30
0.0
 11
315.1789030106
 21
-27.5468212884
 31
0.0
  0
LINE
  5
2D5
  8
0
  6
CONTINUOUS
 62
     7
 10
334.338088897
 20
-27.5468212884
 30
0.0
 11
340.3284033806
 21
-27.5468212884
 31
0.0
  0
ARC
  5
2D6
  8
0
  6
CONTINUOUS
 62
     7
 10
309.1871981791
 20
-28.548152854
 30
0.0
 40
1.001332547433251
 50
89.9197628116
 51
149.7094499025
  0
LINE
  5
2D7
  8
0
  6
CONTINUOUS
 62
     7
 10
307.8396400483
 20
-28.8733211678
 30
0.0
 11
308.3225688012
 21
-28.0430955213
 31
0.0
  0
LINE
  5
2D8
  8
0
  6
CONTINUOUS
 62
     7
 10
307.0378741295
 20
-29.0606079024
 30
0.0
 11
307.9761585266
 21
-27.447567634
 31
0.0
  0
ARC
  5
2D9
  8
0
  6
CONTINUOUS
 62
     7
 10
308.8407879046
 20
-27.9526249667
 30
0.0
 40
1.001332547433226
 50
89.9197628116
 51
149.7094499025
  0
LINE
  5
2DA
  8
0
  6
CONTINUOUS
 62
     7
 10
308.8421901734
 20
-26.9512934011
 30
0.0
 11
321.960743335
 21
-26.9512934011
 31
0.0
  0
ARC
  5
2DB
  8
0
  6
CONTINUOUS
 62
     7
 10
322.7462775148
 20
-26.3524154991
 30
0.0
 40
0.9877847382999146
 50
180.0227454777
 51
217.3212811101
  0
LINE
  5
2DC
  8
0
  6
CONTINUOUS
 62
     7
 10
321.7584928543
 20
-26.3528076333
 30
0.0
 11
321.7584928543
 21
-22.382622711
 31
0.0
  0
ARC
  5
2DD
  8
0
  6
CONTINUOUS
 62
     7
 10
322.7547937239
 20
-22.3863768141
 30
0.0
 40
0.9963079423292464
 50
89.7873243814
 51
179.7841081425
  0
LINE
  5
2DE
  8
0
  6
CONTINUOUS
 62
     7
 10
326.7585000069
 20
-21.3900757354
 30
0.0
 11
322.7584919007
 21
-21.3900757354
 31
0.0
  0
ARC
  5
2DF
  8
0
  6
CONTINUOUS
 62
     7
 10
326.762203122
 20
-22.3863718388
 30
0.0
 40
0.9963029853185122
 50
0.215606803
 51
90.212960673
  0
LINE
  5
2E0
  8
0
  6
CONTINUOUS
 62
     7
 10
327.7584990532
 20
-26.3528076333
 30
0.0
 11
327.7584990532
 21
-22.382622711
 31
0.0
  0
ARC
  5
2E1
  8
0
  6
CONTINUOUS
 62
     7
 10
326.7707143928
 20
-26.3524154991
 30
0.0
 40
0.9877847382996232
 50
322.6787188899
 51
359.9772545223
  0
LINE
  5
2E2
  8
0
  6
CONTINUOUS
 62
     7
 10
327.5562485726
 20
-26.9512934011
 30
0.0
 11
340.6748136551
 21
-26.9512934011
 31
0.0
  0
ARC
  5
2E3
  8
0
  6
CONTINUOUS
 62
     7
 10
340.676211442
 20
-27.9526120188
 30
0.0
 40
1.001319593307409
 50
30.2901250608
 51
90.0799817703
  0
LINE
  5
2E4
  8
0
  6
CONTINUOUS
 62
     7
 10
341.5408333809
 20
-27.447567634
 30
0.0
 11
342.4791177781
 21
-29.0606079024
 31
0.0
  0
LINE
  5
2E5
  8
0
  6
CONTINUOUS
 62
     7
 10
341.1944231064
 20
-28.0430955213
 30
0.0
 11
341.6773518593
 21
-28.8733211678
 31
0.0
  0
ARC
  5
2E6
  8
0
  6
CONTINUOUS
 62
     7
 10
340.3298042691
 20
-29.2793523811
 30
0.0
 40
1.001315701579123
 50
30.2900957014
 51
90.0801595591
  0
ARC
  5
2E7
  8
0
  6
CONTINUOUS
 62
     7
 10
309.1871950776
 20
-29.2793653293
 30
0.0
 40
1.001328655991137
 50
89.9195850342
 51
149.7094792514
  0
LINE
  5
2E8
  8
0
  6
CONTINUOUS
 62
     7
 10
309.1886004479
 20
-28.2780376595
 30
0.0
 11
310.6071433098
 21
-28.2780376595
 31
0.0
  0
LINE
  5
2E9
  8
0
  6
CONTINUOUS
 62
     7
 10
338.9098605187
 20
-28.2780376595
 30
0.0
 11
340.3284033806
 21
-28.2780376595
 31
0.0
  0
LINE
  5
2EA
  8
0
  6
CONTINUOUS
 62
     7
 10
327.7584990532
 20
-26.3528076333
 30
0.0
 11
327.7584990532
 21
-26.9512934011
 31
0.0
  0
LINE
  5
2EB
  8
0
  6
CONTINUOUS
 62
     7
 10
321.7584928543
 20
-26.9512934011
 30
0.0
 11
321.7584928543
 21
-26.3528076333
 31
0.0
  0
LINE
  5
2EC
  8
0
  6
CONTINUOUS
 62
     7
 10
327.7584990532
 20
-33.3570865315
 30
0.0
 11
327.7584990532
 21
-38.561054818
 31
0.0
  0
LINE
  5
2ED
  8
0
  6
CONTINUOUS
 62
     7
 10
321.7584928543
 20
-38.561054818
 30
0.0
 11
321.7584928543
 21
-33.3570865315
 31
0.0
  0
ARC
  5
2EE
  8
0
  6
CONTINUOUS
 62
     7
 10
322.7584971459
 20
-39.04802324
 30
0.0
 40
1.0
 50
180.0
 51
270.0
  0
LINE
  5
2EF
  8
0
  6
CONTINUOUS
 62
     7
 10
321.7584928543
 20
-39.0480232757
 30
0.0
 11
321.7584928543
 21
-38.561054818
 31
0.0
  0
LINE
  5
2F0
  8
0
  6
CONTINUOUS
 62
     7
 10
326.7585000069
 20
-40.0480230671
 30
0.0
 11
322.7584919007
 21
-40.0480230671
 31
0.0
  0
ARC
  5
2F1
  8
0
  6
CONTINUOUS
 62
     7
 10
326.7584971459
 20
-39.04802324
 30
0.0
 40
1.0
 50
270.0
 51
0.0
  0
LINE
  5
2F2
  8
0
  6
CONTINUOUS
 62
     7
 10
327.7584990532
 20
-38.561054818
 30
0.0
 11
327.7584990532
 21
-39.0480232757
 31
0.0
  0
LINE
  5
2F3
  8
0
  6
CONTINUOUS
 62
     7
 10
306.7584952385
 20
-41.048023231
 30
0.0
 11
306.7584952385
 21
-40.0480230671
 31
0.0
  0
LINE
  5
2F4
  8
0
  6
CONTINUOUS
 62
     7
 10
306.7584952385
 20
-40.0480230671
 30
0.0
 11
321.7584928543
 21
-40.0480230671
 31
0.0
  0
LINE
  5
2F5
  8
0
  6
CONTINUOUS
 62
     7
 10
327.7584990532
 20
-40.0480230671
 30
0.0
 11
342.758496669
 21
-40.0480230671
 31
0.0
  0
LINE
  5
2F6
  8
0
  6
CONTINUOUS
 62
     7
 10
342.758496669
 20
-40.0480230671
 30
0.0
 11
342.758496669
 21
-41.048023231
 31
0.0
  0
LINE
  5
2F7
  8
0
  6
CONTINUOUS
 62
     7
 10
306.7584952385
 20
-50.2480232489
 30
0.0
 11
306.7584952385
 21
-41.048023231
 31
0.0
  0
LINE
  5
2F8
  8
0
  6
CONTINUOUS
 62
     7
 10
342.758496669
 20
-50.2480232489
 30
0.0
 11
342.758496669
 21
-41.048023231
 31
0.0
  0
LINE
  5
2F9
  8
0
  6
CONTINUOUS
 62
     7
 10
327.7584990532
 20
-39.0480232757
 30
0.0
 11
327.7584990532
 21
-41.048023231
 31
0.0
  0
LINE
  5
2FA
  8
0
  6
CONTINUOUS
 62
     7
 10
321.7584928543
 20
-41.048023231
 30
0.0
 11
321.7584928543
 21
-39.0480232757
 31
0.0
  0
LINE
  5
2FB
  8
0
  6
CONTINUOUS
 62
     7
 10
342.758496669
 20
-51.2480234128
 30
0.0
 11
338.7323221238
 21
-51.2480234128
 31
0.0
  0
LINE
  5
2FC
  8
0
  6
CONTINUOUS
 62
     7
 10
310.7855757744
 20
-51.2480234128
 30
0.0
 11
306.7584952385
 21
-51.2480234128
 31
0.0
  0
LINE
  5
2FD
  8
0
  6
CONTINUOUS
 62
     7
 10
306.7584952385
 20
-51.2480234128
 30
0.0
 11
306.7584952385
 21
-50.2480232489
 31
0.0
  0
LINE
  5
2FE
  8
0
  6
CONTINUOUS
 62
     7
 10
342.758496669
 20
-50.2480232489
 30
0.0
 11
342.758496669
 21
-51.2480234128
 31
0.0
  0
ARC
  5
2FF
  8
0
  6
CONTINUOUS
 62
     7
 10
220.3297974324
 20
-28.5481458872
 30
0.0
 40
1.001325577889828
 50
30.2903213797
 51
90.0801256805
  0
LINE
  5
300
  8
0
  6
CONTINUOUS
 62
     7
 10
189.1885971696
 20
-27.5468212884
 30
0.0
 11
195.1789042027
 21
-27.5468212884
 31
0.0
  0
LINE
  5
301
  8
0
  6
CONTINUOUS
 62
     7
 10
214.3380900891
 20
-27.5468212884
 30
0.0
 11
220.3283971221
 21
-27.5468212884
 31
0.0
  0
ARC
  5
302
  8
0
  6
CONTINUOUS
 62
     7
 10
189.1871968594
 20
-28.5481458872
 30
0.0
 40
1.001325577889771
 50
89.9198743195
 51
149.7096786203
  0
LINE
  5
303
  8
0
  6
CONTINUOUS
 62
     7
 10
187.8396397502
 20
-28.8733211678
 30
0.0
 11
188.3225714834
 21
-28.0430955213
 31
0.0
  0
LINE
  5
304
  8
0
  6
CONTINUOUS
 62
     7
 10
187.0378783018
 20
-29.0606079024
 30
0.0
 11
187.9761612089
 21
-27.447567634
 31
0.0
  0
ARC
  5
305
  8
0
  6
CONTINUOUS
 62
     7
 10
188.8407865849
 20
-27.9526179999
 30
0.0
 40
1.001325577889818
 50
89.9198743195
 51
149.7096786203
  0
LINE
  5
306
  8
0
  6
CONTINUOUS
 62
     7
 10
188.8421868951
 20
-26.9512934011
 30
0.0
 11
201.9607419194
 21
-26.9512934011
 31
0.0
  0
ARC
  5
307
  8
0
  6
CONTINUOUS
 62
     7
 10
202.746251339
 20
-26.3524333964
 30
0.0
 40
0.9877541969110574
 50
180.0217080282
 51
217.3213262934
  0
LINE
  5
308
  8
0
  6
CONTINUOUS
 62
     7
 10
201.7584972129
 20
-26.3528076333
 30
0.0
 11
201.7584972129
 21
-22.382622711
 31
0.0
  0
ARC
  5
309
  8
0
  6
CONTINUOUS
 62
     7
 10
202.7547854476
 20
-22.3863640809
 30
0.0
 40
0.9962952596054304
 50
89.7865414901
 51
179.7848376744
  0
LINE
  5
30A
  8
0
  6
CONTINUOUS
 62
     7
 10
206.7584971012
 20
-21.3900757354
 30
0.0
 11
202.7584971906
 21
-21.3900757354
 31
0.0
  0
ARC
  5
30B
  8
0
  6
CONTINUOUS
 62
     7
 10
206.7622088442
 20
-22.3863640809
 30
0.0
 40
0.996295259605515
 50
0.2151623256
 51
90.2134585099
  0
LINE
  5
30C
  8
0
  6
CONTINUOUS
 62
     7
 10
207.7584970788
 20
-26.3528076333
 30
0.0
 11
207.7584970788
 21
-22.382622711
 31
0.0
  0
ARC
  5
30D
  8
0
  6
CONTINUOUS
 62
     7
 10
206.7707429528
 20
-26.3524333964
 30
0.0
 40
0.9877541969111114
 50
322.6786737066
 51
359.9782919718
  0
LINE
  5
30E
  8
0
  6
CONTINUOUS
 62
     7
 10
207.5562523724
 20
-26.9512934011
 30
0.0
 11
220.6748073966
 21
-26.9512934011
 31
0.0
  0
ARC
  5
30F
  8
0
  6
CONTINUOUS
 62
     7
 10
220.6762077069
 20
-27.9526179999
 30
0.0
 40
1.001325577889743
 50
30.2903213797
 51
90.0801256805
  0
LINE
  5
310
  8
0
  6
CONTINUOUS
 62
     7
 10
221.5408330829
 20
-27.447567634
 30
0.0
 11
222.4791159899
 21
-29.0606079024
 31
0.0
  0
LINE
  5
311
  8
0
  6
CONTINUOUS
 62
     7
 10
221.1944228084
 20
-28.0430955213
 30
0.0
 11
221.6773545415
 21
-28.8733211678
 31
0.0
  0
ARC
  5
312
  8
0
  6
CONTINUOUS
 62
     7
 10
220.329800534
 20
-29.2793583623
 30
0.0
 40
1.001321686253558
 50
30.2902920238
 51
90.0803034654
  0
ARC
  5
313
  8
0
  6
CONTINUOUS
 62
     7
 10
189.1871937578
 20
-29.2793583623
 30
0.0
 40
1.001321686253505
 50
89.9196965346
 51
149.7097079762
  0
LINE
  5
314
  8
0
  6
CONTINUOUS
 62
     7
 10
189.1885971696
 20
-28.2780376595
 30
0.0
 11
190.6071385414
 21
-28.2780376595
 31
0.0
  0
LINE
  5
315
  8
0
  6
CONTINUOUS
 62
     7
 10
218.9098557503
 20
-28.2780376595
 30
0.0
 11
220.3283971221
 21
-28.2780376595
 31
0.0
  0
LINE
  5
316
  8
0
  6
CONTINUOUS
 62
     7
 10
207.7584970788
 20
-26.3528076333
 30
0.0
 11
207.7584970788
 21
-26.9512934011
 31
0.0
  0
LINE
  5
317
  8
0
  6
CONTINUOUS
 62
     7
 10
201.7584972129
 20
-26.9512934011
 30
0.0
 11
201.7584972129
 21
-26.3528076333
 31
0.0
  0
LINE
  5
318
  8
0
  6
CONTINUOUS
 62
     7
 10
207.7584970788
 20
-33.3570865315
 30
0.0
 11
207.7584970788
 21
-38.561054818
 31
0.0
  0
LINE
  5
319
  8
0
  6
CONTINUOUS
 62
     7
 10
201.7584972129
 20
-38.561054818
 30
0.0
 11
201.7584972129
 21
-33.3570865315
 31
0.0
  0
LINE
  5
31A
  8
0
  6
CONTINUOUS
 62
     7
 10
206.7584971012
 20
-40.0480230671
 30
0.0
 11
202.7584971906
 21
-40.0480230671
 31
0.0
  0
ARC
  5
31B
  8
0
  6
CONTINUOUS
 62
     7
 10
202.7584971459
 20
-39.04802324
 30
0.0
 40
1.0
 50
180.0
 51
270.0
  0
LINE
  5
31C
  8
0
  6
CONTINUOUS
 62
     7
 10
201.7584972129
 20
-39.0480232757
 30
0.0
 11
201.7584972129
 21
-38.561054818
 31
0.0
  0
ARC
  5
31D
  8
0
  6
CONTINUOUS
 62
     7
 10
206.7584971459
 20
-39.04802324
 30
0.0
 40
1.0
 50
270.0
 51
0.0
  0
LINE
  5
31E
  8
0
  6
CONTINUOUS
 62
     7
 10
207.7584970788
 20
-38.561054818
 30
0.0
 11
207.7584970788
 21
-39.0480232757
 31
0.0
  0
LINE
  5
31F
  8
0
  6
CONTINUOUS
 62
     7
 10
207.7584970788
 20
-40.0480230671
 30
0.0
 11
222.7584978611
 21
-40.0480230671
 31
0.0
  0
LINE
  5
320
  8
0
  6
CONTINUOUS
 62
     7
 10
222.7584978611
 20
-40.0480230671
 30
0.0
 11
222.7584978611
 21
-41.048023231
 31
0.0
  0
LINE
  5
321
  8
0
  6
CONTINUOUS
 62
     7
 10
186.7584964306
 20
-41.048023231
 30
0.0
 11
186.7584964306
 21
-40.0480230671
 31
0.0
  0
LINE
  5
322
  8
0
  6
CONTINUOUS
 62
     7
 10
186.7584964306
 20
-40.0480230671
 30
0.0
 11
201.7584972129
 21
-40.0480230671
 31
0.0
  0
LINE
  5
323
  8
0
  6
CONTINUOUS
 62
     7
 10
186.7584964306
 20
-50.2480232489
 30
0.0
 11
186.7584964306
 21
-41.048023231
 31
0.0
  0
LINE
  5
324
  8
0
  6
CONTINUOUS
 62
     7
 10
222.7584978611
 20
-50.2480232489
 30
0.0
 11
222.7584978611
 21
-41.048023231
 31
0.0
  0
LINE
  5
325
  8
0
  6
CONTINUOUS
 62
     7
 10
201.7584972129
 20
-41.048023231
 30
0.0
 11
201.7584972129
 21
-39.0480232757
 31
0.0
  0
LINE
  5
326
  8
0
  6
CONTINUOUS
 62
     7
 10
207.7584970788
 20
-39.0480232757
 30
0.0
 11
207.7584970788
 21
-41.048023231
 31
0.0
  0
LINE
  5
327
  8
0
  6
CONTINUOUS
 62
     7
 10
222.7584978611
 20
-51.2480234128
 30
0.0
 11
218.7323277862
 21
-51.2480234128
 31
0.0
  0
LINE
  5
328
  8
0
  6
CONTINUOUS
 62
     7
 10
190.7855724962
 20
-51.2480234128
 30
0.0
 11
186.7584964306
 21
-51.2480234128
 31
0.0
  0
LINE
  5
329
  8
0
  6
CONTINUOUS
 62
     7
 10
186.7584964306
 20
-51.2480234128
 30
0.0
 11
186.7584964306
 21
-50.2480232489
 31
0.0
  0
LINE
  5
32A
  8
0
  6
CONTINUOUS
 62
     7
 10
222.7584978611
 20
-50.2480232489
 30
0.0
 11
222.7584978611
 21
-51.2480234128
 31
0.0
  0
ARC
  5
32B
  8
0
  6
CONTINUOUS
 62
     7
 10
56.6362650412
 20
-63.5474811064
 30
0.0
 40
7.34922122732814
 50
115.901904995
 51
164.5641043464
  0
ARC
  5
32C
  8
0
  6
CONTINUOUS
 62
     7
 10
84.7584953577
 20
-123.2368072976
 30
0.0
 40
73.33115047861382
 50
64.7052203947
 51
115.2947796053
  0
ARC
  5
32D
  8
0
  6
CONTINUOUS
 62
     7
 10
112.8967786462
 20
-63.5341309837
 30
0.0
 40
7.330204822447428
 50
15.3686942198
 51
64.1653831319
  0
POLYLINE
  5
32E
  8
0
  6
CONTINUOUS
 62
     7
 66
     1
 10
0.0
 20
0.0
 30
0.0
  0
VERTEX
  5
9FF
  8
0
  6
CONTINUOUS
 62
     7
 10
119.9648400814
 20
-61.5914178413
 30
0.0
  0
VERTEX
  5
A00
  8
0
  6
CONTINUOUS
 62
     7
 10
120.881905225
 20
-64.8830217641
 30
0.0
  0
VERTEX
  5
A01
  8
0
  6
CONTINUOUS
 62
     7
 10
121.4830836327
 20
-68.1592968625
 30
0.0
  0
VERTEX
  5
A02
  8
0
  6
CONTINUOUS
 62
     7
 10
121.840604213
 20
-71.4514372271
 30
0.0
  0
VERTEX
  5
A03
  8
0
  6
CONTINUOUS
 62
     7
 10
122.0553597481
 20
-74.7466204089
 30
0.0
  0
VERTEX
  5
A04
  8
0
  6
CONTINUOUS
 62
     7
 10
122.1371075184
 20
-78.044810645
 30
0.0
  0
VERTEX
  5
A05
  8
0
  6
CONTINUOUS
 62
     7
 10
122.1339425118
 20
-81.3456324261
 30
0.0
  0
VERTEX
  5
A06
  8
0
  6
CONTINUOUS
 62
     7
 10
122.1068402798
 20
-84.6458998841
 30
0.0
  0
VERTEX
  5
A07
  8
0
  6
CONTINUOUS
 62
     7
 10
122.1046825917
 20
-87.9434165877
 30
0.0
  0
VERTEX
  5
A08
  8
0
  6
CONTINUOUS
 62
     7
 10
122.1516212494
 20
-94.2635652941
 30
0.0
  0
VERTEX
  5
A09
  8
0
  6
CONTINUOUS
 62
     7
 10
122.1857091458
 20
-100.5842951459
 30
0.0
  0
VERTEX
  5
A0A
  8
0
  6
CONTINUOUS
 62
     7
 10
122.1947154076
 20
-106.8375257176
 30
0.0
  0
VERTEX
  5
A0B
  8
0
  6
CONTINUOUS
 62
     7
 10
122.1965333493
 20
-108.6822477501
 30
0.0
  0
VERTEX
  5
A0C
  8
0
  6
CONTINUOUS
 62
     7
 10
122.201021579
 20
-110.5497745198
 30
0.0
  0
VERTEX
  5
A0D
  8
0
  6
CONTINUOUS
 62
     7
 10
122.2102185757
 20
-112.4451366585
 30
0.0
  0
VERTEX
  5
A0E
  8
0
  6
CONTINUOUS
 62
     7
 10
122.2262045414
 20
-114.3727031869
 30
0.0
  0
VERTEX
  5
A0F
  8
0
  6
CONTINUOUS
 62
     7
 10
122.2503026993
 20
-116.3412777108
 30
0.0
  0
SEQEND
  5
B00
  8
0
  6
CONTINUOUS
 62
     7
  0
ARC
  5
32F
  8
0
  6
CONTINUOUS
 62
     7
 10
115.5301558998
 20
-116.534628789
 30
0.0
 40
6.722927758566255
 50
275.3898914204
 51
1.6480511034
  0
ARC
  5
330
  8
0
  6
CONTINUOUS
 62
     7
 10
84.7584953577
 20
216.7030894768
 30
0.0
 40
341.3783673145878
 50
264.7219385558
 51
275.2780614442
  0
ARC
  5
331
  8
0
  6
CONTINUOUS
 62
     7
 10
53.9768406604
 20
-116.5434707809
 30
0.0
 40
6.713192277529898
 50
178.2740607887
 51
264.6879410205
  0
POLYLINE
  5
332
  8
0
  6
CONTINUOUS
 62
     7
 66
     1
 10
0.0
 20
0.0
 30
0.0
  0
VERTEX
  5
A10
  8
0
  6
CONTINUOUS
 62
     7
 10
47.2666939766
 20
-116.3412777108
 30
0.0
  0
VERTEX
  5
A11
  8
0
  6
CONTINUOUS
 62
     7
 10
47.2950061829
 20
-113.9442530793
 30
0.0
  0
VERTEX
  5
A12
  8
0
  6
CONTINUOUS
 62
     7
 10
47.3115524323
 20
-111.6045621556
 30
0.0
  0
VERTEX
  5
A13
  8
0
  6
CONTINUOUS
 62
     7
 10
47.3193487198
 20
-109.310158841
 30
0.0
  0
VERTEX
  5
A14
  8
0
  6
CONTINUOUS
 62
     7
 10
47.3221382172
 20
-107.0522872132
 30
0.0
  0
VERTEX
  5
A15
  8
0
  6
CONTINUOUS
 62
     7
 10
47.3235448868
 20
-104.8217562359
 30
0.0
  0
VERTEX
  5
A16
  8
0
  6
CONTINUOUS
 62
     7
 10
47.3264535935
 20
-102.5943187398
 30
0.0
  0
VERTEX
  5
A17
  8
0
  6
CONTINUOUS
 62
     7
 10
47.3319968254
 20
-100.3534165543
 30
0.0
  0
VERTEX
  5
A18
  8
0
  6
CONTINUOUS
 62
     7
 10
47.3663171799
 20
-94.1473570984
 30
0.0
  0
VERTEX
  5
A19
  8
0
  6
CONTINUOUS
 62
     7
 10
47.4123081238
 20
-87.9434165877
 30
0.0
  0
VERTEX
  5
A1A
  8
0
  6
CONTINUOUS
 62
     7
 10
47.4101504357
 20
-84.6458998841
 30
0.0
  0
VERTEX
  5
A1B
  8
0
  6
CONTINUOUS
 62
     7
 10
47.3830541642
 20
-81.3456324261
 30
0.0
  0
VERTEX
  5
A1C
  8
0
  6
CONTINUOUS
 62
     7
 10
47.3798831971
 20
-78.044810645
 30
0.0
  0
VERTEX
  5
A1D
  8
0
  6
CONTINUOUS
 62
     7
 10
47.4616369278
 20
-74.7466204089
 30
0.0
  0
VERTEX
  5
A1E
  8
0
  6
CONTINUOUS
 62
     7
 10
47.676392463
 20
-71.4514372271
 30
0.0
  0
VERTEX
  5
A1F
  8
0
  6
CONTINUOUS
 62
     7
 10
48.0339130432
 20
-68.1592968625
 30
0.0
  0
VERTEX
  5
A20
  8
0
  6
CONTINUOUS
 62
     7
 10
48.6350854905
 20
-64.8830217641
 30
0.0
  0
VERTEX
  5
A21
  8
0
  6
CONTINUOUS
 62
     7
 10
49.552150634
 20
-61.5914178413
 30
0.0
  0
SEQEND
  5
AFF
  8
0
  6
CONTINUOUS
 62
     7
  0
ARC
  5
333
  8
0
  6
CONTINUOUS
 62
     7
 10
84.7584953577
 20
-123.2245271373
 30
0.0
 40
73.339706205994
 50
64.3650307858
 51
115.6349692142
  0
ARC
  5
334
  8
0
  6
CONTINUOUS
 62
     7
 10
113.2322738196
 20
-63.7101893677
 30
0.0
 40
7.365063780396271
 50
15.5445901336
 51
63.7661300822
  0
ARC
  5
335
  8
0
  6
CONTINUOUS
 62
     7
 10
56.266899998
 20
-63.6954209282
 30
0.0
 40
7.343946902241084
 50
116.16011569
 51
164.5291640942
  0
POLYLINE
  5
336
  8
0
  6
CONTINUOUS
 62
     7
 66
     1
 10
0.0
 20
0.0
 30
0.0
  0
VERTEX
  5
A22
  8
0
  6
CONTINUOUS
 62
     7
 10
120.3279396565
 20
-61.7364389223
 30
0.0
  0
VERTEX
  5
A23
  8
0
  6
CONTINUOUS
 62
     7
 10
120.76185551
 20
-63.249593727
 30
0.0
  0
VERTEX
  5
A24
  8
0
  6
CONTINUOUS
 62
     7
 10
121.1598297627
 20
-64.7627515119
 30
0.0
  0
SEQEND
  5
AFE
  8
0
  6
CONTINUOUS
 62
     7
  0
ARC
  5
337
  8
0
  6
CONTINUOUS
 62
     7
 10
62.517197648
 20
-76.7047165534
 30
0.0
 40
59.84602014344743
 50
6.6420820492
 51
11.5103020782
  0
POLYLINE
  5
338
  8
0
  6
CONTINUOUS
 62
     7
 66
     1
 10
0.0
 20
0.0
 30
0.0
  0
VERTEX
  5
A25
  8
0
  6
CONTINUOUS
 62
     7
 10
121.9612499745
 20
-69.782553367
 30
0.0
  0
VERTEX
  5
A26
  8
0
  6
CONTINUOUS
 62
     7
 10
122.1855184109
 20
-72.2859737795
 30
0.0
  0
VERTEX
  5
A27
  8
0
  6
CONTINUOUS
 62
     7
 10
122.3300239117
 20
-74.7897205275
 30
0.0
  0
SEQEND
  5
AFD
  8
0
  6
CONTINUOUS
 62
     7
  0
LINE
  5
339
  8
0
  6
CONTINUOUS
 62
     7
 10
122.3584970505
 20
-76.642590515
 30
0.0
 11
122.3296722443
 21
-74.7897354287
 31
0.0
  0
LINE
  5
33A
  8
0
  6
CONTINUOUS
 62
     7
 10
122.3584970505
 20
-84.7541478795
 30
0.0
 11
122.3584970505
 21
-76.642590515
 31
0.0
  0
POLYLINE
  5
33B
  8
0
  6
CONTINUOUS
 62
     7
 66
     1
 10
0.0
 20
0.0
 30
0.0
  0
VERTEX
  5
A28
  8
0
  6
CONTINUOUS
 62
     7
 10
122.3584970505
 20
-84.7541299981
 30
0.0
  0
VERTEX
  5
A29
  8
0
  6
CONTINUOUS
 62
     7
 10
122.3437866242
 20
-87.92599415
 30
0.0
  0
VERTEX
  5
A2A
  8
0
  6
CONTINUOUS
 62
     7
 10
122.358503011
 20
-94.7540191334
 30
0.0
  0
SEQEND
  5
AFC
  8
0
  6
CONTINUOUS
 62
     7
  0
POLYLINE
  5
33C
  8
0
  6
CONTINUOUS
 62
     7
 66
     1
 10
0.0
 20
0.0
 30
0.0
  0
VERTEX
  5
A2B
  8
0
  6
CONTINUOUS
 62
     7
 10
122.3585685761
 20
-116.4084938687
 30
0.0
  0
VERTEX
  5
A2C
  8
0
  6
CONTINUOUS
 62
     7
 10
122.3585685761
 20
-116.1005524319
 30
0.0
  0
VERTEX
  5
A2D
  8
0
  6
CONTINUOUS
 62
     7
 10
122.3583539994
 20
-113.6887041253
 30
0.0
  0
VERTEX
  5
A2E
  8
0
  6
CONTINUOUS
 62
     7
 10
122.3578771622
 20
-111.3041487855
 30
0.0
  0
VERTEX
  5
A2F
  8
0
  6
CONTINUOUS
 62
     7
 10
122.3575254948
 20
-108.9408007783
 30
0.0
  0
VERTEX
  5
A30
  8
0
  6
CONTINUOUS
 62
     7
 10
122.3588427575
 20
-104.2319503945
 30
0.0
  0
VERTEX
  5
A31
  8
0
  6
CONTINUOUS
 62
     7
 10
122.3623177082
 20
-99.4980481785
 30
0.0
  0
VERTEX
  5
A32
  8
0
  6
CONTINUOUS
 62
     7
 10
122.3584970505
 20
-94.7540191334
 30
0.0
  0
SEQEND
  5
AFB
  8
0
  6
CONTINUOUS
 62
     7
  0
LINE
  5
33D
  8
0
  6
CONTINUOUS
 62
     7
 10
47.1584996254
 20
-94.7540191334
 30
0.0
 11
47.1584996254
 21
-104.7518638295
 31
0.0
  0
POLYLINE
  5
33E
  8
0
  6
CONTINUOUS
 62
     7
 66
     1
 10
0.0
 20
0.0
 30
0.0
  0
VERTEX
  5
A33
  8
0
  6
CONTINUOUS
 62
     7
 10
47.1584996254
 20
-94.7540191334
 30
0.0
  0
VERTEX
  5
A34
  8
0
  6
CONTINUOUS
 62
     7
 10
47.1732100518
 20
-87.92599415
 30
0.0
  0
VERTEX
  5
A35
  8
0
  6
CONTINUOUS
 62
     7
 10
47.1584996254
 20
-84.7541299981
 30
0.0
  0
SEQEND
  5
AFA
  8
0
  6
CONTINUOUS
 62
     7
  0
LINE
  5
33F
  8
0
  6
CONTINUOUS
 62
     7
 10
47.1584996254
 20
-76.642590515
 30
0.0
 11
47.1584996254
 21
-84.7541478795
 31
0.0
  0
LINE
  5
340
  8
0
  6
CONTINUOUS
 62
     7
 10
47.1873244316
 20
-74.7897354287
 30
0.0
 11
47.1584996254
 21
-76.642590515
 31
0.0
  0
POLYLINE
  5
341
  8
0
  6
CONTINUOUS
 62
     7
 66
     1
 10
0.0
 20
0.0
 30
0.0
  0
VERTEX
  5
A36
  8
0
  6
CONTINUOUS
 62
     7
 10
47.1869787247
 20
-74.7897205275
 30
0.0
  0
VERTEX
  5
A37
  8
0
  6
CONTINUOUS
 62
     7
 10
47.3314842255
 20
-72.2859737795
 30
0.0
  0
VERTEX
  5
A38
  8
0
  6
CONTINUOUS
 62
     7
 10
47.555740741
 20
-69.782553367
 30
0.0
  0
SEQEND
  5
AF9
  8
0
  6
CONTINUOUS
 62
     7
  0
ARC
  5
342
  8
0
  6
CONTINUOUS
 62
     7
 10
106.9550135362
 20
-76.6976326971
 30
0.0
 40
59.8007218311902
 50
168.4877862107
 51
173.3596969809
  0
POLYLINE
  5
343
  8
0
  6
CONTINUOUS
 62
     7
 66
     1
 10
0.0
 20
0.0
 30
0.0
  0
VERTEX
  5
A39
  8
0
  6
CONTINUOUS
 62
     7
 10
48.3584960968
 20
-64.7571620863
 30
0.0
  0
VERTEX
  5
A3A
  8
0
  6
CONTINUOUS
 62
     7
 10
48.7559279473
 20
-63.2467982691
 30
0.0
  0
VERTEX
  5
A3B
  8
0
  6
CONTINUOUS
 62
     7
 10
49.189051059
 20
-61.7364389223
 30
0.0
  0
SEQEND
  5
AF8
  8
0
  6
CONTINUOUS
 62
     7
  0
POLYLINE
  5
344
  8
0
  6
CONTINUOUS
 62
     7
 66
     1
 10
0.0
 20
0.0
 30
0.0
  0
VERTEX
  5
A3C
  8
0
  6
CONTINUOUS
 62
     7
 10
47.1584280999
 20
-116.4075461548
 30
0.0
  0
VERTEX
  5
A3D
  8
0
  6
CONTINUOUS
 62
     7
 10
47.1584280999
 20
-116.3822201413
 30
0.0
  0
VERTEX
  5
A3E
  8
0
  6
CONTINUOUS
 62
     7
 10
47.1585949929
 20
-113.969209544
 30
0.0
  0
VERTEX
  5
A3F
  8
0
  6
CONTINUOUS
 62
     7
 10
47.1590599091
 20
-111.5807441395
 30
0.0
  0
VERTEX
  5
A40
  8
0
  6
CONTINUOUS
 62
     7
 10
47.1594532997
 20
-109.2148271721
 30
0.0
  0
VERTEX
  5
A41
  8
0
  6
CONTINUOUS
 62
     7
 10
47.1593460114
 20
-106.8600026291
 30
0.0
  0
VERTEX
  5
A42
  8
0
  6
CONTINUOUS
 62
     7
 10
47.1584996254
 20
-104.7518638295
 30
0.0
  0
SEQEND
  5
AF7
  8
0
  6
CONTINUOUS
 62
     7
  0
ARC
  5
345
  8
0
  6
CONTINUOUS
 62
     7
 10
115.7140822684
 20
-116.5451350355
 30
0.0
 40
6.645891144309256
 50
292.5444205985
 51
1.1780984191
  0
ARC
  5
346
  8
0
  6
CONTINUOUS
 62
     7
 10
53.805947765
 20
-116.5411577117
 30
0.0
 40
6.648862289679483
 50
178.8485408031
 51
250.6418715343
  0
LINE
  5
347
  8
0
  6
CONTINUOUS
 62
     7
 10
121.9584962399
 20
-69.756400339
 30
0.0
 11
121.9615360768
 21
-69.7825205844
 31
0.0
  0
POLYLINE
  5
348
  8
0
  6
CONTINUOUS
 62
     7
 66
     1
 10
0.0
 20
0.0
 30
0.0
  0
VERTEX
  5
A43
  8
0
  6
CONTINUOUS
 62
     7
 10
121.1596449883
 20
-64.7627947253
 30
0.0
  0
VERTEX
  5
A44
  8
0
  6
CONTINUOUS
 62
     7
 10
121.6118296654
 20
-67.2486600798
 30
0.0
  0
VERTEX
  5
A45
  8
0
  6
CONTINUOUS
 62
     7
 10
121.9584962399
 20
-69.756400339
 30
0.0
  0
SEQEND
  5
AF6
  8
0
  6
CONTINUOUS
 62
     7
  0
POLYLINE
  5
349
  8
0
  6
CONTINUOUS
 62
     7
 66
     1
 10
0.0
 20
0.0
 30
0.0
  0
VERTEX
  5
A46
  8
0
  6
CONTINUOUS
 62
     7
 10
47.5584944756
 20
-69.756400339
 30
0.0
  0
VERTEX
  5
A47
  8
0
  6
CONTINUOUS
 62
     7
 10
47.9044279129
 20
-67.2532585782
 30
0.0
  0
VERTEX
  5
A48
  8
0
  6
CONTINUOUS
 62
     7
 10
48.3573516877
 20
-64.7627947253
 30
0.0
  0
SEQEND
  5
AF5
  8
0
  6
CONTINUOUS
 62
     7
  0
LINE
  5
34A
  8
0
  6
CONTINUOUS
 62
     7
 10
47.5554546387
 20
-69.7825205844
 30
0.0
 11
47.5584944756
 21
-69.756400339
 31
0.0
  0
LINE
  5
34B
  8
0
  6
CONTINUOUS
 62
     7
 10
122.3296722443
 20
-74.7897354287
 30
0.0
 11
122.3584970505
 21
-76.6404268664
 31
0.0
  0
LINE
  5
34C
  8
0
  6
CONTINUOUS
 62
     7
 10
47.1584996254
 20
-76.6404268664
 30
0.0
 11
47.1873244316
 21
-74.7897354287
 31
0.0
  0
ARC
  5
34D
  8
0
  6
CONTINUOUS
 62
     7
 10
296.636261151
 20
-63.5474839639
 30
0.0
 40
7.3492205361495
 50
115.9018429008
 51
164.5640797475
  0
ARC
  5
34E
  8
0
  6
CONTINUOUS
 62
     7
 10
324.758498934
 20
-123.2368079157
 30
0.0
 40
73.3311510374329
 50
64.705220601
 51
115.294779399
  0
ARC
  5
34F
  8
0
  6
CONTINUOUS
 62
     7
 10
352.8967848938
 20
-63.5341197101
 30
0.0
 40
7.330193511455294
 50
15.3686271333
 51
64.1653635254
  0
POLYLINE
  5
350
  8
0
  6
CONTINUOUS
 62
     7
 66
     1
 10
0.0
 20
0.0
 30
0.0
  0
VERTEX
  5
A49
  8
0
  6
CONTINUOUS
 62
     7
 10
359.9648436577
 20
-61.5914178413
 30
0.0
  0
VERTEX
  5
A4A
  8
0
  6
CONTINUOUS
 62
     7
 10
360.8819088013
 20
-64.8830217641
 30
0.0
  0
VERTEX
  5
A4B
  8
0
  6
CONTINUOUS
 62
     7
 10
361.4830812485
 20
-68.1592968625
 30
0.0
  0
VERTEX
  5
A4C
  8
0
  6
CONTINUOUS
 62
     7
 10
361.8406018288
 20
-71.4514372271
 30
0.0
  0
VERTEX
  5
A4D
  8
0
  6
CONTINUOUS
 62
     7
 10
362.0553573639
 20
-74.7466204089
 30
0.0
  0
VERTEX
  5
A4E
  8
0
  6
CONTINUOUS
 62
     7
 10
362.1371110947
 20
-78.044810645
 30
0.0
  0
VERTEX
  5
A4F
  8
0
  6
CONTINUOUS
 62
     7
 10
362.1339401276
 20
-81.3456324261
 30
0.0
  0
VERTEX
  5
A50
  8
0
  6
CONTINUOUS
 62
     7
 10
362.1068438561
 20
-84.6458998841
 30
0.0
  0
VERTEX
  5
A51
  8
0
  6
CONTINUOUS
 62
     7
 10
362.1046861679
 20
-87.9434165877
 30
0.0
  0
VERTEX
  5
A52
  8
0
  6
CONTINUOUS
 62
     7
 10
362.1516188652
 20
-94.2635652941
 30
0.0
  0
VERTEX
  5
A53
  8
0
  6
CONTINUOUS
 62
     7
 10
362.1857127221
 20
-100.5842951459
 30
0.0
  0
VERTEX
  5
A54
  8
0
  6
CONTINUOUS
 62
     7
 10
362.1947130234
 20
-106.8375257176
 30
0.0
  0
VERTEX
  5
A55
  8
0
  6
CONTINUOUS
 62
     7
 10
362.1965250046
 20
-108.6822477501
 30
0.0
  0
VERTEX
  5
A56
  8
0
  6
CONTINUOUS
 62
     7
 10
362.2010191948
 20
-110.5497745198
 30
0.0
  0
VERTEX
  5
A57
  8
0
  6
CONTINUOUS
 62
     7
 10
362.2102102311
 20
-112.4451366585
 30
0.0
  0
VERTEX
  5
A58
  8
0
  6
CONTINUOUS
 62
     7
 10
362.2262081177
 20
-114.3727031869
 30
0.0
  0
VERTEX
  5
A59
  8
0
  6
CONTINUOUS
 62
     7
 10
362.2503003151
 20
-116.3412777108
 30
0.0
  0
SEQEND
  5
AF4
  8
0
  6
CONTINUOUS
 62
     7
  0
ARC
  5
351
  8
0
  6
CONTINUOUS
 62
     7
 10
355.5301489646
 20
-116.534625312
 30
0.0
 40
6.722932207627627
 50
275.3899778237
 51
1.6480203672
  0
ARC
  5
352
  8
0
  6
CONTINUOUS
 62
     7
 10
324.758498934
 20
216.7030768418
 30
0.0
 40
341.3783547331224
 50
264.7219383607
 51
275.2780616393
  0
ARC
  5
353
  8
0
  6
CONTINUOUS
 62
     7
 10
293.9768477864
 20
-116.5434618346
 30
0.0
 40
6.713201514005556
 50
178.2741395531
 51
264.687917923
  0
POLYLINE
  5
354
  8
0
  6
CONTINUOUS
 62
     7
 66
     1
 10
0.0
 20
0.0
 30
0.0
  0
VERTEX
  5
A5A
  8
0
  6
CONTINUOUS
 62
     7
 10
287.2666915924
 20
-116.3412777108
 30
0.0
  0
VERTEX
  5
A5B
  8
0
  6
CONTINUOUS
 62
     7
 10
287.2950097592
 20
-113.9442530793
 30
0.0
  0
VERTEX
  5
A5C
  8
0
  6
CONTINUOUS
 62
     7
 10
287.3115500481
 20
-111.6045621556
 30
0.0
  0
VERTEX
  5
A5D
  8
0
  6
CONTINUOUS
 62
     7
 10
287.3193463356
 20
-109.310158841
 30
0.0
  0
VERTEX
  5
A5E
  8
0
  6
CONTINUOUS
 62
     7
 10
287.3221417935
 20
-107.0522872132
 30
0.0
  0
VERTEX
  5
A5F
  8
0
  6
CONTINUOUS
 62
     7
 10
287.3235425026
 20
-104.8217562359
 30
0.0
  0
VERTEX
  5
A60
  8
0
  6
CONTINUOUS
 62
     7
 10
287.3264512093
 20
-102.5943187398
 30
0.0
  0
VERTEX
  5
A61
  8
0
  6
CONTINUOUS
 62
     7
 10
287.3319944413
 20
-100.3534165543
 30
0.0
  0
VERTEX
  5
A62
  8
0
  6
CONTINUOUS
 62
     7
 10
287.3663207562
 20
-94.1473570984
 30
0.0
  0
VERTEX
  5
A63
  8
0
  6
CONTINUOUS
 62
     7
 10
287.4123117001
 20
-87.9434165877
 30
0.0
  0
VERTEX
  5
A64
  8
0
  6
CONTINUOUS
 62
     7
 10
287.410154012
 20
-84.6458998841
 30
0.0
  0
VERTEX
  5
A65
  8
0
  6
CONTINUOUS
 62
     7
 10
287.38305178
 20
-81.3456324261
 30
0.0
  0
VERTEX
  5
A66
  8
0
  6
CONTINUOUS
 62
     7
 10
287.3798867733
 20
-78.044810645
 30
0.0
  0
VERTEX
  5
A67
  8
0
  6
CONTINUOUS
 62
     7
 10
287.4616345436
 20
-74.7466204089
 30
0.0
  0
VERTEX
  5
A68
  8
0
  6
CONTINUOUS
 62
     7
 10
287.6763900788
 20
-71.4514372271
 30
0.0
  0
VERTEX
  5
A69
  8
0
  6
CONTINUOUS
 62
     7
 10
288.0339106591
 20
-68.1592968625
 30
0.0
  0
VERTEX
  5
A6A
  8
0
  6
CONTINUOUS
 62
     7
 10
288.6350890667
 20
-64.8830217641
 30
0.0
  0
VERTEX
  5
A6B
  8
0
  6
CONTINUOUS
 62
     7
 10
289.5521542103
 20
-61.5914178413
 30
0.0
  0
SEQEND
  5
AF3
  8
0
  6
CONTINUOUS
 62
     7
  0
ARC
  5
355
  8
0
  6
CONTINUOUS
 62
     7
 10
324.758498934
 20
-123.224527344
 30
0.0
 40
73.3397063923551
 50
64.3650308557
 51
115.6349691443
  0
ARC
  5
356
  8
0
  6
CONTINUOUS
 62
     7
 10
353.2322216663
 20
-63.7102355621
 30
0.0
 40
7.365129851134577
 50
15.5448201664
 51
63.7659000493
  0
ARC
  5
357
  8
0
  6
CONTINUOUS
 62
     7
 10
296.2668647088
 20
-63.6953887126
 30
0.0
 40
7.343900851565457
 50
116.1599543402
 51
164.5293254441
  0
POLYLINE
  5
358
  8
0
  6
CONTINUOUS
 62
     7
 66
     1
 10
0.0
 20
0.0
 30
0.0
  0
VERTEX
  5
A6C
  8
0
  6
CONTINUOUS
 62
     7
 10
360.3279432328
 20
-61.7364389223
 30
0.0
  0
VERTEX
  5
A6D
  8
0
  6
CONTINUOUS
 62
     7
 10
360.7618531258
 20
-63.249593727
 30
0.0
  0
VERTEX
  5
A6E
  8
0
  6
CONTINUOUS
 62
     7
 10
361.159833339
 20
-64.7627515119
 30
0.0
  0
SEQEND
  5
AF2
  8
0
  6
CONTINUOUS
 62
     7
  0
ARC
  5
359
  8
0
  6
CONTINUOUS
 62
     7
 10
302.5185265179
 20
-76.7045744715
 30
0.0
 40
59.84468731092667
 50
6.6420936952
 51
11.5104231132
  0
POLYLINE
  5
35A
  8
0
  6
CONTINUOUS
 62
     7
 66
     1
 10
0.0
 20
0.0
 30
0.0
  0
VERTEX
  5
A6F
  8
0
  6
CONTINUOUS
 62
     7
 10
361.9612535508
 20
-69.782553367
 30
0.0
  0
VERTEX
  5
A70
  8
0
  6
CONTINUOUS
 62
     7
 10
362.1855100663
 20
-72.2859737795
 30
0.0
  0
VERTEX
  5
A71
  8
0
  6
CONTINUOUS
 62
     7
 10
362.3300155671
 20
-74.7897205275
 30
0.0
  0
SEQEND
  5
AF1
  8
0
  6
CONTINUOUS
 62
     7
  0
LINE
  5
35B
  8
0
  6
CONTINUOUS
 62
     7
 10
362.3584946663
 20
-76.642590515
 30
0.0
 11
362.3296698601
 21
-74.7897354287
 31
0.0
  0
LINE
  5
35C
  8
0
  6
CONTINUOUS
 62
     7
 10
362.3584946663
 20
-84.7541478795
 30
0.0
 11
362.3584946663
 21
-76.642590515
 31
0.0
  0
POLYLINE
  5
35D
  8
0
  6
CONTINUOUS
 62
     7
 66
     1
 10
0.0
 20
0.0
 30
0.0
  0
VERTEX
  5
A72
  8
0
  6
CONTINUOUS
 62
     7
 10
362.3584946663
 20
-84.7541299981
 30
0.0
  0
VERTEX
  5
A73
  8
0
  6
CONTINUOUS
 62
     7
 10
362.34378424
 20
-87.92599415
 30
0.0
  0
VERTEX
  5
A74
  8
0
  6
CONTINUOUS
 62
     7
 10
362.3584946663
 20
-94.7540191334
 30
0.0
  0
SEQEND
  5
AF0
  8
0
  6
CONTINUOUS
 62
     7
  0
POLYLINE
  5
35E
  8
0
  6
CONTINUOUS
 62
     7
 66
     1
 10
0.0
 20
0.0
 30
0.0
  0
VERTEX
  5
A75
  8
0
  6
CONTINUOUS
 62
     7
 10
362.3585661919
 20
-116.4084938687
 30
0.0
  0
VERTEX
  5
A76
  8
0
  6
CONTINUOUS
 62
     7
 10
362.3585661919
 20
-116.1005524319
 30
0.0
  0
VERTEX
  5
A77
  8
0
  6
CONTINUOUS
 62
     7
 10
362.3583516152
 20
-113.6887041253
 30
0.0
  0
VERTEX
  5
A78
  8
0
  6
CONTINUOUS
 62
     7
 10
362.357874778
 20
-111.3041487855
 30
0.0
  0
VERTEX
  5
A79
  8
0
  6
CONTINUOUS
 62
     7
 10
362.3575290711
 20
-108.9408007783
 30
0.0
  0
VERTEX
  5
A7A
  8
0
  6
CONTINUOUS
 62
     7
 10
362.3588403733
 20
-104.2319503945
 30
0.0
  0
VERTEX
  5
A7B
  8
0
  6
CONTINUOUS
 62
     7
 10
362.3623212845
 20
-99.4980481785
 30
0.0
  0
VERTEX
  5
A7C
  8
0
  6
CONTINUOUS
 62
     7
 10
362.3584946663
 20
-94.7540191334
 30
0.0
  0
SEQEND
  5
AEF
  8
0
  6
CONTINUOUS
 62
     7
  0
LINE
  5
35F
  8
0
  6
CONTINUOUS
 62
     7
 10
287.1584972412
 20
-94.7540191334
 30
0.0
 11
287.1584972412
 21
-104.7518638295
 31
0.0
  0
POLYLINE
  5
360
  8
0
  6
CONTINUOUS
 62
     7
 66
     1
 10
0.0
 20
0.0
 30
0.0
  0
VERTEX
  5
A7D
  8
0
  6
CONTINUOUS
 62
     7
 10
287.1584912808
 20
-94.7540191334
 30
0.0
  0
VERTEX
  5
A7E
  8
0
  6
CONTINUOUS
 62
     7
 10
287.1732076676
 20
-87.92599415
 30
0.0
  0
VERTEX
  5
A7F
  8
0
  6
CONTINUOUS
 62
     7
 10
287.1584972412
 20
-84.7541299981
 30
0.0
  0
SEQEND
  5
AEE
  8
0
  6
CONTINUOUS
 62
     7
  0
LINE
  5
361
  8
0
  6
CONTINUOUS
 62
     7
 10
287.1584972412
 20
-76.642590515
 30
0.0
 11
287.1584972412
 21
-84.7541478795
 31
0.0
  0
LINE
  5
362
  8
0
  6
CONTINUOUS
 62
     7
 10
287.1873220475
 20
-74.7897354287
 30
0.0
 11
287.1584972412
 21
-76.642590515
 31
0.0
  0
POLYLINE
  5
363
  8
0
  6
CONTINUOUS
 62
     7
 66
     1
 10
0.0
 20
0.0
 30
0.0
  0
VERTEX
  5
A80
  8
0
  6
CONTINUOUS
 62
     7
 10
287.1869703801
 20
-74.7897205275
 30
0.0
  0
VERTEX
  5
A81
  8
0
  6
CONTINUOUS
 62
     7
 10
287.3314758808
 20
-72.2859737795
 30
0.0
  0
VERTEX
  5
A82
  8
0
  6
CONTINUOUS
 62
     7
 10
287.5557443173
 20
-69.782553367
 30
0.0
  0
SEQEND
  5
AED
  8
0
  6
CONTINUOUS
 62
     7
  0
ARC
  5
364
  8
0
  6
CONTINUOUS
 62
     7
 10
346.9563635507
 20
-76.6977782085
 30
0.0
 40
59.80207606341322
 50
168.4879081981
 51
173.3597076745
  0
POLYLINE
  5
365
  8
0
  6
CONTINUOUS
 62
     7
 66
     1
 10
0.0
 20
0.0
 30
0.0
  0
VERTEX
  5
A83
  8
0
  6
CONTINUOUS
 62
     7
 10
288.3584996731
 20
-64.7571620863
 30
0.0
  0
VERTEX
  5
A84
  8
0
  6
CONTINUOUS
 62
     7
 10
288.7559255631
 20
-63.2467982691
 30
0.0
  0
VERTEX
  5
A85
  8
0
  6
CONTINUOUS
 62
     7
 10
289.1890546353
 20
-61.7364389223
 30
0.0
  0
SEQEND
  5
AEC
  8
0
  6
CONTINUOUS
 62
     7
  0
POLYLINE
  5
366
  8
0
  6
CONTINUOUS
 62
     7
 66
     1
 10
0.0
 20
0.0
 30
0.0
  0
VERTEX
  5
A86
  8
0
  6
CONTINUOUS
 62
     7
 10
287.1584257157
 20
-116.4075461548
 30
0.0
  0
VERTEX
  5
A87
  8
0
  6
CONTINUOUS
 62
     7
 10
287.1584257157
 20
-116.3822201413
 30
0.0
  0
VERTEX
  5
A88
  8
0
  6
CONTINUOUS
 62
     7
 10
287.1585985691
 20
-113.969209544
 30
0.0
  0
VERTEX
  5
A89
  8
0
  6
CONTINUOUS
 62
     7
 10
287.1590634854
 20
-111.5807441395
 30
0.0
  0
VERTEX
  5
A8A
  8
0
  6
CONTINUOUS
 62
     7
 10
287.1594449551
 20
-109.2148271721
 30
0.0
  0
VERTEX
  5
A8B
  8
0
  6
CONTINUOUS
 62
     7
 10
287.1593436272
 20
-106.8600026291
 30
0.0
  0
VERTEX
  5
A8C
  8
0
  6
CONTINUOUS
 62
     7
 10
287.1584972412
 20
-104.7518638295
 30
0.0
  0
SEQEND
  5
AEB
  8
0
  6
CONTINUOUS
 62
     7
  0
ARC
  5
367
  8
0
  6
CONTINUOUS
 62
     7
 10
355.7140815557
 20
-116.5451385472
 30
0.0
 40
6.645889545294437
 50
292.5444663561
 51
1.1781289845
  0
ARC
  5
368
  8
0
  6
CONTINUOUS
 62
     7
 10
293.8059527459
 20
-116.5411526033
 30
0.0
 40
6.648869550557016
 50
178.8485860905
 51
250.6418262469
  0
LINE
  5
369
  8
0
  6
CONTINUOUS
 62
     7
 10
361.9584998162
 20
-69.756400339
 30
0.0
 11
361.9615396531
 21
-69.7825205844
 31
0.0
  0
POLYLINE
  5
36A
  8
0
  6
CONTINUOUS
 62
     7
 66
     1
 10
0.0
 20
0.0
 30
0.0
  0
VERTEX
  5
A8D
  8
0
  6
CONTINUOUS
 62
     7
 10
361.1596426041
 20
-64.7627947253
 30
0.0
  0
VERTEX
  5
A8E
  8
0
  6
CONTINUOUS
 62
     7
 10
361.6118272812
 20
-67.2486600798
 30
0.0
  0
VERTEX
  5
A8F
  8
0
  6
CONTINUOUS
 62
     7
 10
361.9584998162
 20
-69.756400339
 30
0.0
  0
SEQEND
  5
AEA
  8
0
  6
CONTINUOUS
 62
     7
  0
POLYLINE
  5
36B
  8
0
  6
CONTINUOUS
 62
     7
 66
     1
 10
0.0
 20
0.0
 30
0.0
  0
VERTEX
  5
A90
  8
0
  6
CONTINUOUS
 62
     7
 10
287.5584980519
 20
-69.756400339
 30
0.0
  0
VERTEX
  5
A91
  8
0
  6
CONTINUOUS
 62
     7
 10
287.9044255288
 20
-67.2532585782
 30
0.0
  0
VERTEX
  5
A92
  8
0
  6
CONTINUOUS
 62
     7
 10
288.3573493035
 20
-64.7627947253
 30
0.0
  0
SEQEND
  5
AE9
  8
0
  6
CONTINUOUS
 62
     7
  0
LINE
  5
36C
  8
0
  6
CONTINUOUS
 62
     7
 10
287.555458215
 20
-69.7825205844
 30
0.0
 11
287.5584980519
 21
-69.756400339
 31
0.0
  0
LINE
  5
36D
  8
0
  6
CONTINUOUS
 62
     7
 10
362.3296698601
 20
-74.7897354287
 30
0.0
 11
362.3584946663
 21
-76.6404268664
 31
0.0
  0
LINE
  5
36E
  8
0
  6
CONTINUOUS
 62
     7
 10
287.1584972412
 20
-76.6404268664
 30
0.0
 11
287.1873220475
 21
-74.7897354287
 31
0.0
  0
ARC
  5
36F
  8
0
  6
CONTINUOUS
 62
     7
 10
176.63627757
 20
-63.5475011712
 30
0.0
 40
7.349242666434651
 50
115.9018910856
 51
164.5639882162
  0
ARC
  5
370
  8
0
  6
CONTINUOUS
 62
     7
 10
204.7584971459
 20
-123.2367913675
 30
0.0
 40
73.33113480251549
 50
64.7052171818
 51
115.2947828182
  0
ARC
  5
371
  8
0
  6
CONTINUOUS
 62
     7
 10
232.8967625553
 20
-63.5341479076
 30
0.0
 40
7.330226547465723
 50
15.3687847357
 51
64.1653359624
  0
POLYLINE
  5
372
  8
0
  6
CONTINUOUS
 62
     7
 66
     1
 10
0.0
 20
0.0
 30
0.0
  0
VERTEX
  5
A93
  8
0
  6
CONTINUOUS
 62
     7
 10
239.9648418696
 20
-61.5914178413
 30
0.0
  0
VERTEX
  5
A94
  8
0
  6
CONTINUOUS
 62
     7
 10
240.8819070132
 20
-64.8830217641
 30
0.0
  0
VERTEX
  5
A95
  8
0
  6
CONTINUOUS
 62
     7
 10
241.4830824406
 20
-68.1592968625
 30
0.0
  0
VERTEX
  5
A96
  8
0
  6
CONTINUOUS
 62
     7
 10
241.8406030209
 20
-71.4514372271
 30
0.0
  0
VERTEX
  5
A97
  8
0
  6
CONTINUOUS
 62
     7
 10
242.0553615363
 20
-74.7466204089
 30
0.0
  0
VERTEX
  5
A98
  8
0
  6
CONTINUOUS
 62
     7
 10
242.1371093066
 20
-78.044810645
 30
0.0
  0
VERTEX
  5
A99
  8
0
  6
CONTINUOUS
 62
     7
 10
242.1339442999
 20
-81.3456324261
 30
0.0
  0
VERTEX
  5
A9A
  8
0
  6
CONTINUOUS
 62
     7
 10
242.1068420679
 20
-84.6458998841
 30
0.0
  0
VERTEX
  5
A9B
  8
0
  6
CONTINUOUS
 62
     7
 10
242.1046843798
 20
-87.9434165877
 30
0.0
  0
VERTEX
  5
A9C
  8
0
  6
CONTINUOUS
 62
     7
 10
242.1516200573
 20
-94.2635652941
 30
0.0
  0
VERTEX
  5
A9D
  8
0
  6
CONTINUOUS
 62
     7
 10
242.1857109339
 20
-100.5842951459
 30
0.0
  0
VERTEX
  5
A9E
  8
0
  6
CONTINUOUS
 62
     7
 10
242.1947142155
 20
-106.8375257176
 30
0.0
  0
VERTEX
  5
A9F
  8
0
  6
CONTINUOUS
 62
     7
 10
242.1965321572
 20
-108.6822477501
 30
0.0
  0
VERTEX
  5
AA0
  8
0
  6
CONTINUOUS
 62
     7
 10
242.2010203869
 20
-110.5497745198
 30
0.0
  0
VERTEX
  5
AA1
  8
0
  6
CONTINUOUS
 62
     7
 10
242.2102173836
 20
-112.4451366585
 30
0.0
  0
VERTEX
  5
AA2
  8
0
  6
CONTINUOUS
 62
     7
 10
242.2262033493
 20
-114.3727031869
 30
0.0
  0
VERTEX
  5
AA3
  8
0
  6
CONTINUOUS
 62
     7
 10
242.2503015072
 20
-116.3412777108
 30
0.0
  0
SEQEND
  5
AE8
  8
0
  6
CONTINUOUS
 62
     7
  0
ARC
  5
373
  8
0
  6
CONTINUOUS
 62
     7
 10
235.530154075
 20
-116.5346285029
 30
0.0
 40
6.722928382776614
 50
275.3899218463
 51
1.6480485111
  0
ARC
  5
374
  8
0
  6
CONTINUOUS
 62
     7
 10
204.7584971459
 20
216.7031116138
 30
0.0
 40
341.3783893576835
 50
264.7219388975
 51
275.2780611025
  0
ARC
  5
375
  8
0
  6
CONTINUOUS
 62
     7
 10
173.9768461739
 20
-116.5434645833
 30
0.0
 40
6.713198793403694
 50
178.2741153836
 51
264.6879142591
  0
POLYLINE
  5
376
  8
0
  6
CONTINUOUS
 62
     7
 66
     1
 10
0.0
 20
0.0
 30
0.0
  0
VERTEX
  5
AA4
  8
0
  6
CONTINUOUS
 62
     7
 10
167.2666927845
 20
-116.3412777108
 30
0.0
  0
VERTEX
  5
AA5
  8
0
  6
CONTINUOUS
 62
     7
 10
167.2950109513
 20
-113.9442530793
 30
0.0
  0
VERTEX
  5
AA6
  8
0
  6
CONTINUOUS
 62
     7
 10
167.3115512402
 20
-111.6045621556
 30
0.0
  0
VERTEX
  5
AA7
  8
0
  6
CONTINUOUS
 62
     7
 10
167.3193475277
 20
-109.310158841
 30
0.0
  0
VERTEX
  5
AA8
  8
0
  6
CONTINUOUS
 62
     7
 10
167.3221400053
 20
-107.0522872132
 30
0.0
  0
VERTEX
  5
AA9
  8
0
  6
CONTINUOUS
 62
     7
 10
167.3235407145
 20
-104.8217562359
 30
0.0
  0
VERTEX
  5
AAA
  8
0
  6
CONTINUOUS
 62
     7
 10
167.3264524014
 20
-102.5943187398
 30
0.0
  0
VERTEX
  5
AAB
  8
0
  6
CONTINUOUS
 62
     7
 10
167.3319926531
 20
-100.3534165543
 30
0.0
  0
VERTEX
  5
AAC
  8
0
  6
CONTINUOUS
 62
     7
 10
167.366318968
 20
-94.1473570984
 30
0.0
  0
VERTEX
  5
AAD
  8
0
  6
CONTINUOUS
 62
     7
 10
167.412309912
 20
-87.9434165877
 30
0.0
  0
VERTEX
  5
AAE
  8
0
  6
CONTINUOUS
 62
     7
 10
167.4101522238
 20
-84.6458998841
 30
0.0
  0
VERTEX
  5
AAF
  8
0
  6
CONTINUOUS
 62
     7
 10
167.3830499918
 20
-81.3456324261
 30
0.0
  0
VERTEX
  5
AB0
  8
0
  6
CONTINUOUS
 62
     7
 10
167.3798849852
 20
-78.044810645
 30
0.0
  0
VERTEX
  5
AB1
  8
0
  6
CONTINUOUS
 62
     7
 10
167.4616327555
 20
-74.7466204089
 30
0.0
  0
VERTEX
  5
AB2
  8
0
  6
CONTINUOUS
 62
     7
 10
167.6763912709
 20
-71.4514372271
 30
0.0
  0
VERTEX
  5
AB3
  8
0
  6
CONTINUOUS
 62
     7
 10
168.0339118512
 20
-68.1592968625
 30
0.0
  0
VERTEX
  5
AB4
  8
0
  6
CONTINUOUS
 62
     7
 10
168.6350872786
 20
-64.8830217641
 30
0.0
  0
VERTEX
  5
AB5
  8
0
  6
CONTINUOUS
 62
     7
 10
169.5521524222
 20
-61.5914178413
 30
0.0
  0
SEQEND
  5
AE7
  8
0
  6
CONTINUOUS
 62
     7
  0
ARC
  5
377
  8
0
  6
CONTINUOUS
 62
     7
 10
204.7584971459
 20
-123.2245136136
 30
0.0
 40
73.33969272412419
 50
64.365028314
 51
115.634971686
  0
ARC
  5
378
  8
0
  6
CONTINUOUS
 62
     7
 10
233.232284421
 20
-63.7101841568
 30
0.0
 40
7.365053893038889
 50
15.544569452
 51
63.7661944591
  0
ARC
  5
379
  8
0
  6
CONTINUOUS
 62
     7
 10
176.2668614722
 20
-63.6953895949
 30
0.0
 40
7.343899690940491
 50
116.1599202931
 51
164.5293157959
  0
POLYLINE
  5
37A
  8
0
  6
CONTINUOUS
 62
     7
 66
     1
 10
0.0
 20
0.0
 30
0.0
  0
VERTEX
  5
AB6
  8
0
  6
CONTINUOUS
 62
     7
 10
240.3279414446
 20
-61.7364389223
 30
0.0
  0
VERTEX
  5
AB7
  8
0
  6
CONTINUOUS
 62
     7
 10
240.7618572981
 20
-63.249593727
 30
0.0
  0
VERTEX
  5
AB8
  8
0
  6
CONTINUOUS
 62
     7
 10
241.1598285706
 20
-64.7627515119
 30
0.0
  0
SEQEND
  5
AE6
  8
0
  6
CONTINUOUS
 62
     7
  0
ARC
  5
37B
  8
0
  6
CONTINUOUS
 62
     7
 10
182.5135193023
 20
-76.705304447
 30
0.0
 40
59.8497435764481
 50
6.6422335737
 51
11.5101505537
  0
POLYLINE
  5
37C
  8
0
  6
CONTINUOUS
 62
     7
 66
     1
 10
0.0
 20
0.0
 30
0.0
  0
VERTEX
  5
AB9
  8
0
  6
CONTINUOUS
 62
     7
 10
241.9612517626
 20
-69.782553367
 30
0.0
  0
VERTEX
  5
ABA
  8
0
  6
CONTINUOUS
 62
     7
 10
242.1855142386
 20
-72.2859737795
 30
0.0
  0
VERTEX
  5
ABB
  8
0
  6
CONTINUOUS
 62
     7
 10
242.3300227196
 20
-74.7897205275
 30
0.0
  0
SEQEND
  5
AE5
  8
0
  6
CONTINUOUS
 62
     7
  0
LINE
  5
37D
  8
0
  6
CONTINUOUS
 62
     7
 10
242.3584958584
 20
-76.642590515
 30
0.0
 11
242.3296740324
 21
-74.7897354287
 31
0.0
  0
LINE
  5
37E
  8
0
  6
CONTINUOUS
 62
     7
 10
242.3584958584
 20
-84.7541478795
 30
0.0
 11
242.3584958584
 21
-76.642590515
 31
0.0
  0
POLYLINE
  5
37F
  8
0
  6
CONTINUOUS
 62
     7
 66
     1
 10
0.0
 20
0.0
 30
0.0
  0
VERTEX
  5
ABC
  8
0
  6
CONTINUOUS
 62
     7
 10
242.3584958584
 20
-84.7541299981
 30
0.0
  0
VERTEX
  5
ABD
  8
0
  6
CONTINUOUS
 62
     7
 10
242.3437884123
 20
-87.92599415
 30
0.0
  0
VERTEX
  5
ABE
  8
0
  6
CONTINUOUS
 62
     7
 10
242.3585018189
 20
-94.7540191334
 30
0.0
  0
SEQEND
  5
AE4
  8
0
  6
CONTINUOUS
 62
     7
  0
POLYLINE
  5
380
  8
0
  6
CONTINUOUS
 62
     7
 66
     1
 10
0.0
 20
0.0
 30
0.0
  0
VERTEX
  5
ABF
  8
0
  6
CONTINUOUS
 62
     7
 10
242.358567384
 20
-116.4084938687
 30
0.0
  0
VERTEX
  5
AC0
  8
0
  6
CONTINUOUS
 62
     7
 10
242.358567384
 20
-116.1005524319
 30
0.0
  0
VERTEX
  5
AC1
  8
0
  6
CONTINUOUS
 62
     7
 10
242.3583528073
 20
-113.6887041253
 30
0.0
  0
VERTEX
  5
AC2
  8
0
  6
CONTINUOUS
 62
     7
 10
242.3578759701
 20
-111.3041487855
 30
0.0
  0
VERTEX
  5
AC3
  8
0
  6
CONTINUOUS
 62
     7
 10
242.3575243027
 20
-108.9408007783
 30
0.0
  0
VERTEX
  5
AC4
  8
0
  6
CONTINUOUS
 62
     7
 10
242.3588445456
 20
-104.2319503945
 30
0.0
  0
VERTEX
  5
AC5
  8
0
  6
CONTINUOUS
 62
     7
 10
242.3623194964
 20
-99.4980481785
 30
0.0
  0
VERTEX
  5
AC6
  8
0
  6
CONTINUOUS
 62
     7
 10
242.3584958584
 20
-94.7540191334
 30
0.0
  0
SEQEND
  5
AE3
  8
0
  6
CONTINUOUS
 62
     7
  0
LINE
  5
381
  8
0
  6
CONTINUOUS
 62
     7
 10
167.1584984333
 20
-94.7540191334
 30
0.0
 11
167.1584984333
 21
-104.7518638295
 31
0.0
  0
POLYLINE
  5
382
  8
0
  6
CONTINUOUS
 62
     7
 66
     1
 10
0.0
 20
0.0
 30
0.0
  0
VERTEX
  5
AC7
  8
0
  6
CONTINUOUS
 62
     7
 10
167.1584924729
 20
-94.7540191334
 30
0.0
  0
VERTEX
  5
AC8
  8
0
  6
CONTINUOUS
 62
     7
 10
167.1732058794
 20
-87.92599415
 30
0.0
  0
VERTEX
  5
AC9
  8
0
  6
CONTINUOUS
 62
     7
 10
167.1584984333
 20
-84.7541299981
 30
0.0
  0
SEQEND
  5
AE2
  8
0
  6
CONTINUOUS
 62
     7
  0
LINE
  5
383
  8
0
  6
CONTINUOUS
 62
     7
 10
167.1584984333
 20
-76.642590515
 30
0.0
 11
167.1584984333
 21
-84.7541478795
 31
0.0
  0
LINE
  5
384
  8
0
  6
CONTINUOUS
 62
     7
 10
167.1873202593
 20
-74.7897354287
 30
0.0
 11
167.1584984333
 21
-76.642590515
 31
0.0
  0
POLYLINE
  5
385
  8
0
  6
CONTINUOUS
 62
     7
 66
     1
 10
0.0
 20
0.0
 30
0.0
  0
VERTEX
  5
ACA
  8
0
  6
CONTINUOUS
 62
     7
 10
167.1869715721
 20
-74.7897205275
 30
0.0
  0
VERTEX
  5
ACB
  8
0
  6
CONTINUOUS
 62
     7
 10
167.3314800532
 20
-72.2859737795
 30
0.0
  0
VERTEX
  5
ACC
  8
0
  6
CONTINUOUS
 62
     7
 10
167.5557425291
 20
-69.782553367
 30
0.0
  0
SEQEND
  5
AE1
  8
0
  6
CONTINUOUS
 62
     7
  0
ARC
  5
386
  8
0
  6
CONTINUOUS
 62
     7
 10
226.9588180957
 20
-76.6981706025
 30
0.0
 40
59.80456129353651
 50
168.488009485
 51
173.3596063875
  0
POLYLINE
  5
387
  8
0
  6
CONTINUOUS
 62
     7
 66
     1
 10
0.0
 20
0.0
 30
0.0
  0
VERTEX
  5
ACD
  8
0
  6
CONTINUOUS
 62
     7
 10
168.358497885
 20
-64.7571620863
 30
0.0
  0
VERTEX
  5
ACE
  8
0
  6
CONTINUOUS
 62
     7
 10
168.7559237749
 20
-63.2467982691
 30
0.0
  0
VERTEX
  5
ACF
  8
0
  6
CONTINUOUS
 62
     7
 10
169.1890528471
 20
-61.7364389223
 30
0.0
  0
SEQEND
  5
AE0
  8
0
  6
CONTINUOUS
 62
     7
  0
POLYLINE
  5
388
  8
0
  6
CONTINUOUS
 62
     7
 66
     1
 10
0.0
 20
0.0
 30
0.0
  0
VERTEX
  5
AD0
  8
0
  6
CONTINUOUS
 62
     7
 10
167.1584269078
 20
-116.4075461548
 30
0.0
  0
VERTEX
  5
AD1
  8
0
  6
CONTINUOUS
 62
     7
 10
167.1584269078
 20
-116.3822201413
 30
0.0
  0
VERTEX
  5
AD2
  8
0
  6
CONTINUOUS
 62
     7
 10
167.158596781
 20
-113.969209544
 30
0.0
  0
VERTEX
  5
AD3
  8
0
  6
CONTINUOUS
 62
     7
 10
167.1590616972
 20
-111.5807441395
 30
0.0
  0
VERTEX
  5
AD4
  8
0
  6
CONTINUOUS
 62
     7
 10
167.1594461472
 20
-109.2148271721
 30
0.0
  0
VERTEX
  5
AD5
  8
0
  6
CONTINUOUS
 62
     7
 10
167.1593448193
 20
-106.8600026291
 30
0.0
  0
VERTEX
  5
AD6
  8
0
  6
CONTINUOUS
 62
     7
 10
167.1584984333
 20
-104.7518638295
 30
0.0
  0
SEQEND
  5
ADF
  8
0
  6
CONTINUOUS
 62
     7
  0
ARC
  5
389
  8
0
  6
CONTINUOUS
 62
     7
 10
235.7140857822
 20
-116.5451381078
 30
0.0
 40
6.645886502542998
 50
292.544393283
 51
1.1781257346
  0
ARC
  5
38A
  8
0
  6
CONTINUOUS
 62
     7
 10
173.8059537689
 20
-116.5411537457
 30
0.0
 40
6.648869404511432
 50
178.8485762181
 51
250.641800128
  0
LINE
  5
38B
  8
0
  6
CONTINUOUS
 62
     7
 10
241.958498028
 20
-69.756400339
 30
0.0
 11
241.9615378649
 21
-69.7825205844
 31
0.0
  0
POLYLINE
  5
38C
  8
0
  6
CONTINUOUS
 62
     7
 66
     1
 10
0.0
 20
0.0
 30
0.0
  0
VERTEX
  5
AD7
  8
0
  6
CONTINUOUS
 62
     7
 10
241.1596467764
 20
-64.7627947253
 30
0.0
  0
VERTEX
  5
AD8
  8
0
  6
CONTINUOUS
 62
     7
 10
241.6118314535
 20
-67.2486600798
 30
0.0
  0
VERTEX
  5
AD9
  8
0
  6
CONTINUOUS
 62
     7
 10
241.958498028
 20
-69.756400339
 30
0.0
  0
SEQEND
  5
ADE
  8
0
  6
CONTINUOUS
 62
     7
  0
POLYLINE
  5
38D
  8
0
  6
CONTINUOUS
 62
     7
 66
     1
 10
0.0
 20
0.0
 30
0.0
  0
VERTEX
  5
ADA
  8
0
  6
CONTINUOUS
 62
     7
 10
167.5584962637
 20
-69.756400339
 30
0.0
  0
VERTEX
  5
ADB
  8
0
  6
CONTINUOUS
 62
     7
 10
167.9044267208
 20
-67.2532585782
 30
0.0
  0
VERTEX
  5
ADC
  8
0
  6
CONTINUOUS
 62
     7
 10
168.3573475153
 20
-64.7627947253
 30
0.0
  0
SEQEND
  5
ADD
  8
0
  6
CONTINUOUS
 62
     7
  0
LINE
  5
38E
  8
0
  6
CONTINUOUS
 62
     7
 10
167.5554564268
 20
-69.7825205844
 30
0.0
 11
167.5584962637
 21
-69.756400339
 31
0.0
  0
LINE
  5
38F
  8
0
  6
CONTINUOUS
 62
     7
 10
242.3296740324
 20
-74.7897354287
 30
0.0
 11
242.3584958584
 21
-76.6404268664
 31
0.0
  0
LINE
  5
390
  8
0
  6
CONTINUOUS
 62
     7
 10
167.1584984333
 20
-76.6404268664
 30
0.0
 11
167.1873202593
 21
-74.7897354287
 31
0.0
  0
LINE
  5
391
  8
0
  6
CONTINUOUS
 62
     7
 10
47.9328235657
 20
-50.9480231774
 30
0.0
 11
47.9328235657
 21
-51.0048424226
 31
0.0
  0
LINE
  5
392
  8
0
  6
CONTINUOUS
 62
     7
 10
47.9328235657
 20
-51.0048424226
 30
0.0
 11
48.1543382676
 21
-51.02008035
 31
0.0
  0
LINE
  5
393
  8
0
  6
CONTINUOUS
 62
     7
 10
47.1550783188
 20
-112.1480253857
 30
0.0
 11
47.0584949524
 21
-112.1480253857
 31
0.0
  0
LINE
  5
394
  8
0
  6
CONTINUOUS
 62
     7
 10
47.0584949524
 20
-112.1480253857
 30
0.0
 11
47.0584949524
 21
-50.9480231774
 31
0.0
  0
LINE
  5
395
  8
0
  6
CONTINUOUS
 62
     7
 10
47.0584949524
 20
-50.9480231774
 30
0.0
 11
47.9328235657
 21
-50.9480231774
 31
0.0
  0
ARC
  5
396
  8
0
  6
CONTINUOUS
 62
     7
 10
48.7224541371
 20
-53.0596129427
 30
0.0
 40
1.996151849803434
 50
359.8800339019
 51
86.0293913405
  0
LINE
  5
397
  8
0
  6
CONTINUOUS
 62
     7
 10
50.7186016114
 20
-53.0637924892
 30
0.0
 11
50.7186016114
 21
-57.4663137418
 31
0.0
  0
ARC
  5
398
  8
0
  6
CONTINUOUS
 62
     7
 10
51.9203569479
 20
-57.4671153422
 30
0.0
 40
1.201755603831519
 50
179.9617823107
 51
232.2503066851
  0
LINE
  5
399
  8
0
  6
CONTINUOUS
 62
     7
 10
48.86067715
 20
-51.0682524514
 30
0.0
 11
48.1543382676
 21
-51.02008035
 31
0.0
  0
LINE
  5
39A
  8
0
  6
CONTINUOUS
 62
     7
 10
47.0584949524
 20
-50.9480231774
 30
0.0
 11
47.0584949524
 21
-38.227906577
 31
0.0
  0
LINE
  5
39B
  8
0
  6
CONTINUOUS
 62
     7
 10
47.8584965737
 20
-38.227906577
 30
0.0
 11
47.8584965737
 21
-50.9480231774
 31
0.0
  0
LINE
  5
39C
  8
0
  6
CONTINUOUS
 62
     7
 10
47.0584949524
 20
-37.0480229479
 30
0.0
 11
47.8584965737
 21
-37.0480229479
 31
0.0
  0
LINE
  5
39D
  8
0
  6
CONTINUOUS
 62
     7
 10
47.0584949524
 20
-38.227906577
 30
0.0
 11
47.0584949524
 21
-37.0480229479
 31
0.0
  0
LINE
  5
39E
  8
0
  6
CONTINUOUS
 62
     7
 10
47.8584965737
 20
-37.0480229479
 30
0.0
 11
47.8584965737
 21
-38.227906577
 31
0.0
  0
LINE
  5
39F
  8
0
  6
CONTINUOUS
 62
     7
 10
47.0584949524
 20
-40.0480230671
 30
0.0
 11
42.2584971459
 21
-40.0480230671
 31
0.0
  0
LINE
  5
3A0
  8
0
  6
CONTINUOUS
 62
     7
 10
42.2584971459
 20
-40.0480230671
 30
0.0
 11
42.2584971459
 21
-41.048023231
 31
0.0
  0
LINE
  5
3A1
  8
0
  6
CONTINUOUS
 62
     7
 10
50.2932390244
 20
-40.0480230671
 30
0.0
 11
47.8584965737
 21
-40.0480230671
 31
0.0
  0
LINE
  5
3A2
  8
0
  6
CONTINUOUS
 62
     7
 10
52.2584995301
 20
-40.6757981849
 30
0.0
 11
52.2584995301
 21
-41.048023231
 31
0.0
  0
LINE
  5
3A3
  8
0
  6
CONTINUOUS
 62
     7
 10
52.2584995301
 20
-41.048023231
 30
0.0
 11
52.2584995301
 21
-50.2480232489
 31
0.0
  0
LINE
  5
3A4
  8
0
  6
CONTINUOUS
 62
     7
 10
42.2584971459
 20
-41.048023231
 30
0.0
 11
42.2584971459
 21
-50.2480232489
 31
0.0
  0
LINE
  5
3A5
  8
0
  6
CONTINUOUS
 62
     7
 10
47.0584949524
 20
-51.2480234128
 30
0.0
 11
42.2584971459
 21
-51.2480234128
 31
0.0
  0
LINE
  5
3A6
  8
0
  6
CONTINUOUS
 62
     7
 10
42.2584971459
 20
-50.2480232489
 30
0.0
 11
42.2584971459
 21
-51.2480234128
 31
0.0
  0
LINE
  5
3A7
  8
0
  6
CONTINUOUS
 62
     7
 10
52.2584995301
 20
-51.2480234128
 30
0.0
 11
49.562390712
 21
-51.2480234128
 31
0.0
  0
LINE
  5
3A8
  8
0
  6
CONTINUOUS
 62
     7
 10
52.2584995301
 20
-50.2480232489
 30
0.0
 11
52.2584995301
 21
-51.2480234128
 31
0.0
  0
LINE
  5
3A9
  8
0
  6
CONTINUOUS
 62
     7
 10
167.9328223736
 20
-50.9480231774
 30
0.0
 11
167.9328223736
 21
-51.0048424226
 31
0.0
  0
LINE
  5
3AA
  8
0
  6
CONTINUOUS
 62
     7
 10
167.9328223736
 20
-51.0048424226
 30
0.0
 11
168.1543430359
 21
-51.02008035
 31
0.0
  0
LINE
  5
3AB
  8
0
  6
CONTINUOUS
 62
     7
 10
167.1550741465
 20
-112.1480253857
 30
0.0
 11
167.0584967406
 21
-112.1480253857
 31
0.0
  0
LINE
  5
3AC
  8
0
  6
CONTINUOUS
 62
     7
 10
167.0584967406
 20
-112.1480253857
 30
0.0
 11
167.0584967406
 21
-50.9480231774
 31
0.0
  0
LINE
  5
3AD
  8
0
  6
CONTINUOUS
 62
     7
 10
167.0584967406
 20
-50.9480231774
 30
0.0
 11
167.9328223736
 21
-50.9480231774
 31
0.0
  0
ARC
  5
3AE
  8
0
  6
CONTINUOUS
 62
     7
 10
168.7224581671
 20
-53.0596080808
 30
0.0
 40
1.996146637964879
 50
359.8798940358
 51
86.0295312065
  0
LINE
  5
3AF
  8
0
  6
CONTINUOUS
 62
     7
 10
170.7186004193
 20
-53.0637924892
 30
0.0
 11
170.7186004193
 21
-57.4663137418
 31
0.0
  0
ARC
  5
3B0
  8
0
  6
CONTINUOUS
 62
     7
 10
171.920392995
 20
-57.467097094
 30
0.0
 40
1.201792831047301
 50
179.9626534821
 51
232.2494355137
  0
LINE
  5
3B1
  8
0
  6
CONTINUOUS
 62
     7
 10
168.8606759579
 20
-51.0682524514
 30
0.0
 11
168.1543430359
 21
-51.02008035
 31
0.0
  0
LINE
  5
3B2
  8
0
  6
CONTINUOUS
 62
     7
 10
167.0584967406
 20
-50.9480231774
 30
0.0
 11
167.0584967406
 21
-38.227906577
 31
0.0
  0
LINE
  5
3B3
  8
0
  6
CONTINUOUS
 62
     7
 10
167.8584983618
 20
-38.227906577
 30
0.0
 11
167.8584983618
 21
-50.9480231774
 31
0.0
  0
LINE
  5
3B4
  8
0
  6
CONTINUOUS
 62
     7
 10
167.0584967406
 20
-37.0480229479
 30
0.0
 11
167.8584983618
 21
-37.0480229479
 31
0.0
  0
LINE
  5
3B5
  8
0
  6
CONTINUOUS
 62
     7
 10
167.0584967406
 20
-38.227906577
 30
0.0
 11
167.0584967406
 21
-37.0480229479
 31
0.0
  0
LINE
  5
3B6
  8
0
  6
CONTINUOUS
 62
     7
 10
167.8584983618
 20
-37.0480229479
 30
0.0
 11
167.8584983618
 21
-38.227906577
 31
0.0
  0
LINE
  5
3B7
  8
0
  6
CONTINUOUS
 62
     7
 10
172.258498338
 20
-40.6757981849
 30
0.0
 11
172.258498338
 21
-41.048023231
 31
0.0
  0
LINE
  5
3B8
  8
0
  6
CONTINUOUS
 62
     7
 10
170.2932408125
 20
-40.0480230671
 30
0.0
 11
167.8584983618
 21
-40.0480230671
 31
0.0
  0
LINE
  5
3B9
  8
0
  6
CONTINUOUS
 62
     7
 10
167.0584967406
 20
-40.0480230671
 30
0.0
 11
162.2584959538
 21
-40.0480230671
 31
0.0
  0
LINE
  5
3BA
  8
0
  6
CONTINUOUS
 62
     7
 10
162.2584959538
 20
-40.0480230671
 30
0.0
 11
162.2584959538
 21
-41.048023231
 31
0.0
  0
LINE
  5
3BB
  8
0
  6
CONTINUOUS
 62
     7
 10
172.258498338
 20
-41.048023231
 30
0.0
 11
172.258498338
 21
-50.2480232489
 31
0.0
  0
LINE
  5
3BC
  8
0
  6
CONTINUOUS
 62
     7
 10
162.2584959538
 20
-41.048023231
 30
0.0
 11
162.2584959538
 21
-50.2480232489
 31
0.0
  0
LINE
  5
3BD
  8
0
  6
CONTINUOUS
 62
     7
 10
172.258498338
 20
-51.2480234128
 30
0.0
 11
169.5623865397
 21
-51.2480234128
 31
0.0
  0
LINE
  5
3BE
  8
0
  6
CONTINUOUS
 62
     7
 10
172.258498338
 20
-50.2480232489
 30
0.0
 11
172.258498338
 21
-51.2480234128
 31
0.0
  0
LINE
  5
3BF
  8
0
  6
CONTINUOUS
 62
     7
 10
167.0584967406
 20
-51.2480234128
 30
0.0
 11
162.2584959538
 21
-51.2480234128
 31
0.0
  0
LINE
  5
3C0
  8
0
  6
CONTINUOUS
 62
     7
 10
162.2584959538
 20
-50.2480232489
 30
0.0
 11
162.2584959538
 21
-51.2480234128
 31
0.0
  0
LINE
  5
3C1
  8
0
  6
CONTINUOUS
 62
     7
 10
287.9328211815
 20
-50.9480231774
 30
0.0
 11
287.9328211815
 21
-51.0048424226
 31
0.0
  0
LINE
  5
3C2
  8
0
  6
CONTINUOUS
 62
     7
 10
287.1550759346
 20
-112.1480253857
 30
0.0
 11
287.0584985287
 21
-112.1480253857
 31
0.0
  0
LINE
  5
3C3
  8
0
  6
CONTINUOUS
 62
     7
 10
287.0584985287
 20
-112.1480253857
 30
0.0
 11
287.0584985287
 21
-50.9480231774
 31
0.0
  0
LINE
  5
3C4
  8
0
  6
CONTINUOUS
 62
     7
 10
287.0584985287
 20
-50.9480231774
 30
0.0
 11
287.9328211815
 21
-50.9480231774
 31
0.0
  0
LINE
  5
3C5
  8
0
  6
CONTINUOUS
 62
     7
 10
287.9328211815
 20
-51.0048424226
 30
0.0
 11
288.1543418438
 21
-51.02008035
 31
0.0
  0
ARC
  5
3C6
  8
0
  6
CONTINUOUS
 62
     7
 10
288.7224585359
 20
-53.0596066275
 30
0.0
 40
1.996145080097107
 50
359.8798522284
 51
86.029573014
  0
LINE
  5
3C7
  8
0
  6
CONTINUOUS
 62
     7
 10
290.7185992272
 20
-53.0637924892
 30
0.0
 11
290.7185992272
 21
-57.4663137418
 31
0.0
  0
ARC
  5
3C8
  8
0
  6
CONTINUOUS
 62
     7
 10
291.9203918029
 20
-57.467097094
 30
0.0
 40
1.201792831047435
 50
179.9626534821
 51
232.2494355137
  0
LINE
  5
3C9
  8
0
  6
CONTINUOUS
 62
     7
 10
288.8606747658
 20
-51.0682524514
 30
0.0
 11
288.1543418438
 21
-51.02008035
 31
0.0
  0
LINE
  5
3CA
  8
0
  6
CONTINUOUS
 62
     7
 10
287.0584985287
 20
-50.9480231774
 30
0.0
 11
287.0584985287
 21
-38.227906577
 31
0.0
  0
LINE
  5
3CB
  8
0
  6
CONTINUOUS
 62
     7
 10
287.8584941895
 20
-38.227906577
 30
0.0
 11
287.8584941895
 21
-50.9480231774
 31
0.0
  0
LINE
  5
3CC
  8
0
  6
CONTINUOUS
 62
     7
 10
287.0584985287
 20
-37.0480229479
 30
0.0
 11
287.8584941895
 21
-37.0480229479
 31
0.0
  0
LINE
  5
3CD
  8
0
  6
CONTINUOUS
 62
     7
 10
287.0584985287
 20
-38.227906577
 30
0.0
 11
287.0584985287
 21
-37.0480229479
 31
0.0
  0
LINE
  5
3CE
  8
0
  6
CONTINUOUS
 62
     7
 10
287.8584941895
 20
-37.0480229479
 30
0.0
 11
287.8584941895
 21
-38.227906577
 31
0.0
  0
LINE
  5
3CF
  8
0
  6
CONTINUOUS
 62
     7
 10
292.2584971459
 20
-40.6757981849
 30
0.0
 11
292.2584971459
 21
-41.048023231
 31
0.0
  0
LINE
  5
3D0
  8
0
  6
CONTINUOUS
 62
     7
 10
290.2932426007
 20
-40.0480230671
 30
0.0
 11
287.8584941895
 21
-40.0480230671
 31
0.0
  0
LINE
  5
3D1
  8
0
  6
CONTINUOUS
 62
     7
 10
287.0584985287
 20
-40.0480230671
 30
0.0
 11
282.2584947617
 21
-40.0480230671
 31
0.0
  0
LINE
  5
3D2
  8
0
  6
CONTINUOUS
 62
     7
 10
282.2584947617
 20
-40.0480230671
 30
0.0
 11
282.2584947617
 21
-41.048023231
 31
0.0
  0
LINE
  5
3D3
  8
0
  6
CONTINUOUS
 62
     7
 10
282.2584947617
 20
-41.048023231
 30
0.0
 11
282.2584947617
 21
-50.2480232489
 31
0.0
  0
LINE
  5
3D4
  8
0
  6
CONTINUOUS
 62
     7
 10
292.2584971459
 20
-41.048023231
 30
0.0
 11
292.2584971459
 21
-50.2480232489
 31
0.0
  0
LINE
  5
3D5
  8
0
  6
CONTINUOUS
 62
     7
 10
287.0584985287
 20
-51.2480234128
 30
0.0
 11
282.2584947617
 21
-51.2480234128
 31
0.0
  0
LINE
  5
3D6
  8
0
  6
CONTINUOUS
 62
     7
 10
282.2584947617
 20
-50.2480232489
 30
0.0
 11
282.2584947617
 21
-51.2480234128
 31
0.0
  0
LINE
  5
3D7
  8
0
  6
CONTINUOUS
 62
     7
 10
292.2584971459
 20
-51.2480234128
 30
0.0
 11
289.5623883278
 21
-51.2480234128
 31
0.0
  0
LINE
  5
3D8
  8
0
  6
CONTINUOUS
 62
     7
 10
292.2584971459
 20
-50.2480232489
 30
0.0
 11
292.2584971459
 21
-51.2480234128
 31
0.0
  0
LINE
  5
3D9
  8
0
  6
CONTINUOUS
 62
     7
 10
122.4584957631
 20
-112.1480253857
 30
0.0
 11
122.4584957631
 21
-50.9480231774
 31
0.0
  0
LINE
  5
3DA
  8
0
  6
CONTINUOUS
 62
     7
 10
122.3619183571
 20
-112.1480253857
 30
0.0
 11
122.4584957631
 21
-112.1480253857
 31
0.0
  0
LINE
  5
3DB
  8
0
  6
CONTINUOUS
 62
     7
 10
121.5841731102
 20
-50.9480231774
 30
0.0
 11
121.5841731102
 21
-51.0048424226
 31
0.0
  0
LINE
  5
3DC
  8
0
  6
CONTINUOUS
 62
     7
 10
122.4584957631
 20
-50.9480231774
 30
0.0
 11
121.5841731102
 21
-50.9480231774
 31
0.0
  0
LINE
  5
3DD
  8
0
  6
CONTINUOUS
 62
     7
 10
121.5841731102
 20
-51.0048424226
 30
0.0
 11
121.3626524479
 21
-51.02008035
 31
0.0
  0
ARC
  5
3DE
  8
0
  6
CONTINUOUS
 62
     7
 10
117.5965605145
 20
-57.4670864952
 30
0.0
 40
1.201834798489496
 50
308.241941962
 51
0.0368399334
  0
LINE
  5
3DF
  8
0
  6
CONTINUOUS
 62
     7
 10
118.7983950646
 20
-53.0637924892
 30
0.0
 11
118.7983950646
 21
-57.4663137418
 31
0.0
  0
ARC
  5
3E0
  8
0
  6
CONTINUOUS
 62
     7
 10
120.7945357559
 20
-53.0596066275
 30
0.0
 40
1.996145080097167
 50
93.970426986
 51
180.1201477716
  0
LINE
  5
3E1
  8
0
  6
CONTINUOUS
 62
     7
 10
120.6563195259
 20
-51.0682524514
 30
0.0
 11
121.3626524479
 21
-51.02008035
 31
0.0
  0
LINE
  5
3E2
  8
0
  6
CONTINUOUS
 62
     7
 10
122.4584957631
 20
-50.9480231774
 30
0.0
 11
122.4584957631
 21
-38.227906577
 31
0.0
  0
LINE
  5
3E3
  8
0
  6
CONTINUOUS
 62
     7
 10
121.6585001023
 20
-38.227906577
 30
0.0
 11
121.6585001023
 21
-50.9480231774
 31
0.0
  0
LINE
  5
3E4
  8
0
  6
CONTINUOUS
 62
     7
 10
122.4584957631
 20
-37.0480229479
 30
0.0
 11
121.6585001023
 21
-37.0480229479
 31
0.0
  0
LINE
  5
3E5
  8
0
  6
CONTINUOUS
 62
     7
 10
122.4584957631
 20
-38.227906577
 30
0.0
 11
122.4584957631
 21
-37.0480229479
 31
0.0
  0
LINE
  5
3E6
  8
0
  6
CONTINUOUS
 62
     7
 10
121.6585001023
 20
-37.0480229479
 30
0.0
 11
121.6585001023
 21
-38.227906577
 31
0.0
  0
LINE
  5
3E7
  8
0
  6
CONTINUOUS
 62
     7
 10
122.4584957631
 20
-40.0480230671
 30
0.0
 11
127.2584995301
 21
-40.0480230671
 31
0.0
  0
LINE
  5
3E8
  8
0
  6
CONTINUOUS
 62
     7
 10
127.2584995301
 20
-40.0480230671
 30
0.0
 11
127.2584995301
 21
-41.048023231
 31
0.0
  0
LINE
  5
3E9
  8
0
  6
CONTINUOUS
 62
     7
 10
117.2584971459
 20
-40.6816297543
 30
0.0
 11
117.2584971459
 21
-41.048023231
 31
0.0
  0
LINE
  5
3EA
  8
0
  6
CONTINUOUS
 62
     7
 10
119.223763612
 20
-40.0480230671
 30
0.0
 11
121.6585001023
 21
-40.0480230671
 31
0.0
  0
LINE
  5
3EB
  8
0
  6
CONTINUOUS
 62
     7
 10
127.2584995301
 20
-41.048023231
 30
0.0
 11
127.2584995301
 21
-50.2480232489
 31
0.0
  0
LINE
  5
3EC
  8
0
  6
CONTINUOUS
 62
     7
 10
117.2584971459
 20
-41.048023231
 30
0.0
 11
117.2584971459
 21
-50.2480232489
 31
0.0
  0
LINE
  5
3ED
  8
0
  6
CONTINUOUS
 62
     7
 10
117.2584971459
 20
-51.2480234128
 30
0.0
 11
119.9546059639
 21
-51.2480234128
 31
0.0
  0
LINE
  5
3EE
  8
0
  6
CONTINUOUS
 62
     7
 10
117.2584971459
 20
-50.2480232489
 30
0.0
 11
117.2584971459
 21
-51.2480234128
 31
0.0
  0
LINE
  5
3EF
  8
0
  6
CONTINUOUS
 62
     7
 10
122.4584957631
 20
-51.2480234128
 30
0.0
 11
127.2584995301
 21
-51.2480234128
 31
0.0
  0
LINE
  5
3F0
  8
0
  6
CONTINUOUS
 62
     7
 10
127.2584995301
 20
-50.2480232489
 30
0.0
 11
127.2584995301
 21
-51.2480234128
 31
0.0
  0
LINE
  5
3F1
  8
0
  6
CONTINUOUS
 62
     7
 10
242.4584975512
 20
-112.1480253857
 30
0.0
 11
242.4584975512
 21
-50.9480231774
 31
0.0
  0
LINE
  5
3F2
  8
0
  6
CONTINUOUS
 62
     7
 10
242.3619201453
 20
-112.1480253857
 30
0.0
 11
242.4584975512
 21
-112.1480253857
 31
0.0
  0
LINE
  5
3F3
  8
0
  6
CONTINUOUS
 62
     7
 10
241.5841719181
 20
-51.0048424226
 30
0.0
 11
241.3626512558
 21
-51.02008035
 31
0.0
  0
LINE
  5
3F4
  8
0
  6
CONTINUOUS
 62
     7
 10
241.5841719181
 20
-50.9480231774
 30
0.0
 11
241.5841719181
 21
-51.0048424226
 31
0.0
  0
LINE
  5
3F5
  8
0
  6
CONTINUOUS
 62
     7
 10
242.4584975512
 20
-50.9480231774
 30
0.0
 11
241.5841719181
 21
-50.9480231774
 31
0.0
  0
ARC
  5
3F6
  8
0
  6
CONTINUOUS
 62
     7
 10
237.5965593224
 20
-57.4670864952
 30
0.0
 40
1.201834798489599
 50
308.241941962
 51
0.0368399334
  0
LINE
  5
3F7
  8
0
  6
CONTINUOUS
 62
     7
 10
238.7983938725
 20
-53.0637924892
 30
0.0
 11
238.7983938725
 21
-57.4663137418
 31
0.0
  0
ARC
  5
3F8
  8
0
  6
CONTINUOUS
 62
     7
 10
240.7945361247
 20
-53.0596080808
 30
0.0
 40
1.996146637964836
 50
93.9704687935
 51
180.1201059642
  0
LINE
  5
3F9
  8
0
  6
CONTINUOUS
 62
     7
 10
240.6563183339
 20
-51.0682524514
 30
0.0
 11
241.3626512558
 21
-51.02008035
 31
0.0
  0
LINE
  5
3FA
  8
0
  6
CONTINUOUS
 62
     7
 10
242.4584975512
 20
-50.9480231774
 30
0.0
 11
242.4584975512
 21
-38.227906577
 31
0.0
  0
LINE
  5
3FB
  8
0
  6
CONTINUOUS
 62
     7
 10
241.6584959299
 20
-38.227906577
 30
0.0
 11
241.6584959299
 21
-50.9480231774
 31
0.0
  0
LINE
  5
3FC
  8
0
  6
CONTINUOUS
 62
     7
 10
242.4584975512
 20
-37.0480229479
 30
0.0
 11
241.6584959299
 21
-37.0480229479
 31
0.0
  0
LINE
  5
3FD
  8
0
  6
CONTINUOUS
 62
     7
 10
242.4584975512
 20
-38.227906577
 30
0.0
 11
242.4584975512
 21
-37.0480229479
 31
0.0
  0
LINE
  5
3FE
  8
0
  6
CONTINUOUS
 62
     7
 10
241.6584959299
 20
-37.0480229479
 30
0.0
 11
241.6584959299
 21
-38.227906577
 31
0.0
  0
LINE
  5
3FF
  8
0
  6
CONTINUOUS
 62
     7
 10
239.2237624199
 20
-40.0480230671
 30
0.0
 11
241.6584959299
 21
-40.0480230671
 31
0.0
  0
LINE
  5
400
  8
0
  6
CONTINUOUS
 62
     7
 10
237.2584959538
 20
-40.6816297543
 30
0.0
 11
237.2584959538
 21
-41.048023231
 31
0.0
  0
LINE
  5
401
  8
0
  6
CONTINUOUS
 62
     7
 10
242.4584975512
 20
-40.0480230671
 30
0.0
 11
247.258498338
 21
-40.0480230671
 31
0.0
  0
LINE
  5
402
  8
0
  6
CONTINUOUS
 62
     7
 10
247.258498338
 20
-40.0480230671
 30
0.0
 11
247.258498338
 21
-41.048023231
 31
0.0
  0
LINE
  5
403
  8
0
  6
CONTINUOUS
 62
     7
 10
247.258498338
 20
-41.048023231
 30
0.0
 11
247.258498338
 21
-50.2480232489
 31
0.0
  0
LINE
  5
404
  8
0
  6
CONTINUOUS
 62
     7
 10
237.2584959538
 20
-41.048023231
 30
0.0
 11
237.2584959538
 21
-50.2480232489
 31
0.0
  0
LINE
  5
405
  8
0
  6
CONTINUOUS
 62
     7
 10
237.2584959538
 20
-51.2480234128
 30
0.0
 11
239.9546077521
 21
-51.2480234128
 31
0.0
  0
LINE
  5
406
  8
0
  6
CONTINUOUS
 62
     7
 10
237.2584959538
 20
-50.2480232489
 30
0.0
 11
237.2584959538
 21
-51.2480234128
 31
0.0
  0
LINE
  5
407
  8
0
  6
CONTINUOUS
 62
     7
 10
242.4584975512
 20
-51.2480234128
 30
0.0
 11
247.258498338
 21
-51.2480234128
 31
0.0
  0
LINE
  5
408
  8
0
  6
CONTINUOUS
 62
     7
 10
247.258498338
 20
-50.2480232489
 30
0.0
 11
247.258498338
 21
-51.2480234128
 31
0.0
  0
LINE
  5
409
  8
0
  6
CONTINUOUS
 62
     7
 10
362.4584993393
 20
-112.1480253857
 30
0.0
 11
362.4584993393
 21
-50.9480231774
 31
0.0
  0
LINE
  5
40A
  8
0
  6
CONTINUOUS
 62
     7
 10
362.3619159729
 20
-112.1480253857
 30
0.0
 11
362.4584993393
 21
-112.1480253857
 31
0.0
  0
LINE
  5
40B
  8
0
  6
CONTINUOUS
 62
     7
 10
361.584170726
 20
-51.0048424226
 30
0.0
 11
361.3626560242
 21
-51.02008035
 31
0.0
  0
LINE
  5
40C
  8
0
  6
CONTINUOUS
 62
     7
 10
361.584170726
 20
-50.9480231774
 30
0.0
 11
361.584170726
 21
-51.0048424226
 31
0.0
  0
LINE
  5
40D
  8
0
  6
CONTINUOUS
 62
     7
 10
362.4584993393
 20
-50.9480231774
 30
0.0
 11
361.584170726
 21
-50.9480231774
 31
0.0
  0
ARC
  5
40E
  8
0
  6
CONTINUOUS
 62
     7
 10
357.5965960352
 20
-57.4671048686
 30
0.0
 40
1.201796905602369
 50
308.241064846
 51
0.0377170493
  0
LINE
  5
40F
  8
0
  6
CONTINUOUS
 62
     7
 10
358.7983926804
 20
-53.0637924892
 30
0.0
 11
358.7983926804
 21
-57.4663137418
 31
0.0
  0
ARC
  5
410
  8
0
  6
CONTINUOUS
 62
     7
 10
360.7945401546
 20
-53.0596129427
 30
0.0
 40
1.996151849803292
 50
93.9706086595
 51
180.1199660981
  0
LINE
  5
411
  8
0
  6
CONTINUOUS
 62
     7
 10
360.6563171418
 20
-51.0682524514
 30
0.0
 11
361.3626560242
 21
-51.02008035
 31
0.0
  0
LINE
  5
412
  8
0
  6
CONTINUOUS
 62
     7
 10
362.4584993393
 20
-50.9480231774
 30
0.0
 11
362.4584993393
 21
-38.227906577
 31
0.0
  0
LINE
  5
413
  8
0
  6
CONTINUOUS
 62
     7
 10
361.6584977181
 20
-38.227906577
 30
0.0
 11
361.6584977181
 21
-50.9480231774
 31
0.0
  0
LINE
  5
414
  8
0
  6
CONTINUOUS
 62
     7
 10
362.4584993393
 20
-37.0480229479
 30
0.0
 11
361.6584977181
 21
-37.0480229479
 31
0.0
  0
LINE
  5
415
  8
0
  6
CONTINUOUS
 62
     7
 10
362.4584993393
 20
-38.227906577
 30
0.0
 11
362.4584993393
 21
-37.0480229479
 31
0.0
  0
LINE
  5
416
  8
0
  6
CONTINUOUS
 62
     7
 10
361.6584977181
 20
-37.0480229479
 30
0.0
 11
361.6584977181
 21
-38.227906577
 31
0.0
  0
LINE
  5
417
  8
0
  6
CONTINUOUS
 62
     7
 10
362.4584993393
 20
-40.0480230671
 30
0.0
 11
367.2584971459
 21
-40.0480230671
 31
0.0
  0
LINE
  5
418
  8
0
  6
CONTINUOUS
 62
     7
 10
367.2584971459
 20
-40.0480230671
 30
0.0
 11
367.2584971459
 21
-41.048023231
 31
0.0
  0
LINE
  5
419
  8
0
  6
CONTINUOUS
 62
     7
 10
357.2584947617
 20
-40.6816297543
 30
0.0
 11
357.2584947617
 21
-41.048023231
 31
0.0
  0
LINE
  5
41A
  8
0
  6
CONTINUOUS
 62
     7
 10
359.2237671883
 20
-40.0480230671
 30
0.0
 11
361.6584977181
 21
-40.0480230671
 31
0.0
  0
LINE
  5
41B
  8
0
  6
CONTINUOUS
 62
     7
 10
367.2584971459
 20
-41.048023231
 30
0.0
 11
367.2584971459
 21
-50.2480232489
 31
0.0
  0
LINE
  5
41C
  8
0
  6
CONTINUOUS
 62
     7
 10
357.2584947617
 20
-41.048023231
 30
0.0
 11
357.2584947617
 21
-50.2480232489
 31
0.0
  0
LINE
  5
41D
  8
0
  6
CONTINUOUS
 62
     7
 10
357.2584947617
 20
-51.2480234128
 30
0.0
 11
359.9546035797
 21
-51.2480234128
 31
0.0
  0
LINE
  5
41E
  8
0
  6
CONTINUOUS
 62
     7
 10
357.2584947617
 20
-50.2480232489
 30
0.0
 11
357.2584947617
 21
-51.2480234128
 31
0.0
  0
LINE
  5
41F
  8
0
  6
CONTINUOUS
 62
     7
 10
362.4584993393
 20
-51.2480234128
 30
0.0
 11
367.2584971459
 21
-51.2480234128
 31
0.0
  0
LINE
  5
420
  8
0
  6
CONTINUOUS
 62
     7
 10
367.2584971459
 20
-50.2480232489
 30
0.0
 11
367.2584971459
 21
-51.2480234128
 31
0.0
  0
ENDSEC
  0
EOF
