  0
SECTION
  2
HEADER
  9
$ACADVER
  1
AC1009
  9
$DWGCODEPAGE
  3
ansi_1252
  9
$INSBASE
 10
0.0
 20
0.0
 30
0.0
  9
$EXTMIN
 10
0.0
 20
0.0
 30
0.0
  9
$EXTMAX
 10
420.0
 20
297.0
 30
0.0
  9
$LIMMIN
 10
0.0
 20
0.0
  9
$LIMMAX
 10
420.0
 20
297.0
  9
$ORTHOMODE
 70
     0
  9
$REGENMODE
 70
     1
  9
$FILLMODE
 70
     1
  9
$QTEXTMODE
 70
     0
  9
$MIRRTEXT
 70
     1
  9
$DRAGMODE
 70
     2
  9
$LTSCALE
 40
1.0
  9
$OSMODE
 70
    37
  9
$ATTMODE
 70
     1
  9
$TEXTSIZE
 40
3.5
  9
$TRACEWID
 40
1.0
  9
$TEXTSTYLE
  7
STANDARD
  9
$CLAYER
  8
0
  9
$CELTYPE
  6
BYLAYER
  9
$CECOLOR
 62
   256
  9
$DIMSCALE
 40
1.0
  9
$DIMASZ
 40
4.0
  9
$DIMEXO
 40
0.0
  9
$DIMDLI
 40
3.75
  9
$DIMRND
 40
0.0
  9
$DIMDLE
 40
0.0
  9
$DIMEXE
 40
2.0
  9
$DIMTP
 40
0.0
  9
$DIMTM
 40
0.0
  9
$DIMTXT
 40
3.5
  9
$DIMCEN
 40
2.5
  9
$DIMTSZ
 40
0.0
  9
$DIMTOL
 70
     0
  9
$DIMLIM
 70
     0
  9
$DIMTIH
 70
     1
  9
$DIMTOH
 70
     1
  9
$DIMSE1
 70
     0
  9
$DIMSE2
 70
     0
  9
$DIMTAD
 70
     1
  9
$DIMZIN
 70
     0
  9
$DIMBLK
  1

  9
$DIMASO
 70
     1
  9
$DIMSHO
 70
     1
  9
$DIMPOST
  1

  9
$DIMAPOST
  1

  9
$DIMALT
 70
     0
  9
$DIMALTD
 70
     3
  9
$DIMALTF
 40
0.0393700787
  9
$DIMLFAC
 40
5.0
  9
$DIMTOFL
 70
     1
  9
$DIMTVP
 40
0.0
  9
$DIMTIX
 70
     0
  9
$DIMSOXD
 70
     0
  9
$DIMSAH
 70
     0
  9
$DIMBLK1
  1

  9
$DIMBLK2
  1

  9
$DIMSTYLE
  2
ISO-25
  9
$DIMCLRD
 70
     0
  9
$DIMCLRE
 70
     0
  9
$DIMCLRT
 70
     0
  9
$DIMTFAC
 40
1.0
  9
$DIMGAP
 40
1.524
  9
$LUNITS
 70
     2
  9
$LUPREC
 70
     2
  9
$SKETCHINC
 40
1.0
  9
$FILLETRAD
 40
10.0
  9
$AUNITS
 70
     0
  9
$AUPREC
 70
     2
  9
$MENU
  1
.
  9
$ELEVATION
 40
0.0
  9
$PELEVATION
 40
0.0
  9
$THICKNESS
 40
0.0
  9
$LIMCHECK
 70
     0
  9
$CHAMFERA
 40
10.0
  9
$CHAMFERB
 40
10.0
  9
$SKPOLY
 70
     0
  9
$TDCREATE
 40
2457802.64449235
  9
$TDUPDATE
 40
2457802.644492558
  9
$TDINDWG
 40
0.0000000116
  9
$TDUSRTIMER
 40
0.0000000116
  9
$USRTIMER
 70
     1
  9
$ANGBASE
 50
0.0
  9
$ANGDIR
 70
     0
  9
$PDMODE
 70
     0
  9
$PDSIZE
 40
-1.0
  9
$PLINEWID
 40
0.0
  9
$COORDS
 70
     1
  9
$SPLFRAME
 70
     0
  9
$SPLINETYPE
 70
     6
  9
$SPLINESEGS
 70
     8
  9
$ATTDIA
 70
     0
  9
$ATTREQ
 70
     1
  9
$HANDLING
 70
     1
  9
$HANDSEED
  5
5B4
  9
$SURFTAB1
 70
     6
  9
$SURFTAB2
 70
     6
  9
$SURFTYPE
 70
     6
  9
$SURFU
 70
     6
  9
$SURFV
 70
     6
  9
$UCSNAME
  2

  9
$UCSORG
 10
0.0
 20
0.0
 30
0.0
  9
$UCSXDIR
 10
1.0
 20
0.0
 30
0.0
  9
$UCSYDIR
 10
0.0
 20
1.0
 30
0.0
  9
$PUCSNAME
  2

  9
$PUCSORG
 10
0.0
 20
0.0
 30
0.0
  9
$PUCSXDIR
 10
1.0
 20
0.0
 30
0.0
  9
$PUCSYDIR
 10
0.0
 20
1.0
 30
0.0
  9
$USERI1
 70
     0
  9
$USERI2
 70
     0
  9
$USERI3
 70
     0
  9
$USERI4
 70
     0
  9
$USERI5
 70
     0
  9
$USERR1
 40
0.0
  9
$USERR2
 40
0.0
  9
$USERR3
 40
0.0
  9
$USERR4
 40
0.0
  9
$USERR5
 40
0.0
  9
$WORLDVIEW
 70
     1
  9
$SHADEDGE
 70
     3
  9
$SHADEDIF
 70
    70
  9
$TILEMODE
 70
     1
  9
$MAXACTVP
 70
    64
  9
$PLIMCHECK
 70
     0
  9
$PEXTMIN
 10
1.0000000000E+20
 20
1.0000000000E+20
 30
1.0000000000E+20
  9
$PEXTMAX
 10
-1.0000000000E+20
 20
-1.0000000000E+20
 30
-1.0000000000E+20
  9
$PLIMMIN
 10
0.0
 20
0.0
  9
$PLIMMAX
 10
420.0
 20
297.0
  9
$UNITMODE
 70
     0
  9
$VISRETAIN
 70
     1
  9
$PLINEGEN
 70
     0
  9
$PSLTSCALE
 70
     1
  0
ENDSEC
  0
SECTION
  2
TABLES
  0
TABLE
  2
VPORT
 70
     1
  0
VPORT
  2
*ACTIVE
 70
     0
 10
0.0
 20
0.0
 11
1.0
 21
1.0
 12
210.0
 22
148.5
 13
0.0
 23
0.0
 14
10.0
 24
10.0
 15
10.0
 25
10.0
 16
0.0
 26
0.0
 36
1.0
 17
0.0
 27
0.0
 37
0.0
 40
297.0
 41
1.4141414141
 42
50.0
 43
0.0
 44
0.0
 50
0.0
 51
0.0
 71
     0
 72
  2000
 73
     1
 74
     3
 75
     0
 76
     0
 77
     0
 78
     0
  0
ENDTAB
  0
TABLE
  2
LTYPE
 70
     6
  0
LTYPE
  2
CONTINUOUS
 70
     0
  3
Solid line
 72
    65
 73
     0
 40
0.0
  0
LTYPE
  2
HIDDEN
 70
     0
  3
Hidden __ __ __ __ __ __ __ __ __ __ __ __ __ __
 72
    65
 73
     2
 40
1.905
 49
1.27
 49
-0.635
  0
LTYPE
  2
PHANTOM
 70
     0
  3
Phantom ______  __  __  ______  __  __  ______
 72
    65
 73
     6
 40
12.7
 49
6.35
 49
-1.27
 49
1.27
 49
-1.27
 49
1.27
 49
-1.27
  0
LTYPE
  2
CENTER
 70
     0
  3
Center ____ _ ____ _ ____ _ ____ _ ____ _ ____
 72
    65
 73
     4
 40
10.16
 49
6.35
 49
-1.27
 49
1.27
 49
-1.27
  0
LTYPE
  2
CENTERX2
 70
     0
  3
Center (2x) ________  __  ________  __  _____
 72
    65
 73
     4
 40
20.32
 49
12.7
 49
-2.54
 49
2.54
 49
-2.54
  0
LTYPE
  2
DOT2
 70
     0
  3
Dot (.5x) ........................................
 72
    65
 73
     2
 40
0.635
 49
0.0
 49
-0.635
  0
ENDTAB
  0
TABLE
  2
LAYER
 70
     2
  0
LAYER
  2
0
 70
     0
 62
     7
  6
CONTINUOUS
  0
LAYER
  2
FORMAT
 70
     0
 62
     7
  6
CONTINUOUS
  0
ENDTAB
  0
TABLE
  2
STYLE
 70
     1
  0
STYLE
  2
STANDARD
 70
     0
 40
0.0
 41
1.0
 50
0.0
 71
     0
 42
3.5
  3
txt
  4

  0
ENDTAB
  0
TABLE
  2
VIEW
 70
     0
  0
ENDTAB
  0
TABLE
  2
UCS
 70
     0
  0
ENDTAB
  0
TABLE
  2
APPID
 70
     1
  0
APPID
  2
ACAD
 70
     0
  0
ENDTAB
  0
TABLE
  2
DIMSTYLE
 70
     1
  0
DIMSTYLE
  2
ISO-25
 70
     0
  3

  4

  5

  6

  7

 40
1.0
 41
2.5
 42
0.625
 43
3.75
 44
1.25
 45
0.0
 46
0.0
 47
0.0
 48
0.0
140
2.5
141
2.5
142
0.0
143
0.0393700787
144
1.0
145
0.0
146
1.0
147
0.625
 71
     0
 72
     0
 73
     0
 74
     0
 75
     0
 76
     0
 77
     1
 78
     8
170
     0
171
     3
172
     1
173
     0
174
     0
175
     0
176
     0
177
     0
178
     0
  0
ENDTAB
  0
ENDSEC
  0
SECTION
  2
BLOCKS
  0
BLOCK
  8
0
  2
$MODEL_SPACE
 70
     0
 10
0.0
 20
0.0
 30
0.0
  3
$MODEL_SPACE
  1

  0
ENDBLK
  5
21
  8
0
  0
BLOCK
 67
     1
  8
0
  2
$PAPER_SPACE
 70
     0
 10
0.0
 20
0.0
 30
0.0
  3
$PAPER_SPACE
  1

  0
ENDBLK
  5
1D
 67
     1
  8
0
  0
ENDSEC
  0
SECTION
  2
ENTITIES
  0
POLYLINE
  5
45
  8
0
  6
CONTINUOUS
 62
     7
 66
     1
 10
0.0
 20
0.0
 30
0.0
  0
VERTEX
  5
2BD
  8
0
  6
CONTINUOUS
 62
     7
 10
239.1697469259
 20
241.8441247981
 30
0.0
  0
VERTEX
  5
2BE
  8
0
  6
CONTINUOUS
 62
     7
 10
237.8948870207
 20
241.673911814
 30
0.0
  0
VERTEX
  5
2BF
  8
0
  6
CONTINUOUS
 62
     7
 10
236.8020418192
 20
241.5328455012
 30
0.0
  0
VERTEX
  5
2C0
  8
0
  6
CONTINUOUS
 62
     7
 10
235.8915153051
 20
241.4187145274
 30
0.0
  0
VERTEX
  5
2C1
  8
0
  6
CONTINUOUS
 62
     7
 10
235.1635399366
 20
241.3296830695
 30
0.0
  0
VERTEX
  5
2C2
  8
0
  6
CONTINUOUS
 62
     7
 10
234.5651510263
 20
241.2579667609
 30
0.0
  0
VERTEX
  5
2C3
  8
0
  6
CONTINUOUS
 62
     7
 10
234.1441038156
 20
241.2083756965
 30
0.0
  0
VERTEX
  5
2C4
  8
0
  6
CONTINUOUS
 62
     7
 10
233.7079170252
 20
241.1581468623
 30
0.0
  0
VERTEX
  5
2C5
  8
0
  6
CONTINUOUS
 62
     7
 10
233.2385721708
 20
241.1053431075
 30
0.0
  0
VERTEX
  5
2C6
  8
0
  6
CONTINUOUS
 62
     7
 10
232.7360394503
 20
241.0501611274
 30
0.0
  0
VERTEX
  5
2C7
  8
0
  6
CONTINUOUS
 62
     7
 10
232.2003009821
 20
240.9927916568
 30
0.0
  0
VERTEX
  5
2C8
  8
0
  6
CONTINUOUS
 62
     7
 10
230.8059993292
 20
240.8501756232
 30
0.0
  0
VERTEX
  5
2C9
  8
0
  6
CONTINUOUS
 62
     7
 10
229.2268338705
 20
240.6996798556
 30
0.0
  0
VERTEX
  5
2CA
  8
0
  6
CONTINUOUS
 62
     7
 10
227.9072704817
 20
240.5825567286
 30
0.0
  0
VERTEX
  5
2CB
  8
0
  6
CONTINUOUS
 62
     7
 10
226.5805604959
 20
240.4733789008
 30
0.0
  0
VERTEX
  5
2CC
  8
0
  6
CONTINUOUS
 62
     7
 10
225.3470006491
 20
240.3807115596
 30
0.0
  0
VERTEX
  5
2CD
  8
0
  6
CONTINUOUS
 62
     7
 10
224.2067518736
 20
240.3034341376
 30
0.0
  0
VERTEX
  5
2CE
  8
0
  6
CONTINUOUS
 62
     7
 10
223.159975102
 20
240.2406048816
 30
0.0
  0
VERTEX
  5
2CF
  8
0
  6
CONTINUOUS
 62
     7
 10
222.206819346
 20
240.1914846938
 30
0.0
  0
VERTEX
  5
2D0
  8
0
  6
CONTINUOUS
 62
     7
 10
221.3474216963
 20
240.1555371325
 30
0.0
  0
VERTEX
  5
2D1
  8
0
  6
CONTINUOUS
 62
     7
 10
220.5812159086
 20
240.1322734397
 30
0.0
  0
VERTEX
  5
2D2
  8
0
  6
CONTINUOUS
 62
     7
 10
220.2206018473
 20
240.1228261035
 30
0.0
  0
VERTEX
  5
2D3
  8
0
  6
CONTINUOUS
 62
     7
 10
219.866931727
 20
240.1120734256
 30
0.0
  0
VERTEX
  5
2D4
  8
0
  6
CONTINUOUS
 62
     7
 10
219.520193627
 20
240.0996160548
 30
0.0
  0
VERTEX
  5
2D5
  8
0
  6
CONTINUOUS
 62
     7
 10
219.1803815866
 20
240.086067919
 30
0.0
  0
VERTEX
  5
2D6
  8
0
  6
CONTINUOUS
 62
     7
 10
218.6247172857
 20
240.0630307238
 30
0.0
  0
VERTEX
  5
2D7
  8
0
  6
CONTINUOUS
 62
     7
 10
218.0095556284
 20
240.0381457847
 30
0.0
  0
VERTEX
  5
2D8
  8
0
  6
CONTINUOUS
 62
     7
 10
217.2766807581
 20
240.0098812621
 30
0.0
  0
VERTEX
  5
2D9
  8
0
  6
CONTINUOUS
 62
     7
 10
216.426068833
 20
239.9789285701
 30
0.0
  0
VERTEX
  5
2DA
  8
0
  6
CONTINUOUS
 62
     7
 10
215.408647349
 20
239.9444413226
 30
0.0
  0
VERTEX
  5
2DB
  8
0
  6
CONTINUOUS
 62
     7
 10
214.2619553114
 20
239.9088215869
 30
0.0
  0
VERTEX
  5
2DC
  8
0
  6
CONTINUOUS
 62
     7
 10
212.9861536528
 20
239.8731660884
 30
0.0
  0
VERTEX
  5
2DD
  8
0
  6
CONTINUOUS
 62
     7
 10
206.9385948683
 20
239.7585105937
 30
0.0
  0
VERTEX
  5
2DE
  8
0
  6
CONTINUOUS
 62
     7
 10
200.9215477014
 20
239.7290062945
 30
0.0
  0
VERTEX
  5
2DF
  8
0
  6
CONTINUOUS
 62
     7
 10
198.547005942
 20
239.7399497073
 30
0.0
  0
VERTEX
  5
2E0
  8
0
  6
CONTINUOUS
 62
     7
 10
196.3119509722
 20
239.761979584
 30
0.0
  0
VERTEX
  5
2E1
  8
0
  6
CONTINUOUS
 62
     7
 10
194.2307177092
 20
239.7928071063
 30
0.0
  0
VERTEX
  5
2E2
  8
0
  6
CONTINUOUS
 62
     7
 10
192.3033299948
 20
239.830363993
 30
0.0
  0
VERTEX
  5
2E3
  8
0
  6
CONTINUOUS
 62
     7
 10
190.5200663114
 20
239.8729991954
 30
0.0
  0
VERTEX
  5
2E4
  8
0
  6
CONTINUOUS
 62
     7
 10
189.6106424833
 20
239.897723202
 30
0.0
  0
VERTEX
  5
2E5
  8
0
  6
CONTINUOUS
 62
     7
 10
188.6585029865
 20
239.925838713
 30
0.0
  0
VERTEX
  5
2E6
  8
0
  6
CONTINUOUS
 62
     7
 10
187.6636657024
 20
239.9577331584
 30
0.0
  0
VERTEX
  5
2E7
  8
0
  6
CONTINUOUS
 62
     7
 10
186.6261544729
 20
239.9938356917
 30
0.0
  0
VERTEX
  5
2E8
  8
0
  6
CONTINUOUS
 62
     7
 10
185.6017979885
 20
240.0324237388
 30
0.0
  0
VERTEX
  5
2E9
  8
0
  6
CONTINUOUS
 62
     7
 10
184.9334779287
 20
240.059221987
 30
0.0
  0
VERTEX
  5
2EA
  8
0
  6
CONTINUOUS
 62
     7
 10
184.4528081919
 20
240.0793027919
 30
0.0
  0
VERTEX
  5
2EB
  8
0
  6
CONTINUOUS
 62
     7
 10
184.1387691999
 20
240.0927794021
 30
0.0
  0
VERTEX
  5
2EC
  8
0
  6
CONTINUOUS
 62
     7
 10
183.6578878666
 20
240.1135873835
 30
0.0
  0
VERTEX
  5
2ED
  8
0
  6
CONTINUOUS
 62
     7
 10
183.1019762064
 20
240.1366543811
 30
0.0
  0
VERTEX
  5
2EE
  8
0
  6
CONTINUOUS
 62
     7
 10
182.471093824
 20
240.1607823413
 30
0.0
  0
VERTEX
  5
2EF
  8
0
  6
CONTINUOUS
 62
     7
 10
181.7652466799
 20
240.1881885569
 30
0.0
  0
VERTEX
  5
2F0
  8
0
  6
CONTINUOUS
 62
     7
 10
180.9835168625
 20
240.2224075835
 30
0.0
  0
VERTEX
  5
2F1
  8
0
  6
CONTINUOUS
 62
     7
 10
180.1213654781
 20
240.2672421973
 30
0.0
  0
VERTEX
  5
2F2
  8
0
  6
CONTINUOUS
 62
     7
 10
179.1782203222
 20
240.3235924285
 30
0.0
  0
VERTEX
  5
2F3
  8
0
  6
CONTINUOUS
 62
     7
 10
178.1541976238
 20
240.3920185607
 30
0.0
  0
VERTEX
  5
2F4
  8
0
  6
CONTINUOUS
 62
     7
 10
177.0494165922
 20
240.4732179683
 30
0.0
  0
VERTEX
  5
2F5
  8
0
  6
CONTINUOUS
 62
     7
 10
175.8640083576
 20
240.5680072348
 30
0.0
  0
VERTEX
  5
2F6
  8
0
  6
CONTINUOUS
 62
     7
 10
173.8000246788
 20
240.750373606
 30
0.0
  0
VERTEX
  5
2F7
  8
0
  6
CONTINUOUS
 62
     7
 10
171.5447637344
 20
240.9730684798
 30
0.0
  0
VERTEX
  5
2F8
  8
0
  6
CONTINUOUS
 62
     7
 10
169.1989216114
 20
241.2294638198
 30
0.0
  0
VERTEX
  5
2F9
  8
0
  6
CONTINUOUS
 62
     7
 10
166.7824926878
 20
241.5193152469
 30
0.0
  0
VERTEX
  5
2FA
  8
0
  6
CONTINUOUS
 62
     7
 10
164.2958435322
 20
241.8441247981
 30
0.0
  0
SEQEND
  5
5B3
  8
0
  6
CONTINUOUS
 62
     7
  0
POLYLINE
  5
46
  8
0
  6
CONTINUOUS
 62
     7
 66
     1
 10
0.0
 20
0.0
 30
0.0
  0
VERTEX
  5
2FB
  8
0
  6
CONTINUOUS
 62
     7
 10
239.3328609968
 20
241.2603688281
 30
0.0
  0
VERTEX
  5
2FC
  8
0
  6
CONTINUOUS
 62
     7
 10
239.2506423498
 20
241.6213643592
 30
0.0
  0
VERTEX
  5
2FD
  8
0
  6
CONTINUOUS
 62
     7
 10
239.1166272665
 20
242.2103476565
 30
0.0
  0
SEQEND
  5
5B2
  8
0
  6
CONTINUOUS
 62
     7
  0
POLYLINE
  5
47
  8
0
  6
CONTINUOUS
 62
     7
 66
     1
 10
0.0
 20
0.0
 30
0.0
  0
VERTEX
  5
2FE
  8
0
  6
CONTINUOUS
 62
     7
 10
164.3489602114
 20
242.2103476565
 30
0.0
  0
VERTEX
  5
2FF
  8
0
  6
CONTINUOUS
 62
     7
 10
164.2162728215
 20
241.6271996539
 30
0.0
  0
VERTEX
  5
300
  8
0
  6
CONTINUOUS
 62
     7
 10
164.1305225993
 20
241.2506771129
 30
0.0
  0
SEQEND
  5
5B1
  8
0
  6
CONTINUOUS
 62
     7
  0
POLYLINE
  5
48
  8
0
  6
CONTINUOUS
 62
     7
 66
     1
 10
0.0
 20
0.0
 30
0.0
  0
VERTEX
  5
301
  8
0
  6
CONTINUOUS
 62
     7
 10
119.1697451378
 20
241.8441247981
 30
0.0
  0
VERTEX
  5
302
  8
0
  6
CONTINUOUS
 62
     7
 10
117.8948852325
 20
241.673911814
 30
0.0
  0
VERTEX
  5
303
  8
0
  6
CONTINUOUS
 62
     7
 10
116.8020445014
 20
241.5328455012
 30
0.0
  0
VERTEX
  5
304
  8
0
  6
CONTINUOUS
 62
     7
 10
115.8915164972
 20
241.4187145274
 30
0.0
  0
VERTEX
  5
305
  8
0
  6
CONTINUOUS
 62
     7
 10
115.1635411287
 20
241.3296830695
 30
0.0
  0
VERTEX
  5
306
  8
0
  6
CONTINUOUS
 62
     7
 10
114.5651492382
 20
241.2579667609
 30
0.0
  0
VERTEX
  5
307
  8
0
  6
CONTINUOUS
 62
     7
 10
114.1441020275
 20
241.2083756965
 30
0.0
  0
VERTEX
  5
308
  8
0
  6
CONTINUOUS
 62
     7
 10
113.7079211975
 20
241.1581468623
 30
0.0
  0
VERTEX
  5
309
  8
0
  6
CONTINUOUS
 62
     7
 10
113.2385733629
 20
241.1053431075
 30
0.0
  0
VERTEX
  5
30A
  8
0
  6
CONTINUOUS
 62
     7
 10
112.7360406423
 20
241.0501611274
 30
0.0
  0
VERTEX
  5
30B
  8
0
  6
CONTINUOUS
 62
     7
 10
112.2003021742
 20
240.9927916568
 30
0.0
  0
VERTEX
  5
30C
  8
0
  6
CONTINUOUS
 62
     7
 10
110.805997541
 20
240.8501756232
 30
0.0
  0
VERTEX
  5
30D
  8
0
  6
CONTINUOUS
 62
     7
 10
109.2268320824
 20
240.6996798556
 30
0.0
  0
VERTEX
  5
30E
  8
0
  6
CONTINUOUS
 62
     7
 10
107.9072716738
 20
240.5825567286
 30
0.0
  0
VERTEX
  5
30F
  8
0
  6
CONTINUOUS
 62
     7
 10
106.580561688
 20
240.4733789008
 30
0.0
  0
VERTEX
  5
310
  8
0
  6
CONTINUOUS
 62
     7
 10
105.3469988609
 20
240.3807115596
 30
0.0
  0
VERTEX
  5
311
  8
0
  6
CONTINUOUS
 62
     7
 10
104.2067500854
 20
240.3034341376
 30
0.0
  0
VERTEX
  5
312
  8
0
  6
CONTINUOUS
 62
     7
 10
103.1599762941
 20
240.2406048816
 30
0.0
  0
VERTEX
  5
313
  8
0
  6
CONTINUOUS
 62
     7
 10
102.2068205381
 20
240.1914846938
 30
0.0
  0
VERTEX
  5
314
  8
0
  6
CONTINUOUS
 62
     7
 10
101.3474228884
 20
240.1555371325
 30
0.0
  0
VERTEX
  5
315
  8
0
  6
CONTINUOUS
 62
     7
 10
100.5812141205
 20
240.1322734397
 30
0.0
  0
VERTEX
  5
316
  8
0
  6
CONTINUOUS
 62
     7
 10
100.2206030394
 20
240.1228261035
 30
0.0
  0
VERTEX
  5
317
  8
0
  6
CONTINUOUS
 62
     7
 10
99.8669329191
 20
240.1120734256
 30
0.0
  0
VERTEX
  5
318
  8
0
  6
CONTINUOUS
 62
     7
 10
99.5201918388
 20
240.0996160548
 30
0.0
  0
VERTEX
  5
319
  8
0
  6
CONTINUOUS
 62
     7
 10
99.1803827787
 20
240.086067919
 30
0.0
  0
VERTEX
  5
31A
  8
0
  6
CONTINUOUS
 62
     7
 10
98.624721458
 20
240.0630307238
 30
0.0
  0
VERTEX
  5
31B
  8
0
  6
CONTINUOUS
 62
     7
 10
98.0095538402
 20
240.0381457847
 30
0.0
  0
VERTEX
  5
31C
  8
0
  6
CONTINUOUS
 62
     7
 10
97.2766789699
 20
240.0098812621
 30
0.0
  0
VERTEX
  5
31D
  8
0
  6
CONTINUOUS
 62
     7
 10
96.4260700251
 20
239.9789285701
 30
0.0
  0
VERTEX
  5
31E
  8
0
  6
CONTINUOUS
 62
     7
 10
95.4086485411
 20
239.9444413226
 30
0.0
  0
VERTEX
  5
31F
  8
0
  6
CONTINUOUS
 62
     7
 10
94.2619565035
 20
239.9088215869
 30
0.0
  0
VERTEX
  5
320
  8
0
  6
CONTINUOUS
 62
     7
 10
92.9861518646
 20
239.8731660884
 30
0.0
  0
VERTEX
  5
321
  8
0
  6
CONTINUOUS
 62
     7
 10
86.9385960604
 20
239.7585105937
 30
0.0
  0
VERTEX
  5
322
  8
0
  6
CONTINUOUS
 62
     7
 10
80.9215488935
 20
239.7290062945
 30
0.0
  0
VERTEX
  5
323
  8
0
  6
CONTINUOUS
 62
     7
 10
78.547007134
 20
239.7399497073
 30
0.0
  0
VERTEX
  5
324
  8
0
  6
CONTINUOUS
 62
     7
 10
76.3119521643
 20
239.761979584
 30
0.0
  0
VERTEX
  5
325
  8
0
  6
CONTINUOUS
 62
     7
 10
74.2307189012
 20
239.7928071063
 30
0.0
  0
VERTEX
  5
326
  8
0
  6
CONTINUOUS
 62
     7
 10
72.3033311869
 20
239.830363993
 30
0.0
  0
VERTEX
  5
327
  8
0
  6
CONTINUOUS
 62
     7
 10
70.5200675035
 20
239.8729991954
 30
0.0
  0
VERTEX
  5
328
  8
0
  6
CONTINUOUS
 62
     7
 10
69.6106436754
 20
239.897723202
 30
0.0
  0
VERTEX
  5
329
  8
0
  6
CONTINUOUS
 62
     7
 10
68.6585011984
 20
239.925838713
 30
0.0
  0
VERTEX
  5
32A
  8
0
  6
CONTINUOUS
 62
     7
 10
67.6636639143
 20
239.9577331584
 30
0.0
  0
VERTEX
  5
32B
  8
0
  6
CONTINUOUS
 62
     7
 10
66.626155665
 20
239.9938356917
 30
0.0
  0
VERTEX
  5
32C
  8
0
  6
CONTINUOUS
 62
     7
 10
65.6017962004
 20
240.0324237388
 30
0.0
  0
VERTEX
  5
32D
  8
0
  6
CONTINUOUS
 62
     7
 10
64.9334791208
 20
240.059221987
 30
0.0
  0
VERTEX
  5
32E
  8
0
  6
CONTINUOUS
 62
     7
 10
64.452809384
 20
240.0793027919
 30
0.0
  0
VERTEX
  5
32F
  8
0
  6
CONTINUOUS
 62
     7
 10
64.138770392
 20
240.0927794021
 30
0.0
  0
VERTEX
  5
330
  8
0
  6
CONTINUOUS
 62
     7
 10
63.6578860784
 20
240.1135873835
 30
0.0
  0
VERTEX
  5
331
  8
0
  6
CONTINUOUS
 62
     7
 10
63.1019773985
 20
240.1366543811
 30
0.0
  0
VERTEX
  5
332
  8
0
  6
CONTINUOUS
 62
     7
 10
62.4710920359
 20
240.1607823413
 30
0.0
  0
VERTEX
  5
333
  8
0
  6
CONTINUOUS
 62
     7
 10
61.765247872
 20
240.1881885569
 30
0.0
  0
VERTEX
  5
334
  8
0
  6
CONTINUOUS
 62
     7
 10
60.9835150743
 20
240.2224075835
 30
0.0
  0
VERTEX
  5
335
  8
0
  6
CONTINUOUS
 62
     7
 10
60.12136369
 20
240.2672421973
 30
0.0
  0
VERTEX
  5
336
  8
0
  6
CONTINUOUS
 62
     7
 10
59.1782215143
 20
240.3235924285
 30
0.0
  0
VERTEX
  5
337
  8
0
  6
CONTINUOUS
 62
     7
 10
58.1541958357
 20
240.3920185607
 30
0.0
  0
VERTEX
  5
338
  8
0
  6
CONTINUOUS
 62
     7
 10
57.0494177843
 20
240.4732179683
 30
0.0
  0
VERTEX
  5
339
  8
0
  6
CONTINUOUS
 62
     7
 10
55.8640065695
 20
240.5680072348
 30
0.0
  0
VERTEX
  5
33A
  8
0
  6
CONTINUOUS
 62
     7
 10
53.8000228907
 20
240.750373606
 30
0.0
  0
VERTEX
  5
33B
  8
0
  6
CONTINUOUS
 62
     7
 10
51.5447619463
 20
240.9730684798
 30
0.0
  0
VERTEX
  5
33C
  8
0
  6
CONTINUOUS
 62
     7
 10
49.1989198233
 20
241.2294638198
 30
0.0
  0
VERTEX
  5
33D
  8
0
  6
CONTINUOUS
 62
     7
 10
46.7824938799
 20
241.5193152469
 30
0.0
  0
VERTEX
  5
33E
  8
0
  6
CONTINUOUS
 62
     7
 10
44.295841744
 20
241.8441247981
 30
0.0
  0
SEQEND
  5
5B0
  8
0
  6
CONTINUOUS
 62
     7
  0
POLYLINE
  5
49
  8
0
  6
CONTINUOUS
 62
     7
 66
     1
 10
0.0
 20
0.0
 30
0.0
  0
VERTEX
  5
33F
  8
0
  6
CONTINUOUS
 62
     7
 10
119.3328577186
 20
241.2603688281
 30
0.0
  0
VERTEX
  5
340
  8
0
  6
CONTINUOUS
 62
     7
 10
119.2506420518
 20
241.6213643592
 30
0.0
  0
VERTEX
  5
341
  8
0
  6
CONTINUOUS
 62
     7
 10
119.1166284586
 20
242.2103476565
 30
0.0
  0
SEQEND
  5
5AF
  8
0
  6
CONTINUOUS
 62
     7
  0
POLYLINE
  5
4A
  8
0
  6
CONTINUOUS
 62
     7
 66
     1
 10
0.0
 20
0.0
 30
0.0
  0
VERTEX
  5
342
  8
0
  6
CONTINUOUS
 62
     7
 10
44.3489614035
 20
242.2103476565
 30
0.0
  0
VERTEX
  5
343
  8
0
  6
CONTINUOUS
 62
     7
 10
44.2162755037
 20
241.6271996539
 30
0.0
  0
VERTEX
  5
344
  8
0
  6
CONTINUOUS
 62
     7
 10
44.1305223013
 20
241.2506771129
 30
0.0
  0
SEQEND
  5
5AE
  8
0
  6
CONTINUOUS
 62
     7
  0
LINE
  5
4B
  8
0
  6
CONTINUOUS
 62
     7
 10
24.4327965284
 20
233.0560696166
 30
0.0
 11
24.4327965284
 21
249.6560704749
 31
0.0
  0
LINE
  5
4C
  8
0
  6
CONTINUOUS
 62
     7
 10
19.0327945257
 20
249.6560704749
 30
0.0
 11
19.0327945257
 21
233.0560696166
 31
0.0
  0
LINE
  5
4D
  8
0
  6
CONTINUOUS
 62
     7
 10
19.0327945257
 20
264.6560680907
 30
0.0
 11
19.0327945257
 21
249.6560704749
 31
0.0
  0
LINE
  5
4E
  8
0
  6
CONTINUOUS
 62
     7
 10
24.4327965284
 20
249.6560704749
 30
0.0
 11
24.4327965284
 21
264.6560680907
 31
0.0
  0
LINE
  5
4F
  8
0
  6
CONTINUOUS
 62
     7
 10
19.0327945257
 20
233.0560696166
 30
0.0
 11
19.0327945257
 21
218.0560720008
 31
0.0
  0
LINE
  5
50
  8
0
  6
CONTINUOUS
 62
     7
 10
24.4327965284
 20
218.0560720008
 30
0.0
 11
24.4327965284
 21
233.0560696166
 31
0.0
  0
LINE
  5
51
  8
0
  6
CONTINUOUS
 62
     7
 10
139.0327942649
 20
264.6560680907
 30
0.0
 11
139.0327942649
 21
249.6560704749
 31
0.0
  0
LINE
  5
52
  8
0
  6
CONTINUOUS
 62
     7
 10
144.432794405
 20
249.6560704749
 30
0.0
 11
144.432794405
 21
264.6560680907
 31
0.0
  0
LINE
  5
53
  8
0
  6
CONTINUOUS
 62
     7
 10
144.432794405
 20
233.0560696166
 30
0.0
 11
144.432794405
 21
249.6560704749
 31
0.0
  0
LINE
  5
54
  8
0
  6
CONTINUOUS
 62
     7
 10
139.0327942649
 20
249.6560704749
 30
0.0
 11
139.0327942649
 21
233.0560696166
 31
0.0
  0
LINE
  5
55
  8
0
  6
CONTINUOUS
 62
     7
 10
139.0327942649
 20
233.0560696166
 30
0.0
 11
139.0327942649
 21
218.0560720008
 31
0.0
  0
LINE
  5
56
  8
0
  6
CONTINUOUS
 62
     7
 10
144.432794405
 20
218.0560720008
 30
0.0
 11
144.432794405
 21
233.0560696166
 31
0.0
  0
LINE
  5
57
  8
0
  6
CONTINUOUS
 62
     7
 10
259.0327921415
 20
264.6560680907
 30
0.0
 11
259.0327921415
 21
249.6560704749
 31
0.0
  0
LINE
  5
58
  8
0
  6
CONTINUOUS
 62
     7
 10
264.4327941442
 20
249.6560704749
 30
0.0
 11
264.4327941442
 21
264.6560680907
 31
0.0
  0
LINE
  5
59
  8
0
  6
CONTINUOUS
 62
     7
 10
264.4327941442
 20
233.0560696166
 30
0.0
 11
264.4327941442
 21
249.6560704749
 31
0.0
  0
LINE
  5
5A
  8
0
  6
CONTINUOUS
 62
     7
 10
259.0327921415
 20
249.6560704749
 30
0.0
 11
259.0327921415
 21
233.0560696166
 31
0.0
  0
LINE
  5
5B
  8
0
  6
CONTINUOUS
 62
     7
 10
259.0327921415
 20
233.0560696166
 30
0.0
 11
259.0327921415
 21
218.0560720008
 31
0.0
  0
LINE
  5
5C
  8
0
  6
CONTINUOUS
 62
     7
 10
264.4327941442
 20
218.0560720008
 30
0.0
 11
264.4327941442
 21
233.0560696166
 31
0.0
  0
POLYLINE
  5
5D
  8
0
  6
CONTINUOUS
 62
     7
 66
     1
 10
0.0
 20
0.0
 30
0.0
  0
VERTEX
  5
345
  8
0
  6
CONTINUOUS
 62
     7
 10
239.3328669573
 20
240.1867699664
 30
0.0
  0
VERTEX
  5
346
  8
0
  6
CONTINUOUS
 62
     7
 10
239.2449918295
 20
239.9326813262
 30
0.0
  0
VERTEX
  5
347
  8
0
  6
CONTINUOUS
 62
     7
 10
238.9796796347
 20
239.5776701014
 30
0.0
  0
VERTEX
  5
348
  8
0
  6
CONTINUOUS
 62
     7
 10
238.5706785227
 20
239.145923857
 30
0.0
  0
VERTEX
  5
349
  8
0
  6
CONTINUOUS
 62
     7
 10
238.0122604872
 20
238.6439871829
 30
0.0
  0
VERTEX
  5
34A
  8
0
  6
CONTINUOUS
 62
     7
 10
237.2763040567
 20
238.0885076564
 30
0.0
  0
VERTEX
  5
34B
  8
0
  6
CONTINUOUS
 62
     7
 10
236.3742235208
 20
237.540305857
 30
0.0
  0
VERTEX
  5
34C
  8
0
  6
CONTINUOUS
 62
     7
 10
235.5078461672
 20
237.1324789565
 30
0.0
  0
VERTEX
  5
34D
  8
0
  6
CONTINUOUS
 62
     7
 10
234.5241668726
 20
236.7949974578
 30
0.0
  0
VERTEX
  5
34E
  8
0
  6
CONTINUOUS
 62
     7
 10
233.8991048838
 20
236.6447281878
 30
0.0
  0
VERTEX
  5
34F
  8
0
  6
CONTINUOUS
 62
     7
 10
233.2452955748
 20
236.5382742923
 30
0.0
  0
SEQEND
  5
5AD
  8
0
  6
CONTINUOUS
 62
     7
  0
POLYLINE
  5
5E
  8
0
  6
CONTINUOUS
 62
     7
 66
     1
 10
0.0
 20
0.0
 30
0.0
  0
VERTEX
  5
350
  8
0
  6
CONTINUOUS
 62
     7
 10
239.3328669573
 20
240.1867699664
 30
0.0
  0
VERTEX
  5
351
  8
0
  6
CONTINUOUS
 62
     7
 10
239.3328609968
 20
240.2415585559
 30
0.0
  0
VERTEX
  5
352
  8
0
  6
CONTINUOUS
 62
     7
 10
239.3326464201
 20
240.5342531245
 30
0.0
  0
VERTEX
  5
353
  8
0
  6
CONTINUOUS
 62
     7
 10
239.3321695829
 20
240.6569612067
 30
0.0
  0
VERTEX
  5
354
  8
0
  6
CONTINUOUS
 62
     7
 10
239.331823876
 20
240.670592789
 30
0.0
  0
VERTEX
  5
355
  8
0
  6
CONTINUOUS
 62
     7
 10
239.332068255
 20
240.6577360671
 30
0.0
  0
SEQEND
  5
5AC
  8
0
  6
CONTINUOUS
 62
     7
  0
POLYLINE
  5
5F
  8
0
  6
CONTINUOUS
 62
     7
 66
     1
 10
0.0
 20
0.0
 30
0.0
  0
VERTEX
  5
356
  8
0
  6
CONTINUOUS
 62
     7
 10
239.3327954317
 20
240.954167847
 30
0.0
  0
VERTEX
  5
357
  8
0
  6
CONTINUOUS
 62
     7
 10
239.3180850054
 20
240.9064066451
 30
0.0
  0
VERTEX
  5
358
  8
0
  6
CONTINUOUS
 62
     7
 10
239.3327954317
 20
240.7796096843
 30
0.0
  0
SEQEND
  5
5AB
  8
0
  6
CONTINUOUS
 62
     7
  0
POLYLINE
  5
60
  8
0
  6
CONTINUOUS
 62
     7
 66
     1
 10
0.0
 20
0.0
 30
0.0
  0
VERTEX
  5
359
  8
0
  6
CONTINUOUS
 62
     7
 10
164.132790556
 20
240.7796096843
 30
0.0
  0
VERTEX
  5
35A
  8
0
  6
CONTINUOUS
 62
     7
 10
164.1475039626
 20
240.9064066451
 30
0.0
  0
VERTEX
  5
35B
  8
0
  6
CONTINUOUS
 62
     7
 10
164.1327950264
 20
240.954167847
 30
0.0
  0
SEQEND
  5
5AA
  8
0
  6
CONTINUOUS
 62
     7
  0
POLYLINE
  5
61
  8
0
  6
CONTINUOUS
 62
     7
 66
     1
 10
0.0
 20
0.0
 30
0.0
  0
VERTEX
  5
35C
  8
0
  6
CONTINUOUS
 62
     7
 10
164.1327235008
 20
240.1869487803
 30
0.0
  0
VERTEX
  5
35D
  8
0
  6
CONTINUOUS
 62
     7
 10
164.1327235008
 20
240.1916456263
 30
0.0
  0
VERTEX
  5
35E
  8
0
  6
CONTINUOUS
 62
     7
 10
164.1328933741
 20
240.5101430457
 30
0.0
  0
VERTEX
  5
35F
  8
0
  6
CONTINUOUS
 62
     7
 10
164.1333582903
 20
240.6493854564
 30
0.0
  0
VERTEX
  5
360
  8
0
  6
CONTINUOUS
 62
     7
 10
164.1337442304
 20
240.6727504771
 30
0.0
  0
VERTEX
  5
361
  8
0
  6
CONTINUOUS
 62
     7
 10
164.1336920763
 20
240.6553399604
 30
0.0
  0
SEQEND
  5
5A9
  8
0
  6
CONTINUOUS
 62
     7
  0
POLYLINE
  5
62
  8
0
  6
CONTINUOUS
 62
     7
 66
     1
 10
0.0
 20
0.0
 30
0.0
  0
VERTEX
  5
362
  8
0
  6
CONTINUOUS
 62
     7
 10
170.2202948833
 20
236.5382742923
 30
0.0
  0
VERTEX
  5
363
  8
0
  6
CONTINUOUS
 62
     7
 10
169.2062470222
 20
236.7254388373
 30
0.0
  0
VERTEX
  5
364
  8
0
  6
CONTINUOUS
 62
     7
 10
168.2209405209
 20
237.029619221
 30
0.0
  0
VERTEX
  5
365
  8
0
  6
CONTINUOUS
 62
     7
 10
167.3521014954
 20
237.4060106318
 30
0.0
  0
VERTEX
  5
366
  8
0
  6
CONTINUOUS
 62
     7
 10
166.5588307286
 20
237.8475797217
 30
0.0
  0
VERTEX
  5
367
  8
0
  6
CONTINUOUS
 62
     7
 10
165.8013585115
 20
238.367946152
 30
0.0
  0
VERTEX
  5
368
  8
0
  6
CONTINUOUS
 62
     7
 10
165.1600646878
 20
238.8975036185
 30
0.0
  0
VERTEX
  5
369
  8
0
  6
CONTINUOUS
 62
     7
 10
164.6138283516
 20
239.4345116656
 30
0.0
  0
VERTEX
  5
36A
  8
0
  6
CONTINUOUS
 62
     7
 10
164.4056859518
 20
239.6731329005
 30
0.0
  0
VERTEX
  5
36B
  8
0
  6
CONTINUOUS
 62
     7
 10
164.2535719181
 20
239.8791623156
 30
0.0
  0
VERTEX
  5
36C
  8
0
  6
CONTINUOUS
 62
     7
 10
164.1327235008
 20
240.1869487803
 30
0.0
  0
SEQEND
  5
5A8
  8
0
  6
CONTINUOUS
 62
     7
  0
POLYLINE
  5
63
  8
0
  6
CONTINUOUS
 62
     7
 66
     1
 10
0.0
 20
0.0
 30
0.0
  0
VERTEX
  5
36D
  8
0
  6
CONTINUOUS
 62
     7
 10
233.2452955748
 20
236.5382742923
 30
0.0
  0
VERTEX
  5
36E
  8
0
  6
CONTINUOUS
 62
     7
 10
226.1559668089
 20
235.73736072
 30
0.0
  0
VERTEX
  5
36F
  8
0
  6
CONTINUOUS
 62
     7
 10
219.0388980413
 20
235.1099205058
 30
0.0
  0
VERTEX
  5
370
  8
0
  6
CONTINUOUS
 62
     7
 10
211.8659916426
 20
234.683353905
 30
0.0
  0
VERTEX
  5
371
  8
0
  6
CONTINUOUS
 62
     7
 10
204.6790662313
 20
234.4761383574
 30
0.0
  0
VERTEX
  5
372
  8
0
  6
CONTINUOUS
 62
     7
 10
199.6160331274
 20
234.4669413607
 30
0.0
  0
VERTEX
  5
373
  8
0
  6
CONTINUOUS
 62
     7
 10
194.554508021
 20
234.5706117194
 30
0.0
  0
VERTEX
  5
374
  8
0
  6
CONTINUOUS
 62
     7
 10
189.483839562
 20
234.7865474265
 30
0.0
  0
VERTEX
  5
375
  8
0
  6
CONTINUOUS
 62
     7
 10
184.4215634371
 20
235.1103019755
 30
0.0
  0
VERTEX
  5
376
  8
0
  6
CONTINUOUS
 62
     7
 10
177.3106816317
 20
235.7368540805
 30
0.0
  0
VERTEX
  5
377
  8
0
  6
CONTINUOUS
 62
     7
 10
170.2202948833
 20
236.5382742923
 30
0.0
  0
SEQEND
  5
5A7
  8
0
  6
CONTINUOUS
 62
     7
  0
POLYLINE
  5
64
  8
0
  6
CONTINUOUS
 62
     7
 66
     1
 10
0.0
 20
0.0
 30
0.0
  0
VERTEX
  5
378
  8
0
  6
CONTINUOUS
 62
     7
 10
170.4001936222
 20
241.8708455603
 30
0.0
  0
VERTEX
  5
379
  8
0
  6
CONTINUOUS
 62
     7
 10
169.3937215115
 20
242.0884919207
 30
0.0
  0
VERTEX
  5
37A
  8
0
  6
CONTINUOUS
 62
     7
 10
168.469125321
 20
242.278302912
 30
0.0
  0
VERTEX
  5
37B
  8
0
  6
CONTINUOUS
 62
     7
 10
167.7016350532
 20
242.4162757438
 30
0.0
  0
VERTEX
  5
37C
  8
0
  6
CONTINUOUS
 62
     7
 10
167.0661541725
 20
242.5001990836
 30
0.0
  0
VERTEX
  5
37D
  8
0
  6
CONTINUOUS
 62
     7
 10
166.7644235397
 20
242.5209534209
 30
0.0
  0
VERTEX
  5
37E
  8
0
  6
CONTINUOUS
 62
     7
 10
166.526432624
 20
242.5195288699
 30
0.0
  0
SEQEND
  5
5A6
  8
0
  6
CONTINUOUS
 62
     7
  0
ARC
  5
65
  8
0
  6
CONTINUOUS
 62
     7
 10
201.6166290613
 20
381.1038981432
 30
0.0
 40
142.6895538329629
 50
257.3631010656
 51
260.3830639281
  0
ARC
  5
66
  8
0
  6
CONTINUOUS
 62
     7
 10
201.1308619348
 20
384.7344826139
 30
0.0
 40
146.3893210296681
 50
279.6013645076
 51
282.6002782923
  0
POLYLINE
  5
67
  8
0
  6
CONTINUOUS
 62
     7
 66
     1
 10
0.0
 20
0.0
 30
0.0
  0
VERTEX
  5
37F
  8
0
  6
CONTINUOUS
 62
     7
 10
236.939156344
 20
242.5195288699
 30
0.0
  0
VERTEX
  5
380
  8
0
  6
CONTINUOUS
 62
     7
 10
236.5200701261
 20
242.5106179755
 30
0.0
  0
VERTEX
  5
381
  8
0
  6
CONTINUOUS
 62
     7
 10
235.9104397798
 20
242.4389016669
 30
0.0
  0
VERTEX
  5
382
  8
0
  6
CONTINUOUS
 62
     7
 10
235.159194758
 20
242.3096430343
 30
0.0
  0
VERTEX
  5
383
  8
0
  6
CONTINUOUS
 62
     7
 10
234.2418196703
 20
242.1244514029
 30
0.0
  0
VERTEX
  5
384
  8
0
  6
CONTINUOUS
 62
     7
 10
233.0653968359
 20
241.8708455603
 30
0.0
  0
SEQEND
  5
5A5
  8
0
  6
CONTINUOUS
 62
     7
  0
POLYLINE
  5
68
  8
0
  6
CONTINUOUS
 62
     7
 66
     1
 10
0.0
 20
0.0
 30
0.0
  0
VERTEX
  5
385
  8
0
  6
CONTINUOUS
 62
     7
 10
236.9391384626
 20
242.5196063559
 30
0.0
  0
VERTEX
  5
386
  8
0
  6
CONTINUOUS
 62
     7
 10
237.8562036062
 20
242.4647939246
 30
0.0
  0
VERTEX
  5
387
  8
0
  6
CONTINUOUS
 62
     7
 10
238.4573760534
 20
242.4102556746
 30
0.0
  0
VERTEX
  5
388
  8
0
  6
CONTINUOUS
 62
     7
 10
238.8149025942
 20
242.3545253318
 30
0.0
  0
VERTEX
  5
389
  8
0
  6
CONTINUOUS
 62
     7
 10
239.0296581293
 20
242.2979128402
 30
0.0
  0
VERTEX
  5
38A
  8
0
  6
CONTINUOUS
 62
     7
 10
239.1114058996
 20
242.2394824069
 30
0.0
  0
VERTEX
  5
38B
  8
0
  6
CONTINUOUS
 62
     7
 10
239.108240893
 20
242.1819281619
 30
0.0
  0
VERTEX
  5
38C
  8
0
  6
CONTINUOUS
 62
     7
 10
239.081138661
 20
242.1290767234
 30
0.0
  0
VERTEX
  5
38D
  8
0
  6
CONTINUOUS
 62
     7
 10
239.0789809729
 20
242.0822155516
 30
0.0
  0
VERTEX
  5
38E
  8
0
  6
CONTINUOUS
 62
     7
 10
239.1259196306
 20
241.9739198726
 30
0.0
  0
VERTEX
  5
38F
  8
0
  6
CONTINUOUS
 62
     7
 10
239.1351523901
 20
241.9323635142
 30
0.0
  0
SEQEND
  5
5A4
  8
0
  6
CONTINUOUS
 62
     7
  0
ARC
  5
69
  8
0
  6
CONTINUOUS
 62
     7
 10
234.2847889896
 20
241.1031486487
 30
0.0
 40
4.949505315890641
 50
3.5875281047
 51
8.4264629008
  0
POLYLINE
  5
6A
  8
0
  6
CONTINUOUS
 62
     7
 66
     1
 10
0.0
 20
0.0
 30
0.0
  0
VERTEX
  5
390
  8
0
  6
CONTINUOUS
 62
     7
 10
233.1359568144
 20
238.0350244086
 30
0.0
  0
VERTEX
  5
391
  8
0
  6
CONTINUOUS
 62
     7
 10
234.1596546675
 20
238.2139515918
 30
0.0
  0
VERTEX
  5
392
  8
0
  6
CONTINUOUS
 62
     7
 10
235.1556304003
 20
238.5047328513
 30
0.0
  0
VERTEX
  5
393
  8
0
  6
CONTINUOUS
 62
     7
 10
236.0358837152
 20
238.8636779826
 30
0.0
  0
VERTEX
  5
394
  8
0
  6
CONTINUOUS
 62
     7
 10
236.8405166174
 20
239.2824840587
 30
0.0
  0
VERTEX
  5
395
  8
0
  6
CONTINUOUS
 62
     7
 10
237.6002374197
 20
239.7661876719
 30
0.0
  0
VERTEX
  5
396
  8
0
  6
CONTINUOUS
 62
     7
 10
238.2416370417
 20
240.2527642291
 30
0.0
  0
VERTEX
  5
397
  8
0
  6
CONTINUOUS
 62
     7
 10
238.7693586851
 20
240.7260608714
 30
0.0
  0
VERTEX
  5
398
  8
0
  6
CONTINUOUS
 62
     7
 10
239.112592032
 20
241.1191892665
 30
0.0
  0
VERTEX
  5
399
  8
0
  6
CONTINUOUS
 62
     7
 10
239.2006698156
 20
241.2798535865
 30
0.0
  0
VERTEX
  5
39A
  8
0
  6
CONTINUOUS
 62
     7
 10
239.22459512
 20
241.4128494304
 30
0.0
  0
SEQEND
  5
5A3
  8
0
  6
CONTINUOUS
 62
     7
  0
POLYLINE
  5
6B
  8
0
  6
CONTINUOUS
 62
     7
 66
     1
 10
0.0
 20
0.0
 30
0.0
  0
VERTEX
  5
39B
  8
0
  6
CONTINUOUS
 62
     7
 10
233.1359568144
 20
238.0350244086
 30
0.0
  0
VERTEX
  5
39C
  8
0
  6
CONTINUOUS
 62
     7
 10
227.7851346041
 20
237.4484312575
 30
0.0
  0
VERTEX
  5
39D
  8
0
  6
CONTINUOUS
 62
     7
 10
222.4189761187
 20
236.95042849
 30
0.0
  0
VERTEX
  5
39E
  8
0
  6
CONTINUOUS
 62
     7
 10
217.0267227198
 20
236.5532767814
 30
0.0
  0
VERTEX
  5
39F
  8
0
  6
CONTINUOUS
 62
     7
 10
211.623627236
 20
236.2682950538
 30
0.0
  0
VERTEX
  5
3A0
  8
0
  6
CONTINUOUS
 62
     7
 10
205.722135594
 20
236.0946309607
 30
0.0
  0
VERTEX
  5
3A1
  8
0
  6
CONTINUOUS
 62
     7
 10
199.8169901873
 20
236.0682976287
 30
0.0
  0
VERTEX
  5
3A2
  8
0
  6
CONTINUOUS
 62
     7
 10
193.8918235804
 20
236.191571955
 30
0.0
  0
VERTEX
  5
3A3
  8
0
  6
CONTINUOUS
 62
     7
 10
187.9737797285
 20
236.4603412192
 30
0.0
  0
VERTEX
  5
3A4
  8
0
  6
CONTINUOUS
 62
     7
 10
183.5524949337
 20
236.7523562949
 30
0.0
  0
VERTEX
  5
3A5
  8
0
  6
CONTINUOUS
 62
     7
 10
179.1395518089
 20
237.1162545722
 30
0.0
  0
VERTEX
  5
3A6
  8
0
  6
CONTINUOUS
 62
     7
 10
174.7293087746
 20
237.5464749377
 30
0.0
  0
VERTEX
  5
3A7
  8
0
  6
CONTINUOUS
 62
     7
 10
170.3296306635
 20
238.0350244086
 30
0.0
  0
SEQEND
  5
5A2
  8
0
  6
CONTINUOUS
 62
     7
  0
POLYLINE
  5
6C
  8
0
  6
CONTINUOUS
 62
     7
 66
     1
 10
0.0
 20
0.0
 30
0.0
  0
VERTEX
  5
3A8
  8
0
  6
CONTINUOUS
 62
     7
 10
164.2409908677
 20
241.4128494304
 30
0.0
  0
VERTEX
  5
3A9
  8
0
  6
CONTINUOUS
 62
     7
 10
164.3153327609
 20
241.1781919043
 30
0.0
  0
VERTEX
  5
3AA
  8
0
  6
CONTINUOUS
 62
     7
 10
164.5725759769
 20
240.8527863067
 30
0.0
  0
VERTEX
  5
3AB
  8
0
  6
CONTINUOUS
 62
     7
 10
164.9823281074
 20
240.4591572326
 30
0.0
  0
VERTEX
  5
3AC
  8
0
  6
CONTINUOUS
 62
     7
 10
165.550089171
 20
239.9953377288
 30
0.0
  0
VERTEX
  5
3AD
  8
0
  6
CONTINUOUS
 62
     7
 10
166.2828135396
 20
239.4890975993
 30
0.0
  0
VERTEX
  5
3AE
  8
0
  6
CONTINUOUS
 62
     7
 10
167.1790066267
 20
238.9844965976
 30
0.0
  0
VERTEX
  5
3AF
  8
0
  6
CONTINUOUS
 62
     7
 10
168.059122851
 20
238.5969531577
 30
0.0
  0
VERTEX
  5
3B0
  8
0
  6
CONTINUOUS
 62
     7
 10
169.0568569208
 20
238.2756304782
 30
0.0
  0
VERTEX
  5
3B1
  8
0
  6
CONTINUOUS
 62
     7
 10
169.6796658541
 20
238.1348621886
 30
0.0
  0
VERTEX
  5
3B2
  8
0
  6
CONTINUOUS
 62
     7
 10
170.3296306635
 20
238.0350244086
 30
0.0
  0
SEQEND
  5
5A1
  8
0
  6
CONTINUOUS
 62
     7
  0
POLYLINE
  5
6D
  8
0
  6
CONTINUOUS
 62
     7
 66
     1
 10
0.0
 20
0.0
 30
0.0
  0
VERTEX
  5
3B3
  8
0
  6
CONTINUOUS
 62
     7
 10
164.2409908677
 20
241.4128553908
 30
0.0
  0
VERTEX
  5
3B4
  8
0
  6
CONTINUOUS
 62
     7
 10
164.2693090344
 20
241.7091918033
 30
0.0
  0
VERTEX
  5
3B5
  8
0
  6
CONTINUOUS
 62
     7
 10
164.2851355577
 20
241.8338668387
 30
0.0
  0
SEQEND
  5
5A0
  8
0
  6
CONTINUOUS
 62
     7
  0
POLYLINE
  5
6E
  8
0
  6
CONTINUOUS
 62
     7
 66
     1
 10
0.0
 20
0.0
 30
0.0
  0
VERTEX
  5
3B6
  8
0
  6
CONTINUOUS
 62
     7
 10
164.3305051232
 20
241.9318568747
 30
0.0
  0
VERTEX
  5
3B7
  8
0
  6
CONTINUOUS
 62
     7
 10
164.3406155611
 20
241.9765007537
 30
0.0
  0
VERTEX
  5
3B8
  8
0
  6
CONTINUOUS
 62
     7
 10
164.386606505
 20
242.0822155516
 30
0.0
  0
VERTEX
  5
3B9
  8
0
  6
CONTINUOUS
 62
     7
 10
164.3844488169
 20
242.1290767234
 30
0.0
  0
VERTEX
  5
3BA
  8
0
  6
CONTINUOUS
 62
     7
 10
164.357348075
 20
242.1819281619
 30
0.0
  0
VERTEX
  5
3BB
  8
0
  6
CONTINUOUS
 62
     7
 10
164.3541830684
 20
242.2394824069
 30
0.0
  0
VERTEX
  5
3BC
  8
0
  6
CONTINUOUS
 62
     7
 10
164.4359293486
 20
242.2979128402
 30
0.0
  0
VERTEX
  5
3BD
  8
0
  6
CONTINUOUS
 62
     7
 10
164.6506878639
 20
242.3545253318
 30
0.0
  0
VERTEX
  5
3BE
  8
0
  6
CONTINUOUS
 62
     7
 10
165.0082099343
 20
242.4102556746
 30
0.0
  0
VERTEX
  5
3BF
  8
0
  6
CONTINUOUS
 62
     7
 10
165.6093838716
 20
242.4647939246
 30
0.0
  0
VERTEX
  5
3C0
  8
0
  6
CONTINUOUS
 62
     7
 10
166.5264505053
 20
242.5196063559
 30
0.0
  0
SEQEND
  5
59F
  8
0
  6
CONTINUOUS
 62
     7
  0
LINE
  5
6F
  8
0
  6
CONTINUOUS
 62
     7
 10
239.3327954317
 20
240.954656605
 30
0.0
 11
239.3327954317
 21
241.2603569072
 31
0.0
  0
LINE
  5
70
  8
0
  6
CONTINUOUS
 62
     7
 10
164.1327950264
 20
240.7796096843
 30
0.0
 11
164.1327950264
 21
240.605146889
 31
0.0
  0
LINE
  5
71
  8
0
  6
CONTINUOUS
 62
     7
 10
164.1327950264
 20
241.2501645129
 30
0.0
 11
164.1327950264
 21
240.954656605
 31
0.0
  0
POLYLINE
  5
72
  8
0
  6
CONTINUOUS
 62
     7
 66
     1
 10
0.0
 20
0.0
 30
0.0
  0
VERTEX
  5
3C1
  8
0
  6
CONTINUOUS
 62
     7
 10
119.3328651691
 20
240.1867699664
 30
0.0
  0
VERTEX
  5
3C2
  8
0
  6
CONTINUOUS
 62
     7
 10
119.2449915315
 20
239.9326813262
 30
0.0
  0
VERTEX
  5
3C3
  8
0
  6
CONTINUOUS
 62
     7
 10
118.9796778465
 20
239.5776701014
 30
0.0
  0
VERTEX
  5
3C4
  8
0
  6
CONTINUOUS
 62
     7
 10
118.5706782247
 20
239.145923857
 30
0.0
  0
VERTEX
  5
3C5
  8
0
  6
CONTINUOUS
 62
     7
 10
118.0122631694
 20
238.6439871829
 30
0.0
  0
VERTEX
  5
3C6
  8
0
  6
CONTINUOUS
 62
     7
 10
117.2763022686
 20
238.0885076564
 30
0.0
  0
VERTEX
  5
3C7
  8
0
  6
CONTINUOUS
 62
     7
 10
116.3742247129
 20
237.540305857
 30
0.0
  0
VERTEX
  5
3C8
  8
0
  6
CONTINUOUS
 62
     7
 10
115.507844379
 20
237.1324789565
 30
0.0
  0
VERTEX
  5
3C9
  8
0
  6
CONTINUOUS
 62
     7
 10
114.5241710449
 20
236.7949974578
 30
0.0
  0
VERTEX
  5
3CA
  8
0
  6
CONTINUOUS
 62
     7
 10
113.8991030956
 20
236.6447281878
 30
0.0
  0
VERTEX
  5
3CB
  8
0
  6
CONTINUOUS
 62
     7
 10
113.2452937866
 20
236.5382742923
 30
0.0
  0
SEQEND
  5
59E
  8
0
  6
CONTINUOUS
 62
     7
  0
POLYLINE
  5
73
  8
0
  6
CONTINUOUS
 62
     7
 66
     1
 10
0.0
 20
0.0
 30
0.0
  0
VERTEX
  5
3CC
  8
0
  6
CONTINUOUS
 62
     7
 10
119.3328651691
 20
240.1867699664
 30
0.0
  0
VERTEX
  5
3CD
  8
0
  6
CONTINUOUS
 62
     7
 10
119.332863679
 20
240.2415585559
 30
0.0
  0
VERTEX
  5
3CE
  8
0
  6
CONTINUOUS
 62
     7
 10
119.3326491023
 20
240.5342531245
 30
0.0
  0
VERTEX
  5
3CF
  8
0
  6
CONTINUOUS
 62
     7
 10
119.3321722651
 20
240.6569612067
 30
0.0
  0
VERTEX
  5
3D0
  8
0
  6
CONTINUOUS
 62
     7
 10
119.3318220879
 20
240.670592789
 30
0.0
  0
VERTEX
  5
3D1
  8
0
  6
CONTINUOUS
 62
     7
 10
119.332067957
 20
240.6577360671
 30
0.0
  0
SEQEND
  5
59D
  8
0
  6
CONTINUOUS
 62
     7
  0
POLYLINE
  5
74
  8
0
  6
CONTINUOUS
 62
     7
 66
     1
 10
0.0
 20
0.0
 30
0.0
  0
VERTEX
  5
3D2
  8
0
  6
CONTINUOUS
 62
     7
 10
119.3327936436
 20
240.954167847
 30
0.0
  0
VERTEX
  5
3D3
  8
0
  6
CONTINUOUS
 62
     7
 10
119.3180847073
 20
240.9064066451
 30
0.0
  0
VERTEX
  5
3D4
  8
0
  6
CONTINUOUS
 62
     7
 10
119.3327981139
 20
240.7796096843
 30
0.0
  0
SEQEND
  5
59C
  8
0
  6
CONTINUOUS
 62
     7
  0
POLYLINE
  5
75
  8
0
  6
CONTINUOUS
 62
     7
 66
     1
 10
0.0
 20
0.0
 30
0.0
  0
VERTEX
  5
3D5
  8
0
  6
CONTINUOUS
 62
     7
 10
44.1327932382
 20
240.7796096843
 30
0.0
  0
VERTEX
  5
3D6
  8
0
  6
CONTINUOUS
 62
     7
 10
44.1475036646
 20
240.9064066451
 30
0.0
  0
VERTEX
  5
3D7
  8
0
  6
CONTINUOUS
 62
     7
 10
44.1327932382
 20
240.954167847
 30
0.0
  0
SEQEND
  5
59B
  8
0
  6
CONTINUOUS
 62
     7
  0
POLYLINE
  5
76
  8
0
  6
CONTINUOUS
 62
     7
 66
     1
 10
0.0
 20
0.0
 30
0.0
  0
VERTEX
  5
3D8
  8
0
  6
CONTINUOUS
 62
     7
 10
44.1327217127
 20
240.1869487803
 30
0.0
  0
VERTEX
  5
3D9
  8
0
  6
CONTINUOUS
 62
     7
 10
44.1327217127
 20
240.1916456263
 30
0.0
  0
VERTEX
  5
3DA
  8
0
  6
CONTINUOUS
 62
     7
 10
44.1328945661
 20
240.5101430457
 30
0.0
  0
VERTEX
  5
3DB
  8
0
  6
CONTINUOUS
 62
     7
 10
44.1333594824
 20
240.6493854564
 30
0.0
  0
VERTEX
  5
3DC
  8
0
  6
CONTINUOUS
 62
     7
 10
44.1337469126
 20
240.6727504771
 30
0.0
  0
VERTEX
  5
3DD
  8
0
  6
CONTINUOUS
 62
     7
 10
44.1336932684
 20
240.6553399604
 30
0.0
  0
SEQEND
  5
59A
  8
0
  6
CONTINUOUS
 62
     7
  0
POLYLINE
  5
77
  8
0
  6
CONTINUOUS
 62
     7
 66
     1
 10
0.0
 20
0.0
 30
0.0
  0
VERTEX
  5
3DE
  8
0
  6
CONTINUOUS
 62
     7
 10
50.2202930952
 20
236.5382742923
 30
0.0
  0
VERTEX
  5
3DF
  8
0
  6
CONTINUOUS
 62
     7
 10
49.2062452341
 20
236.7254388373
 30
0.0
  0
VERTEX
  5
3E0
  8
0
  6
CONTINUOUS
 62
     7
 10
48.2209387327
 20
237.029619221
 30
0.0
  0
VERTEX
  5
3E1
  8
0
  6
CONTINUOUS
 62
     7
 10
47.3520997072
 20
237.4060106318
 30
0.0
  0
VERTEX
  5
3E2
  8
0
  6
CONTINUOUS
 62
     7
 10
46.5588274504
 20
237.8475797217
 30
0.0
  0
VERTEX
  5
3E3
  8
0
  6
CONTINUOUS
 62
     7
 10
45.8013597036
 20
238.367946152
 30
0.0
  0
VERTEX
  5
3E4
  8
0
  6
CONTINUOUS
 62
     7
 10
45.16006737
 20
238.8975036185
 30
0.0
  0
VERTEX
  5
3E5
  8
0
  6
CONTINUOUS
 62
     7
 10
44.6138265634
 20
239.4345116656
 30
0.0
  0
VERTEX
  5
3E6
  8
0
  6
CONTINUOUS
 62
     7
 10
44.4056871439
 20
239.6731329005
 30
0.0
  0
VERTEX
  5
3E7
  8
0
  6
CONTINUOUS
 62
     7
 10
44.25357013
 20
239.8791623156
 30
0.0
  0
VERTEX
  5
3E8
  8
0
  6
CONTINUOUS
 62
     7
 10
44.1327217127
 20
240.1869487803
 30
0.0
  0
SEQEND
  5
599
  8
0
  6
CONTINUOUS
 62
     7
  0
POLYLINE
  5
78
  8
0
  6
CONTINUOUS
 62
     7
 66
     1
 10
0.0
 20
0.0
 30
0.0
  0
VERTEX
  5
3E9
  8
0
  6
CONTINUOUS
 62
     7
 10
113.2452937866
 20
236.5382742923
 30
0.0
  0
VERTEX
  5
3EA
  8
0
  6
CONTINUOUS
 62
     7
 10
106.1559650207
 20
235.73736072
 30
0.0
  0
VERTEX
  5
3EB
  8
0
  6
CONTINUOUS
 62
     7
 10
99.0388992334
 20
235.1099205058
 30
0.0
  0
VERTEX
  5
3EC
  8
0
  6
CONTINUOUS
 62
     7
 10
91.8659928347
 20
234.683353905
 30
0.0
  0
VERTEX
  5
3ED
  8
0
  6
CONTINUOUS
 62
     7
 10
84.6790674234
 20
234.4761383574
 30
0.0
  0
VERTEX
  5
3EE
  8
0
  6
CONTINUOUS
 62
     7
 10
79.6160343195
 20
234.4669413607
 30
0.0
  0
VERTEX
  5
3EF
  8
0
  6
CONTINUOUS
 62
     7
 10
74.5545032526
 20
234.5706117194
 30
0.0
  0
VERTEX
  5
3F0
  8
0
  6
CONTINUOUS
 62
     7
 10
69.4838407541
 20
234.7865474265
 30
0.0
  0
VERTEX
  5
3F1
  8
0
  6
CONTINUOUS
 62
     7
 10
64.4215646292
 20
235.1103019755
 30
0.0
  0
VERTEX
  5
3F2
  8
0
  6
CONTINUOUS
 62
     7
 10
57.3106828237
 20
235.7368540805
 30
0.0
  0
VERTEX
  5
3F3
  8
0
  6
CONTINUOUS
 62
     7
 10
50.2202930952
 20
236.5382742923
 30
0.0
  0
SEQEND
  5
598
  8
0
  6
CONTINUOUS
 62
     7
  0
POLYLINE
  5
79
  8
0
  6
CONTINUOUS
 62
     7
 66
     1
 10
0.0
 20
0.0
 30
0.0
  0
VERTEX
  5
3F4
  8
0
  6
CONTINUOUS
 62
     7
 10
50.4001918341
 20
241.8708455603
 30
0.0
  0
VERTEX
  5
3F5
  8
0
  6
CONTINUOUS
 62
     7
 10
49.3937197233
 20
242.0884919207
 30
0.0
  0
VERTEX
  5
3F6
  8
0
  6
CONTINUOUS
 62
     7
 10
48.4691265131
 20
242.278302912
 30
0.0
  0
VERTEX
  5
3F7
  8
0
  6
CONTINUOUS
 62
     7
 10
47.7016332651
 20
242.4162757438
 30
0.0
  0
VERTEX
  5
3F8
  8
0
  6
CONTINUOUS
 62
     7
 10
47.0661523844
 20
242.5001990836
 30
0.0
  0
VERTEX
  5
3F9
  8
0
  6
CONTINUOUS
 62
     7
 10
46.7644217516
 20
242.5209534209
 30
0.0
  0
VERTEX
  5
3FA
  8
0
  6
CONTINUOUS
 62
     7
 10
46.5264323259
 20
242.5195288699
 30
0.0
  0
SEQEND
  5
597
  8
0
  6
CONTINUOUS
 62
     7
  0
ARC
  5
7A
  8
0
  6
CONTINUOUS
 62
     7
 10
81.6168461359
 20
381.1050109284
 30
0.0
 40
142.69068754316
 50
257.3631130655
 51
260.3830519281
  0
ARC
  5
7B
  8
0
  6
CONTINUOUS
 62
     7
 10
81.131053251
 20
384.7334984272
 30
0.0
 40
146.3883184210822
 50
279.6013542355
 51
282.6002885644
  0
POLYLINE
  5
7C
  8
0
  6
CONTINUOUS
 62
     7
 66
     1
 10
0.0
 20
0.0
 30
0.0
  0
VERTEX
  5
3FB
  8
0
  6
CONTINUOUS
 62
     7
 10
116.939156046
 20
242.5195288699
 30
0.0
  0
VERTEX
  5
3FC
  8
0
  6
CONTINUOUS
 62
     7
 10
116.520068338
 20
242.5106179755
 30
0.0
  0
VERTEX
  5
3FD
  8
0
  6
CONTINUOUS
 62
     7
 10
115.9104379917
 20
242.4389016669
 30
0.0
  0
VERTEX
  5
3FE
  8
0
  6
CONTINUOUS
 62
     7
 10
115.1591929699
 20
242.3096430343
 30
0.0
  0
VERTEX
  5
3FF
  8
0
  6
CONTINUOUS
 62
     7
 10
114.2418178821
 20
242.1244514029
 30
0.0
  0
VERTEX
  5
400
  8
0
  6
CONTINUOUS
 62
     7
 10
113.0653950478
 20
241.8708455603
 30
0.0
  0
SEQEND
  5
596
  8
0
  6
CONTINUOUS
 62
     7
  0
POLYLINE
  5
7D
  8
0
  6
CONTINUOUS
 62
     7
 66
     1
 10
0.0
 20
0.0
 30
0.0
  0
VERTEX
  5
401
  8
0
  6
CONTINUOUS
 62
     7
 10
116.9391381646
 20
242.5196063559
 30
0.0
  0
VERTEX
  5
402
  8
0
  6
CONTINUOUS
 62
     7
 10
117.8562047983
 20
242.4647939246
 30
0.0
  0
VERTEX
  5
403
  8
0
  6
CONTINUOUS
 62
     7
 10
118.4573787356
 20
242.4102556746
 30
0.0
  0
VERTEX
  5
404
  8
0
  6
CONTINUOUS
 62
     7
 10
118.814900806
 20
242.3545253318
 30
0.0
  0
VERTEX
  5
405
  8
0
  6
CONTINUOUS
 62
     7
 10
119.0296593214
 20
242.2979128402
 30
0.0
  0
VERTEX
  5
406
  8
0
  6
CONTINUOUS
 62
     7
 10
119.1114056016
 20
242.2394824069
 30
0.0
  0
VERTEX
  5
407
  8
0
  6
CONTINUOUS
 62
     7
 10
119.108240595
 20
242.1819281619
 30
0.0
  0
VERTEX
  5
408
  8
0
  6
CONTINUOUS
 62
     7
 10
119.0811398531
 20
242.1290767234
 30
0.0
  0
VERTEX
  5
409
  8
0
  6
CONTINUOUS
 62
     7
 10
119.0789821649
 20
242.0822155516
 30
0.0
  0
VERTEX
  5
40A
  8
0
  6
CONTINUOUS
 62
     7
 10
119.1259193326
 20
241.9739198726
 30
0.0
  0
VERTEX
  5
40B
  8
0
  6
CONTINUOUS
 62
     7
 10
119.1351535822
 20
241.9323635142
 30
0.0
  0
SEQEND
  5
595
  8
0
  6
CONTINUOUS
 62
     7
  0
ARC
  5
7E
  8
0
  6
CONTINUOUS
 62
     7
 10
114.288767673
 20
241.1035144121
 30
0.0
 40
4.945514220563752
 50
3.5861812415
 51
8.4290288726
  0
POLYLINE
  5
7F
  8
0
  6
CONTINUOUS
 62
     7
 66
     1
 10
0.0
 20
0.0
 30
0.0
  0
VERTEX
  5
40C
  8
0
  6
CONTINUOUS
 62
     7
 10
113.1359580065
 20
238.0350244086
 30
0.0
  0
VERTEX
  5
40D
  8
0
  6
CONTINUOUS
 62
     7
 10
114.1596528793
 20
238.2139515918
 30
0.0
  0
VERTEX
  5
40E
  8
0
  6
CONTINUOUS
 62
     7
 10
115.1556315924
 20
238.5047328513
 30
0.0
  0
VERTEX
  5
40F
  8
0
  6
CONTINUOUS
 62
     7
 10
116.0358849073
 20
238.8636779826
 30
0.0
  0
VERTEX
  5
410
  8
0
  6
CONTINUOUS
 62
     7
 10
116.8405148292
 20
239.2824840587
 30
0.0
  0
VERTEX
  5
411
  8
0
  6
CONTINUOUS
 62
     7
 10
117.6002341414
 20
239.7661876719
 30
0.0
  0
VERTEX
  5
412
  8
0
  6
CONTINUOUS
 62
     7
 10
118.2416382337
 20
240.2527642291
 30
0.0
  0
VERTEX
  5
413
  8
0
  6
CONTINUOUS
 62
     7
 10
118.769356897
 20
240.7260608714
 30
0.0
  0
VERTEX
  5
414
  8
0
  6
CONTINUOUS
 62
     7
 10
119.1125902439
 20
241.1191892665
 30
0.0
  0
VERTEX
  5
415
  8
0
  6
CONTINUOUS
 62
     7
 10
119.2006710077
 20
241.2798535865
 30
0.0
  0
VERTEX
  5
416
  8
0
  6
CONTINUOUS
 62
     7
 10
119.2245978022
 20
241.4128494304
 30
0.0
  0
SEQEND
  5
594
  8
0
  6
CONTINUOUS
 62
     7
  0
POLYLINE
  5
80
  8
0
  6
CONTINUOUS
 62
     7
 66
     1
 10
0.0
 20
0.0
 30
0.0
  0
VERTEX
  5
417
  8
0
  6
CONTINUOUS
 62
     7
 10
113.1359580065
 20
238.0350244086
 30
0.0
  0
VERTEX
  5
418
  8
0
  6
CONTINUOUS
 62
     7
 10
107.7851328159
 20
237.4484312575
 30
0.0
  0
VERTEX
  5
419
  8
0
  6
CONTINUOUS
 62
     7
 10
102.4189743305
 20
236.95042849
 30
0.0
  0
VERTEX
  5
41A
  8
0
  6
CONTINUOUS
 62
     7
 10
97.0267209316
 20
236.5532767814
 30
0.0
  0
VERTEX
  5
41B
  8
0
  6
CONTINUOUS
 62
     7
 10
91.6236284281
 20
236.2682950538
 30
0.0
  0
VERTEX
  5
41C
  8
0
  6
CONTINUOUS
 62
     7
 10
85.7221367861
 20
236.0946309607
 30
0.0
  0
VERTEX
  5
41D
  8
0
  6
CONTINUOUS
 62
     7
 10
79.8169913793
 20
236.0682976287
 30
0.0
  0
VERTEX
  5
41E
  8
0
  6
CONTINUOUS
 62
     7
 10
73.8918247724
 20
236.191571955
 30
0.0
  0
VERTEX
  5
41F
  8
0
  6
CONTINUOUS
 62
     7
 10
67.9737809206
 20
236.4603412192
 30
0.0
  0
VERTEX
  5
420
  8
0
  6
CONTINUOUS
 62
     7
 10
63.5524931456
 20
236.7523562949
 30
0.0
  0
VERTEX
  5
421
  8
0
  6
CONTINUOUS
 62
     7
 10
59.1395500208
 20
237.1162545722
 30
0.0
  0
VERTEX
  5
422
  8
0
  6
CONTINUOUS
 62
     7
 10
54.7293069864
 20
237.5464749377
 30
0.0
  0
VERTEX
  5
423
  8
0
  6
CONTINUOUS
 62
     7
 10
50.3296318556
 20
238.0350244086
 30
0.0
  0
SEQEND
  5
593
  8
0
  6
CONTINUOUS
 62
     7
  0
POLYLINE
  5
81
  8
0
  6
CONTINUOUS
 62
     7
 66
     1
 10
0.0
 20
0.0
 30
0.0
  0
VERTEX
  5
424
  8
0
  6
CONTINUOUS
 62
     7
 10
44.2409935499
 20
241.4128494304
 30
0.0
  0
VERTEX
  5
425
  8
0
  6
CONTINUOUS
 62
     7
 10
44.3153324629
 20
241.1781919043
 30
0.0
  0
VERTEX
  5
426
  8
0
  6
CONTINUOUS
 62
     7
 10
44.5725741888
 20
240.8527863067
 30
0.0
  0
VERTEX
  5
427
  8
0
  6
CONTINUOUS
 62
     7
 10
44.9823263193
 20
240.4591572326
 30
0.0
  0
VERTEX
  5
428
  8
0
  6
CONTINUOUS
 62
     7
 10
45.5500903631
 20
239.9953377288
 30
0.0
  0
VERTEX
  5
429
  8
0
  6
CONTINUOUS
 62
     7
 10
46.2828162218
 20
239.4890975993
 30
0.0
  0
VERTEX
  5
42A
  8
0
  6
CONTINUOUS
 62
     7
 10
47.1790078188
 20
238.9844965976
 30
0.0
  0
VERTEX
  5
42B
  8
0
  6
CONTINUOUS
 62
     7
 10
48.0591240431
 20
238.5969531577
 30
0.0
  0
VERTEX
  5
42C
  8
0
  6
CONTINUOUS
 62
     7
 10
49.0568581129
 20
238.2756304782
 30
0.0
  0
VERTEX
  5
42D
  8
0
  6
CONTINUOUS
 62
     7
 10
49.6796670462
 20
238.1348621886
 30
0.0
  0
VERTEX
  5
42E
  8
0
  6
CONTINUOUS
 62
     7
 10
50.3296318556
 20
238.0350244086
 30
0.0
  0
SEQEND
  5
592
  8
0
  6
CONTINUOUS
 62
     7
  0
POLYLINE
  5
82
  8
0
  6
CONTINUOUS
 62
     7
 66
     1
 10
0.0
 20
0.0
 30
0.0
  0
VERTEX
  5
42F
  8
0
  6
CONTINUOUS
 62
     7
 10
44.2409935499
 20
241.4128553908
 30
0.0
  0
VERTEX
  5
430
  8
0
  6
CONTINUOUS
 62
     7
 10
44.2693117166
 20
241.7091918033
 30
0.0
  0
VERTEX
  5
431
  8
0
  6
CONTINUOUS
 62
     7
 10
44.2851367498
 20
241.8338668387
 30
0.0
  0
SEQEND
  5
591
  8
0
  6
CONTINUOUS
 62
     7
  0
POLYLINE
  5
83
  8
0
  6
CONTINUOUS
 62
     7
 66
     1
 10
0.0
 20
0.0
 30
0.0
  0
VERTEX
  5
432
  8
0
  6
CONTINUOUS
 62
     7
 10
44.3305078054
 20
241.9318568747
 30
0.0
  0
VERTEX
  5
433
  8
0
  6
CONTINUOUS
 62
     7
 10
44.3406167532
 20
241.9765007537
 30
0.0
  0
VERTEX
  5
434
  8
0
  6
CONTINUOUS
 62
     7
 10
44.3866076971
 20
242.0822155516
 30
0.0
  0
VERTEX
  5
435
  8
0
  6
CONTINUOUS
 62
     7
 10
44.384450009
 20
242.1290767234
 30
0.0
  0
VERTEX
  5
436
  8
0
  6
CONTINUOUS
 62
     7
 10
44.357347777
 20
242.1819281619
 30
0.0
  0
VERTEX
  5
437
  8
0
  6
CONTINUOUS
 62
     7
 10
44.3541827703
 20
242.2394824069
 30
0.0
  0
VERTEX
  5
438
  8
0
  6
CONTINUOUS
 62
     7
 10
44.4359305406
 20
242.2979128402
 30
0.0
  0
VERTEX
  5
439
  8
0
  6
CONTINUOUS
 62
     7
 10
44.6506860758
 20
242.3545253318
 30
0.0
  0
VERTEX
  5
43A
  8
0
  6
CONTINUOUS
 62
     7
 10
45.0082126165
 20
242.4102556746
 30
0.0
  0
VERTEX
  5
43B
  8
0
  6
CONTINUOUS
 62
     7
 10
45.6093850637
 20
242.4647939246
 30
0.0
  0
VERTEX
  5
43C
  8
0
  6
CONTINUOUS
 62
     7
 10
46.5264502073
 20
242.5196063559
 30
0.0
  0
SEQEND
  5
590
  8
0
  6
CONTINUOUS
 62
     7
  0
LINE
  5
84
  8
0
  6
CONTINUOUS
 62
     7
 10
119.3327936436
 20
240.954656605
 30
0.0
 11
119.3327936436
 21
241.2603569072
 31
0.0
  0
LINE
  5
85
  8
0
  6
CONTINUOUS
 62
     7
 10
44.1327932382
 20
240.7796096843
 30
0.0
 11
44.1327932382
 21
240.605146889
 31
0.0
  0
LINE
  5
86
  8
0
  6
CONTINUOUS
 62
     7
 10
44.1327932382
 20
241.2501645129
 30
0.0
 11
44.1327932382
 21
240.954656605
 31
0.0
  0
LINE
  5
87
  8
0
  6
CONTINUOUS
 62
     7
 10
164.8327949549
 20
237.9077029269
 30
0.0
 11
164.8327949549
 21
235.9429967444
 31
0.0
  0
LINE
  5
88
  8
0
  6
CONTINUOUS
 62
     7
 10
164.0327948237
 20
235.9429967444
 30
0.0
 11
164.0327948237
 21
237.9077029269
 31
0.0
  0
LINE
  5
89
  8
0
  6
CONTINUOUS
 62
     7
 10
164.8327949549
 20
237.9077029269
 30
0.0
 11
164.8327949549
 21
239.2192435305
 31
0.0
  0
LINE
  5
8A
  8
0
  6
CONTINUOUS
 62
     7
 10
164.0327948237
 20
239.1588580649
 30
0.0
 11
164.0327948237
 21
237.9077029269
 31
0.0
  0
ARC
  5
8B
  8
0
  6
CONTINUOUS
 62
     7
 10
165.032794335
 20
239.1588573614
 30
0.0
 40
1.00000000000001
 50
138.1768700679
 51
180.0
  0
LINE
  5
8C
  8
0
  6
CONTINUOUS
 62
     7
 10
164.0327948237
 20
230.1207435172
 30
0.0
 11
164.0327948237
 21
235.9429967444
 31
0.0
  0
LINE
  5
8D
  8
0
  6
CONTINUOUS
 62
     7
 10
164.8327949549
 20
235.9429967444
 30
0.0
 11
164.8327949549
 21
230.1207435172
 31
0.0
  0
LINE
  5
8E
  8
0
  6
CONTINUOUS
 62
     7
 10
164.0327948237
 20
230.1207435172
 30
0.0
 11
164.0327948237
 21
229.8561525386
 31
0.0
  0
LINE
  5
8F
  8
0
  6
CONTINUOUS
 62
     7
 10
164.8327949549
 20
229.8561525386
 30
0.0
 11
164.8327949549
 21
230.1207435172
 31
0.0
  0
LINE
  5
90
  8
0
  6
CONTINUOUS
 62
     7
 10
164.0327948237
 20
227.963782553
 30
0.0
 11
164.0327948237
 21
229.8561525386
 31
0.0
  0
LINE
  5
91
  8
0
  6
CONTINUOUS
 62
     7
 10
164.8327949549
 20
229.8561525386
 30
0.0
 11
164.8327949549
 21
227.963782553
 31
0.0
  0
LINE
  5
92
  8
0
  6
CONTINUOUS
 62
     7
 10
164.0327948237
 20
224.5518100303
 30
0.0
 11
164.0327948237
 21
227.963782553
 31
0.0
  0
LINE
  5
93
  8
0
  6
CONTINUOUS
 62
     7
 10
164.8327949549
 20
227.963782553
 30
0.0
 11
164.8327949549
 21
224.5518100303
 31
0.0
  0
LINE
  5
94
  8
0
  6
CONTINUOUS
 62
     7
 10
164.0327948237
 20
222.6560723822
 30
0.0
 11
164.0327948237
 21
224.5518100303
 31
0.0
  0
LINE
  5
95
  8
0
  6
CONTINUOUS
 62
     7
 10
164.8327949549
 20
224.5518100303
 30
0.0
 11
164.8327949549
 21
222.6560723822
 31
0.0
  0
LINE
  5
96
  8
0
  6
CONTINUOUS
 62
     7
 10
164.8327949549
 20
220.6560742896
 30
0.0
 11
164.0327948237
 21
220.6560742896
 31
0.0
  0
LINE
  5
97
  8
0
  6
CONTINUOUS
 62
     7
 10
164.0327948237
 20
220.6560742896
 30
0.0
 11
164.0327948237
 21
222.6560723822
 31
0.0
  0
LINE
  5
98
  8
0
  6
CONTINUOUS
 62
     7
 10
164.8327949549
 20
222.6560723822
 30
0.0
 11
164.8327949549
 21
220.6560742896
 31
0.0
  0
ARC
  5
99
  8
0
  6
CONTINUOUS
 62
     7
 10
161.232794335
 20
216.0560714286
 30
0.0
 40
2.000000000000028
 50
180.0
 51
270.0
  0
LINE
  5
9A
  8
0
  6
CONTINUOUS
 62
     7
 10
159.232794037
 20
223.4560740035
 30
0.0
 11
159.232794037
 21
216.0560739081
 31
0.0
  0
LINE
  5
9B
  8
0
  6
CONTINUOUS
 62
     7
 10
169.232794931
 20
223.4560740035
 30
0.0
 11
169.232794931
 21
216.0560739081
 31
0.0
  0
ARC
  5
9C
  8
0
  6
CONTINUOUS
 62
     7
 10
167.232794335
 20
216.0560714286
 30
0.0
 40
2.0
 50
270.0
 51
0.0
  0
LINE
  5
9D
  8
0
  6
CONTINUOUS
 62
     7
 10
167.2327938581
 20
214.056069855
 30
0.0
 11
161.2327936197
 21
214.056069855
 31
0.0
  0
LINE
  5
9E
  8
0
  6
CONTINUOUS
 62
     7
 10
164.0327948237
 20
224.4560730498
 30
0.0
 11
159.232794037
 21
224.4560730498
 31
0.0
  0
LINE
  5
9F
  8
0
  6
CONTINUOUS
 62
     7
 10
159.232794037
 20
224.4560730498
 30
0.0
 11
159.232794037
 21
223.4560740035
 31
0.0
  0
LINE
  5
A0
  8
0
  6
CONTINUOUS
 62
     7
 10
169.232794931
 20
224.4560730498
 30
0.0
 11
164.8327949549
 21
224.4560730498
 31
0.0
  0
LINE
  5
A1
  8
0
  6
CONTINUOUS
 62
     7
 10
169.232794931
 20
224.4560730498
 30
0.0
 11
169.232794931
 21
223.4560740035
 31
0.0
  0
LINE
  5
A2
  8
0
  6
CONTINUOUS
 62
     7
 10
44.832796147
 20
237.9077029269
 30
0.0
 11
44.832796147
 21
239.2192435305
 31
0.0
  0
LINE
  5
A3
  8
0
  6
CONTINUOUS
 62
     7
 10
44.0327945257
 20
239.1588580649
 30
0.0
 11
44.0327945257
 21
237.9077029269
 31
0.0
  0
ARC
  5
A4
  8
0
  6
CONTINUOUS
 62
     7
 10
45.032794335
 20
239.1588573614
 30
0.0
 40
1.0
 50
138.1768700679
 51
180.0
  0
LINE
  5
A5
  8
0
  6
CONTINUOUS
 62
     7
 10
44.832796147
 20
237.9077029269
 30
0.0
 11
44.832796147
 21
235.9429967444
 31
0.0
  0
LINE
  5
A6
  8
0
  6
CONTINUOUS
 62
     7
 10
44.0327945257
 20
235.9429967444
 30
0.0
 11
44.0327945257
 21
237.9077029269
 31
0.0
  0
LINE
  5
A7
  8
0
  6
CONTINUOUS
 62
     7
 10
44.832796147
 20
235.9429967444
 30
0.0
 11
44.832796147
 21
230.1207435172
 31
0.0
  0
LINE
  5
A8
  8
0
  6
CONTINUOUS
 62
     7
 10
44.0327945257
 20
230.1207435172
 30
0.0
 11
44.0327945257
 21
235.9429967444
 31
0.0
  0
LINE
  5
A9
  8
0
  6
CONTINUOUS
 62
     7
 10
44.832796147
 20
229.8561525386
 30
0.0
 11
44.832796147
 21
230.1207435172
 31
0.0
  0
LINE
  5
AA
  8
0
  6
CONTINUOUS
 62
     7
 10
44.0327945257
 20
230.1207435172
 30
0.0
 11
44.0327945257
 21
229.8561525386
 31
0.0
  0
LINE
  5
AB
  8
0
  6
CONTINUOUS
 62
     7
 10
44.832796147
 20
229.8561525386
 30
0.0
 11
44.832796147
 21
227.963782553
 31
0.0
  0
LINE
  5
AC
  8
0
  6
CONTINUOUS
 62
     7
 10
44.0327945257
 20
227.963782553
 30
0.0
 11
44.0327945257
 21
229.8561525386
 31
0.0
  0
LINE
  5
AD
  8
0
  6
CONTINUOUS
 62
     7
 10
44.832796147
 20
227.963782553
 30
0.0
 11
44.832796147
 21
224.5518100303
 31
0.0
  0
LINE
  5
AE
  8
0
  6
CONTINUOUS
 62
     7
 10
44.0327945257
 20
224.5518100303
 30
0.0
 11
44.0327945257
 21
227.963782553
 31
0.0
  0
LINE
  5
AF
  8
0
  6
CONTINUOUS
 62
     7
 10
44.832796147
 20
224.5518100303
 30
0.0
 11
44.832796147
 21
222.6560723822
 31
0.0
  0
LINE
  5
B0
  8
0
  6
CONTINUOUS
 62
     7
 10
44.0327945257
 20
222.6560723822
 30
0.0
 11
44.0327945257
 21
224.5518100303
 31
0.0
  0
LINE
  5
B1
  8
0
  6
CONTINUOUS
 62
     7
 10
44.832796147
 20
220.6560742896
 30
0.0
 11
44.0327945257
 21
220.6560742896
 31
0.0
  0
LINE
  5
B2
  8
0
  6
CONTINUOUS
 62
     7
 10
44.832796147
 20
222.6560723822
 30
0.0
 11
44.832796147
 21
220.6560742896
 31
0.0
  0
LINE
  5
B3
  8
0
  6
CONTINUOUS
 62
     7
 10
44.0327945257
 20
220.6560742896
 30
0.0
 11
44.0327945257
 21
222.6560723822
 31
0.0
  0
LINE
  5
B4
  8
0
  6
CONTINUOUS
 62
     7
 10
39.2327967192
 20
223.4560740035
 30
0.0
 11
39.2327967192
 21
216.0560739081
 31
0.0
  0
LINE
  5
B5
  8
0
  6
CONTINUOUS
 62
     7
 10
49.2327931429
 20
223.4560740035
 30
0.0
 11
49.2327931429
 21
216.0560739081
 31
0.0
  0
LINE
  5
B6
  8
0
  6
CONTINUOUS
 62
     7
 10
47.2327950502
 20
214.056069855
 30
0.0
 11
41.2327948118
 21
214.056069855
 31
0.0
  0
ARC
  5
B7
  8
0
  6
CONTINUOUS
 62
     7
 10
41.232794335
 20
216.0560714286
 30
0.0
 40
2.000000000000007
 50
180.0
 51
270.0
  0
ARC
  5
B8
  8
0
  6
CONTINUOUS
 62
     7
 10
47.232794335
 20
216.0560714286
 30
0.0
 40
2.0
 50
270.0
 51
0.0
  0
LINE
  5
B9
  8
0
  6
CONTINUOUS
 62
     7
 10
44.0327945257
 20
224.4560730498
 30
0.0
 11
39.2327967192
 21
224.4560730498
 31
0.0
  0
LINE
  5
BA
  8
0
  6
CONTINUOUS
 62
     7
 10
39.2327967192
 20
224.4560730498
 30
0.0
 11
39.2327967192
 21
223.4560740035
 31
0.0
  0
LINE
  5
BB
  8
0
  6
CONTINUOUS
 62
     7
 10
49.2327931429
 20
224.4560730498
 30
0.0
 11
44.832796147
 21
224.4560730498
 31
0.0
  0
LINE
  5
BC
  8
0
  6
CONTINUOUS
 62
     7
 10
49.2327931429
 20
224.4560730498
 30
0.0
 11
49.2327931429
 21
223.4560740035
 31
0.0
  0
ARC
  5
BD
  8
0
  6
CONTINUOUS
 62
     7
 10
238.432794335
 20
239.1588573614
 30
0.0
 40
1.0
 50
0.0
 51
42.1872028391
  0
LINE
  5
BE
  8
0
  6
CONTINUOUS
 62
     7
 10
239.4327941442
 20
239.1588580649
 30
0.0
 11
239.4327941442
 21
237.9077029269
 31
0.0
  0
LINE
  5
BF
  8
0
  6
CONTINUOUS
 62
     7
 10
238.632792523
 20
237.9077029269
 30
0.0
 11
238.632792523
 21
239.2114949267
 31
0.0
  0
LINE
  5
C0
  8
0
  6
CONTINUOUS
 62
     7
 10
238.632792523
 20
237.9077029269
 30
0.0
 11
238.632792523
 21
235.9429967444
 31
0.0
  0
LINE
  5
C1
  8
0
  6
CONTINUOUS
 62
     7
 10
239.4327941442
 20
235.9429967444
 30
0.0
 11
239.4327941442
 21
237.9077029269
 31
0.0
  0
LINE
  5
C2
  8
0
  6
CONTINUOUS
 62
     7
 10
238.632792523
 20
235.9429967444
 30
0.0
 11
238.632792523
 21
230.1207435172
 31
0.0
  0
LINE
  5
C3
  8
0
  6
CONTINUOUS
 62
     7
 10
239.4327941442
 20
230.1207435172
 30
0.0
 11
239.4327941442
 21
235.9429967444
 31
0.0
  0
LINE
  5
C4
  8
0
  6
CONTINUOUS
 62
     7
 10
238.632792523
 20
229.8561525386
 30
0.0
 11
238.632792523
 21
230.1207435172
 31
0.0
  0
LINE
  5
C5
  8
0
  6
CONTINUOUS
 62
     7
 10
239.4327941442
 20
230.1207435172
 30
0.0
 11
239.4327941442
 21
229.8561525386
 31
0.0
  0
LINE
  5
C6
  8
0
  6
CONTINUOUS
 62
     7
 10
238.632792523
 20
229.8561525386
 30
0.0
 11
238.632792523
 21
227.963782553
 31
0.0
  0
LINE
  5
C7
  8
0
  6
CONTINUOUS
 62
     7
 10
239.4327941442
 20
227.963782553
 30
0.0
 11
239.4327941442
 21
229.8561525386
 31
0.0
  0
LINE
  5
C8
  8
0
  6
CONTINUOUS
 62
     7
 10
238.632792523
 20
227.963782553
 30
0.0
 11
238.632792523
 21
224.5518100303
 31
0.0
  0
LINE
  5
C9
  8
0
  6
CONTINUOUS
 62
     7
 10
239.4327941442
 20
224.5518100303
 30
0.0
 11
239.4327941442
 21
227.963782553
 31
0.0
  0
LINE
  5
CA
  8
0
  6
CONTINUOUS
 62
     7
 10
238.632792523
 20
224.5518100303
 30
0.0
 11
238.632792523
 21
222.6560723822
 31
0.0
  0
LINE
  5
CB
  8
0
  6
CONTINUOUS
 62
     7
 10
239.4327941442
 20
222.6560723822
 30
0.0
 11
239.4327941442
 21
224.5518100303
 31
0.0
  0
LINE
  5
CC
  8
0
  6
CONTINUOUS
 62
     7
 10
238.632792523
 20
220.6560742896
 30
0.0
 11
239.4327941442
 21
220.6560742896
 31
0.0
  0
LINE
  5
CD
  8
0
  6
CONTINUOUS
 62
     7
 10
238.632792523
 20
222.6560723822
 30
0.0
 11
238.632792523
 21
220.6560742896
 31
0.0
  0
LINE
  5
CE
  8
0
  6
CONTINUOUS
 62
     7
 10
239.4327941442
 20
220.6560742896
 30
0.0
 11
239.4327941442
 21
222.6560723822
 31
0.0
  0
ARC
  5
CF
  8
0
  6
CONTINUOUS
 62
     7
 10
236.232794335
 20
216.0560714286
 30
0.0
 40
2.0
 50
180.0
 51
270.0
  0
LINE
  5
D0
  8
0
  6
CONTINUOUS
 62
     7
 10
234.2327955271
 20
223.4560740035
 30
0.0
 11
234.2327955271
 21
216.0560739081
 31
0.0
  0
LINE
  5
D1
  8
0
  6
CONTINUOUS
 62
     7
 10
244.2327919508
 20
223.4560740035
 30
0.0
 11
244.2327919508
 21
216.0560739081
 31
0.0
  0
ARC
  5
D2
  8
0
  6
CONTINUOUS
 62
     7
 10
242.232794335
 20
216.0560714286
 30
0.0
 40
2.0
 50
270.0
 51
0.0
  0
LINE
  5
D3
  8
0
  6
CONTINUOUS
 62
     7
 10
236.2327936197
 20
214.056069855
 30
0.0
 11
242.2327938581
 21
214.056069855
 31
0.0
  0
LINE
  5
D4
  8
0
  6
CONTINUOUS
 62
     7
 10
234.2327955271
 20
224.4560730498
 30
0.0
 11
238.632792523
 21
224.4560730498
 31
0.0
  0
LINE
  5
D5
  8
0
  6
CONTINUOUS
 62
     7
 10
234.2327955271
 20
224.4560730498
 30
0.0
 11
234.2327955271
 21
223.4560740035
 31
0.0
  0
LINE
  5
D6
  8
0
  6
CONTINUOUS
 62
     7
 10
239.4327941442
 20
224.4560730498
 30
0.0
 11
244.2327919508
 21
224.4560730498
 31
0.0
  0
LINE
  5
D7
  8
0
  6
CONTINUOUS
 62
     7
 10
244.2327919508
 20
224.4560730498
 30
0.0
 11
244.2327919508
 21
223.4560740035
 31
0.0
  0
LINE
  5
D8
  8
0
  6
CONTINUOUS
 62
     7
 10
118.6327937151
 20
237.9077029269
 30
0.0
 11
118.6327937151
 21
235.9429967444
 31
0.0
  0
LINE
  5
D9
  8
0
  6
CONTINUOUS
 62
     7
 10
119.4327938462
 20
235.9429967444
 30
0.0
 11
119.4327938462
 21
237.9077029269
 31
0.0
  0
ARC
  5
DA
  8
0
  6
CONTINUOUS
 62
     7
 10
118.432794335
 20
239.1588573614
 30
0.0
 40
1.0
 50
0.0
 51
42.1872028391
  0
LINE
  5
DB
  8
0
  6
CONTINUOUS
 62
     7
 10
119.4327938462
 20
239.1588580649
 30
0.0
 11
119.4327938462
 21
237.9077029269
 31
0.0
  0
LINE
  5
DC
  8
0
  6
CONTINUOUS
 62
     7
 10
118.6327937151
 20
237.9077029269
 30
0.0
 11
118.6327937151
 21
239.2114949267
 31
0.0
  0
LINE
  5
DD
  8
0
  6
CONTINUOUS
 62
     7
 10
119.4327938462
 20
230.1207435172
 30
0.0
 11
119.4327938462
 21
235.9429967444
 31
0.0
  0
LINE
  5
DE
  8
0
  6
CONTINUOUS
 62
     7
 10
118.6327937151
 20
235.9429967444
 30
0.0
 11
118.6327937151
 21
230.1207435172
 31
0.0
  0
LINE
  5
DF
  8
0
  6
CONTINUOUS
 62
     7
 10
119.4327938462
 20
230.1207435172
 30
0.0
 11
119.4327938462
 21
229.8561525386
 31
0.0
  0
LINE
  5
E0
  8
0
  6
CONTINUOUS
 62
     7
 10
118.6327937151
 20
229.8561525386
 30
0.0
 11
118.6327937151
 21
230.1207435172
 31
0.0
  0
LINE
  5
E1
  8
0
  6
CONTINUOUS
 62
     7
 10
119.4327938462
 20
227.963782553
 30
0.0
 11
119.4327938462
 21
229.8561525386
 31
0.0
  0
LINE
  5
E2
  8
0
  6
CONTINUOUS
 62
     7
 10
118.6327937151
 20
229.8561525386
 30
0.0
 11
118.6327937151
 21
227.963782553
 31
0.0
  0
LINE
  5
E3
  8
0
  6
CONTINUOUS
 62
     7
 10
119.4327938462
 20
224.5518100303
 30
0.0
 11
119.4327938462
 21
227.963782553
 31
0.0
  0
LINE
  5
E4
  8
0
  6
CONTINUOUS
 62
     7
 10
118.6327937151
 20
227.963782553
 30
0.0
 11
118.6327937151
 21
224.5518100303
 31
0.0
  0
LINE
  5
E5
  8
0
  6
CONTINUOUS
 62
     7
 10
119.4327938462
 20
222.6560723822
 30
0.0
 11
119.4327938462
 21
224.5518100303
 31
0.0
  0
LINE
  5
E6
  8
0
  6
CONTINUOUS
 62
     7
 10
118.6327937151
 20
224.5518100303
 30
0.0
 11
118.6327937151
 21
222.6560723822
 31
0.0
  0
LINE
  5
E7
  8
0
  6
CONTINUOUS
 62
     7
 10
118.6327937151
 20
220.6560742896
 30
0.0
 11
119.4327938462
 21
220.6560742896
 31
0.0
  0
LINE
  5
E8
  8
0
  6
CONTINUOUS
 62
     7
 10
119.4327938462
 20
220.6560742896
 30
0.0
 11
119.4327938462
 21
222.6560723822
 31
0.0
  0
LINE
  5
E9
  8
0
  6
CONTINUOUS
 62
     7
 10
118.6327937151
 20
222.6560723822
 30
0.0
 11
118.6327937151
 21
220.6560742896
 31
0.0
  0
ARC
  5
EA
  8
0
  6
CONTINUOUS
 62
     7
 10
116.232794335
 20
216.0560714286
 30
0.0
 40
2.0
 50
180.0
 51
270.0
  0
LINE
  5
EB
  8
0
  6
CONTINUOUS
 62
     7
 10
114.2327937389
 20
223.4560740035
 30
0.0
 11
114.2327937389
 21
216.0560739081
 31
0.0
  0
LINE
  5
EC
  8
0
  6
CONTINUOUS
 62
     7
 10
124.232794633
 20
223.4560740035
 30
0.0
 11
124.232794633
 21
216.0560739081
 31
0.0
  0
ARC
  5
ED
  8
0
  6
CONTINUOUS
 62
     7
 10
122.232794335
 20
216.0560714286
 30
0.0
 40
2.0
 50
270.0
 51
0.0
  0
LINE
  5
EE
  8
0
  6
CONTINUOUS
 62
     7
 10
116.2327948118
 20
214.056069855
 30
0.0
 11
122.2327950502
 21
214.056069855
 31
0.0
  0
LINE
  5
EF
  8
0
  6
CONTINUOUS
 62
     7
 10
114.2327937389
 20
224.4560730498
 30
0.0
 11
118.6327937151
 21
224.4560730498
 31
0.0
  0
LINE
  5
F0
  8
0
  6
CONTINUOUS
 62
     7
 10
114.2327937389
 20
224.4560730498
 30
0.0
 11
114.2327937389
 21
223.4560740035
 31
0.0
  0
LINE
  5
F1
  8
0
  6
CONTINUOUS
 62
     7
 10
119.4327938462
 20
224.4560730498
 30
0.0
 11
124.232794633
 21
224.4560730498
 31
0.0
  0
LINE
  5
F2
  8
0
  6
CONTINUOUS
 62
     7
 10
124.232794633
 20
224.4560730498
 30
0.0
 11
124.232794633
 21
223.4560740035
 31
0.0
  0
ARC
  5
F3
  8
0
  6
CONTINUOUS
 62
     7
 10
21.732794335
 20
264.6560714286
 30
0.0
 40
2.699999999999992
 50
0.0
 51
180.0
  0
ARC
  5
F4
  8
0
  6
CONTINUOUS
 62
     7
 10
21.732794335
 20
218.0560714286
 30
0.0
 40
2.699999999999992
 50
180.0
 51
0.0
  0
ARC
  5
F5
  8
0
  6
CONTINUOUS
 62
     7
 10
25.732794335
 20
216.8560714286
 30
0.0
 40
2.000000000000028
 50
270.0
 51
0.0
  0
LINE
  5
F6
  8
0
  6
CONTINUOUS
 62
     7
 10
25.7327976728
 20
214.8560714763
 30
0.0
 11
17.7327933813
 21
214.8560714763
 31
0.0
  0
ARC
  5
F7
  8
0
  6
CONTINUOUS
 62
     7
 10
17.732794335
 20
216.8560714286
 30
0.0
 40
2.000000000000028
 50
180.0
 51
270.0
  0
LINE
  5
F8
  8
0
  6
CONTINUOUS
 62
     7
 10
15.7327952886
 20
223.4560740035
 30
0.0
 11
15.7327952886
 21
216.8560695689
 31
0.0
  0
LINE
  5
F9
  8
0
  6
CONTINUOUS
 62
     7
 10
27.7327957655
 20
223.4560740035
 30
0.0
 11
27.7327957655
 21
216.8560695689
 31
0.0
  0
LINE
  5
FA
  8
0
  6
CONTINUOUS
 62
     7
 10
15.7327952886
 20
223.4560740035
 30
0.0
 11
15.7327952886
 21
224.6560704749
 31
0.0
  0
LINE
  5
FB
  8
0
  6
CONTINUOUS
 62
     7
 10
15.7327952886
 20
224.6560704749
 30
0.0
 11
19.0327945257
 21
224.6560704749
 31
0.0
  0
LINE
  5
FC
  8
0
  6
CONTINUOUS
 62
     7
 10
24.4327965284
 20
224.6560704749
 30
0.0
 11
27.7327957655
 21
224.6560704749
 31
0.0
  0
LINE
  5
FD
  8
0
  6
CONTINUOUS
 62
     7
 10
27.7327957655
 20
224.6560704749
 30
0.0
 11
27.7327957655
 21
223.4560740035
 31
0.0
  0
ARC
  5
FE
  8
0
  6
CONTINUOUS
 62
     7
 10
141.732794335
 20
264.6560714286
 30
0.0
 40
2.700000000000017
 50
0.0
 51
180.0
  0
ARC
  5
FF
  8
0
  6
CONTINUOUS
 62
     7
 10
141.732794335
 20
218.0560714286
 30
0.0
 40
2.700000000000017
 50
180.0
 51
0.0
  0
ARC
  5
100
  8
0
  6
CONTINUOUS
 62
     7
 10
145.732794335
 20
216.8560714286
 30
0.0
 40
2.000000000000028
 50
270.0
 51
0.0
  0
LINE
  5
101
  8
0
  6
CONTINUOUS
 62
     7
 10
145.7327942456
 20
214.8560714763
 30
0.0
 11
137.7327944244
 21
214.8560714763
 31
0.0
  0
ARC
  5
102
  8
0
  6
CONTINUOUS
 62
     7
 10
137.732794335
 20
216.8560714286
 30
0.0
 40
2.000000000000028
 50
180.0
 51
270.0
  0
LINE
  5
103
  8
0
  6
CONTINUOUS
 62
     7
 10
135.7327944691
 20
223.4560740035
 30
0.0
 11
135.7327944691
 21
216.8560695689
 31
0.0
  0
LINE
  5
104
  8
0
  6
CONTINUOUS
 62
     7
 10
147.7327942009
 20
223.4560740035
 30
0.0
 11
147.7327942009
 21
216.8560695689
 31
0.0
  0
LINE
  5
105
  8
0
  6
CONTINUOUS
 62
     7
 10
135.7327944691
 20
224.6560704749
 30
0.0
 11
139.0327942649
 21
224.6560704749
 31
0.0
  0
LINE
  5
106
  8
0
  6
CONTINUOUS
 62
     7
 10
144.432794405
 20
224.6560704749
 30
0.0
 11
147.7327942009
 21
224.6560704749
 31
0.0
  0
LINE
  5
107
  8
0
  6
CONTINUOUS
 62
     7
 10
135.7327944691
 20
223.4560740035
 30
0.0
 11
135.7327944691
 21
224.6560704749
 31
0.0
  0
LINE
  5
108
  8
0
  6
CONTINUOUS
 62
     7
 10
147.7327942009
 20
224.6560704749
 30
0.0
 11
147.7327942009
 21
223.4560740035
 31
0.0
  0
ARC
  5
109
  8
0
  6
CONTINUOUS
 62
     7
 10
261.732794335
 20
264.6560714286
 30
0.0
 40
2.700000000000045
 50
0.0
 51
180.0
  0
ARC
  5
10A
  8
0
  6
CONTINUOUS
 62
     7
 10
261.732794335
 20
218.0560714286
 30
0.0
 40
2.700000000000045
 50
180.0
 51
0.0
  0
ARC
  5
10B
  8
0
  6
CONTINUOUS
 62
     7
 10
265.732794335
 20
216.8560714286
 30
0.0
 40
2.000000000000028
 50
270.0
 51
0.0
  0
LINE
  5
10C
  8
0
  6
CONTINUOUS
 62
     7
 10
265.7327952886
 20
214.8560714763
 30
0.0
 11
257.7327909971
 21
214.8560714763
 31
0.0
  0
ARC
  5
10D
  8
0
  6
CONTINUOUS
 62
     7
 10
257.732794335
 20
216.8560714286
 30
0.0
 40
2.000000000000028
 50
180.0
 51
270.0
  0
LINE
  5
10E
  8
0
  6
CONTINUOUS
 62
     7
 10
255.7327929045
 20
223.4560740035
 30
0.0
 11
255.7327929045
 21
216.8560695689
 31
0.0
  0
LINE
  5
10F
  8
0
  6
CONTINUOUS
 62
     7
 10
267.7327933813
 20
223.4560740035
 30
0.0
 11
267.7327933813
 21
216.8560695689
 31
0.0
  0
LINE
  5
110
  8
0
  6
CONTINUOUS
 62
     7
 10
255.7327929045
 20
224.6560704749
 30
0.0
 11
259.0327921415
 21
224.6560704749
 31
0.0
  0
LINE
  5
111
  8
0
  6
CONTINUOUS
 62
     7
 10
264.4327941442
 20
224.6560704749
 30
0.0
 11
267.7327933813
 21
224.6560704749
 31
0.0
  0
LINE
  5
112
  8
0
  6
CONTINUOUS
 62
     7
 10
267.7327933813
 20
224.6560704749
 30
0.0
 11
267.7327933813
 21
223.4560740035
 31
0.0
  0
LINE
  5
113
  8
0
  6
CONTINUOUS
 62
     7
 10
255.7327929045
 20
223.4560740035
 30
0.0
 11
255.7327929045
 21
224.6560704749
 31
0.0
  0
LINE
  5
114
  8
0
  6
CONTINUOUS
 62
     7
 10
59.5598640943
 20
149.856071439
 30
0.0
 11
63.318509152
 21
149.856071439
 31
0.0
  0
LINE
  5
115
  8
0
  6
CONTINUOUS
 62
     7
 10
63.318509152
 20
148.6560714286
 30
0.0
 11
59.5598640943
 21
148.6560714286
 31
0.0
  0
LINE
  5
116
  8
0
  6
CONTINUOUS
 62
     7
 10
73.9057245756
 20
148.6560714286
 30
0.0
 11
70.1470795179
 21
148.6560714286
 31
0.0
  0
LINE
  5
117
  8
0
  6
CONTINUOUS
 62
     7
 10
70.1470795179
 20
149.856071439
 30
0.0
 11
73.9057245756
 21
149.856071439
 31
0.0
  0
LINE
  5
118
  8
0
  6
CONTINUOUS
 62
     7
 10
63.318509152
 20
148.6560714286
 30
0.0
 11
70.1470795179
 21
148.6560714286
 31
0.0
  0
LINE
  5
119
  8
0
  6
CONTINUOUS
 62
     7
 10
63.318509152
 20
149.856071439
 30
0.0
 11
70.1470795179
 21
149.856071439
 31
0.0
  0
LINE
  5
11A
  8
0
  6
CONTINUOUS
 62
     7
 10
209.5598640943
 20
149.856071439
 30
0.0
 11
213.318509152
 21
149.856071439
 31
0.0
  0
LINE
  5
11B
  8
0
  6
CONTINUOUS
 62
     7
 10
213.318509152
 20
148.6560714286
 30
0.0
 11
209.5598640943
 21
148.6560714286
 31
0.0
  0
LINE
  5
11C
  8
0
  6
CONTINUOUS
 62
     7
 10
213.318509152
 20
148.6560714286
 30
0.0
 11
220.1470795179
 21
148.6560714286
 31
0.0
  0
LINE
  5
11D
  8
0
  6
CONTINUOUS
 62
     7
 10
213.318509152
 20
149.856071439
 30
0.0
 11
220.1470795179
 21
149.856071439
 31
0.0
  0
LINE
  5
11E
  8
0
  6
CONTINUOUS
 62
     7
 10
223.9057245756
 20
148.6560714286
 30
0.0
 11
220.1470795179
 21
148.6560714286
 31
0.0
  0
LINE
  5
11F
  8
0
  6
CONTINUOUS
 62
     7
 10
220.1470795179
 20
149.856071439
 30
0.0
 11
223.9057245756
 21
149.856071439
 31
0.0
  0
LINE
  5
120
  8
0
  6
CONTINUOUS
 62
     7
 10
54.7327938581
 20
148.6560714286
 30
0.0
 11
54.7327938581
 21
149.856071439
 31
0.0
  0
LINE
  5
121
  8
0
  6
CONTINUOUS
 62
     7
 10
54.7327938581
 20
148.6560714286
 30
0.0
 11
59.5598640943
 21
148.6560714286
 31
0.0
  0
LINE
  5
122
  8
0
  6
CONTINUOUS
 62
     7
 10
59.5598640943
 20
149.856071439
 30
0.0
 11
54.7327938581
 21
149.856071439
 31
0.0
  0
LINE
  5
123
  8
0
  6
CONTINUOUS
 62
     7
 10
78.7327948118
 20
148.6560714286
 30
0.0
 11
78.7327948118
 21
149.856071439
 31
0.0
  0
LINE
  5
124
  8
0
  6
CONTINUOUS
 62
     7
 10
73.9057245756
 20
148.6560714286
 30
0.0
 11
78.7327948118
 21
148.6560714286
 31
0.0
  0
LINE
  5
125
  8
0
  6
CONTINUOUS
 62
     7
 10
78.7327948118
 20
149.856071439
 30
0.0
 11
73.9057245756
 21
149.856071439
 31
0.0
  0
LINE
  5
126
  8
0
  6
CONTINUOUS
 62
     7
 10
204.7327938581
 20
148.6560714286
 30
0.0
 11
204.7327938581
 21
149.856071439
 31
0.0
  0
LINE
  5
127
  8
0
  6
CONTINUOUS
 62
     7
 10
204.7327938581
 20
148.6560714286
 30
0.0
 11
209.5598640943
 21
148.6560714286
 31
0.0
  0
LINE
  5
128
  8
0
  6
CONTINUOUS
 62
     7
 10
209.5598640943
 20
149.856071439
 30
0.0
 11
204.7327938581
 21
149.856071439
 31
0.0
  0
LINE
  5
129
  8
0
  6
CONTINUOUS
 62
     7
 10
228.7327948118
 20
148.6560714286
 30
0.0
 11
228.7327948118
 21
149.856071439
 31
0.0
  0
LINE
  5
12A
  8
0
  6
CONTINUOUS
 62
     7
 10
223.9057245756
 20
148.6560714286
 30
0.0
 11
228.7327948118
 21
148.6560714286
 31
0.0
  0
LINE
  5
12B
  8
0
  6
CONTINUOUS
 62
     7
 10
228.7327948118
 20
149.856071439
 30
0.0
 11
223.9057245756
 21
149.856071439
 31
0.0
  0
ARC
  5
12C
  8
0
  6
CONTINUOUS
 62
     7
 10
270.132794335
 20
223.4560714286
 30
0.0
 40
0.4000000000000057
 50
0.0
 51
90.0
  0
LINE
  5
12D
  8
0
  6
CONTINUOUS
 62
     7
 10
270.5327930952
 20
223.4560740035
 30
0.0
 11
270.5327930952
 21
222.8560698073
 31
0.0
  0
POLYLINE
  5
12E
  8
0
  6
CONTINUOUS
 62
     7
 66
     1
 10
0.0
 20
0.0
 30
0.0
  0
VERTEX
  5
43D
  8
0
  6
CONTINUOUS
 62
     7
 10
61.7327931429
 20
213.8560724299
 30
0.0
  0
VERTEX
  5
43E
  8
0
  6
CONTINUOUS
 62
     7
 10
61.7520096804
 20
213.8752889674
 30
0.0
  0
VERTEX
  5
43F
  8
0
  6
CONTINUOUS
 62
     7
 10
61.8089142347
 20
213.9321935218
 30
0.0
  0
VERTEX
  5
440
  8
0
  6
CONTINUOUS
 62
     7
 10
61.901325276
 20
214.024604563
 30
0.0
  0
VERTEX
  5
441
  8
0
  6
CONTINUOUS
 62
     7
 10
62.0256903673
 20
214.1489636939
 30
0.0
  0
VERTEX
  5
442
  8
0
  6
CONTINUOUS
 62
     7
 10
62.1772232557
 20
214.3005025428
 30
0.0
  0
VERTEX
  5
443
  8
0
  6
CONTINUOUS
 62
     7
 10
62.3501124884
 20
214.4733858149
 30
0.0
  0
VERTEX
  5
444
  8
0
  6
CONTINUOUS
 62
     7
 10
62.5377061869
 20
214.6609795134
 30
0.0
  0
VERTEX
  5
445
  8
0
  6
CONTINUOUS
 62
     7
 10
62.7327921892
 20
214.8560714763
 30
0.0
  0
SEQEND
  5
58F
  8
0
  6
CONTINUOUS
 62
     7
  0
LINE
  5
12F
  8
0
  6
CONTINUOUS
 62
     7
 10
61.7327931429
 20
213.8560724299
 30
0.0
 11
13.3327904249
 21
213.8560724299
 31
0.0
  0
LINE
  5
130
  8
0
  6
CONTINUOUS
 62
     7
 10
12.9327955748
 20
214.2560732406
 30
0.0
 11
12.9327955748
 21
214.8560714763
 31
0.0
  0
ARC
  5
131
  8
0
  6
CONTINUOUS
 62
     7
 10
13.332794335
 20
214.2560714286
 30
0.0
 40
0.4000000000000341
 50
180.0
 51
270.0
  0
LINE
  5
132
  8
0
  6
CONTINUOUS
 62
     7
 10
12.9327955748
 20
222.8560698073
 30
0.0
 11
12.9327955748
 21
223.4560740035
 31
0.0
  0
ARC
  5
133
  8
0
  6
CONTINUOUS
 62
     7
 10
13.332794335
 20
223.4560714286
 30
0.0
 40
0.4000000000000057
 50
90.0
 51
180.0
  0
LINE
  5
134
  8
0
  6
CONTINUOUS
 62
     7
 10
13.3327904249
 20
223.8560688537
 30
0.0
 11
15.7327952886
 21
223.8560688537
 31
0.0
  0
LINE
  5
135
  8
0
  6
CONTINUOUS
 62
     7
 10
27.7327957655
 20
223.8560688537
 30
0.0
 11
39.2327967192
 21
223.8560688537
 31
0.0
  0
LINE
  5
136
  8
0
  6
CONTINUOUS
 62
     7
 10
49.2327931429
 20
223.8560688537
 30
0.0
 11
114.2327937389
 21
223.8560688537
 31
0.0
  0
LINE
  5
137
  8
0
  6
CONTINUOUS
 62
     7
 10
124.232794633
 20
223.8560688537
 30
0.0
 11
135.7327944691
 21
223.8560688537
 31
0.0
  0
LINE
  5
138
  8
0
  6
CONTINUOUS
 62
     7
 10
147.7327942009
 20
223.8560688537
 30
0.0
 11
159.232794037
 21
223.8560688537
 31
0.0
  0
LINE
  5
139
  8
0
  6
CONTINUOUS
 62
     7
 10
169.232794931
 20
223.8560688537
 30
0.0
 11
234.2327955271
 21
223.8560688537
 31
0.0
  0
LINE
  5
13A
  8
0
  6
CONTINUOUS
 62
     7
 10
244.2327919508
 20
223.8560688537
 30
0.0
 11
255.7327929045
 21
223.8560688537
 31
0.0
  0
LINE
  5
13B
  8
0
  6
CONTINUOUS
 62
     7
 10
267.7327933813
 20
223.8560688537
 30
0.0
 11
270.132798245
 21
223.8560688537
 31
0.0
  0
POLYLINE
  5
13C
  8
0
  6
CONTINUOUS
 62
     7
 66
     1
 10
0.0
 20
0.0
 30
0.0
  0
VERTEX
  5
446
  8
0
  6
CONTINUOUS
 62
     7
 10
221.7327955271
 20
213.8560724299
 30
0.0
  0
VERTEX
  5
447
  8
0
  6
CONTINUOUS
 62
     7
 10
221.7135789896
 20
213.8752889674
 30
0.0
  0
VERTEX
  5
448
  8
0
  6
CONTINUOUS
 62
     7
 10
221.6566744352
 20
213.9321935218
 30
0.0
  0
VERTEX
  5
449
  8
0
  6
CONTINUOUS
 62
     7
 10
221.564263394
 20
214.024604563
 30
0.0
  0
VERTEX
  5
44A
  8
0
  6
CONTINUOUS
 62
     7
 10
221.4398983026
 20
214.1489636939
 30
0.0
  0
VERTEX
  5
44B
  8
0
  6
CONTINUOUS
 62
     7
 10
221.2883654142
 20
214.3005025428
 30
0.0
  0
VERTEX
  5
44C
  8
0
  6
CONTINUOUS
 62
     7
 10
221.1154761816
 20
214.4733858149
 30
0.0
  0
VERTEX
  5
44D
  8
0
  6
CONTINUOUS
 62
     7
 10
220.9278824831
 20
214.6609795134
 30
0.0
  0
VERTEX
  5
44E
  8
0
  6
CONTINUOUS
 62
     7
 10
220.7327964807
 20
214.8560714763
 30
0.0
  0
SEQEND
  5
58E
  8
0
  6
CONTINUOUS
 62
     7
  0
LINE
  5
13D
  8
0
  6
CONTINUOUS
 62
     7
 10
221.7327955271
 20
213.8560724299
 30
0.0
 11
221.7327955271
 21
149.856071439
 31
0.0
  0
POLYLINE
  5
13E
  8
0
  6
CONTINUOUS
 62
     7
 66
     1
 10
0.0
 20
0.0
 30
0.0
  0
VERTEX
  5
44F
  8
0
  6
CONTINUOUS
 62
     7
 10
212.7327921892
 20
214.8560714763
 30
0.0
  0
VERTEX
  5
450
  8
0
  6
CONTINUOUS
 62
     7
 10
212.5377061869
 20
214.6609795134
 30
0.0
  0
VERTEX
  5
451
  8
0
  6
CONTINUOUS
 62
     7
 10
212.3501124884
 20
214.4733858149
 30
0.0
  0
VERTEX
  5
452
  8
0
  6
CONTINUOUS
 62
     7
 10
212.1772232557
 20
214.3005025428
 30
0.0
  0
VERTEX
  5
453
  8
0
  6
CONTINUOUS
 62
     7
 10
212.0256903673
 20
214.1489636939
 30
0.0
  0
VERTEX
  5
454
  8
0
  6
CONTINUOUS
 62
     7
 10
211.901325276
 20
214.024604563
 30
0.0
  0
VERTEX
  5
455
  8
0
  6
CONTINUOUS
 62
     7
 10
211.8089142347
 20
213.9321935218
 30
0.0
  0
VERTEX
  5
456
  8
0
  6
CONTINUOUS
 62
     7
 10
211.7520096804
 20
213.8752889674
 30
0.0
  0
VERTEX
  5
457
  8
0
  6
CONTINUOUS
 62
     7
 10
211.7327931429
 20
213.8560724299
 30
0.0
  0
SEQEND
  5
58D
  8
0
  6
CONTINUOUS
 62
     7
  0
LINE
  5
13F
  8
0
  6
CONTINUOUS
 62
     7
 10
211.7327931429
 20
213.8560724299
 30
0.0
 11
71.7327955271
 21
213.8560724299
 31
0.0
  0
POLYLINE
  5
140
  8
0
  6
CONTINUOUS
 62
     7
 66
     1
 10
0.0
 20
0.0
 30
0.0
  0
VERTEX
  5
458
  8
0
  6
CONTINUOUS
 62
     7
 10
70.7327964807
 20
214.8560714763
 30
0.0
  0
VERTEX
  5
459
  8
0
  6
CONTINUOUS
 62
     7
 10
70.9278824831
 20
214.6609795134
 30
0.0
  0
VERTEX
  5
45A
  8
0
  6
CONTINUOUS
 62
     7
 10
71.1154761816
 20
214.4733858149
 30
0.0
  0
VERTEX
  5
45B
  8
0
  6
CONTINUOUS
 62
     7
 10
71.2883654142
 20
214.3005025428
 30
0.0
  0
VERTEX
  5
45C
  8
0
  6
CONTINUOUS
 62
     7
 10
71.4398983026
 20
214.1489636939
 30
0.0
  0
VERTEX
  5
45D
  8
0
  6
CONTINUOUS
 62
     7
 10
71.564263394
 20
214.024604563
 30
0.0
  0
VERTEX
  5
45E
  8
0
  6
CONTINUOUS
 62
     7
 10
71.6566744352
 20
213.9321935218
 30
0.0
  0
VERTEX
  5
45F
  8
0
  6
CONTINUOUS
 62
     7
 10
71.7135789896
 20
213.8752889674
 30
0.0
  0
VERTEX
  5
460
  8
0
  6
CONTINUOUS
 62
     7
 10
71.7327955271
 20
213.8560724299
 30
0.0
  0
SEQEND
  5
58C
  8
0
  6
CONTINUOUS
 62
     7
  0
LINE
  5
141
  8
0
  6
CONTINUOUS
 62
     7
 10
270.5327930952
 20
214.8560714763
 30
0.0
 11
270.5327930952
 21
214.2560732406
 31
0.0
  0
ARC
  5
142
  8
0
  6
CONTINUOUS
 62
     7
 10
270.132794335
 20
214.2560714286
 30
0.0
 40
0.4000000000000341
 50
270.0
 51
0.0
  0
LINE
  5
143
  8
0
  6
CONTINUOUS
 62
     7
 10
270.5327930952
 20
222.8560698073
 30
0.0
 11
270.5327930952
 21
214.8560714763
 31
0.0
  0
LINE
  5
144
  8
0
  6
CONTINUOUS
 62
     7
 10
12.9327955748
 20
214.8560714763
 30
0.0
 11
12.9327955748
 21
222.8560698073
 31
0.0
  0
LINE
  5
145
  8
0
  6
CONTINUOUS
 62
     7
 10
61.7327931429
 20
149.856071439
 30
0.0
 11
61.7327931429
 21
213.8560724299
 31
0.0
  0
LINE
  5
146
  8
0
  6
CONTINUOUS
 62
     7
 10
211.7327931429
 20
149.856071439
 30
0.0
 11
211.7327931429
 21
213.8560724299
 31
0.0
  0
LINE
  5
147
  8
0
  6
CONTINUOUS
 62
     7
 10
270.132798245
 20
213.8560724299
 30
0.0
 11
221.7327955271
 21
213.8560724299
 31
0.0
  0
LINE
  5
148
  8
0
  6
CONTINUOUS
 62
     7
 10
71.7327955271
 20
213.8560724299
 30
0.0
 11
71.7327955271
 21
149.856071439
 31
0.0
  0
POLYLINE
  5
149
  8
0
  6
CONTINUOUS
 62
     7
 66
     1
 10
0.0
 20
0.0
 30
0.0
  0
VERTEX
  5
461
  8
0
  6
CONTINUOUS
 62
     7
 10
393.3260575165
 20
238.2843744796
 30
0.0
  0
VERTEX
  5
462
  8
0
  6
CONTINUOUS
 62
     7
 10
395.1100722183
 20
238.3806002181
 30
0.0
  0
VERTEX
  5
463
  8
0
  6
CONTINUOUS
 62
     7
 10
397.5311652054
 20
238.5249388259
 30
0.0
  0
VERTEX
  5
464
  8
0
  6
CONTINUOUS
 62
     7
 10
398.7228527893
 20
238.5148417991
 30
0.0
  0
VERTEX
  5
465
  8
0
  6
CONTINUOUS
 62
     7
 10
399.8726621498
 20
238.3652877848
 30
0.0
  0
VERTEX
  5
466
  8
0
  6
CONTINUOUS
 62
     7
 10
400.9635582794
 20
238.0276453536
 30
0.0
  0
VERTEX
  5
467
  8
0
  6
CONTINUOUS
 62
     7
 10
402.0005241264
 20
237.5188660663
 30
0.0
  0
VERTEX
  5
468
  8
0
  6
CONTINUOUS
 62
     7
 10
403.3179000248
 20
236.6334450286
 30
0.0
  0
VERTEX
  5
469
  8
0
  6
CONTINUOUS
 62
     7
 10
404.5841470589
 20
235.5857682269
 30
0.0
  0
VERTEX
  5
46A
  8
0
  6
CONTINUOUS
 62
     7
 10
405.8248296608
 20
234.4569575827
 30
0.0
  0
SEQEND
  5
58B
  8
0
  6
CONTINUOUS
 62
     7
  0
LINE
  5
14A
  8
0
  6
CONTINUOUS
 62
     7
 10
405.8250680794
 20
234.4706249278
 30
0.0
 11
405.8531061043
 21
236.0766422789
 31
0.0
  0
LINE
  5
14B
  8
0
  6
CONTINUOUS
 62
     7
 10
393.3260575165
 20
240.1588571112
 30
0.0
 11
379.7260537971
 21
240.1588571112
 31
0.0
  0
LINE
  5
14C
  8
0
  6
CONTINUOUS
 62
     7
 10
374.3260547747
 20
240.1588571112
 30
0.0
 11
332.191525795
 21
240.1588571112
 31
0.0
  0
LINE
  5
14D
  8
0
  6
CONTINUOUS
 62
     7
 10
329.7260552873
 20
224.6560704749
 30
0.0
 11
329.7260552873
 21
249.6560704749
 31
0.0
  0
LINE
  5
14E
  8
0
  6
CONTINUOUS
 62
     7
 10
324.3260553335
 20
249.6560704749
 30
0.0
 11
324.3260553335
 21
224.6560704749
 31
0.0
  0
ARC
  5
14F
  8
0
  6
CONTINUOUS
 62
     7
 10
342.0260553707
 20
249.6560714286
 30
0.0
 40
12.30000000000001
 50
90.0
 51
180.0
  0
ARC
  5
150
  8
0
  6
CONTINUOUS
 62
     7
 10
342.0260553707
 20
249.6560714286
 30
0.0
 40
17.70000000000002
 50
90.0
 51
180.0
  0
LINE
  5
151
  8
0
  6
CONTINUOUS
 62
     7
 10
333.0260552694
 20
215.3560709994
 30
0.0
 11
362.02605518
 21
215.3560709994
 31
0.0
  0
LINE
  5
152
  8
0
  6
CONTINUOUS
 62
     7
 10
362.02605518
 20
220.7560730021
 30
0.0
 11
333.0260552694
 21
220.7560730021
 31
0.0
  0
LINE
  5
153
  8
0
  6
CONTINUOUS
 62
     7
 10
362.02605518
 20
267.3560750525
 30
0.0
 11
342.0260548819
 21
267.3560750525
 31
0.0
  0
LINE
  5
154
  8
0
  6
CONTINUOUS
 62
     7
 10
342.0260548819
 20
261.9560730498
 30
0.0
 11
362.02605518
 21
261.9560730498
 31
0.0
  0
ARC
  5
155
  8
0
  6
CONTINUOUS
 62
     7
 10
362.0260553707
 20
233.0560714286
 30
0.0
 40
12.30000000000001
 50
270.0
 51
0.0
  0
ARC
  5
156
  8
0
  6
CONTINUOUS
 62
     7
 10
362.0260553707
 20
233.0560714286
 30
0.0
 40
17.69999999999999
 50
270.0
 51
0.0
  0
ARC
  5
157
  8
0
  6
CONTINUOUS
 62
     7
 10
362.0260553707
 20
249.6560714286
 30
0.0
 40
12.29999999999998
 50
0.0
 51
90.0
  0
ARC
  5
158
  8
0
  6
CONTINUOUS
 62
     7
 10
362.0260553707
 20
249.6560714286
 30
0.0
 40
17.70000000000002
 50
360.0
 51
90.0
  0
LINE
  5
159
  8
0
  6
CONTINUOUS
 62
     7
 10
379.7260537971
 20
233.0560696166
 30
0.0
 11
379.7260537971
 21
249.6560704749
 31
0.0
  0
LINE
  5
15A
  8
0
  6
CONTINUOUS
 62
     7
 10
374.3260547747
 20
249.6560704749
 30
0.0
 11
374.3260547747
 21
233.0560696166
 31
0.0
  0
LINE
  5
15B
  8
0
  6
CONTINUOUS
 62
     7
 10
338.2817797591
 20
240.7246780436
 30
0.0
 11
337.0695121814
 21
240.1588571112
 31
0.0
  0
POLYLINE
  5
15C
  8
0
  6
CONTINUOUS
 62
     7
 66
     1
 10
0.0
 20
0.0
 30
0.0
  0
VERTEX
  5
46B
  8
0
  6
CONTINUOUS
 62
     7
 10
342.914471053
 20
241.3559687178
 30
0.0
  0
VERTEX
  5
46C
  8
0
  6
CONTINUOUS
 62
     7
 10
341.781991743
 20
241.3479459327
 30
0.0
  0
VERTEX
  5
46D
  8
0
  6
CONTINUOUS
 62
     7
 10
340.7033130754
 20
241.2776958983
 30
0.0
  0
VERTEX
  5
46E
  8
0
  6
CONTINUOUS
 62
     7
 10
339.7694826354
 20
241.1498200934
 30
0.0
  0
VERTEX
  5
46F
  8
0
  6
CONTINUOUS
 62
     7
 10
338.9556884993
 20
240.9650456946
 30
0.0
  0
VERTEX
  5
470
  8
0
  6
CONTINUOUS
 62
     7
 10
338.2817797591
 20
240.7246780436
 30
0.0
  0
SEQEND
  5
58A
  8
0
  6
CONTINUOUS
 62
     7
  0
POLYLINE
  5
15D
  8
0
  6
CONTINUOUS
 62
     7
 66
     1
 10
0.0
 20
0.0
 30
0.0
  0
VERTEX
  5
471
  8
0
  6
CONTINUOUS
 62
     7
 10
345.9351942171
 20
241.3032186072
 30
0.0
  0
VERTEX
  5
472
  8
0
  6
CONTINUOUS
 62
     7
 10
344.4248303999
 20
241.3296055835
 30
0.0
  0
VERTEX
  5
473
  8
0
  6
CONTINUOUS
 62
     7
 10
342.914471053
 20
241.3559687178
 30
0.0
  0
SEQEND
  5
589
  8
0
  6
CONTINUOUS
 62
     7
  0
POLYLINE
  5
15E
  8
0
  6
CONTINUOUS
 62
     7
 66
     1
 10
0.0
 20
0.0
 30
0.0
  0
VERTEX
  5
474
  8
0
  6
CONTINUOUS
 62
     7
 10
350.9344324697
 20
241.2159514468
 30
0.0
  0
VERTEX
  5
475
  8
0
  6
CONTINUOUS
 62
     7
 10
348.4312907089
 20
241.2526798289
 30
0.0
  0
VERTEX
  5
476
  8
0
  6
CONTINUOUS
 62
     7
 10
345.940826856
 20
241.3030695956
 30
0.0
  0
SEQEND
  5
588
  8
0
  6
CONTINUOUS
 62
     7
  0
LINE
  5
15F
  8
0
  6
CONTINUOUS
 62
     7
 10
350.9605527152
 20
241.2154984515
 30
0.0
 11
350.9344324697
 21
241.2159514468
 31
0.0
  0
POLYLINE
  5
160
  8
0
  6
CONTINUOUS
 62
     7
 66
     1
 10
0.0
 20
0.0
 30
0.0
  0
VERTEX
  5
477
  8
0
  6
CONTINUOUS
 62
     7
 10
355.9677526583
 20
241.1280822795
 30
0.0
  0
VERTEX
  5
478
  8
0
  6
CONTINUOUS
 62
     7
 10
353.4640059103
 20
241.1720705073
 30
0.0
  0
VERTEX
  5
479
  8
0
  6
CONTINUOUS
 62
     7
 10
350.9605854978
 20
241.2154984515
 30
0.0
  0
SEQEND
  5
587
  8
0
  6
CONTINUOUS
 62
     7
  0
LINE
  5
161
  8
0
  6
CONTINUOUS
 62
     7
 10
357.8184589971
 20
241.0885465186
 30
0.0
 11
355.9677675594
 21
241.1280047934
 31
0.0
  0
LINE
  5
162
  8
0
  6
CONTINUOUS
 62
     7
 10
365.9321502079
 20
240.954167847
 30
0.0
 11
357.8184589971
 21
241.0885465186
 31
0.0
  0
POLYLINE
  5
163
  8
0
  6
CONTINUOUS
 62
     7
 66
     1
 10
0.0
 20
0.0
 30
0.0
  0
VERTEX
  5
47A
  8
0
  6
CONTINUOUS
 62
     7
 10
374.3260547747
 20
240.809429888
 30
0.0
  0
VERTEX
  5
47B
  8
0
  6
CONTINUOUS
 62
     7
 10
369.1040262808
 20
240.9064066451
 30
0.0
  0
VERTEX
  5
47C
  8
0
  6
CONTINUOUS
 62
     7
 10
365.9321621288
 20
240.954167847
 30
0.0
  0
SEQEND
  5
586
  8
0
  6
CONTINUOUS
 62
     7
  0
POLYLINE
  5
164
  8
0
  6
CONTINUOUS
 62
     7
 66
     1
 10
0.0
 20
0.0
 30
0.0
  0
VERTEX
  5
47D
  8
0
  6
CONTINUOUS
 62
     7
 10
385.9298959602
 20
240.6051290076
 30
0.0
  0
VERTEX
  5
47E
  8
0
  6
CONTINUOUS
 62
     7
 10
380.9313610424
 20
240.6499695819
 30
0.0
  0
VERTEX
  5
47F
  8
0
  6
CONTINUOUS
 62
     7
 10
379.7260537971
 20
240.6812262576
 30
0.0
  0
SEQEND
  5
585
  8
0
  6
CONTINUOUS
 62
     7
  0
POLYLINE
  5
165
  8
0
  6
CONTINUOUS
 62
     7
 66
     1
 10
0.0
 20
0.0
 30
0.0
  0
VERTEX
  5
480
  8
0
  6
CONTINUOUS
 62
     7
 10
397.5855782856
 20
240.1869487803
 30
0.0
  0
VERTEX
  5
481
  8
0
  6
CONTINUOUS
 62
     7
 10
397.560252272
 20
240.1916456263
 30
0.0
  0
VERTEX
  5
482
  8
0
  6
CONTINUOUS
 62
     7
 10
395.1472416748
 20
240.5101430457
 30
0.0
  0
VERTEX
  5
483
  8
0
  6
CONTINUOUS
 62
     7
 10
392.7587762703
 20
240.6493854564
 30
0.0
  0
VERTEX
  5
484
  8
0
  6
CONTINUOUS
 62
     7
 10
390.3928593029
 20
240.6727504771
 30
0.0
  0
VERTEX
  5
485
  8
0
  6
CONTINUOUS
 62
     7
 10
388.0380347599
 20
240.6380724948
 30
0.0
  0
VERTEX
  5
486
  8
0
  6
CONTINUOUS
 62
     7
 10
385.9298959602
 20
240.605146889
 30
0.0
  0
SEQEND
  5
584
  8
0
  6
CONTINUOUS
 62
     7
  0
ARC
  5
166
  8
0
  6
CONTINUOUS
 62
     7
 10
395.3499172134
 20
227.8995623367
 30
0.0
 40
12.48911710425675
 50
43.7647639822
 51
79.6879731616
  0
POLYLINE
  5
167
  8
0
  6
CONTINUOUS
 62
     7
 66
     1
 10
0.0
 20
0.0
 30
0.0
  0
VERTEX
  5
487
  8
0
  6
CONTINUOUS
 62
     7
 10
405.8157161106
 20
234.4707858603
 30
0.0
  0
VERTEX
  5
488
  8
0
  6
CONTINUOUS
 62
     7
 10
405.8182791103
 20
234.4669413607
 30
0.0
  0
VERTEX
  5
489
  8
0
  6
CONTINUOUS
 62
     7
 10
405.7495728363
 20
234.5706117194
 30
0.0
  0
VERTEX
  5
48A
  8
0
  6
CONTINUOUS
 62
     7
 10
405.6056097378
 20
234.7865474265
 30
0.0
  0
VERTEX
  5
48B
  8
0
  6
CONTINUOUS
 62
     7
 10
405.3867534031
 20
235.1103019755
 30
0.0
  0
VERTEX
  5
48C
  8
0
  6
CONTINUOUS
 62
     7
 10
404.9519792427
 20
235.7368540805
 30
0.0
  0
VERTEX
  5
48D
  8
0
  6
CONTINUOUS
 62
     7
 10
404.3693796028
 20
236.5382742923
 30
0.0
  0
SEQEND
  5
583
  8
0
  6
CONTINUOUS
 62
     7
  0
POLYLINE
  5
168
  8
0
  6
CONTINUOUS
 62
     7
 66
     1
 10
0.0
 20
0.0
 30
0.0
  0
VERTEX
  5
48E
  8
0
  6
CONTINUOUS
 62
     7
 10
397.5193098415
 20
241.4128494304
 30
0.0
  0
VERTEX
  5
48F
  8
0
  6
CONTINUOUS
 62
     7
 10
398.6674145092
 20
241.1736202281
 30
0.0
  0
VERTEX
  5
490
  8
0
  6
CONTINUOUS
 62
     7
 10
399.7693911423
 20
240.8527863067
 30
0.0
  0
VERTEX
  5
491
  8
0
  6
CONTINUOUS
 62
     7
 10
400.7898822655
 20
240.4528093379
 30
0.0
  0
VERTEX
  5
492
  8
0
  6
CONTINUOUS
 62
     7
 10
401.712657534
 20
239.9953377288
 30
0.0
  0
VERTEX
  5
493
  8
0
  6
CONTINUOUS
 62
     7
 10
402.5703147282
 20
239.4825172465
 30
0.0
  0
VERTEX
  5
494
  8
0
  6
CONTINUOUS
 62
     7
 10
403.2901779045
 20
238.9844965976
 30
0.0
  0
VERTEX
  5
495
  8
0
  6
CONTINUOUS
 62
     7
 10
403.7965610851
 20
238.5923636
 30
0.0
  0
VERTEX
  5
496
  8
0
  6
CONTINUOUS
 62
     7
 10
404.1665032734
 20
238.2756304782
 30
0.0
  0
VERTEX
  5
497
  8
0
  6
CONTINUOUS
 62
     7
 10
404.3153360714
 20
238.1341946166
 30
0.0
  0
VERTEX
  5
498
  8
0
  6
CONTINUOUS
 62
     7
 10
404.4058636059
 20
238.0350244086
 30
0.0
  0
SEQEND
  5
582
  8
0
  6
CONTINUOUS
 62
     7
  0
POLYLINE
  5
169
  8
0
  6
CONTINUOUS
 62
     7
 66
     1
 10
0.0
 20
0.0
 30
0.0
  0
VERTEX
  5
499
  8
0
  6
CONTINUOUS
 62
     7
 10
338.1145708491
 20
241.8708455603
 30
0.0
  0
VERTEX
  5
49A
  8
0
  6
CONTINUOUS
 62
     7
 10
338.6979893078
 20
242.0884919207
 30
0.0
  0
VERTEX
  5
49B
  8
0
  6
CONTINUOUS
 62
     7
 10
339.4677654137
 20
242.278302912
 30
0.0
  0
VERTEX
  5
49C
  8
0
  6
CONTINUOUS
 62
     7
 10
340.3579935659
 20
242.4162757438
 30
0.0
  0
VERTEX
  5
49D
  8
0
  6
CONTINUOUS
 62
     7
 10
341.3927167882
 20
242.5001990836
 30
0.0
  0
VERTEX
  5
49E
  8
0
  6
CONTINUOUS
 62
     7
 10
342.0643314947
 20
242.5209534209
 30
0.0
  0
VERTEX
  5
49F
  8
0
  6
CONTINUOUS
 62
     7
 10
342.7694440116
 20
242.5195288699
 30
0.0
  0
SEQEND
  5
581
  8
0
  6
CONTINUOUS
 62
     7
  0
ARC
  5
16A
  8
0
  6
CONTINUOUS
 62
     7
 10
384.7065375001
 20
142.0167731911
 30
0.0
 40
110.1891425011284
 50
115.0137833831
 51
117.0477933463
  0
POLYLINE
  5
16B
  8
0
  6
CONTINUOUS
 62
     7
 66
     1
 10
0.0
 20
0.0
 30
0.0
  0
VERTEX
  5
4A0
  8
0
  6
CONTINUOUS
 62
     7
 10
405.8416441311
 20
236.0768389743
 30
0.0
  0
VERTEX
  5
4A1
  8
0
  6
CONTINUOUS
 62
     7
 10
405.8474555839
 20
236.0682976287
 30
0.0
  0
VERTEX
  5
4A2
  8
0
  6
CONTINUOUS
 62
     7
 10
405.7629242767
 20
236.191571955
 30
0.0
  0
VERTEX
  5
4A3
  8
0
  6
CONTINUOUS
 62
     7
 10
405.5759266247
 20
236.4603412192
 30
0.0
  0
VERTEX
  5
4A4
  8
0
  6
CONTINUOUS
 62
     7
 10
405.3691104282
 20
236.7523562949
 30
0.0
  0
VERTEX
  5
4A5
  8
0
  6
CONTINUOUS
 62
     7
 10
405.1052585472
 20
237.1162545722
 30
0.0
  0
VERTEX
  5
4A6
  8
0
  6
CONTINUOUS
 62
     7
 10
404.7839954723
 20
237.5464749377
 30
0.0
  0
VERTEX
  5
4A7
  8
0
  6
CONTINUOUS
 62
     7
 10
404.4058636059
 20
238.0350244086
 30
0.0
  0
SEQEND
  5
580
  8
0
  6
CONTINUOUS
 62
     7
  0
POLYLINE
  5
16C
  8
0
  6
CONTINUOUS
 62
     7
 66
     1
 10
0.0
 20
0.0
 30
0.0
  0
VERTEX
  5
4A8
  8
0
  6
CONTINUOUS
 62
     7
 10
397.5193098415
 20
241.4128553908
 30
0.0
  0
VERTEX
  5
4A9
  8
0
  6
CONTINUOUS
 62
     7
 10
395.12228521
 20
241.7091918033
 30
0.0
  0
VERTEX
  5
4AA
  8
0
  6
CONTINUOUS
 62
     7
 10
392.7825942863
 20
241.8394756358
 30
0.0
  0
VERTEX
  5
4AB
  8
0
  6
CONTINUOUS
 62
     7
 10
390.4881909717
 20
241.8627214473
 30
0.0
  0
VERTEX
  5
4AC
  8
0
  6
CONTINUOUS
 62
     7
 10
388.2303193439
 20
241.8308210414
 30
0.0
  0
VERTEX
  5
4AD
  8
0
  6
CONTINUOUS
 62
     7
 10
385.9997883667
 20
241.794474129
 30
0.0
  0
VERTEX
  5
4AE
  8
0
  6
CONTINUOUS
 62
     7
 10
383.7723508705
 20
241.7930734198
 30
0.0
  0
VERTEX
  5
4AF
  8
0
  6
CONTINUOUS
 62
     7
 10
381.5314486851
 20
241.824926142
 30
0.0
  0
VERTEX
  5
4B0
  8
0
  6
CONTINUOUS
 62
     7
 10
379.7260537971
 20
241.8690216582
 30
0.0
  0
SEQEND
  5
57F
  8
0
  6
CONTINUOUS
 62
     7
  0
POLYLINE
  5
16D
  8
0
  6
CONTINUOUS
 62
     7
 66
     1
 10
0.0
 20
0.0
 30
0.0
  0
VERTEX
  5
4B1
  8
0
  6
CONTINUOUS
 62
     7
 10
374.3260547747
 20
241.9935298007
 30
0.0
  0
VERTEX
  5
4B2
  8
0
  6
CONTINUOUS
 62
     7
 10
369.1214487184
 20
242.0822155516
 30
0.0
  0
VERTEX
  5
4B3
  8
0
  6
CONTINUOUS
 62
     7
 10
365.8239320148
 20
242.1290767234
 30
0.0
  0
VERTEX
  5
4B4
  8
0
  6
CONTINUOUS
 62
     7
 10
362.5236645569
 20
242.1819281619
 30
0.0
  0
VERTEX
  5
4B5
  8
0
  6
CONTINUOUS
 62
     7
 10
359.2228427757
 20
242.2394824069
 30
0.0
  0
VERTEX
  5
4B6
  8
0
  6
CONTINUOUS
 62
     7
 10
355.9246525396
 20
242.2979128402
 30
0.0
  0
VERTEX
  5
4B7
  8
0
  6
CONTINUOUS
 62
     7
 10
352.6294693579
 20
242.3545253318
 30
0.0
  0
VERTEX
  5
4B8
  8
0
  6
CONTINUOUS
 62
     7
 10
349.3373289932
 20
242.4102556746
 30
0.0
  0
VERTEX
  5
4B9
  8
0
  6
CONTINUOUS
 62
     7
 10
346.0610538949
 20
242.4647939246
 30
0.0
  0
VERTEX
  5
4BA
  8
0
  6
CONTINUOUS
 62
     7
 10
342.769449972
 20
242.5196063559
 30
0.0
  0
SEQEND
  5
57E
  8
0
  6
CONTINUOUS
 62
     7
  0
POLYLINE
  5
16E
  8
0
  6
CONTINUOUS
 62
     7
 66
     1
 10
0.0
 20
0.0
 30
0.0
  0
VERTEX
  5
4BB
  8
0
  6
CONTINUOUS
 62
     7
 10
379.7260537971
 20
240.7048773806
 30
0.0
  0
VERTEX
  5
4BC
  8
0
  6
CONTINUOUS
 62
     7
 10
382.1333244671
 20
240.6469714682
 30
0.0
  0
VERTEX
  5
4BD
  8
0
  6
CONTINUOUS
 62
     7
 10
385.9298959602
 20
240.605146889
 30
0.0
  0
SEQEND
  5
57D
  8
0
  6
CONTINUOUS
 62
     7
  0
POLYLINE
  5
16F
  8
0
  6
CONTINUOUS
 62
     7
 66
     1
 10
0.0
 20
0.0
 30
0.0
  0
VERTEX
  5
4BE
  8
0
  6
CONTINUOUS
 62
     7
 10
357.8206226458
 20
241.2124109309
 30
0.0
  0
VERTEX
  5
4BF
  8
0
  6
CONTINUOUS
 62
     7
 10
360.2290079225
 20
241.2701797526
 30
0.0
  0
VERTEX
  5
4C0
  8
0
  6
CONTINUOUS
 62
     7
 10
363.0867138733
 20
241.1415827315
 30
0.0
  0
VERTEX
  5
4C1
  8
0
  6
CONTINUOUS
 62
     7
 10
365.9321800102
 20
240.954656605
 30
0.0
  0
SEQEND
  5
57C
  8
0
  6
CONTINUOUS
 62
     7
  0
LINE
  5
170
  8
0
  6
CONTINUOUS
 62
     7
 10
355.9677675594
 20
241.1280584376
 30
0.0
 11
357.8206226458
 21
241.2124109309
 31
0.0
  0
POLYLINE
  5
171
  8
0
  6
CONTINUOUS
 62
     7
 66
     1
 10
0.0
 20
0.0
 30
0.0
  0
VERTEX
  5
4C2
  8
0
  6
CONTINUOUS
 62
     7
 10
345.940826856
 20
241.3031172793
 30
0.0
  0
VERTEX
  5
4C3
  8
0
  6
CONTINUOUS
 62
     7
 10
347.1205875505
 20
241.3862776797
 30
0.0
  0
VERTEX
  5
4C4
  8
0
  6
CONTINUOUS
 62
     7
 10
348.3150869836
 20
241.3797152083
 30
0.0
  0
VERTEX
  5
4C5
  8
0
  6
CONTINUOUS
 62
     7
 10
349.6357307066
 20
241.3067650836
 30
0.0
  0
VERTEX
  5
4C6
  8
0
  6
CONTINUOUS
 62
     7
 10
350.9605556954
 20
241.2155699771
 30
0.0
  0
SEQEND
  5
57B
  8
0
  6
CONTINUOUS
 62
     7
  0
LINE
  5
172
  8
0
  6
CONTINUOUS
 62
     7
 10
331.8260554452
 20
223.4560740035
 30
0.0
 11
331.8260554452
 21
222.8560698073
 31
0.0
  0
ARC
  5
173
  8
0
  6
CONTINUOUS
 62
     7
 10
331.4260553707
 20
223.4560714286
 30
0.0
 40
0.3999999999999773
 50
0.0
 51
90.0
  0
LINE
  5
174
  8
0
  6
CONTINUOUS
 62
     7
 10
321.8260552962
 20
214.056069855
 30
0.0
 11
321.2260551979
 21
214.056069855
 31
0.0
  0
LINE
  5
175
  8
0
  6
CONTINUOUS
 62
     7
 10
321.2260551979
 20
214.056069855
 30
0.0
 11
321.2260551979
 21
214.8560714763
 31
0.0
  0
LINE
  5
176
  8
0
  6
CONTINUOUS
 62
     7
 10
321.8260552962
 20
214.8560714763
 30
0.0
 11
321.8260552962
 21
214.056069855
 31
0.0
  0
LINE
  5
177
  8
0
  6
CONTINUOUS
 62
     7
 10
332.4260555436
 20
214.056069855
 30
0.0
 11
331.8260554452
 21
214.056069855
 31
0.0
  0
LINE
  5
178
  8
0
  6
CONTINUOUS
 62
     7
 10
331.8260554452
 20
214.056069855
 30
0.0
 11
331.8260554452
 21
214.8560714763
 31
0.0
  0
LINE
  5
179
  8
0
  6
CONTINUOUS
 62
     7
 10
332.4260555436
 20
214.8560714763
 30
0.0
 11
332.4260555436
 21
214.056069855
 31
0.0
  0
ARC
  5
17A
  8
0
  6
CONTINUOUS
 62
     7
 10
391.3260553707
 20
237.9077015468
 30
0.0
 40
2.0
 50
280.7804509646
 51
0.0
  0
ARC
  5
17B
  8
0
  6
CONTINUOUS
 62
     7
 10
316.8816868135
 20
628.8834501427
 30
0.0
 40
400.0000000000003
 50
274.5077079787
 51
278.256844918
  0
ARC
  5
17C
  8
0
  6
CONTINUOUS
 62
     7
 10
316.8816868135
 20
628.8834501427
 30
0.0
 40
400.0000000000002
 50
279.0392433502
 51
280.7804509646
  0
ARC
  5
17D
  8
0
  6
CONTINUOUS
 62
     7
 10
335.7440571929
 20
389.6258254289
 30
0.0
 40
160.0000000000002
 50
273.0746772222
 51
274.5077079787
  0
ARC
  5
17E
  8
0
  6
CONTINUOUS
 62
     7
 10
345.0233427226
 20
216.8748634632
 30
0.0
 40
12.99999999999999
 50
93.0746772222
 51
121.4611845106
  0
ARC
  5
17F
  8
0
  6
CONTINUOUS
 62
     7
 10
340.3260553707
 20
224.5518089192
 30
0.0
 40
4.000000000000057
 50
121.4611845106
 51
180.0
  0
LINE
  5
180
  8
0
  6
CONTINUOUS
 62
     7
 10
336.3260552515
 20
222.6560723822
 30
0.0
 11
336.3260552515
 21
224.5518100303
 31
0.0
  0
ARC
  5
181
  8
0
  6
CONTINUOUS
 62
     7
 10
334.3260553707
 20
222.6560714286
 30
0.0
 40
2.0
 50
288.1948723388
 51
0.0
  0
LINE
  5
182
  8
0
  6
CONTINUOUS
 62
     7
 10
320.2260554065
 20
220.6560742896
 30
0.0
 11
321.0260555376
 21
220.6560742896
 31
0.0
  0
ARC
  5
183
  8
0
  6
CONTINUOUS
 62
     7
 10
320.2260553707
 20
222.6560714286
 30
0.0
 40
2.0
 50
180.0
 51
270.0
  0
ARC
  5
184
  8
0
  6
CONTINUOUS
 62
     7
 10
336.4562304076
 20
219.4304578876
 30
0.0
 40
19.99999999999994
 50
102.5040575207
 51
109.6643105065
  0
ARC
  5
185
  8
0
  6
CONTINUOUS
 62
     7
 10
336.4562304076
 20
219.4304578876
 30
0.0
 40
19.99999999999999
 50
127.337488847
 51
148.4862321611
  0
LINE
  5
186
  8
0
  6
CONTINUOUS
 62
     7
 10
332.1260553081
 20
238.9560711425
 30
0.0
 11
332.1260553081
 21
239.1588580649
 31
0.0
  0
LINE
  5
187
  8
0
  6
CONTINUOUS
 62
     7
 10
393.3260575165
 20
239.1588580649
 30
0.0
 11
393.3260575165
 21
237.9077029269
 31
0.0
  0
LINE
  5
188
  8
0
  6
CONTINUOUS
 62
     7
 10
318.2260550786
 20
225.7029008906
 30
0.0
 11
318.2260550786
 21
222.6560723822
 31
0.0
  0
ARC
  5
189
  8
0
  6
CONTINUOUS
 62
     7
 10
326.2260553707
 20
225.7028990962
 30
0.0
 40
8.000000000000043
 50
148.4862321611
 51
180.0
  0
LINE
  5
18A
  8
0
  6
CONTINUOUS
 62
     7
 10
332.1260553081
 20
240.1509296935
 30
0.0
 11
332.1828745533
 21
240.1509296935
 31
0.0
  0
LINE
  5
18B
  8
0
  6
CONTINUOUS
 62
     7
 10
332.1828745533
 20
240.1509296935
 30
0.0
 11
332.191525795
 21
240.1528191607
 31
0.0
  0
LINE
  5
18C
  8
0
  6
CONTINUOUS
 62
     7
 10
393.3260575165
 20
240.1588571112
 30
0.0
 11
393.3260575165
 21
239.1588580649
 31
0.0
  0
LINE
  5
18D
  8
0
  6
CONTINUOUS
 62
     7
 10
332.1260553081
 20
239.1588580649
 30
0.0
 11
332.1260553081
 21
240.1509296935
 31
0.0
  0
LINE
  5
18E
  8
0
  6
CONTINUOUS
 62
     7
 10
332.2260555108
 20
223.4560740035
 30
0.0
 11
332.2260555108
 21
216.8560695689
 31
0.0
  0
ARC
  5
18F
  8
0
  6
CONTINUOUS
 62
     7
 10
331.8260553707
 20
223.4560714286
 30
0.0
 40
0.4000000000000341
 50
0.0
 51
90.0
  0
ARC
  5
190
  8
0
  6
CONTINUOUS
 62
     7
 10
322.2260553707
 20
223.4560714286
 30
0.0
 40
0.4000000000000341
 50
90.0
 51
180.0
  0
LINE
  5
191
  8
0
  6
CONTINUOUS
 62
     7
 10
321.8260552962
 20
222.8560698073
 30
0.0
 11
321.8260552962
 21
223.4560740035
 31
0.0
  0
LINE
  5
192
  8
0
  6
CONTINUOUS
 62
     7
 10
322.2260553618
 20
224.6560704749
 30
0.0
 11
331.8260554452
 21
224.6560704749
 31
0.0
  0
ARC
  5
193
  8
0
  6
CONTINUOUS
 62
     7
 10
331.8260553707
 20
223.4560714286
 30
0.0
 40
1.199999999999989
 50
0.0
 51
90.0
  0
LINE
  5
194
  8
0
  6
CONTINUOUS
 62
     7
 10
333.0260552694
 20
223.4560740035
 30
0.0
 11
333.0260552694
 21
216.8560695689
 31
0.0
  0
ARC
  5
195
  8
0
  6
CONTINUOUS
 62
     7
 10
322.2260553707
 20
223.4560714286
 30
0.0
 40
1.200000000000045
 50
90.0
 51
180.0
  0
LINE
  5
196
  8
0
  6
CONTINUOUS
 62
     7
 10
322.2260553618
 20
223.8560688537
 30
0.0
 11
322.8260554601
 21
223.8560688537
 31
0.0
  0
LINE
  5
197
  8
0
  6
CONTINUOUS
 62
     7
 10
330.8260552813
 20
223.8560688537
 30
0.0
 11
331.8260554452
 21
223.8560688537
 31
0.0
  0
LINE
  5
198
  8
0
  6
CONTINUOUS
 62
     7
 10
321.0260555376
 20
216.8560695689
 30
0.0
 11
321.0260555376
 21
223.4560740035
 31
0.0
  0
LINE
  5
199
  8
0
  6
CONTINUOUS
 62
     7
 10
321.8260552962
 20
214.8560714763
 30
0.0
 11
321.0260555376
 21
214.8560714763
 31
0.0
  0
LINE
  5
19A
  8
0
  6
CONTINUOUS
 62
     7
 10
321.0260555376
 20
214.8560714763
 30
0.0
 11
321.0260555376
 21
216.8560695689
 31
0.0
  0
LINE
  5
19B
  8
0
  6
CONTINUOUS
 62
     7
 10
333.0260552694
 20
214.8560714763
 30
0.0
 11
332.2260555108
 21
214.8560714763
 31
0.0
  0
LINE
  5
19C
  8
0
  6
CONTINUOUS
 62
     7
 10
332.2260555108
 20
214.8560714763
 30
0.0
 11
332.2260555108
 21
216.8560695689
 31
0.0
  0
LINE
  5
19D
  8
0
  6
CONTINUOUS
 62
     7
 10
333.0260552694
 20
216.8560695689
 30
0.0
 11
333.0260552694
 21
214.8560714763
 31
0.0
  0
ARC
  5
19E
  8
0
  6
CONTINUOUS
 62
     7
 10
322.8260553707
 20
222.8560714286
 30
0.0
 40
1.0
 50
90.0
 51
180.0
  0
LINE
  5
19F
  8
0
  6
CONTINUOUS
 62
     7
 10
321.8260552962
 20
214.8560714763
 30
0.0
 11
321.8260552962
 21
222.8560698073
 31
0.0
  0
LINE
  5
1A0
  8
0
  6
CONTINUOUS
 62
     7
 10
330.8260552813
 20
213.8560724299
 30
0.0
 11
322.8260554601
 21
213.8560724299
 31
0.0
  0
ARC
  5
1A1
  8
0
  6
CONTINUOUS
 62
     7
 10
322.8260553707
 20
214.8560714286
 30
0.0
 40
1.0
 50
180.0
 51
270.0
  0
LINE
  5
1A2
  8
0
  6
CONTINUOUS
 62
     7
 10
322.8260554601
 20
223.8560688537
 30
0.0
 11
330.8260552813
 21
223.8560688537
 31
0.0
  0
ARC
  5
1A3
  8
0
  6
CONTINUOUS
 62
     7
 10
330.8260553707
 20
214.8560714286
 30
0.0
 40
1.0
 50
270.0
 51
0.0
  0
LINE
  5
1A4
  8
0
  6
CONTINUOUS
 62
     7
 10
331.8260554452
 20
222.8560698073
 30
0.0
 11
331.8260554452
 21
214.8560714763
 31
0.0
  0
ARC
  5
1A5
  8
0
  6
CONTINUOUS
 62
     7
 10
330.8260553707
 20
222.8560714286
 30
0.0
 40
1.0
 50
0.0
 51
90.0
  0
LINE
  5
1A6
  8
0
  6
CONTINUOUS
 62
     7
 10
314.8260556389
 20
148.6560714286
 30
0.0
 11
314.8260556389
 21
149.856071439
 31
0.0
  0
LINE
  5
1A7
  8
0
  6
CONTINUOUS
 62
     7
 10
314.8260556389
 20
149.856071439
 30
0.0
 11
318.8260555495
 21
149.856071439
 31
0.0
  0
LINE
  5
1A8
  8
0
  6
CONTINUOUS
 62
     7
 10
318.8260555495
 20
148.6560714286
 30
0.0
 11
314.8260556389
 21
148.6560714286
 31
0.0
  0
LINE
  5
1A9
  8
0
  6
CONTINUOUS
 62
     7
 10
318.8260555495
 20
149.856071439
 30
0.0
 11
320.8260555048
 21
149.856071439
 31
0.0
  0
LINE
  5
1AA
  8
0
  6
CONTINUOUS
 62
     7
 10
318.8260555495
 20
148.6560714286
 30
0.0
 11
320.8260555048
 21
148.6560714286
 31
0.0
  0
LINE
  5
1AB
  8
0
  6
CONTINUOUS
 62
     7
 10
348.1944769849
 20
149.856071439
 30
0.0
 11
320.8260555048
 21
149.856071439
 31
0.0
  0
LINE
  5
1AC
  8
0
  6
CONTINUOUS
 62
     7
 10
320.8260555048
 20
148.6560714286
 30
0.0
 11
348.1944769849
 21
148.6560714286
 31
0.0
  0
LINE
  5
1AD
  8
0
  6
CONTINUOUS
 62
     7
 10
350.8260548343
 20
149.856071439
 30
0.0
 11
350.8260548343
 21
148.6560714286
 31
0.0
  0
LINE
  5
1AE
  8
0
  6
CONTINUOUS
 62
     7
 10
348.1944769849
 20
149.856071439
 30
0.0
 11
350.8260548343
 21
149.856071439
 31
0.0
  0
LINE
  5
1AF
  8
0
  6
CONTINUOUS
 62
     7
 10
350.8260548343
 20
148.6560714286
 30
0.0
 11
348.1944769849
 21
148.6560714286
 31
0.0
  0
LINE
  5
1B0
  8
0
  6
CONTINUOUS
 62
     7
 10
321.8260552962
 20
149.856071439
 30
0.0
 11
321.8260552962
 21
214.056069855
 31
0.0
  0
LINE
  5
1B1
  8
0
  6
CONTINUOUS
 62
     7
 10
331.8260554452
 20
214.056069855
 30
0.0
 11
331.8260554452
 21
149.856071439
 31
0.0
  0
ARC
  5
1B2
  8
0
  6
CONTINUOUS
 62
     7
 10
232.1594780664
 20
25.8749350669
 30
0.0
 40
8.130070049052065
 50
287.2567479278
 51
289.6913094466
  0
ARC
  5
1B3
  8
0
  6
CONTINUOUS
 62
     7
 10
171.4153852506
 20
26.2397498217
 30
0.0
 40
8.51073956143789
 50
250.4724682313
 51
252.7375622255
  0
ARC
  5
1B4
  8
0
  6
CONTINUOUS
 62
     7
 10
112.1594914846
 20
25.8748238848
 30
0.0
 40
8.129960244955141
 50
287.2568980878
 51
289.6914725678
  0
ARC
  5
1B5
  8
0
  6
CONTINUOUS
 62
     7
 10
51.4161048195
 20
26.2419898497
 30
0.0
 40
8.51309186616275
 50
250.4729318557
 51
252.737418923
  0
LINE
  5
1B6
  8
0
  6
CONTINUOUS
 62
     7
 10
19.0327945257
 20
95.2020246691
 30
0.0
 11
19.0327945257
 21
80.2020251673
 31
0.0
  0
LINE
  5
1B7
  8
0
  6
CONTINUOUS
 62
     7
 10
24.4327965284
 20
80.2020251673
 30
0.0
 11
24.4327965284
 21
95.2020246691
 31
0.0
  0
LINE
  5
1B8
  8
0
  6
CONTINUOUS
 62
     7
 10
24.4327965284
 20
60.2020248693
 30
0.0
 11
24.4327965284
 21
80.2020251673
 31
0.0
  0
LINE
  5
1B9
  8
0
  6
CONTINUOUS
 62
     7
 10
19.0327945257
 20
80.2020251673
 30
0.0
 11
19.0327945257
 21
60.2020248693
 31
0.0
  0
LINE
  5
1BA
  8
0
  6
CONTINUOUS
 62
     7
 10
19.0327945257
 20
60.2020248693
 30
0.0
 11
19.0327945257
 21
45.2020272535
 31
0.0
  0
LINE
  5
1BB
  8
0
  6
CONTINUOUS
 62
     7
 10
24.4327965284
 20
45.2020272535
 30
0.0
 11
24.4327965284
 21
60.2020248693
 31
0.0
  0
LINE
  5
1BC
  8
0
  6
CONTINUOUS
 62
     7
 10
139.0327942649
 20
95.2020246691
 30
0.0
 11
139.0327942649
 21
80.2020251673
 31
0.0
  0
LINE
  5
1BD
  8
0
  6
CONTINUOUS
 62
     7
 10
144.432794405
 20
80.2020251673
 30
0.0
 11
144.432794405
 21
95.2020246691
 31
0.0
  0
LINE
  5
1BE
  8
0
  6
CONTINUOUS
 62
     7
 10
144.432794405
 20
60.2020248693
 30
0.0
 11
144.432794405
 21
80.2020251673
 31
0.0
  0
LINE
  5
1BF
  8
0
  6
CONTINUOUS
 62
     7
 10
139.0327942649
 20
80.2020251673
 30
0.0
 11
139.0327942649
 21
60.2020248693
 31
0.0
  0
LINE
  5
1C0
  8
0
  6
CONTINUOUS
 62
     7
 10
139.0327942649
 20
60.2020248693
 30
0.0
 11
139.0327942649
 21
45.2020272535
 31
0.0
  0
LINE
  5
1C1
  8
0
  6
CONTINUOUS
 62
     7
 10
144.432794405
 20
45.2020272535
 30
0.0
 11
144.432794405
 21
60.2020248693
 31
0.0
  0
LINE
  5
1C2
  8
0
  6
CONTINUOUS
 62
     7
 10
259.0327921415
 20
95.2020246691
 30
0.0
 11
259.0327921415
 21
80.2020251673
 31
0.0
  0
LINE
  5
1C3
  8
0
  6
CONTINUOUS
 62
     7
 10
264.4327941442
 20
80.2020251673
 30
0.0
 11
264.4327941442
 21
95.2020246691
 31
0.0
  0
LINE
  5
1C4
  8
0
  6
CONTINUOUS
 62
     7
 10
264.4327941442
 20
60.2020248693
 30
0.0
 11
264.4327941442
 21
80.2020251673
 31
0.0
  0
LINE
  5
1C5
  8
0
  6
CONTINUOUS
 62
     7
 10
259.0327921415
 20
80.2020251673
 30
0.0
 11
259.0327921415
 21
60.2020248693
 31
0.0
  0
LINE
  5
1C6
  8
0
  6
CONTINUOUS
 62
     7
 10
259.0327921415
 20
60.2020248693
 30
0.0
 11
259.0327921415
 21
45.2020272535
 31
0.0
  0
LINE
  5
1C7
  8
0
  6
CONTINUOUS
 62
     7
 10
264.4327941442
 20
45.2020272535
 30
0.0
 11
264.4327941442
 21
60.2020248693
 31
0.0
  0
ARC
  5
1C8
  8
0
  6
CONTINUOUS
 62
     7
 10
173.610570477
 20
77.5025520826
 30
0.0
 40
7.349236256921776
 50
115.9018834053
 51
164.5640175698
  0
ARC
  5
1C9
  8
0
  6
CONTINUOUS
 62
     7
 10
201.732795229
 20
17.8132455384
 30
0.0
 40
73.33114539593407
 50
64.7052198057
 51
115.2947801943
  0
ARC
  5
1CA
  8
0
  6
CONTINUOUS
 62
     7
 10
229.8710770274
 20
77.5159169348
 30
0.0
 40
7.330204822447607
 50
15.3686942198
 51
64.1653831319
  0
POLYLINE
  5
1CB
  8
0
  6
CONTINUOUS
 62
     7
 66
     1
 10
0.0
 20
0.0
 30
0.0
  0
VERTEX
  5
4C7
  8
0
  6
CONTINUOUS
 62
     7
 10
236.9391384626
 20
79.4586300772
 30
0.0
  0
VERTEX
  5
4C8
  8
0
  6
CONTINUOUS
 62
     7
 10
237.8562036062
 20
76.1670261544
 30
0.0
  0
VERTEX
  5
4C9
  8
0
  6
CONTINUOUS
 62
     7
 10
238.4573760534
 20
72.890751056
 30
0.0
  0
VERTEX
  5
4CA
  8
0
  6
CONTINUOUS
 62
     7
 10
238.8149025942
 20
69.5986106914
 30
0.0
  0
VERTEX
  5
4CB
  8
0
  6
CONTINUOUS
 62
     7
 10
239.0296581293
 20
66.3034275096
 30
0.0
  0
VERTEX
  5
4CC
  8
0
  6
CONTINUOUS
 62
     7
 10
239.1114058996
 20
63.0052372735
 30
0.0
  0
VERTEX
  5
4CD
  8
0
  6
CONTINUOUS
 62
     7
 10
239.108240893
 20
59.7044154924
 30
0.0
  0
VERTEX
  5
4CE
  8
0
  6
CONTINUOUS
 62
     7
 10
239.081138661
 20
56.4041480344
 30
0.0
  0
VERTEX
  5
4CF
  8
0
  6
CONTINUOUS
 62
     7
 10
239.0789809729
 20
53.1066313308
 30
0.0
  0
VERTEX
  5
4D0
  8
0
  6
CONTINUOUS
 62
     7
 10
239.1259196306
 20
46.7864826244
 30
0.0
  0
VERTEX
  5
4D1
  8
0
  6
CONTINUOUS
 62
     7
 10
239.160007527
 20
40.4657527727
 30
0.0
  0
VERTEX
  5
4D2
  8
0
  6
CONTINUOUS
 62
     7
 10
239.1690137888
 20
34.2125222009
 30
0.0
  0
VERTEX
  5
4D3
  8
0
  6
CONTINUOUS
 62
     7
 10
239.17082577
 20
32.3678001684
 30
0.0
  0
VERTEX
  5
4D4
  8
0
  6
CONTINUOUS
 62
     7
 10
239.1753199602
 20
30.5002733987
 30
0.0
  0
VERTEX
  5
4D5
  8
0
  6
CONTINUOUS
 62
     7
 10
239.1845109964
 20
28.60491126
 30
0.0
  0
VERTEX
  5
4D6
  8
0
  6
CONTINUOUS
 62
     7
 10
239.2005029226
 20
26.6773447317
 30
0.0
  0
VERTEX
  5
4D7
  8
0
  6
CONTINUOUS
 62
     7
 10
239.22459512
 20
24.7087702077
 30
0.0
  0
SEQEND
  5
57A
  8
0
  6
CONTINUOUS
 62
     7
  0
ARC
  5
1CC
  8
0
  6
CONTINUOUS
 62
     7
 10
232.5044633421
 20
24.5154053018
 30
0.0
 40
6.722913140893542
 50
275.3898256084
 51
1.6481725824
  0
ARC
  5
1CD
  8
0
  6
CONTINUOUS
 62
     7
 10
201.7327937389
 20
357.7531561449
 30
0.0
 40
341.3783859847024
 50
264.7219388452
 51
275.2780611548
  0
ARC
  5
1CE
  8
0
  6
CONTINUOUS
 62
     7
 10
170.9511409267
 20
24.5065802563
 30
0.0
 40
6.713195557275394
 50
178.274088261
 51
264.687927465
  0
POLYLINE
  5
1CF
  8
0
  6
CONTINUOUS
 62
     7
 66
     1
 10
0.0
 20
0.0
 30
0.0
  0
VERTEX
  5
4D8
  8
0
  6
CONTINUOUS
 62
     7
 10
164.2409908677
 20
24.7087702077
 30
0.0
  0
VERTEX
  5
4D9
  8
0
  6
CONTINUOUS
 62
     7
 10
164.2693090344
 20
27.1057948392
 30
0.0
  0
VERTEX
  5
4DA
  8
0
  6
CONTINUOUS
 62
     7
 10
164.2858478332
 20
29.4454857629
 30
0.0
  0
VERTEX
  5
4DB
  8
0
  6
CONTINUOUS
 62
     7
 10
164.2936441208
 20
31.7398890775
 30
0.0
  0
VERTEX
  5
4DC
  8
0
  6
CONTINUOUS
 62
     7
 10
164.2964365984
 20
33.9977607053
 30
0.0
  0
VERTEX
  5
4DD
  8
0
  6
CONTINUOUS
 62
     7
 10
164.2978387977
 20
36.2282916826
 30
0.0
  0
VERTEX
  5
4DE
  8
0
  6
CONTINUOUS
 62
     7
 10
164.3007489944
 20
38.4557291788
 30
0.0
  0
VERTEX
  5
4DF
  8
0
  6
CONTINUOUS
 62
     7
 10
164.3062907363
 20
40.6966313642
 30
0.0
  0
VERTEX
  5
4E0
  8
0
  6
CONTINUOUS
 62
     7
 10
164.3406155611
 20
46.9026908201
 30
0.0
  0
VERTEX
  5
4E1
  8
0
  6
CONTINUOUS
 62
     7
 10
164.386606505
 20
53.1066313308
 30
0.0
  0
VERTEX
  5
4E2
  8
0
  6
CONTINUOUS
 62
     7
 10
164.3844488169
 20
56.4041480344
 30
0.0
  0
VERTEX
  5
4E3
  8
0
  6
CONTINUOUS
 62
     7
 10
164.357348075
 20
59.7044154924
 30
0.0
  0
VERTEX
  5
4E4
  8
0
  6
CONTINUOUS
 62
     7
 10
164.3541830684
 20
63.0052372735
 30
0.0
  0
VERTEX
  5
4E5
  8
0
  6
CONTINUOUS
 62
     7
 10
164.4359293486
 20
66.3034275096
 30
0.0
  0
VERTEX
  5
4E6
  8
0
  6
CONTINUOUS
 62
     7
 10
164.6506878639
 20
69.5986106914
 30
0.0
  0
VERTEX
  5
4E7
  8
0
  6
CONTINUOUS
 62
     7
 10
165.0082099343
 20
72.890751056
 30
0.0
  0
VERTEX
  5
4E8
  8
0
  6
CONTINUOUS
 62
     7
 10
165.6093838716
 20
76.1670261544
 30
0.0
  0
VERTEX
  5
4E9
  8
0
  6
CONTINUOUS
 62
     7
 10
166.5264505053
 20
79.4586300772
 30
0.0
  0
SEQEND
  5
579
  8
0
  6
CONTINUOUS
 62
     7
  0
ARC
  5
1D0
  8
0
  6
CONTINUOUS
 62
     7
 10
201.732795229
 20
17.8255254699
 30
0.0
 40
73.33970133414128
 50
64.3650302506
 51
115.6349697494
  0
ARC
  5
1D1
  8
0
  6
CONTINUOUS
 62
     7
 10
230.2065722008
 20
77.3398585508
 30
0.0
 40
7.36506378039624
 50
15.5445901336
 51
63.7661300822
  0
ARC
  5
1D2
  8
0
  6
CONTINUOUS
 62
     7
 10
173.2411570554
 20
77.3546614373
 30
0.0
 40
7.343896451029575
 50
116.1599239314
 51
164.5293340052
  0
POLYLINE
  5
1D3
  8
0
  6
CONTINUOUS
 62
     7
 66
     1
 10
0.0
 20
0.0
 30
0.0
  0
VERTEX
  5
4EA
  8
0
  6
CONTINUOUS
 62
     7
 10
237.3022380377
 20
79.3136089962
 30
0.0
  0
VERTEX
  5
4EB
  8
0
  6
CONTINUOUS
 62
     7
 10
237.7361538912
 20
77.8004541915
 30
0.0
  0
VERTEX
  5
4EC
  8
0
  6
CONTINUOUS
 62
     7
 10
238.1341281439
 20
76.2872964066
 30
0.0
  0
SEQEND
  5
578
  8
0
  6
CONTINUOUS
 62
     7
  0
ARC
  5
1D4
  8
0
  6
CONTINUOUS
 62
     7
 10
179.4914960292
 20
64.3453313651
 30
0.0
 40
59.84602014342769
 50
6.6420820492
 51
11.5103020782
  0
POLYLINE
  5
1D5
  8
0
  6
CONTINUOUS
 62
     7
 66
     1
 10
0.0
 20
0.0
 30
0.0
  0
VERTEX
  5
4ED
  8
0
  6
CONTINUOUS
 62
     7
 10
238.9355483557
 20
71.2674945515
 30
0.0
  0
VERTEX
  5
4EE
  8
0
  6
CONTINUOUS
 62
     7
 10
239.1598108316
 20
68.764074139
 30
0.0
  0
VERTEX
  5
4EF
  8
0
  6
CONTINUOUS
 62
     7
 10
239.3043163324
 20
66.260327391
 30
0.0
  0
SEQEND
  5
577
  8
0
  6
CONTINUOUS
 62
     7
  0
LINE
  5
1D6
  8
0
  6
CONTINUOUS
 62
     7
 10
239.3327954317
 20
64.4074574035
 30
0.0
 11
239.3039706255
 21
66.2603124898
 31
0.0
  0
LINE
  5
1D7
  8
0
  6
CONTINUOUS
 62
     7
 10
239.3327954317
 20
56.295900039
 30
0.0
 11
239.3327954317
 21
64.4074574035
 31
0.0
  0
POLYLINE
  5
1D8
  8
0
  6
CONTINUOUS
 62
     7
 66
     1
 10
0.0
 20
0.0
 30
0.0
  0
VERTEX
  5
4F0
  8
0
  6
CONTINUOUS
 62
     7
 10
239.3327954317
 20
56.2959179204
 30
0.0
  0
VERTEX
  5
4F1
  8
0
  6
CONTINUOUS
 62
     7
 10
239.3180850054
 20
53.1240537685
 30
0.0
  0
VERTEX
  5
4F2
  8
0
  6
CONTINUOUS
 62
     7
 10
239.3327954317
 20
46.2960287851
 30
0.0
  0
SEQEND
  5
576
  8
0
  6
CONTINUOUS
 62
     7
  0
POLYLINE
  5
1D9
  8
0
  6
CONTINUOUS
 62
     7
 66
     1
 10
0.0
 20
0.0
 30
0.0
  0
VERTEX
  5
4F3
  8
0
  6
CONTINUOUS
 62
     7
 10
239.3328669573
 20
24.6415540498
 30
0.0
  0
VERTEX
  5
4F4
  8
0
  6
CONTINUOUS
 62
     7
 10
239.3328609968
 20
24.9494954866
 30
0.0
  0
VERTEX
  5
4F5
  8
0
  6
CONTINUOUS
 62
     7
 10
239.3326464201
 20
27.3613437932
 30
0.0
  0
VERTEX
  5
4F6
  8
0
  6
CONTINUOUS
 62
     7
 10
239.3321695829
 20
29.7458991331
 30
0.0
  0
VERTEX
  5
4F7
  8
0
  6
CONTINUOUS
 62
     7
 10
239.331823876
 20
32.1092471403
 30
0.0
  0
VERTEX
  5
4F8
  8
0
  6
CONTINUOUS
 62
     7
 10
239.3331411386
 20
36.818097524
 30
0.0
  0
VERTEX
  5
4F9
  8
0
  6
CONTINUOUS
 62
     7
 10
239.3366160894
 20
41.55199974
 30
0.0
  0
VERTEX
  5
4FA
  8
0
  6
CONTINUOUS
 62
     7
 10
239.3327954317
 20
46.2960287851
 30
0.0
  0
SEQEND
  5
575
  8
0
  6
CONTINUOUS
 62
     7
  0
LINE
  5
1DA
  8
0
  6
CONTINUOUS
 62
     7
 10
164.1327950264
 20
46.2960287851
 30
0.0
 11
164.1327950264
 21
36.298184089
 31
0.0
  0
POLYLINE
  5
1DB
  8
0
  6
CONTINUOUS
 62
     7
 66
     1
 10
0.0
 20
0.0
 30
0.0
  0
VERTEX
  5
4FB
  8
0
  6
CONTINUOUS
 62
     7
 10
164.132790556
 20
46.2960287851
 30
0.0
  0
VERTEX
  5
4FC
  8
0
  6
CONTINUOUS
 62
     7
 10
164.1475039626
 20
53.1240537685
 30
0.0
  0
VERTEX
  5
4FD
  8
0
  6
CONTINUOUS
 62
     7
 10
164.1327950264
 20
56.2959179204
 30
0.0
  0
SEQEND
  5
574
  8
0
  6
CONTINUOUS
 62
     7
  0
LINE
  5
1DC
  8
0
  6
CONTINUOUS
 62
     7
 10
164.1327950264
 20
64.4074574035
 30
0.0
 11
164.1327950264
 21
56.295900039
 31
0.0
  0
LINE
  5
1DD
  8
0
  6
CONTINUOUS
 62
     7
 10
164.1616168524
 20
66.2603124898
 30
0.0
 11
164.1327950264
 21
64.4074574035
 31
0.0
  0
POLYLINE
  5
1DE
  8
0
  6
CONTINUOUS
 62
     7
 66
     1
 10
0.0
 20
0.0
 30
0.0
  0
VERTEX
  5
4FE
  8
0
  6
CONTINUOUS
 62
     7
 10
164.1612696553
 20
66.260327391
 30
0.0
  0
VERTEX
  5
4FF
  8
0
  6
CONTINUOUS
 62
     7
 10
164.3057751561
 20
68.764074139
 30
0.0
  0
VERTEX
  5
500
  8
0
  6
CONTINUOUS
 62
     7
 10
164.5300406123
 20
71.2674945515
 30
0.0
  0
SEQEND
  5
573
  8
0
  6
CONTINUOUS
 62
     7
  0
ARC
  5
1DF
  8
0
  6
CONTINUOUS
 62
     7
 10
223.9316820717
 20
64.3521064116
 30
0.0
 40
59.80311031507696
 50
168.4879503506
 51
173.359665522
  0
POLYLINE
  5
1E0
  8
0
  6
CONTINUOUS
 62
     7
 66
     1
 10
0.0
 20
0.0
 30
0.0
  0
VERTEX
  5
501
  8
0
  6
CONTINUOUS
 62
     7
 10
165.332794478
 20
76.2928858322
 30
0.0
  0
VERTEX
  5
502
  8
0
  6
CONTINUOUS
 62
     7
 10
165.730220368
 20
77.8032496494
 30
0.0
  0
VERTEX
  5
503
  8
0
  6
CONTINUOUS
 62
     7
 10
166.1633509303
 20
79.3136089962
 30
0.0
  0
SEQEND
  5
572
  8
0
  6
CONTINUOUS
 62
     7
  0
POLYLINE
  5
1E1
  8
0
  6
CONTINUOUS
 62
     7
 66
     1
 10
0.0
 20
0.0
 30
0.0
  0
VERTEX
  5
504
  8
0
  6
CONTINUOUS
 62
     7
 10
164.1327235008
 20
24.6425017637
 30
0.0
  0
VERTEX
  5
505
  8
0
  6
CONTINUOUS
 62
     7
 10
164.1327235008
 20
24.6678277772
 30
0.0
  0
VERTEX
  5
506
  8
0
  6
CONTINUOUS
 62
     7
 10
164.1328933741
 20
27.0808383745
 30
0.0
  0
VERTEX
  5
507
  8
0
  6
CONTINUOUS
 62
     7
 10
164.1333582903
 20
29.469303779
 30
0.0
  0
VERTEX
  5
508
  8
0
  6
CONTINUOUS
 62
     7
 10
164.1337442304
 20
31.8352207464
 30
0.0
  0
VERTEX
  5
509
  8
0
  6
CONTINUOUS
 62
     7
 10
164.1336399222
 20
34.1900452894
 30
0.0
  0
VERTEX
  5
50A
  8
0
  6
CONTINUOUS
 62
     7
 10
164.1327950264
 20
36.298184089
 30
0.0
  0
SEQEND
  5
571
  8
0
  6
CONTINUOUS
 62
     7
  0
ARC
  5
1E2
  8
0
  6
CONTINUOUS
 62
     7
 10
232.6883728812
 20
24.5049179546
 30
0.0
 40
6.645898806713845
 50
292.5444656896
 51
1.178053328
  0
ARC
  5
1E3
  8
0
  6
CONTINUOUS
 62
     7
 10
170.7802522032
 20
24.5088954499
 30
0.0
 40
6.648871219741804
 50
178.84858754
 51
250.6417888062
  0
LINE
  5
1E4
  8
0
  6
CONTINUOUS
 62
     7
 10
238.9327946211
 20
71.2936475795
 30
0.0
 11
238.935834458
 21
71.2675273341
 31
0.0
  0
POLYLINE
  5
1E5
  8
0
  6
CONTINUOUS
 62
     7
 66
     1
 10
0.0
 20
0.0
 30
0.0
  0
VERTEX
  5
50B
  8
0
  6
CONTINUOUS
 62
     7
 10
238.1339433695
 20
76.2872531932
 30
0.0
  0
VERTEX
  5
50C
  8
0
  6
CONTINUOUS
 62
     7
 10
238.5861280466
 20
73.8013878387
 30
0.0
  0
VERTEX
  5
50D
  8
0
  6
CONTINUOUS
 62
     7
 10
238.9327946211
 20
71.2936475795
 30
0.0
  0
SEQEND
  5
570
  8
0
  6
CONTINUOUS
 62
     7
  0
POLYLINE
  5
1E6
  8
0
  6
CONTINUOUS
 62
     7
 66
     1
 10
0.0
 20
0.0
 30
0.0
  0
VERTEX
  5
50E
  8
0
  6
CONTINUOUS
 62
     7
 10
164.5327943469
 20
71.2936475795
 30
0.0
  0
VERTEX
  5
50F
  8
0
  6
CONTINUOUS
 62
     7
 10
164.878724804
 20
73.7967893403
 30
0.0
  0
VERTEX
  5
510
  8
0
  6
CONTINUOUS
 62
     7
 10
165.3316455985
 20
76.2872531932
 30
0.0
  0
SEQEND
  5
56F
  8
0
  6
CONTINUOUS
 62
     7
  0
LINE
  5
1E7
  8
0
  6
CONTINUOUS
 62
     7
 10
164.52975451
 20
71.2675273341
 30
0.0
 11
164.5327943469
 21
71.2936475795
 31
0.0
  0
LINE
  5
1E8
  8
0
  6
CONTINUOUS
 62
     7
 10
239.3039706255
 20
66.2603124898
 30
0.0
 11
239.3327954317
 21
64.4096210521
 31
0.0
  0
LINE
  5
1E9
  8
0
  6
CONTINUOUS
 62
     7
 10
164.1327950264
 20
64.4096210521
 30
0.0
 11
164.1616168524
 21
66.2603124898
 31
0.0
  0
ARC
  5
1EA
  8
0
  6
CONTINUOUS
 62
     7
 10
81.7327934409
 20
17.825529436
 30
0.0
 40
73.33969775843535
 50
64.3650289101
 51
115.6349710899
  0
ARC
  5
1EB
  8
0
  6
CONTINUOUS
 62
     7
 10
81.7327934409
 20
17.813249714
 30
0.0
 40
73.33114162064591
 50
64.7052184116
 51
115.2947815884
  0
ARC
  5
1EC
  8
0
  6
CONTINUOUS
 62
     7
 10
53.610557148
 20
77.5025639546
 30
0.0
 40
7.349220536149679
 50
115.9018429008
 51
164.5640797475
  0
ARC
  5
1ED
  8
0
  6
CONTINUOUS
 62
     7
 10
109.8710677899
 20
77.5159084729
 30
0.0
 40
7.330215684938155
 50
15.3687394777
 51
64.1653595472
  0
POLYLINE
  5
1EE
  8
0
  6
CONTINUOUS
 62
     7
 66
     1
 10
0.0
 20
0.0
 30
0.0
  0
VERTEX
  5
511
  8
0
  6
CONTINUOUS
 62
     7
 10
116.9391381646
 20
79.4586300772
 30
0.0
  0
VERTEX
  5
512
  8
0
  6
CONTINUOUS
 62
     7
 10
117.8562047983
 20
76.1670261544
 30
0.0
  0
VERTEX
  5
513
  8
0
  6
CONTINUOUS
 62
     7
 10
118.4573787356
 20
72.890751056
 30
0.0
  0
VERTEX
  5
514
  8
0
  6
CONTINUOUS
 62
     7
 10
118.814900806
 20
69.5986106914
 30
0.0
  0
VERTEX
  5
515
  8
0
  6
CONTINUOUS
 62
     7
 10
119.0296593214
 20
66.3034275096
 30
0.0
  0
VERTEX
  5
516
  8
0
  6
CONTINUOUS
 62
     7
 10
119.1114056016
 20
63.0052372735
 30
0.0
  0
VERTEX
  5
517
  8
0
  6
CONTINUOUS
 62
     7
 10
119.108240595
 20
59.7044154924
 30
0.0
  0
VERTEX
  5
518
  8
0
  6
CONTINUOUS
 62
     7
 10
119.0811398531
 20
56.4041480344
 30
0.0
  0
VERTEX
  5
519
  8
0
  6
CONTINUOUS
 62
     7
 10
119.0789821649
 20
53.1066313308
 30
0.0
  0
VERTEX
  5
51A
  8
0
  6
CONTINUOUS
 62
     7
 10
119.1259193326
 20
46.7864826244
 30
0.0
  0
VERTEX
  5
51B
  8
0
  6
CONTINUOUS
 62
     7
 10
119.1600087191
 20
40.4657527727
 30
0.0
  0
VERTEX
  5
51C
  8
0
  6
CONTINUOUS
 62
     7
 10
119.1690120006
 20
34.2125222009
 30
0.0
  0
VERTEX
  5
51D
  8
0
  6
CONTINUOUS
 62
     7
 10
119.1708284522
 20
32.3678001684
 30
0.0
  0
VERTEX
  5
51E
  8
0
  6
CONTINUOUS
 62
     7
 10
119.1753181721
 20
30.5002733987
 30
0.0
  0
VERTEX
  5
51F
  8
0
  6
CONTINUOUS
 62
     7
 10
119.1845136786
 20
28.60491126
 30
0.0
  0
VERTEX
  5
520
  8
0
  6
CONTINUOUS
 62
     7
 10
119.2005026246
 20
26.6773447317
 30
0.0
  0
VERTEX
  5
521
  8
0
  6
CONTINUOUS
 62
     7
 10
119.2245978022
 20
24.7087702077
 30
0.0
  0
SEQEND
  5
56E
  8
0
  6
CONTINUOUS
 62
     7
  0
ARC
  5
1EF
  8
0
  6
CONTINUOUS
 62
     7
 10
112.504453304
 20
24.5154166849
 30
0.0
 40
6.722925528500815
 50
275.3899117811
 51
1.648072493
  0
ARC
  5
1F0
  8
0
  6
CONTINUOUS
 62
     7
 10
81.732794931
 20
357.7531511476
 30
0.0
 40
341.378381008573
 50
264.7219387681
 51
275.2780612319
  0
ARC
  5
1F1
  8
0
  6
CONTINUOUS
 62
     7
 10
50.9511364224
 20
24.506573768
 30
0.0
 40
6.713188569510105
 50
178.2740310627
 51
264.6879707465
  0
POLYLINE
  5
1F2
  8
0
  6
CONTINUOUS
 62
     7
 66
     1
 10
0.0
 20
0.0
 30
0.0
  0
VERTEX
  5
522
  8
0
  6
CONTINUOUS
 62
     7
 10
44.2409935499
 20
24.7087702077
 30
0.0
  0
VERTEX
  5
523
  8
0
  6
CONTINUOUS
 62
     7
 10
44.2693117166
 20
27.1057948392
 30
0.0
  0
VERTEX
  5
524
  8
0
  6
CONTINUOUS
 62
     7
 10
44.2858460451
 20
29.4454857629
 30
0.0
  0
VERTEX
  5
525
  8
0
  6
CONTINUOUS
 62
     7
 10
44.2936423326
 20
31.7398890775
 30
0.0
  0
VERTEX
  5
526
  8
0
  6
CONTINUOUS
 62
     7
 10
44.2964377905
 20
33.9977607053
 30
0.0
  0
VERTEX
  5
527
  8
0
  6
CONTINUOUS
 62
     7
 10
44.2978384996
 20
36.2282916826
 30
0.0
  0
VERTEX
  5
528
  8
0
  6
CONTINUOUS
 62
     7
 10
44.3007472063
 20
38.4557291788
 30
0.0
  0
VERTEX
  5
529
  8
0
  6
CONTINUOUS
 62
     7
 10
44.3062904383
 20
40.6966313642
 30
0.0
  0
VERTEX
  5
52A
  8
0
  6
CONTINUOUS
 62
     7
 10
44.3406167532
 20
46.9026908201
 30
0.0
  0
VERTEX
  5
52B
  8
0
  6
CONTINUOUS
 62
     7
 10
44.3866076971
 20
53.1066313308
 30
0.0
  0
VERTEX
  5
52C
  8
0
  6
CONTINUOUS
 62
     7
 10
44.384450009
 20
56.4041480344
 30
0.0
  0
VERTEX
  5
52D
  8
0
  6
CONTINUOUS
 62
     7
 10
44.357347777
 20
59.7044154924
 30
0.0
  0
VERTEX
  5
52E
  8
0
  6
CONTINUOUS
 62
     7
 10
44.3541827703
 20
63.0052372735
 30
0.0
  0
VERTEX
  5
52F
  8
0
  6
CONTINUOUS
 62
     7
 10
44.4359305406
 20
66.3034275096
 30
0.0
  0
VERTEX
  5
530
  8
0
  6
CONTINUOUS
 62
     7
 10
44.6506860758
 20
69.5986106914
 30
0.0
  0
VERTEX
  5
531
  8
0
  6
CONTINUOUS
 62
     7
 10
45.0082126165
 20
72.890751056
 30
0.0
  0
VERTEX
  5
532
  8
0
  6
CONTINUOUS
 62
     7
 10
45.6093850637
 20
76.1670261544
 30
0.0
  0
VERTEX
  5
533
  8
0
  6
CONTINUOUS
 62
     7
 10
46.5264502073
 20
79.4586300772
 30
0.0
  0
SEQEND
  5
56D
  8
0
  6
CONTINUOUS
 62
     7
  0
ARC
  5
1F3
  8
0
  6
CONTINUOUS
 62
     7
 10
110.2065869923
 20
77.3398700113
 30
0.0
 40
7.365046171547635
 50
15.544535697
 51
63.7662063664
  0
ARC
  5
1F4
  8
0
  6
CONTINUOUS
 62
     7
 10
53.2411607058
 20
77.3546592059
 30
0.0
 40
7.343900851565508
 50
116.1599543402
 51
164.5293254441
  0
LINE
  5
1F5
  8
0
  6
CONTINUOUS
 62
     7
 10
44.1327932382
 20
46.2960287851
 30
0.0
 11
44.1327932382
 21
36.298184089
 31
0.0
  0
POLYLINE
  5
1F6
  8
0
  6
CONTINUOUS
 62
     7
 66
     1
 10
0.0
 20
0.0
 30
0.0
  0
VERTEX
  5
534
  8
0
  6
CONTINUOUS
 62
     7
 10
44.1327932382
 20
46.2960287851
 30
0.0
  0
VERTEX
  5
535
  8
0
  6
CONTINUOUS
 62
     7
 10
44.1475036646
 20
53.1240537685
 30
0.0
  0
VERTEX
  5
536
  8
0
  6
CONTINUOUS
 62
     7
 10
44.1327932382
 20
56.2959179204
 30
0.0
  0
SEQEND
  5
56C
  8
0
  6
CONTINUOUS
 62
     7
  0
LINE
  5
1F7
  8
0
  6
CONTINUOUS
 62
     7
 10
44.1327932382
 20
64.4074574035
 30
0.0
 11
44.1327932382
 21
56.295900039
 31
0.0
  0
LINE
  5
1F8
  8
0
  6
CONTINUOUS
 62
     7
 10
44.1616180445
 20
66.2603124898
 30
0.0
 11
44.1327932382
 21
64.4074574035
 31
0.0
  0
POLYLINE
  5
1F9
  8
0
  6
CONTINUOUS
 62
     7
 66
     1
 10
0.0
 20
0.0
 30
0.0
  0
VERTEX
  5
537
  8
0
  6
CONTINUOUS
 62
     7
 10
44.1612723375
 20
66.260327391
 30
0.0
  0
VERTEX
  5
538
  8
0
  6
CONTINUOUS
 62
     7
 10
44.3057778383
 20
68.764074139
 30
0.0
  0
VERTEX
  5
539
  8
0
  6
CONTINUOUS
 62
     7
 10
44.5300403143
 20
71.2674945515
 30
0.0
  0
SEQEND
  5
56B
  8
0
  6
CONTINUOUS
 62
     7
  0
ARC
  5
1FA
  8
0
  6
CONTINUOUS
 62
     7
 10
103.9328083837
 20
64.351926438
 30
0.0
 40
59.80425017894013
 50
168.4879968058
 51
173.3596190667
  0
POLYLINE
  5
1FB
  8
0
  6
CONTINUOUS
 62
     7
 66
     1
 10
0.0
 20
0.0
 30
0.0
  0
VERTEX
  5
53A
  8
0
  6
CONTINUOUS
 62
     7
 10
45.3327956701
 20
76.2928858322
 30
0.0
  0
VERTEX
  5
53B
  8
0
  6
CONTINUOUS
 62
     7
 10
45.7302215601
 20
77.8032496494
 30
0.0
  0
VERTEX
  5
53C
  8
0
  6
CONTINUOUS
 62
     7
 10
46.1633506323
 20
79.3136089962
 30
0.0
  0
SEQEND
  5
56A
  8
0
  6
CONTINUOUS
 62
     7
  0
POLYLINE
  5
1FC
  8
0
  6
CONTINUOUS
 62
     7
 66
     1
 10
0.0
 20
0.0
 30
0.0
  0
VERTEX
  5
53D
  8
0
  6
CONTINUOUS
 62
     7
 10
44.1327217127
 20
24.6425017637
 30
0.0
  0
VERTEX
  5
53E
  8
0
  6
CONTINUOUS
 62
     7
 10
44.1327217127
 20
24.6678277772
 30
0.0
  0
VERTEX
  5
53F
  8
0
  6
CONTINUOUS
 62
     7
 10
44.1328945661
 20
27.0808383745
 30
0.0
  0
VERTEX
  5
540
  8
0
  6
CONTINUOUS
 62
     7
 10
44.1333594824
 20
29.469303779
 30
0.0
  0
VERTEX
  5
541
  8
0
  6
CONTINUOUS
 62
     7
 10
44.1337469126
 20
31.8352207464
 30
0.0
  0
VERTEX
  5
542
  8
0
  6
CONTINUOUS
 62
     7
 10
44.1336396242
 20
34.1900452894
 30
0.0
  0
VERTEX
  5
543
  8
0
  6
CONTINUOUS
 62
     7
 10
44.1327932382
 20
36.298184089
 30
0.0
  0
SEQEND
  5
569
  8
0
  6
CONTINUOUS
 62
     7
  0
POLYLINE
  5
1FD
  8
0
  6
CONTINUOUS
 62
     7
 66
     1
 10
0.0
 20
0.0
 30
0.0
  0
VERTEX
  5
544
  8
0
  6
CONTINUOUS
 62
     7
 10
117.3022377396
 20
79.3136089962
 30
0.0
  0
VERTEX
  5
545
  8
0
  6
CONTINUOUS
 62
     7
 10
117.7361550833
 20
77.8004541915
 30
0.0
  0
VERTEX
  5
546
  8
0
  6
CONTINUOUS
 62
     7
 10
118.1341278459
 20
76.2872964066
 30
0.0
  0
SEQEND
  5
568
  8
0
  6
CONTINUOUS
 62
     7
  0
ARC
  5
1FE
  8
0
  6
CONTINUOUS
 62
     7
 10
59.4896557225
 20
64.3450374276
 30
0.0
 40
59.84788180094705
 50
6.6421578114
 51
11.510226316
  0
POLYLINE
  5
1FF
  8
0
  6
CONTINUOUS
 62
     7
 66
     1
 10
0.0
 20
0.0
 30
0.0
  0
VERTEX
  5
547
  8
0
  6
CONTINUOUS
 62
     7
 10
118.9355480576
 20
71.2674945515
 30
0.0
  0
VERTEX
  5
548
  8
0
  6
CONTINUOUS
 62
     7
 10
119.1598135138
 20
68.764074139
 30
0.0
  0
VERTEX
  5
549
  8
0
  6
CONTINUOUS
 62
     7
 10
119.3043190146
 20
66.260327391
 30
0.0
  0
SEQEND
  5
567
  8
0
  6
CONTINUOUS
 62
     7
  0
LINE
  5
200
  8
0
  6
CONTINUOUS
 62
     7
 10
119.3327936436
 20
64.4074574035
 30
0.0
 11
119.3039718176
 21
66.2603124898
 31
0.0
  0
LINE
  5
201
  8
0
  6
CONTINUOUS
 62
     7
 10
119.3327936436
 20
56.295900039
 30
0.0
 11
119.3327936436
 21
64.4074574035
 31
0.0
  0
POLYLINE
  5
202
  8
0
  6
CONTINUOUS
 62
     7
 66
     1
 10
0.0
 20
0.0
 30
0.0
  0
VERTEX
  5
54A
  8
0
  6
CONTINUOUS
 62
     7
 10
119.3327936436
 20
56.2959179204
 30
0.0
  0
VERTEX
  5
54B
  8
0
  6
CONTINUOUS
 62
     7
 10
119.3180847073
 20
53.1240537685
 30
0.0
  0
VERTEX
  5
54C
  8
0
  6
CONTINUOUS
 62
     7
 10
119.3327981139
 20
46.2960287851
 30
0.0
  0
SEQEND
  5
566
  8
0
  6
CONTINUOUS
 62
     7
  0
POLYLINE
  5
203
  8
0
  6
CONTINUOUS
 62
     7
 66
     1
 10
0.0
 20
0.0
 30
0.0
  0
VERTEX
  5
54D
  8
0
  6
CONTINUOUS
 62
     7
 10
119.3328651691
 20
24.6415540498
 30
0.0
  0
VERTEX
  5
54E
  8
0
  6
CONTINUOUS
 62
     7
 10
119.332863679
 20
24.9494954866
 30
0.0
  0
VERTEX
  5
54F
  8
0
  6
CONTINUOUS
 62
     7
 10
119.3326491023
 20
27.3613437932
 30
0.0
  0
VERTEX
  5
550
  8
0
  6
CONTINUOUS
 62
     7
 10
119.3321722651
 20
29.7458991331
 30
0.0
  0
VERTEX
  5
551
  8
0
  6
CONTINUOUS
 62
     7
 10
119.3318220879
 20
32.1092471403
 30
0.0
  0
VERTEX
  5
552
  8
0
  6
CONTINUOUS
 62
     7
 10
119.3331408406
 20
36.818097524
 30
0.0
  0
VERTEX
  5
553
  8
0
  6
CONTINUOUS
 62
     7
 10
119.3366157914
 20
41.55199974
 30
0.0
  0
VERTEX
  5
554
  8
0
  6
CONTINUOUS
 62
     7
 10
119.3327936436
 20
46.2960287851
 30
0.0
  0
SEQEND
  5
565
  8
0
  6
CONTINUOUS
 62
     7
  0
ARC
  5
204
  8
0
  6
CONTINUOUS
 62
     7
 10
112.6883816253
 20
24.5049110786
 30
0.0
 40
6.645888418137666
 50
292.5444045557
 51
1.1781144618
  0
ARC
  5
205
  8
0
  6
CONTINUOUS
 62
     7
 10
50.7802561079
 20
24.5089004237
 30
0.0
 40
6.648876811488226
 50
178.848631378
 51
250.6417809594
  0
LINE
  5
206
  8
0
  6
CONTINUOUS
 62
     7
 10
118.9327943231
 20
71.2936475795
 30
0.0
 11
118.9358341599
 21
71.2675273341
 31
0.0
  0
POLYLINE
  5
207
  8
0
  6
CONTINUOUS
 62
     7
 66
     1
 10
0.0
 20
0.0
 30
0.0
  0
VERTEX
  5
555
  8
0
  6
CONTINUOUS
 62
     7
 10
118.1339430715
 20
76.2872531932
 30
0.0
  0
VERTEX
  5
556
  8
0
  6
CONTINUOUS
 62
     7
 10
118.5861292387
 20
73.8013878387
 30
0.0
  0
VERTEX
  5
557
  8
0
  6
CONTINUOUS
 62
     7
 10
118.9327943231
 20
71.2936475795
 30
0.0
  0
SEQEND
  5
564
  8
0
  6
CONTINUOUS
 62
     7
  0
POLYLINE
  5
208
  8
0
  6
CONTINUOUS
 62
     7
 66
     1
 10
0.0
 20
0.0
 30
0.0
  0
VERTEX
  5
558
  8
0
  6
CONTINUOUS
 62
     7
 10
44.5327940489
 20
71.2936475795
 30
0.0
  0
VERTEX
  5
559
  8
0
  6
CONTINUOUS
 62
     7
 10
44.8787215258
 20
73.7967893403
 30
0.0
  0
VERTEX
  5
55A
  8
0
  6
CONTINUOUS
 62
     7
 10
45.3316453005
 20
76.2872531932
 30
0.0
  0
SEQEND
  5
563
  8
0
  6
CONTINUOUS
 62
     7
  0
LINE
  5
209
  8
0
  6
CONTINUOUS
 62
     7
 10
44.529754212
 20
71.2675273341
 30
0.0
 11
44.5327940489
 21
71.2936475795
 31
0.0
  0
LINE
  5
20A
  8
0
  6
CONTINUOUS
 62
     7
 10
119.3039718176
 20
66.2603124898
 30
0.0
 11
119.3327936436
 21
64.4096210521
 31
0.0
  0
LINE
  5
20B
  8
0
  6
CONTINUOUS
 62
     7
 10
44.1327932382
 20
64.4096210521
 30
0.0
 11
44.1616180445
 21
66.2603124898
 31
0.0
  0
LINE
  5
20C
  8
0
  6
CONTINUOUS
 62
     7
 10
164.9071189667
 20
90.1020247411
 30
0.0
 11
164.9071189667
 21
90.0452054959
 31
0.0
  0
LINE
  5
20D
  8
0
  6
CONTINUOUS
 62
     7
 10
164.9071189667
 20
90.0452054959
 30
0.0
 11
165.128639629
 21
90.0299675685
 31
0.0
  0
LINE
  5
20E
  8
0
  6
CONTINUOUS
 62
     7
 10
164.1293722297
 20
28.9020225328
 30
0.0
 11
164.0327948237
 21
28.9020225328
 31
0.0
  0
LINE
  5
20F
  8
0
  6
CONTINUOUS
 62
     7
 10
164.0327948237
 20
28.9020225328
 30
0.0
 11
164.0327948237
 21
90.1020247411
 31
0.0
  0
LINE
  5
210
  8
0
  6
CONTINUOUS
 62
     7
 10
164.0327948237
 20
90.1020247411
 30
0.0
 11
164.9071189667
 21
90.1020247411
 31
0.0
  0
ARC
  5
211
  8
0
  6
CONTINUOUS
 62
     7
 10
165.6967545369
 20
87.9904397331
 30
0.0
 40
1.996146860999684
 50
359.879897053
 51
86.0294823533
  0
LINE
  5
212
  8
0
  6
CONTINUOUS
 62
     7
 10
167.6928970123
 20
87.9862554294
 30
0.0
 11
167.6928970123
 21
83.5837341767
 31
0.0
  0
ARC
  5
213
  8
0
  6
CONTINUOUS
 62
     7
 10
168.8946895881
 20
83.5829508245
 30
0.0
 40
1.201792831047236
 50
179.9626534821
 51
232.2494355137
  0
LINE
  5
214
  8
0
  6
CONTINUOUS
 62
     7
 10
165.8349740411
 20
89.9817954671
 30
0.0
 11
165.128639629
 21
90.0299675685
 31
0.0
  0
LINE
  5
215
  8
0
  6
CONTINUOUS
 62
     7
 10
164.0327948237
 20
90.1020247411
 30
0.0
 11
164.0327948237
 21
102.8221413415
 31
0.0
  0
LINE
  5
216
  8
0
  6
CONTINUOUS
 62
     7
 10
164.8327949549
 20
102.8221413415
 30
0.0
 11
164.8327949549
 21
90.1020247411
 31
0.0
  0
LINE
  5
217
  8
0
  6
CONTINUOUS
 62
     7
 10
164.0327948237
 20
104.0020249706
 30
0.0
 11
164.8327949549
 21
104.0020249706
 31
0.0
  0
LINE
  5
218
  8
0
  6
CONTINUOUS
 62
     7
 10
164.0327948237
 20
102.8221413415
 30
0.0
 11
164.0327948237
 21
104.0020249706
 31
0.0
  0
LINE
  5
219
  8
0
  6
CONTINUOUS
 62
     7
 10
164.8327949549
 20
104.0020249706
 30
0.0
 11
164.8327949549
 21
102.8221413415
 31
0.0
  0
LINE
  5
21A
  8
0
  6
CONTINUOUS
 62
     7
 10
169.232794931
 20
101.0020248514
 30
0.0
 11
169.232794931
 21
100.0020246875
 31
0.0
  0
LINE
  5
21B
  8
0
  6
CONTINUOUS
 62
     7
 10
169.232794931
 20
101.0020248514
 30
0.0
 11
164.8327949549
 21
101.0020248514
 31
0.0
  0
LINE
  5
21C
  8
0
  6
CONTINUOUS
 62
     7
 10
164.0327948237
 20
101.0020248514
 30
0.0
 11
159.232794037
 21
101.0020248514
 31
0.0
  0
LINE
  5
21D
  8
0
  6
CONTINUOUS
 62
     7
 10
159.232794037
 20
101.0020248514
 30
0.0
 11
159.232794037
 21
100.0020246875
 31
0.0
  0
LINE
  5
21E
  8
0
  6
CONTINUOUS
 62
     7
 10
159.232794037
 20
100.0020246875
 30
0.0
 11
159.232794037
 21
90.8020246696
 31
0.0
  0
LINE
  5
21F
  8
0
  6
CONTINUOUS
 62
     7
 10
169.232794931
 20
100.0020246875
 30
0.0
 11
169.232794931
 21
90.8020246696
 31
0.0
  0
LINE
  5
220
  8
0
  6
CONTINUOUS
 62
     7
 10
164.0327948237
 20
89.8020245057
 30
0.0
 11
159.232794037
 21
89.8020245057
 31
0.0
  0
LINE
  5
221
  8
0
  6
CONTINUOUS
 62
     7
 10
159.232794037
 20
90.8020246696
 30
0.0
 11
159.232794037
 21
89.8020245057
 31
0.0
  0
LINE
  5
222
  8
0
  6
CONTINUOUS
 62
     7
 10
169.232794931
 20
89.8020245057
 30
0.0
 11
166.5366846229
 21
89.8020245057
 31
0.0
  0
LINE
  5
223
  8
0
  6
CONTINUOUS
 62
     7
 10
169.232794931
 20
90.8020246696
 30
0.0
 11
169.232794931
 21
89.8020245057
 31
0.0
  0
LINE
  5
224
  8
0
  6
CONTINUOUS
 62
     7
 10
44.9071171785
 20
90.1020247411
 30
0.0
 11
44.9071171785
 21
90.0452054959
 31
0.0
  0
LINE
  5
225
  8
0
  6
CONTINUOUS
 62
     7
 10
44.1293719316
 20
28.9020225328
 30
0.0
 11
44.0327945257
 21
28.9020225328
 31
0.0
  0
LINE
  5
226
  8
0
  6
CONTINUOUS
 62
     7
 10
44.0327945257
 20
28.9020225328
 30
0.0
 11
44.0327945257
 21
90.1020247411
 31
0.0
  0
LINE
  5
227
  8
0
  6
CONTINUOUS
 62
     7
 10
44.0327945257
 20
90.1020247411
 30
0.0
 11
44.9071171785
 21
90.1020247411
 31
0.0
  0
LINE
  5
228
  8
0
  6
CONTINUOUS
 62
     7
 10
44.9071171785
 20
90.0452054959
 30
0.0
 11
45.1286378408
 21
90.0299675685
 31
0.0
  0
ARC
  5
229
  8
0
  6
CONTINUOUS
 62
     7
 10
45.6967536399
 20
87.9904408724
 30
0.0
 40
1.996145972237518
 50
359.8798642969
 51
86.0293776011
  0
LINE
  5
22A
  8
0
  6
CONTINUOUS
 62
     7
 10
47.6928952242
 20
87.9862554294
 30
0.0
 11
47.6928952242
 21
83.5837341767
 31
0.0
  0
ARC
  5
22B
  8
0
  6
CONTINUOUS
 62
     7
 10
48.8946877999
 20
83.5829508245
 30
0.0
 40
1.201792831047257
 50
179.9626534821
 51
232.2494355137
  0
LINE
  5
22C
  8
0
  6
CONTINUOUS
 62
     7
 10
45.8349767233
 20
89.9817954671
 30
0.0
 11
45.1286378408
 21
90.0299675685
 31
0.0
  0
LINE
  5
22D
  8
0
  6
CONTINUOUS
 62
     7
 10
44.0327945257
 20
90.1020247411
 30
0.0
 11
44.0327945257
 21
102.8221413415
 31
0.0
  0
LINE
  5
22E
  8
0
  6
CONTINUOUS
 62
     7
 10
44.832796147
 20
102.8221413415
 30
0.0
 11
44.832796147
 21
90.1020247411
 31
0.0
  0
LINE
  5
22F
  8
0
  6
CONTINUOUS
 62
     7
 10
44.0327945257
 20
104.0020249706
 30
0.0
 11
44.832796147
 21
104.0020249706
 31
0.0
  0
LINE
  5
230
  8
0
  6
CONTINUOUS
 62
     7
 10
44.0327945257
 20
102.8221413415
 30
0.0
 11
44.0327945257
 21
104.0020249706
 31
0.0
  0
LINE
  5
231
  8
0
  6
CONTINUOUS
 62
     7
 10
44.832796147
 20
104.0020249706
 30
0.0
 11
44.832796147
 21
102.8221413415
 31
0.0
  0
LINE
  5
232
  8
0
  6
CONTINUOUS
 62
     7
 10
39.2327967192
 20
101.0020248514
 30
0.0
 11
39.2327967192
 21
100.0020246875
 31
0.0
  0
LINE
  5
233
  8
0
  6
CONTINUOUS
 62
     7
 10
44.0327945257
 20
101.0020248514
 30
0.0
 11
39.2327967192
 21
101.0020248514
 31
0.0
  0
LINE
  5
234
  8
0
  6
CONTINUOUS
 62
     7
 10
49.2327931429
 20
101.0020248514
 30
0.0
 11
44.832796147
 21
101.0020248514
 31
0.0
  0
LINE
  5
235
  8
0
  6
CONTINUOUS
 62
     7
 10
49.2327931429
 20
101.0020248514
 30
0.0
 11
49.2327931429
 21
100.0020246875
 31
0.0
  0
LINE
  5
236
  8
0
  6
CONTINUOUS
 62
     7
 10
39.2327967192
 20
100.0020246875
 30
0.0
 11
39.2327967192
 21
90.8020246696
 31
0.0
  0
LINE
  5
237
  8
0
  6
CONTINUOUS
 62
     7
 10
49.2327931429
 20
100.0020246875
 30
0.0
 11
49.2327931429
 21
90.8020246696
 31
0.0
  0
LINE
  5
238
  8
0
  6
CONTINUOUS
 62
     7
 10
49.2327931429
 20
89.8020245057
 30
0.0
 11
46.5366843248
 21
89.8020245057
 31
0.0
  0
LINE
  5
239
  8
0
  6
CONTINUOUS
 62
     7
 10
49.2327931429
 20
90.8020246696
 30
0.0
 11
49.2327931429
 21
89.8020245057
 31
0.0
  0
LINE
  5
23A
  8
0
  6
CONTINUOUS
 62
     7
 10
44.0327945257
 20
89.8020245057
 30
0.0
 11
39.2327967192
 21
89.8020245057
 31
0.0
  0
LINE
  5
23B
  8
0
  6
CONTINUOUS
 62
     7
 10
39.2327967192
 20
90.8020246696
 30
0.0
 11
39.2327967192
 21
89.8020245057
 31
0.0
  0
LINE
  5
23C
  8
0
  6
CONTINUOUS
 62
     7
 10
239.4327941442
 20
28.9020225328
 30
0.0
 11
239.4327941442
 21
90.1020247411
 31
0.0
  0
LINE
  5
23D
  8
0
  6
CONTINUOUS
 62
     7
 10
239.3362167383
 20
28.9020225328
 30
0.0
 11
239.4327941442
 21
28.9020225328
 31
0.0
  0
LINE
  5
23E
  8
0
  6
CONTINUOUS
 62
     7
 10
238.5584714914
 20
90.1020247411
 30
0.0
 11
238.5584714914
 21
90.0452054959
 31
0.0
  0
LINE
  5
23F
  8
0
  6
CONTINUOUS
 62
     7
 10
239.4327941442
 20
90.1020247411
 30
0.0
 11
238.5584714914
 21
90.1020247411
 31
0.0
  0
LINE
  5
240
  8
0
  6
CONTINUOUS
 62
     7
 10
238.5584714914
 20
90.0452054959
 30
0.0
 11
238.3369508291
 21
90.0299675685
 31
0.0
  0
ARC
  5
241
  8
0
  6
CONTINUOUS
 62
     7
 10
234.5708588957
 20
83.5829614233
 30
0.0
 40
1.201834798489489
 50
308.2419419619
 51
0.0368399334
  0
LINE
  5
242
  8
0
  6
CONTINUOUS
 62
     7
 10
235.7726934458
 20
87.9862554294
 30
0.0
 11
235.7726934458
 21
83.5837341767
 31
0.0
  0
ARC
  5
243
  8
0
  6
CONTINUOUS
 62
     7
 10
237.7688350301
 20
87.9904408724
 30
0.0
 40
1.996145972237536
 50
93.9706223989
 51
180.1201357031
  0
LINE
  5
244
  8
0
  6
CONTINUOUS
 62
     7
 10
237.6306119467
 20
89.9817954671
 30
0.0
 11
238.3369508291
 21
90.0299675685
 31
0.0
  0
LINE
  5
245
  8
0
  6
CONTINUOUS
 62
     7
 10
239.4327941442
 20
90.1020247411
 30
0.0
 11
239.4327941442
 21
102.8221413415
 31
0.0
  0
LINE
  5
246
  8
0
  6
CONTINUOUS
 62
     7
 10
238.632792523
 20
102.8221413415
 30
0.0
 11
238.632792523
 21
90.1020247411
 31
0.0
  0
LINE
  5
247
  8
0
  6
CONTINUOUS
 62
     7
 10
239.4327941442
 20
104.0020249706
 30
0.0
 11
238.632792523
 21
104.0020249706
 31
0.0
  0
LINE
  5
248
  8
0
  6
CONTINUOUS
 62
     7
 10
239.4327941442
 20
102.8221413415
 30
0.0
 11
239.4327941442
 21
104.0020249706
 31
0.0
  0
LINE
  5
249
  8
0
  6
CONTINUOUS
 62
     7
 10
238.632792523
 20
104.0020249706
 30
0.0
 11
238.632792523
 21
102.8221413415
 31
0.0
  0
LINE
  5
24A
  8
0
  6
CONTINUOUS
 62
     7
 10
234.2327955271
 20
101.0020248514
 30
0.0
 11
238.632792523
 21
101.0020248514
 31
0.0
  0
LINE
  5
24B
  8
0
  6
CONTINUOUS
 62
     7
 10
234.2327955271
 20
101.0020248514
 30
0.0
 11
234.2327955271
 21
100.0020246875
 31
0.0
  0
LINE
  5
24C
  8
0
  6
CONTINUOUS
 62
     7
 10
239.4327941442
 20
101.0020248514
 30
0.0
 11
244.2327919508
 21
101.0020248514
 31
0.0
  0
LINE
  5
24D
  8
0
  6
CONTINUOUS
 62
     7
 10
244.2327919508
 20
101.0020248514
 30
0.0
 11
244.2327919508
 21
100.0020246875
 31
0.0
  0
LINE
  5
24E
  8
0
  6
CONTINUOUS
 62
     7
 10
244.2327919508
 20
100.0020246875
 30
0.0
 11
244.2327919508
 21
90.8020246696
 31
0.0
  0
LINE
  5
24F
  8
0
  6
CONTINUOUS
 62
     7
 10
234.2327955271
 20
100.0020246875
 30
0.0
 11
234.2327955271
 21
90.8020246696
 31
0.0
  0
LINE
  5
250
  8
0
  6
CONTINUOUS
 62
     7
 10
239.4327941442
 20
89.8020245057
 30
0.0
 11
244.2327919508
 21
89.8020245057
 31
0.0
  0
LINE
  5
251
  8
0
  6
CONTINUOUS
 62
     7
 10
244.2327919508
 20
90.8020246696
 30
0.0
 11
244.2327919508
 21
89.8020245057
 31
0.0
  0
LINE
  5
252
  8
0
  6
CONTINUOUS
 62
     7
 10
234.2327955271
 20
89.8020245057
 30
0.0
 11
236.9289043451
 21
89.8020245057
 31
0.0
  0
LINE
  5
253
  8
0
  6
CONTINUOUS
 62
     7
 10
234.2327955271
 20
90.8020246696
 30
0.0
 11
234.2327955271
 21
89.8020245057
 31
0.0
  0
LINE
  5
254
  8
0
  6
CONTINUOUS
 62
     7
 10
119.4327938462
 20
28.9020225328
 30
0.0
 11
119.4327938462
 21
90.1020247411
 31
0.0
  0
LINE
  5
255
  8
0
  6
CONTINUOUS
 62
     7
 10
119.3362164403
 20
28.9020225328
 30
0.0
 11
119.4327938462
 21
28.9020225328
 31
0.0
  0
LINE
  5
256
  8
0
  6
CONTINUOUS
 62
     7
 10
118.5584697033
 20
90.1020247411
 30
0.0
 11
118.5584697033
 21
90.0452054959
 31
0.0
  0
LINE
  5
257
  8
0
  6
CONTINUOUS
 62
     7
 10
119.4327938462
 20
90.1020247411
 30
0.0
 11
118.5584697033
 21
90.1020247411
 31
0.0
  0
LINE
  5
258
  8
0
  6
CONTINUOUS
 62
     7
 10
118.5584697033
 20
90.0452054959
 30
0.0
 11
118.336949041
 21
90.0299675685
 31
0.0
  0
ARC
  5
259
  8
0
  6
CONTINUOUS
 62
     7
 10
114.5708571076
 20
83.5829614233
 30
0.0
 40
1.201834798489474
 50
308.2419419619
 51
0.0368399334
  0
LINE
  5
25A
  8
0
  6
CONTINUOUS
 62
     7
 10
115.7726916576
 20
87.9862554294
 30
0.0
 11
115.7726916576
 21
83.5837341767
 31
0.0
  0
ARC
  5
25B
  8
0
  6
CONTINUOUS
 62
     7
 10
117.7688341331
 20
87.9904397331
 30
0.0
 40
1.99614686099967
 50
93.9705176467
 51
180.120102947
  0
LINE
  5
25C
  8
0
  6
CONTINUOUS
 62
     7
 10
117.6306146289
 20
89.9817954671
 30
0.0
 11
118.336949041
 21
90.0299675685
 31
0.0
  0
LINE
  5
25D
  8
0
  6
CONTINUOUS
 62
     7
 10
119.4327938462
 20
90.1020247411
 30
0.0
 11
119.4327938462
 21
102.8221413415
 31
0.0
  0
LINE
  5
25E
  8
0
  6
CONTINUOUS
 62
     7
 10
118.6327937151
 20
102.8221413415
 30
0.0
 11
118.6327937151
 21
90.1020247411
 31
0.0
  0
LINE
  5
25F
  8
0
  6
CONTINUOUS
 62
     7
 10
119.4327938462
 20
104.0020249706
 30
0.0
 11
118.6327937151
 21
104.0020249706
 31
0.0
  0
LINE
  5
260
  8
0
  6
CONTINUOUS
 62
     7
 10
119.4327938462
 20
102.8221413415
 30
0.0
 11
119.4327938462
 21
104.0020249706
 31
0.0
  0
LINE
  5
261
  8
0
  6
CONTINUOUS
 62
     7
 10
118.6327937151
 20
104.0020249706
 30
0.0
 11
118.6327937151
 21
102.8221413415
 31
0.0
  0
LINE
  5
262
  8
0
  6
CONTINUOUS
 62
     7
 10
119.4327938462
 20
101.0020248514
 30
0.0
 11
124.232794633
 21
101.0020248514
 31
0.0
  0
LINE
  5
263
  8
0
  6
CONTINUOUS
 62
     7
 10
124.232794633
 20
101.0020248514
 30
0.0
 11
124.232794633
 21
100.0020246875
 31
0.0
  0
LINE
  5
264
  8
0
  6
CONTINUOUS
 62
     7
 10
114.2327937389
 20
101.0020248514
 30
0.0
 11
118.6327937151
 21
101.0020248514
 31
0.0
  0
LINE
  5
265
  8
0
  6
CONTINUOUS
 62
     7
 10
114.2327937389
 20
101.0020248514
 30
0.0
 11
114.2327937389
 21
100.0020246875
 31
0.0
  0
LINE
  5
266
  8
0
  6
CONTINUOUS
 62
     7
 10
114.2327937389
 20
100.0020246875
 30
0.0
 11
114.2327937389
 21
90.8020246696
 31
0.0
  0
LINE
  5
267
  8
0
  6
CONTINUOUS
 62
     7
 10
124.232794633
 20
100.0020246875
 30
0.0
 11
124.232794633
 21
90.8020246696
 31
0.0
  0
LINE
  5
268
  8
0
  6
CONTINUOUS
 62
     7
 10
114.2327937389
 20
89.8020245057
 30
0.0
 11
116.9289040471
 21
89.8020245057
 31
0.0
  0
LINE
  5
269
  8
0
  6
CONTINUOUS
 62
     7
 10
114.2327937389
 20
90.8020246696
 30
0.0
 11
114.2327937389
 21
89.8020245057
 31
0.0
  0
LINE
  5
26A
  8
0
  6
CONTINUOUS
 62
     7
 10
119.4327938462
 20
89.8020245057
 30
0.0
 11
124.232794633
 21
89.8020245057
 31
0.0
  0
LINE
  5
26B
  8
0
  6
CONTINUOUS
 62
     7
 10
124.232794633
 20
90.8020246696
 30
0.0
 11
124.232794633
 21
89.8020245057
 31
0.0
  0
ARC
  5
26C
  8
0
  6
CONTINUOUS
 62
     7
 10
21.732794335
 20
95.2020246786
 30
0.0
 40
2.699999999999992
 50
0.0
 51
180.0
  0
ARC
  5
26D
  8
0
  6
CONTINUOUS
 62
     7
 10
21.732794335
 20
45.2020246786
 30
0.0
 40
2.699999999999992
 50
180.0
 51
0.0
  0
LINE
  5
26E
  8
0
  6
CONTINUOUS
 62
     7
 10
15.7327952886
 20
101.2020245117
 30
0.0
 11
27.7327957655
 21
101.2020245117
 31
0.0
  0
LINE
  5
26F
  8
0
  6
CONTINUOUS
 62
     7
 10
27.7327957655
 20
101.2020245117
 30
0.0
 11
27.7327957655
 21
100.0020246875
 31
0.0
  0
LINE
  5
270
  8
0
  6
CONTINUOUS
 62
     7
 10
15.7327952886
 20
100.0020246875
 30
0.0
 11
15.7327952886
 21
101.2020245117
 31
0.0
  0
LINE
  5
271
  8
0
  6
CONTINUOUS
 62
     7
 10
27.7327957655
 20
100.0020246875
 30
0.0
 11
27.7327957655
 21
90.4020246041
 31
0.0
  0
LINE
  5
272
  8
0
  6
CONTINUOUS
 62
     7
 10
15.7327952886
 20
100.0020246875
 30
0.0
 11
15.7327952886
 21
90.4020246041
 31
0.0
  0
LINE
  5
273
  8
0
  6
CONTINUOUS
 62
     7
 10
27.7327957655
 20
89.2020247799
 30
0.0
 11
24.4327965284
 21
89.2020247799
 31
0.0
  0
LINE
  5
274
  8
0
  6
CONTINUOUS
 62
     7
 10
19.0327945257
 20
89.2020247799
 30
0.0
 11
15.7327952886
 21
89.2020247799
 31
0.0
  0
LINE
  5
275
  8
0
  6
CONTINUOUS
 62
     7
 10
27.7327957655
 20
90.4020246041
 30
0.0
 11
27.7327957655
 21
89.2020247799
 31
0.0
  0
LINE
  5
276
  8
0
  6
CONTINUOUS
 62
     7
 10
15.7327952886
 20
89.2020247799
 30
0.0
 11
15.7327952886
 21
90.4020246041
 31
0.0
  0
ARC
  5
277
  8
0
  6
CONTINUOUS
 62
     7
 10
141.732794335
 20
95.2020246786
 30
0.0
 40
2.700000000000017
 50
0.0
 51
180.0
  0
ARC
  5
278
  8
0
  6
CONTINUOUS
 62
     7
 10
141.732794335
 20
45.2020246786
 30
0.0
 40
2.700000000000017
 50
180.0
 51
0.0
  0
LINE
  5
279
  8
0
  6
CONTINUOUS
 62
     7
 10
135.7327944691
 20
101.2020245117
 30
0.0
 11
147.7327942009
 21
101.2020245117
 31
0.0
  0
LINE
  5
27A
  8
0
  6
CONTINUOUS
 62
     7
 10
147.7327942009
 20
101.2020245117
 30
0.0
 11
147.7327942009
 21
100.0020246875
 31
0.0
  0
LINE
  5
27B
  8
0
  6
CONTINUOUS
 62
     7
 10
135.7327944691
 20
100.0020246875
 30
0.0
 11
135.7327944691
 21
101.2020245117
 31
0.0
  0
LINE
  5
27C
  8
0
  6
CONTINUOUS
 62
     7
 10
147.7327942009
 20
100.0020246875
 30
0.0
 11
147.7327942009
 21
90.4020246041
 31
0.0
  0
LINE
  5
27D
  8
0
  6
CONTINUOUS
 62
     7
 10
135.7327944691
 20
100.0020246875
 30
0.0
 11
135.7327944691
 21
90.4020246041
 31
0.0
  0
LINE
  5
27E
  8
0
  6
CONTINUOUS
 62
     7
 10
147.7327942009
 20
89.2020247799
 30
0.0
 11
144.432794405
 21
89.2020247799
 31
0.0
  0
LINE
  5
27F
  8
0
  6
CONTINUOUS
 62
     7
 10
139.0327942649
 20
89.2020247799
 30
0.0
 11
135.7327944691
 21
89.2020247799
 31
0.0
  0
LINE
  5
280
  8
0
  6
CONTINUOUS
 62
     7
 10
147.7327942009
 20
90.4020246041
 30
0.0
 11
147.7327942009
 21
89.2020247799
 31
0.0
  0
LINE
  5
281
  8
0
  6
CONTINUOUS
 62
     7
 10
135.7327944691
 20
89.2020247799
 30
0.0
 11
135.7327944691
 21
90.4020246041
 31
0.0
  0
ARC
  5
282
  8
0
  6
CONTINUOUS
 62
     7
 10
261.732794335
 20
95.2020246786
 30
0.0
 40
2.700000000000045
 50
0.0
 51
180.0
  0
ARC
  5
283
  8
0
  6
CONTINUOUS
 62
     7
 10
261.732794335
 20
45.2020246786
 30
0.0
 40
2.700000000000045
 50
180.0
 51
0.0
  0
LINE
  5
284
  8
0
  6
CONTINUOUS
 62
     7
 10
255.7327929045
 20
101.2020245117
 30
0.0
 11
267.7327933813
 21
101.2020245117
 31
0.0
  0
LINE
  5
285
  8
0
  6
CONTINUOUS
 62
     7
 10
255.7327929045
 20
100.0020246875
 30
0.0
 11
255.7327929045
 21
101.2020245117
 31
0.0
  0
LINE
  5
286
  8
0
  6
CONTINUOUS
 62
     7
 10
267.7327933813
 20
101.2020245117
 30
0.0
 11
267.7327933813
 21
100.0020246875
 31
0.0
  0
LINE
  5
287
  8
0
  6
CONTINUOUS
 62
     7
 10
255.7327929045
 20
100.0020246875
 30
0.0
 11
255.7327929045
 21
90.4020246041
 31
0.0
  0
LINE
  5
288
  8
0
  6
CONTINUOUS
 62
     7
 10
267.7327933813
 20
100.0020246875
 30
0.0
 11
267.7327933813
 21
90.4020246041
 31
0.0
  0
LINE
  5
289
  8
0
  6
CONTINUOUS
 62
     7
 10
267.7327933813
 20
89.2020247799
 30
0.0
 11
264.4327941442
 21
89.2020247799
 31
0.0
  0
LINE
  5
28A
  8
0
  6
CONTINUOUS
 62
     7
 10
259.0327921415
 20
89.2020247799
 30
0.0
 11
255.7327929045
 21
89.2020247799
 31
0.0
  0
LINE
  5
28B
  8
0
  6
CONTINUOUS
 62
     7
 10
255.7327929045
 20
89.2020247799
 30
0.0
 11
255.7327929045
 21
90.4020246041
 31
0.0
  0
LINE
  5
28C
  8
0
  6
CONTINUOUS
 62
     7
 10
267.7327933813
 20
90.4020246041
 30
0.0
 11
267.7327933813
 21
89.2020247799
 31
0.0
  0
LINE
  5
28D
  8
0
  6
CONTINUOUS
 62
     7
 10
12.9327955748
 20
99.4020245892
 30
0.0
 11
12.9327955748
 21
100.0020246875
 31
0.0
  0
ARC
  5
28E
  8
0
  6
CONTINUOUS
 62
     7
 10
13.332794335
 20
100.0020246786
 30
0.0
 40
0.4000000000000057
 50
90.0
 51
180.0
  0
LINE
  5
28F
  8
0
  6
CONTINUOUS
 62
     7
 10
270.5327930952
 20
100.0020246875
 30
0.0
 11
270.5327930952
 21
99.4020245892
 31
0.0
  0
ARC
  5
290
  8
0
  6
CONTINUOUS
 62
     7
 10
270.132794335
 20
100.0020246786
 30
0.0
 40
0.4000000000000057
 50
0.0
 51
90.0
  0
LINE
  5
291
  8
0
  6
CONTINUOUS
 62
     7
 10
13.3327904249
 20
100.4020247531
 30
0.0
 11
15.7327952886
 21
100.4020247531
 31
0.0
  0
LINE
  5
292
  8
0
  6
CONTINUOUS
 62
     7
 10
27.7327957655
 20
100.4020247531
 30
0.0
 11
39.2327967192
 21
100.4020247531
 31
0.0
  0
LINE
  5
293
  8
0
  6
CONTINUOUS
 62
     7
 10
49.2327931429
 20
100.4020247531
 30
0.0
 11
114.2327937389
 21
100.4020247531
 31
0.0
  0
LINE
  5
294
  8
0
  6
CONTINUOUS
 62
     7
 10
124.232794633
 20
100.4020247531
 30
0.0
 11
135.7327944691
 21
100.4020247531
 31
0.0
  0
LINE
  5
295
  8
0
  6
CONTINUOUS
 62
     7
 10
147.7327942009
 20
100.4020247531
 30
0.0
 11
159.232794037
 21
100.4020247531
 31
0.0
  0
LINE
  5
296
  8
0
  6
CONTINUOUS
 62
     7
 10
169.232794931
 20
100.4020247531
 30
0.0
 11
234.2327955271
 21
100.4020247531
 31
0.0
  0
LINE
  5
297
  8
0
  6
CONTINUOUS
 62
     7
 10
244.2327919508
 20
100.4020247531
 30
0.0
 11
255.7327929045
 21
100.4020247531
 31
0.0
  0
LINE
  5
298
  8
0
  6
CONTINUOUS
 62
     7
 10
267.7327933813
 20
100.4020247531
 30
0.0
 11
270.132798245
 21
100.4020247531
 31
0.0
  0
LINE
  5
299
  8
0
  6
CONTINUOUS
 62
     7
 10
270.5327930952
 20
99.4020245892
 30
0.0
 11
270.5327930952
 21
91.402024768
 31
0.0
  0
LINE
  5
29A
  8
0
  6
CONTINUOUS
 62
     7
 10
12.9327955748
 20
91.402024768
 30
0.0
 11
12.9327955748
 21
99.4020245892
 31
0.0
  0
LINE
  5
29B
  8
0
  6
CONTINUOUS
 62
     7
 10
270.132798245
 20
90.4020246041
 30
0.0
 11
267.7327933813
 21
90.4020246041
 31
0.0
  0
LINE
  5
29C
  8
0
  6
CONTINUOUS
 62
     7
 10
255.7327929045
 20
90.4020246041
 30
0.0
 11
244.2327919508
 21
90.4020246041
 31
0.0
  0
LINE
  5
29D
  8
0
  6
CONTINUOUS
 62
     7
 10
234.2327955271
 20
90.4020246041
 30
0.0
 11
212.0955946947
 21
90.4020246041
 31
0.0
  0
LINE
  5
29E
  8
0
  6
CONTINUOUS
 62
     7
 10
191.3353058601
 20
90.4020246041
 30
0.0
 11
169.232794931
 21
90.4020246041
 31
0.0
  0
LINE
  5
29F
  8
0
  6
CONTINUOUS
 62
     7
 10
159.232794037
 20
90.4020246041
 30
0.0
 11
147.7327942009
 21
90.4020246041
 31
0.0
  0
LINE
  5
2A0
  8
0
  6
CONTINUOUS
 62
     7
 10
135.7327944691
 20
90.4020246041
 30
0.0
 11
124.232794633
 21
90.4020246041
 31
0.0
  0
LINE
  5
2A1
  8
0
  6
CONTINUOUS
 62
     7
 10
114.2327937389
 20
90.4020246041
 30
0.0
 11
92.0955958868
 21
90.4020246041
 31
0.0
  0
LINE
  5
2A2
  8
0
  6
CONTINUOUS
 62
     7
 10
71.335304072
 20
90.4020246041
 30
0.0
 11
49.2327931429
 21
90.4020246041
 31
0.0
  0
LINE
  5
2A3
  8
0
  6
CONTINUOUS
 62
     7
 10
39.2327967192
 20
90.4020246041
 30
0.0
 11
27.7327957655
 21
90.4020246041
 31
0.0
  0
LINE
  5
2A4
  8
0
  6
CONTINUOUS
 62
     7
 10
15.7327952886
 20
90.4020246041
 30
0.0
 11
13.3327904249
 21
90.4020246041
 31
0.0
  0
LINE
  5
2A5
  8
0
  6
CONTINUOUS
 62
     7
 10
270.5327930952
 20
91.402024768
 30
0.0
 11
270.5327930952
 21
90.8020246696
 31
0.0
  0
ARC
  5
2A6
  8
0
  6
CONTINUOUS
 62
     7
 10
270.132794335
 20
90.8020246786
 30
0.0
 40
0.3999999999999915
 50
270.0
 51
0.0
  0
ARC
  5
2A7
  8
0
  6
CONTINUOUS
 62
     7
 10
13.332794335
 20
90.8020246786
 30
0.0
 40
0.3999999999999915
 50
180.0
 51
270.0
  0
LINE
  5
2A8
  8
0
  6
CONTINUOUS
 62
     7
 10
12.9327955748
 20
90.8020246696
 30
0.0
 11
12.9327955748
 21
91.402024768
 31
0.0
  0
POLYLINE
  5
2A9
  8
0
  6
CONTINUOUS
 62
     7
 66
     1
 10
0.0
 20
0.0
 30
0.0
  0
VERTEX
  5
55B
  8
0
  6
CONTINUOUS
 62
     7
 10
56.1241808439
 20
86.5465179008
 30
0.0
  0
VERTEX
  5
55C
  8
0
  6
CONTINUOUS
 62
     7
 10
55.7382050062
 20
88.7586601001
 30
0.0
  0
VERTEX
  5
55D
  8
0
  6
CONTINUOUS
 62
     7
 10
55.4926517511
 20
90.4020246041
 30
0.0
  0
SEQEND
  5
562
  8
0
  6
CONTINUOUS
 62
     7
  0
LINE
  5
2AA
  8
0
  6
CONTINUOUS
 62
     7
 10
54.7390463854
 20
100.4020247531
 30
0.0
 11
54.7327938581
 21
101.4020245444
 31
0.0
  0
LINE
  5
2AB
  8
0
  6
CONTINUOUS
 62
     7
 10
54.7327938581
 20
103.4020244997
 30
0.0
 11
54.7327938581
 21
101.4020245444
 31
0.0
  0
ARC
  5
2AC
  8
0
  6
CONTINUOUS
 62
     7
 10
58.732794335
 20
103.4020246786
 30
0.0
 40
4.000000000000014
 50
90.0
 51
180.0
  0
ARC
  5
2AD
  8
0
  6
CONTINUOUS
 62
     7
 10
74.732794335
 20
103.4020246786
 30
0.0
 40
4.000000000000014
 50
0.0
 51
90.0
  0
LINE
  5
2AE
  8
0
  6
CONTINUOUS
 62
     7
 10
78.7327948118
 20
101.4020245444
 30
0.0
 11
78.7327948118
 21
103.4020244997
 31
0.0
  0
LINE
  5
2AF
  8
0
  6
CONTINUOUS
 62
     7
 10
78.7327948118
 20
101.4020245444
 30
0.0
 11
78.7265422846
 21
100.4020247531
 31
0.0
  0
CIRCLE
  5
2B0
  8
0
  6
CONTINUOUS
 62
     7
 10
58.732794335
 20
103.4020246786
 30
0.0
 40
1.5
  0
CIRCLE
  5
2B1
  8
0
  6
CONTINUOUS
 62
     7
 10
74.732794335
 20
103.4020246786
 30
0.0
 40
1.5
  0
LINE
  5
2B2
  8
0
  6
CONTINUOUS
 62
     7
 10
74.732792666
 20
107.4020244103
 30
0.0
 11
58.7327960039
 21
107.4020244103
 31
0.0
  0
ARC
  5
2B3
  8
0
  6
CONTINUOUS
 62
     7
 10
224.732794335
 20
103.4020246786
 30
0.0
 40
4.000000000000014
 50
0.0
 51
90.0
  0
LINE
  5
2B4
  8
0
  6
CONTINUOUS
 62
     7
 10
228.7327948118
 20
101.4020245444
 30
0.0
 11
228.7327948118
 21
103.4020244997
 31
0.0
  0
LINE
  5
2B5
  8
0
  6
CONTINUOUS
 62
     7
 10
228.7327948118
 20
101.4020245444
 30
0.0
 11
228.7265422846
 21
100.4020247531
 31
0.0
  0
POLYLINE
  5
2B6
  8
0
  6
CONTINUOUS
 62
     7
 66
     1
 10
0.0
 20
0.0
 30
0.0
  0
VERTEX
  5
55E
  8
0
  6
CONTINUOUS
 62
     7
 10
227.9729369188
 20
90.4020246041
 30
0.0
  0
VERTEX
  5
55F
  8
0
  6
CONTINUOUS
 62
     7
 10
227.7273836637
 20
88.7586601001
 30
0.0
  0
VERTEX
  5
560
  8
0
  6
CONTINUOUS
 62
     7
 10
227.3412468935
 20
86.5456677895
 30
0.0
  0
SEQEND
  5
561
  8
0
  6
CONTINUOUS
 62
     7
  0
LINE
  5
2B7
  8
0
  6
CONTINUOUS
 62
     7
 10
204.7390463854
 20
100.4020247531
 30
0.0
 11
204.7327938581
 21
101.4020245444
 31
0.0
  0
LINE
  5
2B8
  8
0
  6
CONTINUOUS
 62
     7
 10
204.7327938581
 20
103.4020244997
 30
0.0
 11
204.7327938581
 21
101.4020245444
 31
0.0
  0
ARC
  5
2B9
  8
0
  6
CONTINUOUS
 62
     7
 10
208.732794335
 20
103.4020246786
 30
0.0
 40
4.000000000000014
 50
90.0
 51
180.0
  0
CIRCLE
  5
2BA
  8
0
  6
CONTINUOUS
 62
     7
 10
224.732794335
 20
103.4020246786
 30
0.0
 40
1.500000000000014
  0
CIRCLE
  5
2BB
  8
0
  6
CONTINUOUS
 62
     7
 10
208.732794335
 20
103.4020246786
 30
0.0
 40
1.500000000000014
  0
LINE
  5
2BC
  8
0
  6
CONTINUOUS
 62
     7
 10
224.732792666
 20
107.4020244103
 30
0.0
 11
208.7327960039
 21
107.4020244103
 31
0.0
  0
ENDSEC
  0
EOF
