  0
SECTION
  2
HEADER
  9
$ACADVER
  1
AC1009
  9
$DWGCODEPAGE
  3
ansi_1252
  9
$INSBASE
 10
0.0
 20
0.0
 30
0.0
  9
$EXTMIN
 10
0.0
 20
0.0
 30
0.0
  9
$EXTMAX
 10
420.0
 20
297.0
 30
0.0
  9
$LIMMIN
 10
0.0
 20
0.0
  9
$LIMMAX
 10
420.0
 20
297.0
  9
$ORTHOMODE
 70
     0
  9
$REGENMODE
 70
     1
  9
$FILLMODE
 70
     1
  9
$QTEXTMODE
 70
     0
  9
$MIRRTEXT
 70
     1
  9
$DRAGMODE
 70
     2
  9
$LTSCALE
 40
1.0
  9
$OSMODE
 70
    37
  9
$ATTMODE
 70
     1
  9
$TEXTSIZE
 40
3.5
  9
$TRACEWID
 40
1.0
  9
$TEXTSTYLE
  7
STANDARD
  9
$CLAYER
  8
0
  9
$CELTYPE
  6
BYLAYER
  9
$CECOLOR
 62
   256
  9
$DIMSCALE
 40
1.0
  9
$DIMASZ
 40
4.0
  9
$DIMEXO
 40
0.0
  9
$DIMDLI
 40
3.75
  9
$DIMRND
 40
0.0
  9
$DIMDLE
 40
0.0
  9
$DIMEXE
 40
2.0
  9
$DIMTP
 40
0.0
  9
$DIMTM
 40
0.0
  9
$DIMTXT
 40
3.5
  9
$DIMCEN
 40
2.5
  9
$DIMTSZ
 40
0.0
  9
$DIMTOL
 70
     0
  9
$DIMLIM
 70
     0
  9
$DIMTIH
 70
     1
  9
$DIMTOH
 70
     1
  9
$DIMSE1
 70
     0
  9
$DIMSE2
 70
     0
  9
$DIMTAD
 70
     1
  9
$DIMZIN
 70
     0
  9
$DIMBLK
  1

  9
$DIMASO
 70
     1
  9
$DIMSHO
 70
     1
  9
$DIMPOST
  1

  9
$DIMAPOST
  1

  9
$DIMALT
 70
     0
  9
$DIMALTD
 70
     3
  9
$DIMALTF
 40
0.0393700787
  9
$DIMLFAC
 40
5.0
  9
$DIMTOFL
 70
     1
  9
$DIMTVP
 40
0.0
  9
$DIMTIX
 70
     0
  9
$DIMSOXD
 70
     0
  9
$DIMSAH
 70
     0
  9
$DIMBLK1
  1

  9
$DIMBLK2
  1

  9
$DIMSTYLE
  2
ISO-25
  9
$DIMCLRD
 70
     0
  9
$DIMCLRE
 70
     0
  9
$DIMCLRT
 70
     0
  9
$DIMTFAC
 40
1.0
  9
$DIMGAP
 40
1.524
  9
$LUNITS
 70
     2
  9
$LUPREC
 70
     2
  9
$SKETCHINC
 40
1.0
  9
$FILLETRAD
 40
10.0
  9
$AUNITS
 70
     0
  9
$AUPREC
 70
     2
  9
$MENU
  1
.
  9
$ELEVATION
 40
0.0
  9
$PELEVATION
 40
0.0
  9
$THICKNESS
 40
0.0
  9
$LIMCHECK
 70
     0
  9
$CHAMFERA
 40
10.0
  9
$CHAMFERB
 40
10.0
  9
$SKPOLY
 70
     0
  9
$TDCREATE
 40
2457802.643418461
  9
$TDUPDATE
 40
2457802.643418773
  9
$TDINDWG
 40
0.0000000116
  9
$TDUSRTIMER
 40
0.0000000116
  9
$USRTIMER
 70
     1
  9
$ANGBASE
 50
0.0
  9
$ANGDIR
 70
     0
  9
$PDMODE
 70
     0
  9
$PDSIZE
 40
-1.0
  9
$PLINEWID
 40
0.0
  9
$COORDS
 70
     1
  9
$SPLFRAME
 70
     0
  9
$SPLINETYPE
 70
     6
  9
$SPLINESEGS
 70
     8
  9
$ATTDIA
 70
     0
  9
$ATTREQ
 70
     1
  9
$HANDLING
 70
     1
  9
$HANDSEED
  5
90D
  9
$SURFTAB1
 70
     6
  9
$SURFTAB2
 70
     6
  9
$SURFTYPE
 70
     6
  9
$SURFU
 70
     6
  9
$SURFV
 70
     6
  9
$UCSNAME
  2

  9
$UCSORG
 10
0.0
 20
0.0
 30
0.0
  9
$UCSXDIR
 10
1.0
 20
0.0
 30
0.0
  9
$UCSYDIR
 10
0.0
 20
1.0
 30
0.0
  9
$PUCSNAME
  2

  9
$PUCSORG
 10
0.0
 20
0.0
 30
0.0
  9
$PUCSXDIR
 10
1.0
 20
0.0
 30
0.0
  9
$PUCSYDIR
 10
0.0
 20
1.0
 30
0.0
  9
$USERI1
 70
     0
  9
$USERI2
 70
     0
  9
$USERI3
 70
     0
  9
$USERI4
 70
     0
  9
$USERI5
 70
     0
  9
$USERR1
 40
0.0
  9
$USERR2
 40
0.0
  9
$USERR3
 40
0.0
  9
$USERR4
 40
0.0
  9
$USERR5
 40
0.0
  9
$WORLDVIEW
 70
     1
  9
$SHADEDGE
 70
     3
  9
$SHADEDIF
 70
    70
  9
$TILEMODE
 70
     1
  9
$MAXACTVP
 70
    64
  9
$PLIMCHECK
 70
     0
  9
$PEXTMIN
 10
1.0000000000E+20
 20
1.0000000000E+20
 30
1.0000000000E+20
  9
$PEXTMAX
 10
-1.0000000000E+20
 20
-1.0000000000E+20
 30
-1.0000000000E+20
  9
$PLIMMIN
 10
0.0
 20
0.0
  9
$PLIMMAX
 10
420.0
 20
297.0
  9
$UNITMODE
 70
     0
  9
$VISRETAIN
 70
     1
  9
$PLINEGEN
 70
     0
  9
$PSLTSCALE
 70
     1
  0
ENDSEC
  0
SECTION
  2
TABLES
  0
TABLE
  2
VPORT
 70
     1
  0
VPORT
  2
*ACTIVE
 70
     0
 10
0.0
 20
0.0
 11
1.0
 21
1.0
 12
210.0
 22
148.5
 13
0.0
 23
0.0
 14
10.0
 24
10.0
 15
10.0
 25
10.0
 16
0.0
 26
0.0
 36
1.0
 17
0.0
 27
0.0
 37
0.0
 40
297.0
 41
1.4141414141
 42
50.0
 43
0.0
 44
0.0
 50
0.0
 51
0.0
 71
     0
 72
  2000
 73
     1
 74
     3
 75
     0
 76
     0
 77
     0
 78
     0
  0
ENDTAB
  0
TABLE
  2
LTYPE
 70
     6
  0
LTYPE
  2
CONTINUOUS
 70
     0
  3
Solid line
 72
    65
 73
     0
 40
0.0
  0
LTYPE
  2
HIDDEN
 70
     0
  3
Hidden __ __ __ __ __ __ __ __ __ __ __ __ __ __
 72
    65
 73
     2
 40
1.905
 49
1.27
 49
-0.635
  0
LTYPE
  2
PHANTOM
 70
     0
  3
Phantom ______  __  __  ______  __  __  ______
 72
    65
 73
     6
 40
12.7
 49
6.35
 49
-1.27
 49
1.27
 49
-1.27
 49
1.27
 49
-1.27
  0
LTYPE
  2
CENTER
 70
     0
  3
Center ____ _ ____ _ ____ _ ____ _ ____ _ ____
 72
    65
 73
     4
 40
10.16
 49
6.35
 49
-1.27
 49
1.27
 49
-1.27
  0
LTYPE
  2
CENTERX2
 70
     0
  3
Center (2x) ________  __  ________  __  _____
 72
    65
 73
     4
 40
20.32
 49
12.7
 49
-2.54
 49
2.54
 49
-2.54
  0
LTYPE
  2
DOT2
 70
     0
  3
Dot (.5x) ........................................
 72
    65
 73
     2
 40
0.635
 49
0.0
 49
-0.635
  0
ENDTAB
  0
TABLE
  2
LAYER
 70
     2
  0
LAYER
  2
0
 70
     0
 62
     7
  6
CONTINUOUS
  0
LAYER
  2
FORMAT
 70
     0
 62
     7
  6
CONTINUOUS
  0
ENDTAB
  0
TABLE
  2
STYLE
 70
     1
  0
STYLE
  2
STANDARD
 70
     0
 40
0.0
 41
1.0
 50
0.0
 71
     0
 42
3.5
  3
txt
  4

  0
ENDTAB
  0
TABLE
  2
VIEW
 70
     0
  0
ENDTAB
  0
TABLE
  2
UCS
 70
     0
  0
ENDTAB
  0
TABLE
  2
APPID
 70
     1
  0
APPID
  2
ACAD
 70
     0
  0
ENDTAB
  0
TABLE
  2
DIMSTYLE
 70
     1
  0
DIMSTYLE
  2
ISO-25
 70
     0
  3

  4

  5

  6

  7

 40
1.0
 41
2.5
 42
0.625
 43
3.75
 44
1.25
 45
0.0
 46
0.0
 47
0.0
 48
0.0
140
2.5
141
2.5
142
0.0
143
0.0393700787
144
1.0
145
0.0
146
1.0
147
0.625
 71
     0
 72
     0
 73
     0
 74
     0
 75
     0
 76
     0
 77
     1
 78
     8
170
     0
171
     3
172
     1
173
     0
174
     0
175
     0
176
     0
177
     0
178
     0
  0
ENDTAB
  0
ENDSEC
  0
SECTION
  2
BLOCKS
  0
BLOCK
  8
0
  2
$MODEL_SPACE
 70
     0
 10
0.0
 20
0.0
 30
0.0
  3
$MODEL_SPACE
  1

  0
ENDBLK
  5
21
  8
0
  0
BLOCK
 67
     1
  8
0
  2
$PAPER_SPACE
 70
     0
 10
0.0
 20
0.0
 30
0.0
  3
$PAPER_SPACE
  1

  0
ENDBLK
  5
1D
 67
     1
  8
0
  0
ENDSEC
  0
SECTION
  2
ENTITIES
  0
POLYLINE
  5
45
  8
0
  6
CONTINUOUS
 62
     7
 66
     1
 10
0.0
 20
0.0
 30
0.0
  0
VERTEX
  5
3A1
  8
0
  6
CONTINUOUS
 62
     7
 10
225.0078505353
 20
279.3268633604
 30
0.0
  0
VERTEX
  5
3A2
  8
0
  6
CONTINUOUS
 62
     7
 10
224.9433404282
 20
279.356296134
 30
0.0
  0
VERTEX
  5
3A3
  8
0
  6
CONTINUOUS
 62
     7
 10
224.4130200223
 20
279.5976234197
 30
0.0
  0
SEQEND
  5
90C
  8
0
  6
CONTINUOUS
 62
     7
  0
LINE
  5
46
  8
0
  6
CONTINUOUS
 62
     7
 10
161.7428219394
 20
279.598255229
 30
0.0
 11
161.145908244
 21
279.3262792349
 31
0.0
  0
POLYLINE
  5
47
  8
0
  6
CONTINUOUS
 62
     7
 66
     1
 10
0.0
 20
0.0
 30
0.0
  0
VERTEX
  5
3A4
  8
0
  6
CONTINUOUS
 62
     7
 10
105.0078517274
 20
279.3268633604
 30
0.0
  0
VERTEX
  5
3A5
  8
0
  6
CONTINUOUS
 62
     7
 10
104.9433386401
 20
279.356296134
 30
0.0
  0
VERTEX
  5
3A6
  8
0
  6
CONTINUOUS
 62
     7
 10
104.4130212144
 20
279.5976234197
 30
0.0
  0
SEQEND
  5
90B
  8
0
  6
CONTINUOUS
 62
     7
  0
LINE
  5
48
  8
0
  6
CONTINUOUS
 62
     7
 10
41.7428201512
 20
279.598255229
 30
0.0
 11
41.1459094361
 21
279.3262792349
 31
0.0
  0
POLYLINE
  5
49
  8
0
  6
CONTINUOUS
 62
     7
 66
     1
 10
0.0
 20
0.0
 30
0.0
  0
VERTEX
  5
3A7
  8
0
  6
CONTINUOUS
 62
     7
 10
110.5143165663
 20
205.6297076464
 30
0.0
  0
VERTEX
  5
3A8
  8
0
  6
CONTINUOUS
 62
     7
 10
109.2394566611
 20
205.4594946623
 30
0.0
  0
VERTEX
  5
3A9
  8
0
  6
CONTINUOUS
 62
     7
 10
108.14661593
 20
205.3184283495
 30
0.0
  0
VERTEX
  5
3AA
  8
0
  6
CONTINUOUS
 62
     7
 10
107.2360879258
 20
205.2042973757
 30
0.0
  0
VERTEX
  5
3AB
  8
0
  6
CONTINUOUS
 62
     7
 10
106.5081125573
 20
205.1152659178
 30
0.0
  0
VERTEX
  5
3AC
  8
0
  6
CONTINUOUS
 62
     7
 10
105.9097206668
 20
205.0435496092
 30
0.0
  0
VERTEX
  5
3AD
  8
0
  6
CONTINUOUS
 62
     7
 10
105.4886734561
 20
204.9939585447
 30
0.0
  0
VERTEX
  5
3AE
  8
0
  6
CONTINUOUS
 62
     7
 10
105.0524926261
 20
204.9437297106
 30
0.0
  0
VERTEX
  5
3AF
  8
0
  6
CONTINUOUS
 62
     7
 10
104.5831447915
 20
204.8909259558
 30
0.0
  0
VERTEX
  5
3B0
  8
0
  6
CONTINUOUS
 62
     7
 10
104.0806120709
 20
204.8357439756
 30
0.0
  0
VERTEX
  5
3B1
  8
0
  6
CONTINUOUS
 62
     7
 10
103.5448736027
 20
204.778374505
 30
0.0
  0
VERTEX
  5
3B2
  8
0
  6
CONTINUOUS
 62
     7
 10
102.1505689696
 20
204.6357584715
 30
0.0
  0
VERTEX
  5
3B3
  8
0
  6
CONTINUOUS
 62
     7
 10
100.5714035109
 20
204.4852627039
 30
0.0
  0
VERTEX
  5
3B4
  8
0
  6
CONTINUOUS
 62
     7
 10
99.2518431023
 20
204.3681395769
 30
0.0
  0
VERTEX
  5
3B5
  8
0
  6
CONTINUOUS
 62
     7
 10
97.9251331166
 20
204.2589617491
 30
0.0
  0
VERTEX
  5
3B6
  8
0
  6
CONTINUOUS
 62
     7
 10
96.6915702895
 20
204.1662944078
 30
0.0
  0
VERTEX
  5
3B7
  8
0
  6
CONTINUOUS
 62
     7
 10
95.551321514
 20
204.0890169859
 30
0.0
  0
VERTEX
  5
3B8
  8
0
  6
CONTINUOUS
 62
     7
 10
94.5045477227
 20
204.0261877298
 30
0.0
  0
VERTEX
  5
3B9
  8
0
  6
CONTINUOUS
 62
     7
 10
93.5513919667
 20
203.9770675421
 30
0.0
  0
VERTEX
  5
3BA
  8
0
  6
CONTINUOUS
 62
     7
 10
92.6919943169
 20
203.9411199808
 30
0.0
  0
VERTEX
  5
3BB
  8
0
  6
CONTINUOUS
 62
     7
 10
91.925785549
 20
203.9178562879
 30
0.0
  0
VERTEX
  5
3BC
  8
0
  6
CONTINUOUS
 62
     7
 10
91.5651744679
 20
203.9084089517
 30
0.0
  0
VERTEX
  5
3BD
  8
0
  6
CONTINUOUS
 62
     7
 10
91.2115043477
 20
203.8976562738
 30
0.0
  0
VERTEX
  5
3BE
  8
0
  6
CONTINUOUS
 62
     7
 10
90.8647632674
 20
203.8851989031
 30
0.0
  0
VERTEX
  5
3BF
  8
0
  6
CONTINUOUS
 62
     7
 10
90.5249542073
 20
203.8716507673
 30
0.0
  0
VERTEX
  5
3C0
  8
0
  6
CONTINUOUS
 62
     7
 10
89.9692928866
 20
203.8486135721
 30
0.0
  0
VERTEX
  5
3C1
  8
0
  6
CONTINUOUS
 62
     7
 10
89.3541252688
 20
203.8237286329
 30
0.0
  0
VERTEX
  5
3C2
  8
0
  6
CONTINUOUS
 62
     7
 10
88.6212503985
 20
203.7954641104
 30
0.0
  0
VERTEX
  5
3C3
  8
0
  6
CONTINUOUS
 62
     7
 10
87.7706414536
 20
203.7645114183
 30
0.0
  0
VERTEX
  5
3C4
  8
0
  6
CONTINUOUS
 62
     7
 10
86.7532199696
 20
203.7300241709
 30
0.0
  0
VERTEX
  5
3C5
  8
0
  6
CONTINUOUS
 62
     7
 10
85.606527932
 20
203.6944044351
 30
0.0
  0
VERTEX
  5
3C6
  8
0
  6
CONTINUOUS
 62
     7
 10
84.3307232932
 20
203.6587489366
 30
0.0
  0
VERTEX
  5
3C7
  8
0
  6
CONTINUOUS
 62
     7
 10
78.2831674889
 20
203.5440934419
 30
0.0
  0
VERTEX
  5
3C8
  8
0
  6
CONTINUOUS
 62
     7
 10
72.2661203221
 20
203.5145891428
 30
0.0
  0
VERTEX
  5
3C9
  8
0
  6
CONTINUOUS
 62
     7
 10
69.8915785626
 20
203.5255325556
 30
0.0
  0
VERTEX
  5
3CA
  8
0
  6
CONTINUOUS
 62
     7
 10
67.6565235928
 20
203.5475624323
 30
0.0
  0
VERTEX
  5
3CB
  8
0
  6
CONTINUOUS
 62
     7
 10
65.5752903298
 20
203.5783899546
 30
0.0
  0
VERTEX
  5
3CC
  8
0
  6
CONTINUOUS
 62
     7
 10
63.6479026154
 20
203.6159468412
 30
0.0
  0
VERTEX
  5
3CD
  8
0
  6
CONTINUOUS
 62
     7
 10
61.8646389321
 20
203.6585820436
 30
0.0
  0
VERTEX
  5
3CE
  8
0
  6
CONTINUOUS
 62
     7
 10
60.955215104
 20
203.6833060503
 30
0.0
  0
VERTEX
  5
3CF
  8
0
  6
CONTINUOUS
 62
     7
 10
60.003072627
 20
203.7114215612
 30
0.0
  0
VERTEX
  5
3D0
  8
0
  6
CONTINUOUS
 62
     7
 10
59.0082353429
 20
203.7433160066
 30
0.0
  0
VERTEX
  5
3D1
  8
0
  6
CONTINUOUS
 62
     7
 10
57.9707270936
 20
203.77941854
 30
0.0
  0
VERTEX
  5
3D2
  8
0
  6
CONTINUOUS
 62
     7
 10
56.9463676289
 20
203.818006587
 30
0.0
  0
VERTEX
  5
3D3
  8
0
  6
CONTINUOUS
 62
     7
 10
56.2780505494
 20
203.8448048353
 30
0.0
  0
VERTEX
  5
3D4
  8
0
  6
CONTINUOUS
 62
     7
 10
55.7973808125
 20
203.8648856401
 30
0.0
  0
VERTEX
  5
3D5
  8
0
  6
CONTINUOUS
 62
     7
 10
55.4833418206
 20
203.8783622503
 30
0.0
  0
VERTEX
  5
3D6
  8
0
  6
CONTINUOUS
 62
     7
 10
55.002457507
 20
203.8991702318
 30
0.0
  0
VERTEX
  5
3D7
  8
0
  6
CONTINUOUS
 62
     7
 10
54.4465488271
 20
203.9222372293
 30
0.0
  0
VERTEX
  5
3D8
  8
0
  6
CONTINUOUS
 62
     7
 10
53.8156634644
 20
203.9463651895
 30
0.0
  0
VERTEX
  5
3D9
  8
0
  6
CONTINUOUS
 62
     7
 10
53.1098193005
 20
203.9737714052
 30
0.0
  0
VERTEX
  5
3DA
  8
0
  6
CONTINUOUS
 62
     7
 10
52.3280865029
 20
204.0079904318
 30
0.0
  0
VERTEX
  5
3DB
  8
0
  6
CONTINUOUS
 62
     7
 10
51.4659351186
 20
204.0528250456
 30
0.0
  0
VERTEX
  5
3DC
  8
0
  6
CONTINUOUS
 62
     7
 10
50.5227929429
 20
204.1091752767
 30
0.0
  0
VERTEX
  5
3DD
  8
0
  6
CONTINUOUS
 62
     7
 10
49.4987672642
 20
204.1776014089
 30
0.0
  0
VERTEX
  5
3DE
  8
0
  6
CONTINUOUS
 62
     7
 10
48.3939892129
 20
204.2588008165
 30
0.0
  0
VERTEX
  5
3DF
  8
0
  6
CONTINUOUS
 62
     7
 10
47.208577998
 20
204.3535900831
 30
0.0
  0
VERTEX
  5
3E0
  8
0
  6
CONTINUOUS
 62
     7
 10
45.1445943192
 20
204.5359564543
 30
0.0
  0
VERTEX
  5
3E1
  8
0
  6
CONTINUOUS
 62
     7
 10
42.8893333749
 20
204.7586513281
 30
0.0
  0
VERTEX
  5
3E2
  8
0
  6
CONTINUOUS
 62
     7
 10
40.5434912518
 20
205.015046668
 30
0.0
  0
VERTEX
  5
3E3
  8
0
  6
CONTINUOUS
 62
     7
 10
38.1270653085
 20
205.3048980951
 30
0.0
  0
VERTEX
  5
3E4
  8
0
  6
CONTINUOUS
 62
     7
 10
35.6404131726
 20
205.6297076464
 30
0.0
  0
SEQEND
  5
90A
  8
0
  6
CONTINUOUS
 62
     7
  0
POLYLINE
  5
4A
  8
0
  6
CONTINUOUS
 62
     7
 66
     1
 10
0.0
 20
0.0
 30
0.0
  0
VERTEX
  5
3E5
  8
0
  6
CONTINUOUS
 62
     7
 10
110.6774291471
 20
205.0459516764
 30
0.0
  0
VERTEX
  5
3E6
  8
0
  6
CONTINUOUS
 62
     7
 10
110.5952134804
 20
205.4069472074
 30
0.0
  0
VERTEX
  5
3E7
  8
0
  6
CONTINUOUS
 62
     7
 10
110.4611998872
 20
205.9959305048
 30
0.0
  0
SEQEND
  5
909
  8
0
  6
CONTINUOUS
 62
     7
  0
POLYLINE
  5
4B
  8
0
  6
CONTINUOUS
 62
     7
 66
     1
 10
0.0
 20
0.0
 30
0.0
  0
VERTEX
  5
3E8
  8
0
  6
CONTINUOUS
 62
     7
 10
35.693532832
 20
205.9959305048
 30
0.0
  0
VERTEX
  5
3E9
  8
0
  6
CONTINUOUS
 62
     7
 10
35.5608469323
 20
205.4127825022
 30
0.0
  0
VERTEX
  5
3EA
  8
0
  6
CONTINUOUS
 62
     7
 10
35.4750937299
 20
205.0362599611
 30
0.0
  0
SEQEND
  5
908
  8
0
  6
CONTINUOUS
 62
     7
  0
POLYLINE
  5
4C
  8
0
  6
CONTINUOUS
 62
     7
 66
     1
 10
0.0
 20
0.0
 30
0.0
  0
VERTEX
  5
3EB
  8
0
  6
CONTINUOUS
 62
     7
 10
230.5143183545
 20
205.6297076464
 30
0.0
  0
VERTEX
  5
3EC
  8
0
  6
CONTINUOUS
 62
     7
 10
229.2394584492
 20
205.4594946623
 30
0.0
  0
VERTEX
  5
3ED
  8
0
  6
CONTINUOUS
 62
     7
 10
228.1466132478
 20
205.3184283495
 30
0.0
  0
VERTEX
  5
3EE
  8
0
  6
CONTINUOUS
 62
     7
 10
227.2360867337
 20
205.2042973757
 30
0.0
  0
VERTEX
  5
3EF
  8
0
  6
CONTINUOUS
 62
     7
 10
226.5081113652
 20
205.1152659178
 30
0.0
  0
VERTEX
  5
3F0
  8
0
  6
CONTINUOUS
 62
     7
 10
225.9097224549
 20
205.0435496092
 30
0.0
  0
VERTEX
  5
3F1
  8
0
  6
CONTINUOUS
 62
     7
 10
225.4886752442
 20
204.9939585447
 30
0.0
  0
VERTEX
  5
3F2
  8
0
  6
CONTINUOUS
 62
     7
 10
225.0524884537
 20
204.9437297106
 30
0.0
  0
VERTEX
  5
3F3
  8
0
  6
CONTINUOUS
 62
     7
 10
224.5831435994
 20
204.8909259558
 30
0.0
  0
VERTEX
  5
3F4
  8
0
  6
CONTINUOUS
 62
     7
 10
224.0806108788
 20
204.8357439756
 30
0.0
  0
VERTEX
  5
3F5
  8
0
  6
CONTINUOUS
 62
     7
 10
223.5448724107
 20
204.778374505
 30
0.0
  0
VERTEX
  5
3F6
  8
0
  6
CONTINUOUS
 62
     7
 10
222.1505707577
 20
204.6357584715
 30
0.0
  0
VERTEX
  5
3F7
  8
0
  6
CONTINUOUS
 62
     7
 10
220.5714052991
 20
204.4852627039
 30
0.0
  0
VERTEX
  5
3F8
  8
0
  6
CONTINUOUS
 62
     7
 10
219.2518419102
 20
204.3681395769
 30
0.0
  0
VERTEX
  5
3F9
  8
0
  6
CONTINUOUS
 62
     7
 10
217.9251319245
 20
204.2589617491
 30
0.0
  0
VERTEX
  5
3FA
  8
0
  6
CONTINUOUS
 62
     7
 10
216.6915720776
 20
204.1662944078
 30
0.0
  0
VERTEX
  5
3FB
  8
0
  6
CONTINUOUS
 62
     7
 10
215.5513233022
 20
204.0890169859
 30
0.0
  0
VERTEX
  5
3FC
  8
0
  6
CONTINUOUS
 62
     7
 10
214.5045465306
 20
204.0261877298
 30
0.0
  0
VERTEX
  5
3FD
  8
0
  6
CONTINUOUS
 62
     7
 10
213.5513907746
 20
203.9770675421
 30
0.0
  0
VERTEX
  5
3FE
  8
0
  6
CONTINUOUS
 62
     7
 10
212.6919931248
 20
203.9411199808
 30
0.0
  0
VERTEX
  5
3FF
  8
0
  6
CONTINUOUS
 62
     7
 10
211.9257873372
 20
203.9178562879
 30
0.0
  0
VERTEX
  5
400
  8
0
  6
CONTINUOUS
 62
     7
 10
211.5651732758
 20
203.9084089517
 30
0.0
  0
VERTEX
  5
401
  8
0
  6
CONTINUOUS
 62
     7
 10
211.2115031556
 20
203.8976562738
 30
0.0
  0
VERTEX
  5
402
  8
0
  6
CONTINUOUS
 62
     7
 10
210.8647650555
 20
203.8851989031
 30
0.0
  0
VERTEX
  5
403
  8
0
  6
CONTINUOUS
 62
     7
 10
210.5249530152
 20
203.8716507673
 30
0.0
  0
VERTEX
  5
404
  8
0
  6
CONTINUOUS
 62
     7
 10
209.9692887143
 20
203.8486135721
 30
0.0
  0
VERTEX
  5
405
  8
0
  6
CONTINUOUS
 62
     7
 10
209.354127057
 20
203.8237286329
 30
0.0
  0
VERTEX
  5
406
  8
0
  6
CONTINUOUS
 62
     7
 10
208.6212521867
 20
203.7954641104
 30
0.0
  0
VERTEX
  5
407
  8
0
  6
CONTINUOUS
 62
     7
 10
207.7706402615
 20
203.7645114183
 30
0.0
  0
VERTEX
  5
408
  8
0
  6
CONTINUOUS
 62
     7
 10
206.7532187775
 20
203.7300241709
 30
0.0
  0
VERTEX
  5
409
  8
0
  6
CONTINUOUS
 62
     7
 10
205.60652674
 20
203.6944044351
 30
0.0
  0
VERTEX
  5
40A
  8
0
  6
CONTINUOUS
 62
     7
 10
204.3307250813
 20
203.6587489366
 30
0.0
  0
VERTEX
  5
40B
  8
0
  6
CONTINUOUS
 62
     7
 10
198.2831662968
 20
203.5440934419
 30
0.0
  0
VERTEX
  5
40C
  8
0
  6
CONTINUOUS
 62
     7
 10
192.26611913
 20
203.5145891428
 30
0.0
  0
VERTEX
  5
40D
  8
0
  6
CONTINUOUS
 62
     7
 10
189.8915773705
 20
203.5255325556
 30
0.0
  0
VERTEX
  5
40E
  8
0
  6
CONTINUOUS
 62
     7
 10
187.6565224007
 20
203.5475624323
 30
0.0
  0
VERTEX
  5
40F
  8
0
  6
CONTINUOUS
 62
     7
 10
185.5752891377
 20
203.5783899546
 30
0.0
  0
VERTEX
  5
410
  8
0
  6
CONTINUOUS
 62
     7
 10
183.6479014233
 20
203.6159468412
 30
0.0
  0
VERTEX
  5
411
  8
0
  6
CONTINUOUS
 62
     7
 10
181.86463774
 20
203.6585820436
 30
0.0
  0
VERTEX
  5
412
  8
0
  6
CONTINUOUS
 62
     7
 10
180.9552139119
 20
203.6833060503
 30
0.0
  0
VERTEX
  5
413
  8
0
  6
CONTINUOUS
 62
     7
 10
180.0030744151
 20
203.7114215612
 30
0.0
  0
VERTEX
  5
414
  8
0
  6
CONTINUOUS
 62
     7
 10
179.008237131
 20
203.7433160066
 30
0.0
  0
VERTEX
  5
415
  8
0
  6
CONTINUOUS
 62
     7
 10
177.9707259015
 20
203.77941854
 30
0.0
  0
VERTEX
  5
416
  8
0
  6
CONTINUOUS
 62
     7
 10
176.9463694171
 20
203.818006587
 30
0.0
  0
VERTEX
  5
417
  8
0
  6
CONTINUOUS
 62
     7
 10
176.2780493573
 20
203.8448048353
 30
0.0
  0
VERTEX
  5
418
  8
0
  6
CONTINUOUS
 62
     7
 10
175.7973796204
 20
203.8648856401
 30
0.0
  0
VERTEX
  5
419
  8
0
  6
CONTINUOUS
 62
     7
 10
175.4833406285
 20
203.8783622503
 30
0.0
  0
VERTEX
  5
41A
  8
0
  6
CONTINUOUS
 62
     7
 10
175.0024592952
 20
203.8991702318
 30
0.0
  0
VERTEX
  5
41B
  8
0
  6
CONTINUOUS
 62
     7
 10
174.446547635
 20
203.9222372293
 30
0.0
  0
VERTEX
  5
41C
  8
0
  6
CONTINUOUS
 62
     7
 10
173.8156652526
 20
203.9463651895
 30
0.0
  0
VERTEX
  5
41D
  8
0
  6
CONTINUOUS
 62
     7
 10
173.1098181084
 20
203.9737714052
 30
0.0
  0
VERTEX
  5
41E
  8
0
  6
CONTINUOUS
 62
     7
 10
172.3280882911
 20
204.0079904318
 30
0.0
  0
VERTEX
  5
41F
  8
0
  6
CONTINUOUS
 62
     7
 10
171.4659369067
 20
204.0528250456
 30
0.0
  0
VERTEX
  5
420
  8
0
  6
CONTINUOUS
 62
     7
 10
170.5227917508
 20
204.1091752767
 30
0.0
  0
VERTEX
  5
421
  8
0
  6
CONTINUOUS
 62
     7
 10
169.4987690524
 20
204.1776014089
 30
0.0
  0
VERTEX
  5
422
  8
0
  6
CONTINUOUS
 62
     7
 10
168.3939880208
 20
204.2588008165
 30
0.0
  0
VERTEX
  5
423
  8
0
  6
CONTINUOUS
 62
     7
 10
167.2085797862
 20
204.3535900831
 30
0.0
  0
VERTEX
  5
424
  8
0
  6
CONTINUOUS
 62
     7
 10
165.1445961074
 20
204.5359564543
 30
0.0
  0
VERTEX
  5
425
  8
0
  6
CONTINUOUS
 62
     7
 10
162.889335163
 20
204.7586513281
 30
0.0
  0
VERTEX
  5
426
  8
0
  6
CONTINUOUS
 62
     7
 10
160.54349304
 20
205.015046668
 30
0.0
  0
VERTEX
  5
427
  8
0
  6
CONTINUOUS
 62
     7
 10
158.1270641164
 20
205.3048980951
 30
0.0
  0
VERTEX
  5
428
  8
0
  6
CONTINUOUS
 62
     7
 10
155.6404149607
 20
205.6297076464
 30
0.0
  0
SEQEND
  5
907
  8
0
  6
CONTINUOUS
 62
     7
  0
POLYLINE
  5
4D
  8
0
  6
CONTINUOUS
 62
     7
 66
     1
 10
0.0
 20
0.0
 30
0.0
  0
VERTEX
  5
429
  8
0
  6
CONTINUOUS
 62
     7
 10
230.6774324254
 20
205.0459516764
 30
0.0
  0
VERTEX
  5
42A
  8
0
  6
CONTINUOUS
 62
     7
 10
230.5952137784
 20
205.4069472074
 30
0.0
  0
VERTEX
  5
42B
  8
0
  6
CONTINUOUS
 62
     7
 10
230.4611986951
 20
205.9959305048
 30
0.0
  0
SEQEND
  5
906
  8
0
  6
CONTINUOUS
 62
     7
  0
POLYLINE
  5
4E
  8
0
  6
CONTINUOUS
 62
     7
 66
     1
 10
0.0
 20
0.0
 30
0.0
  0
VERTEX
  5
42C
  8
0
  6
CONTINUOUS
 62
     7
 10
155.6935316399
 20
205.9959305048
 30
0.0
  0
VERTEX
  5
42D
  8
0
  6
CONTINUOUS
 62
     7
 10
155.5608442501
 20
205.4127825022
 30
0.0
  0
VERTEX
  5
42E
  8
0
  6
CONTINUOUS
 62
     7
 10
155.4750940279
 20
205.0362599611
 30
0.0
  0
SEQEND
  5
905
  8
0
  6
CONTINUOUS
 62
     7
  0
LINE
  5
4F
  8
0
  6
CONTINUOUS
 62
     7
 10
135.7773658336
 20
196.8416524649
 30
0.0
 11
135.7773658336
 21
213.4416533232
 31
0.0
  0
LINE
  5
50
  8
0
  6
CONTINUOUS
 62
     7
 10
130.3773656935
 20
213.4416533232
 30
0.0
 11
130.3773656935
 21
196.8416524649
 31
0.0
  0
LINE
  5
51
  8
0
  6
CONTINUOUS
 62
     7
 10
130.3773656935
 20
228.441650939
 30
0.0
 11
130.3773656935
 21
213.4416533232
 31
0.0
  0
LINE
  5
52
  8
0
  6
CONTINUOUS
 62
     7
 10
135.7773658336
 20
213.4416533232
 30
0.0
 11
135.7773658336
 21
228.441650939
 31
0.0
  0
LINE
  5
53
  8
0
  6
CONTINUOUS
 62
     7
 10
130.3773656935
 20
196.8416524649
 30
0.0
 11
130.3773656935
 21
181.841654849
 31
0.0
  0
LINE
  5
54
  8
0
  6
CONTINUOUS
 62
     7
 10
135.7773658336
 20
181.841654849
 30
0.0
 11
135.7773658336
 21
196.8416524649
 31
0.0
  0
LINE
  5
55
  8
0
  6
CONTINUOUS
 62
     7
 10
250.3773635701
 20
228.441650939
 30
0.0
 11
250.3773635701
 21
213.4416533232
 31
0.0
  0
LINE
  5
56
  8
0
  6
CONTINUOUS
 62
     7
 10
255.7773655728
 20
213.4416533232
 30
0.0
 11
255.7773655728
 21
228.441650939
 31
0.0
  0
LINE
  5
57
  8
0
  6
CONTINUOUS
 62
     7
 10
255.7773655728
 20
196.8416524649
 30
0.0
 11
255.7773655728
 21
213.4416533232
 31
0.0
  0
LINE
  5
58
  8
0
  6
CONTINUOUS
 62
     7
 10
250.3773635701
 20
213.4416533232
 30
0.0
 11
250.3773635701
 21
196.8416524649
 31
0.0
  0
LINE
  5
59
  8
0
  6
CONTINUOUS
 62
     7
 10
250.3773635701
 20
196.8416524649
 30
0.0
 11
250.3773635701
 21
181.841654849
 31
0.0
  0
LINE
  5
5A
  8
0
  6
CONTINUOUS
 62
     7
 10
255.7773655728
 20
181.841654849
 30
0.0
 11
255.7773655728
 21
196.8416524649
 31
0.0
  0
LINE
  5
5B
  8
0
  6
CONTINUOUS
 62
     7
 10
10.3773659543
 20
228.441650939
 30
0.0
 11
10.3773659543
 21
213.4416533232
 31
0.0
  0
LINE
  5
5C
  8
0
  6
CONTINUOUS
 62
     7
 10
15.777367957
 20
213.4416533232
 30
0.0
 11
15.777367957
 21
228.441650939
 31
0.0
  0
LINE
  5
5D
  8
0
  6
CONTINUOUS
 62
     7
 10
15.777367957
 20
196.8416524649
 30
0.0
 11
15.777367957
 21
213.4416533232
 31
0.0
  0
LINE
  5
5E
  8
0
  6
CONTINUOUS
 62
     7
 10
10.3773659543
 20
213.4416533232
 30
0.0
 11
10.3773659543
 21
196.8416524649
 31
0.0
  0
LINE
  5
5F
  8
0
  6
CONTINUOUS
 62
     7
 10
10.3773659543
 20
196.8416524649
 30
0.0
 11
10.3773659543
 21
181.841654849
 31
0.0
  0
LINE
  5
60
  8
0
  6
CONTINUOUS
 62
     7
 10
15.777367957
 20
181.841654849
 30
0.0
 11
15.777367957
 21
196.8416524649
 31
0.0
  0
POLYLINE
  5
61
  8
0
  6
CONTINUOUS
 62
     7
 66
     1
 10
0.0
 20
0.0
 30
0.0
  0
VERTEX
  5
42F
  8
0
  6
CONTINUOUS
 62
     7
 10
228.102690585
 20
272.3697138548
 30
0.0
  0
VERTEX
  5
430
  8
0
  6
CONTINUOUS
 62
     7
 10
228.1300968007
 20
273.6811829328
 30
0.0
  0
VERTEX
  5
431
  8
0
  6
CONTINUOUS
 62
     7
 10
227.9682582692
 20
274.950511527
 30
0.0
  0
VERTEX
  5
432
  8
0
  6
CONTINUOUS
 62
     7
 10
227.6161199883
 20
276.1420441389
 30
0.0
  0
VERTEX
  5
433
  8
0
  6
CONTINUOUS
 62
     7
 10
227.0814126805
 20
277.2255612135
 30
0.0
  0
VERTEX
  5
434
  8
0
  6
CONTINUOUS
 62
     7
 10
226.3710743264
 20
278.1716776609
 30
0.0
  0
VERTEX
  5
435
  8
0
  6
CONTINUOUS
 62
     7
 10
225.5038744286
 20
278.9564800978
 30
0.0
  0
VERTEX
  5
436
  8
0
  6
CONTINUOUS
 62
     7
 10
224.5029634312
 20
279.5551133871
 30
0.0
  0
VERTEX
  5
437
  8
0
  6
CONTINUOUS
 62
     7
 10
223.3939296082
 20
279.9579215765
 30
0.0
  0
VERTEX
  5
438
  8
0
  6
CONTINUOUS
 62
     7
 10
222.3655408696
 20
280.1389408827
 30
0.0
  0
VERTEX
  5
439
  8
0
  6
CONTINUOUS
 62
     7
 10
221.3000303582
 20
280.1616383314
 30
0.0
  0
SEQEND
  5
904
  8
0
  6
CONTINUOUS
 62
     7
  0
POLYLINE
  5
62
  8
0
  6
CONTINUOUS
 62
     7
 66
     1
 10
0.0
 20
0.0
 30
0.0
  0
VERTEX
  5
43A
  8
0
  6
CONTINUOUS
 62
     7
 10
226.7610973195
 20
257.7961278677
 30
0.0
  0
VERTEX
  5
43B
  8
0
  6
CONTINUOUS
 62
     7
 10
227.0949965791
 20
261.4441228628
 30
0.0
  0
VERTEX
  5
43C
  8
0
  6
CONTINUOUS
 62
     7
 10
227.4309641198
 20
265.0893283605
 30
0.0
  0
VERTEX
  5
43D
  8
0
  6
CONTINUOUS
 62
     7
 10
227.7677005605
 20
268.7416983366
 30
0.0
  0
VERTEX
  5
43E
  8
0
  6
CONTINUOUS
 62
     7
 10
228.102690585
 20
272.3697138548
 30
0.0
  0
SEQEND
  5
903
  8
0
  6
CONTINUOUS
 62
     7
  0
POLYLINE
  5
63
  8
0
  6
CONTINUOUS
 62
     7
 66
     1
 10
0.0
 20
0.0
 30
0.0
  0
VERTEX
  5
43F
  8
0
  6
CONTINUOUS
 62
     7
 10
218.6372822598
 20
249.292094779
 30
0.0
  0
VERTEX
  5
440
  8
0
  6
CONTINUOUS
 62
     7
 10
220.038593419
 20
249.4872761488
 30
0.0
  0
VERTEX
  5
441
  8
0
  6
CONTINUOUS
 62
     7
 10
221.3879591302
 20
249.9298644781
 30
0.0
  0
VERTEX
  5
442
  8
0
  6
CONTINUOUS
 62
     7
 10
222.6476913766
 20
250.6120396375
 30
0.0
  0
VERTEX
  5
443
  8
0
  6
CONTINUOUS
 62
     7
 10
223.7854725198
 20
251.5111280203
 30
0.0
  0
VERTEX
  5
444
  8
0
  6
CONTINUOUS
 62
     7
 10
224.7667378262
 20
252.5995803594
 30
0.0
  0
VERTEX
  5
445
  8
0
  6
CONTINUOUS
 62
     7
 10
225.5745834187
 20
253.8462591886
 30
0.0
  0
VERTEX
  5
446
  8
0
  6
CONTINUOUS
 62
     7
 10
226.1889582948
 20
255.220098567
 30
0.0
  0
VERTEX
  5
447
  8
0
  6
CONTINUOUS
 62
     7
 10
226.5972203091
 20
256.677384448
 30
0.0
  0
VERTEX
  5
448
  8
0
  6
CONTINUOUS
 62
     7
 10
226.7610973195
 20
257.7961278677
 30
0.0
  0
SEQEND
  5
902
  8
0
  6
CONTINUOUS
 62
     7
  0
POLYLINE
  5
64
  8
0
  6
CONTINUOUS
 62
     7
 66
     1
 10
0.0
 20
0.0
 30
0.0
  0
VERTEX
  5
449
  8
0
  6
CONTINUOUS
 62
     7
 10
167.5174480752
 20
249.292094779
 30
0.0
  0
VERTEX
  5
44A
  8
0
  6
CONTINUOUS
 62
     7
 10
170.3418886737
 20
249.1652680158
 30
0.0
  0
VERTEX
  5
44B
  8
0
  6
CONTINUOUS
 62
     7
 10
173.2076531724
 20
249.0533781767
 30
0.0
  0
VERTEX
  5
44C
  8
0
  6
CONTINUOUS
 62
     7
 10
176.1094397382
 20
248.9566398382
 30
0.0
  0
VERTEX
  5
44D
  8
0
  6
CONTINUOUS
 62
     7
 10
180.2964037732
 20
248.8452983618
 30
0.0
  0
VERTEX
  5
44E
  8
0
  6
CONTINUOUS
 62
     7
 10
184.5304554776
 20
248.7654639006
 30
0.0
  0
VERTEX
  5
44F
  8
0
  6
CONTINUOUS
 62
     7
 10
188.7960141972
 20
248.7174583196
 30
0.0
  0
VERTEX
  5
450
  8
0
  6
CONTINUOUS
 62
     7
 10
193.0773681477
 20
248.7014365911
 30
0.0
  0
VERTEX
  5
451
  8
0
  6
CONTINUOUS
 62
     7
 10
197.3587161378
 20
248.7174583196
 30
0.0
  0
VERTEX
  5
452
  8
0
  6
CONTINUOUS
 62
     7
 10
201.6242748574
 20
248.7654639006
 30
0.0
  0
VERTEX
  5
453
  8
0
  6
CONTINUOUS
 62
     7
 10
205.8583265618
 20
248.8452983618
 30
0.0
  0
VERTEX
  5
454
  8
0
  6
CONTINUOUS
 62
     7
 10
210.0452905968
 20
248.9566398382
 30
0.0
  0
VERTEX
  5
455
  8
0
  6
CONTINUOUS
 62
     7
 10
212.9470771626
 20
249.0533781767
 30
0.0
  0
VERTEX
  5
456
  8
0
  6
CONTINUOUS
 62
     7
 10
215.8128446416
 20
249.1652680158
 30
0.0
  0
VERTEX
  5
457
  8
0
  6
CONTINUOUS
 62
     7
 10
218.6372822598
 20
249.292094779
 30
0.0
  0
SEQEND
  5
901
  8
0
  6
CONTINUOUS
 62
     7
  0
POLYLINE
  5
65
  8
0
  6
CONTINUOUS
 62
     7
 66
     1
 10
0.0
 20
0.0
 30
0.0
  0
VERTEX
  5
458
  8
0
  6
CONTINUOUS
 62
     7
 10
159.3936330155
 20
257.7961278677
 30
0.0
  0
VERTEX
  5
459
  8
0
  6
CONTINUOUS
 62
     7
 10
159.6417433099
 20
256.3007188558
 30
0.0
  0
VERTEX
  5
45A
  8
0
  6
CONTINUOUS
 62
     7
 10
160.1034230069
 20
254.8580241918
 30
0.0
  0
VERTEX
  5
45B
  8
0
  6
CONTINUOUS
 62
     7
 10
160.7717520074
 20
253.5107565641
 30
0.0
  0
VERTEX
  5
45C
  8
0
  6
CONTINUOUS
 62
     7
 10
161.6291648225
 20
252.2965384245
 30
0.0
  0
VERTEX
  5
45D
  8
0
  6
CONTINUOUS
 62
     7
 10
162.6573807076
 20
251.2535644293
 30
0.0
  0
VERTEX
  5
45E
  8
0
  6
CONTINUOUS
 62
     7
 10
163.8291603402
 20
250.4088831663
 30
0.0
  0
VERTEX
  5
45F
  8
0
  6
CONTINUOUS
 62
     7
 10
165.1123470143
 20
249.7913671255
 30
0.0
  0
VERTEX
  5
460
  8
0
  6
CONTINUOUS
 62
     7
 10
166.4743250684
 20
249.4120550871
 30
0.0
  0
VERTEX
  5
461
  8
0
  6
CONTINUOUS
 62
     7
 10
167.5174480752
 20
249.292094779
 30
0.0
  0
SEQEND
  5
900
  8
0
  6
CONTINUOUS
 62
     7
  0
POLYLINE
  5
66
  8
0
  6
CONTINUOUS
 62
     7
 66
     1
 10
0.0
 20
0.0
 30
0.0
  0
VERTEX
  5
462
  8
0
  6
CONTINUOUS
 62
     7
 10
158.0520352796
 20
272.3697496176
 30
0.0
  0
VERTEX
  5
463
  8
0
  6
CONTINUOUS
 62
     7
 10
158.3870297745
 20
268.7417460203
 30
0.0
  0
VERTEX
  5
464
  8
0
  6
CONTINUOUS
 62
     7
 10
158.7237691954
 20
265.0893522024
 30
0.0
  0
VERTEX
  5
465
  8
0
  6
CONTINUOUS
 62
     7
 10
159.0597367362
 20
261.4441347837
 30
0.0
  0
VERTEX
  5
466
  8
0
  6
CONTINUOUS
 62
     7
 10
159.3936330155
 20
257.7961278677
 30
0.0
  0
SEQEND
  5
8FF
  8
0
  6
CONTINUOUS
 62
     7
  0
POLYLINE
  5
67
  8
0
  6
CONTINUOUS
 62
     7
 66
     1
 10
0.0
 20
0.0
 30
0.0
  0
VERTEX
  5
467
  8
0
  6
CONTINUOUS
 62
     7
 10
164.8547476605
 20
280.1616383314
 30
0.0
  0
VERTEX
  5
468
  8
0
  6
CONTINUOUS
 62
     7
 10
163.6273747758
 20
280.120928359
 30
0.0
  0
VERTEX
  5
469
  8
0
  6
CONTINUOUS
 62
     7
 10
162.453911312
 20
279.8699808836
 30
0.0
  0
VERTEX
  5
46A
  8
0
  6
CONTINUOUS
 62
     7
 10
161.3681590632
 20
279.4112993002
 30
0.0
  0
VERTEX
  5
46B
  8
0
  6
CONTINUOUS
 62
     7
 10
160.3988355473
 20
278.7592721701
 30
0.0
  0
VERTEX
  5
46C
  8
0
  6
CONTINUOUS
 62
     7
 10
159.577158697
 20
277.932901454
 30
0.0
  0
VERTEX
  5
46D
  8
0
  6
CONTINUOUS
 62
     7
 10
158.9153534249
 20
276.9531799078
 30
0.0
  0
VERTEX
  5
46E
  8
0
  6
CONTINUOUS
 62
     7
 10
158.4290689305
 20
275.8408976316
 30
0.0
  0
VERTEX
  5
46F
  8
0
  6
CONTINUOUS
 62
     7
 10
158.126327999
 20
274.6289802313
 30
0.0
  0
VERTEX
  5
470
  8
0
  6
CONTINUOUS
 62
     7
 10
158.0173006729
 20
273.5136342764
 30
0.0
  0
VERTEX
  5
471
  8
0
  6
CONTINUOUS
 62
     7
 10
158.0520352796
 20
272.3697496176
 30
0.0
  0
SEQEND
  5
8FE
  8
0
  6
CONTINUOUS
 62
     7
  0
POLYLINE
  5
68
  8
0
  6
CONTINUOUS
 62
     7
 66
     1
 10
0.0
 20
0.0
 30
0.0
  0
VERTEX
  5
472
  8
0
  6
CONTINUOUS
 62
     7
 10
221.3000303582
 20
280.1616383314
 30
0.0
  0
VERTEX
  5
473
  8
0
  6
CONTINUOUS
 62
     7
 10
218.1165224389
 20
280.0028992414
 30
0.0
  0
VERTEX
  5
474
  8
0
  6
CONTINUOUS
 62
     7
 10
214.8779279069
 20
279.8632813215
 30
0.0
  0
VERTEX
  5
475
  8
0
  6
CONTINUOUS
 62
     7
 10
211.591482766
 20
279.7430945158
 30
0.0
  0
VERTEX
  5
476
  8
0
  6
CONTINUOUS
 62
     7
 10
207.9475110844
 20
279.6341491461
 30
0.0
  0
VERTEX
  5
477
  8
0
  6
CONTINUOUS
 62
     7
 10
204.2643612698
 20
279.5491052389
 30
0.0
  0
VERTEX
  5
478
  8
0
  6
CONTINUOUS
 62
     7
 10
200.5518144444
 20
279.4882012129
 30
0.0
  0
VERTEX
  5
479
  8
0
  6
CONTINUOUS
 62
     7
 10
196.8195027188
 20
279.45159204
 30
0.0
  0
VERTEX
  5
47A
  8
0
  6
CONTINUOUS
 62
     7
 10
193.0773681477
 20
279.4393850088
 30
0.0
  0
VERTEX
  5
47B
  8
0
  6
CONTINUOUS
 62
     7
 10
189.3352335767
 20
279.45159204
 30
0.0
  0
VERTEX
  5
47C
  8
0
  6
CONTINUOUS
 62
     7
 10
185.6029158906
 20
279.4882012129
 30
0.0
  0
VERTEX
  5
47D
  8
0
  6
CONTINUOUS
 62
     7
 10
181.8903720454
 20
279.5491052389
 30
0.0
  0
VERTEX
  5
47E
  8
0
  6
CONTINUOUS
 62
     7
 10
178.2072192506
 20
279.6341491461
 30
0.0
  0
VERTEX
  5
47F
  8
0
  6
CONTINUOUS
 62
     7
 10
174.5632505492
 20
279.7430945158
 30
0.0
  0
VERTEX
  5
480
  8
0
  6
CONTINUOUS
 62
     7
 10
171.2768203095
 20
279.8632813215
 30
0.0
  0
VERTEX
  5
481
  8
0
  6
CONTINUOUS
 62
     7
 10
168.0382406787
 20
280.0028992414
 30
0.0
  0
VERTEX
  5
482
  8
0
  6
CONTINUOUS
 62
     7
 10
164.8547476605
 20
280.1616383314
 30
0.0
  0
SEQEND
  5
8FD
  8
0
  6
CONTINUOUS
 62
     7
  0
POLYLINE
  5
69
  8
0
  6
CONTINUOUS
 62
     7
 66
     1
 10
0.0
 20
0.0
 30
0.0
  0
VERTEX
  5
483
  8
0
  6
CONTINUOUS
 62
     7
 10
227.3326581792
 20
257.6651407003
 30
0.0
  0
VERTEX
  5
484
  8
0
  6
CONTINUOUS
 62
     7
 10
227.0811921433
 20
256.1702323675
 30
0.0
  0
VERTEX
  5
485
  8
0
  6
CONTINUOUS
 62
     7
 10
226.6163235978
 20
254.7286701917
 30
0.0
  0
VERTEX
  5
486
  8
0
  6
CONTINUOUS
 62
     7
 10
225.9450739697
 20
253.3831430197
 30
0.0
  0
VERTEX
  5
487
  8
0
  6
CONTINUOUS
 62
     7
 10
225.0851339177
 20
252.1712017774
 30
0.0
  0
VERTEX
  5
488
  8
0
  6
CONTINUOUS
 62
     7
 10
224.0548855141
 20
251.130945754
 30
0.0
  0
VERTEX
  5
489
  8
0
  6
CONTINUOUS
 62
     7
 10
222.881687291
 20
250.2893520117
 30
0.0
  0
VERTEX
  5
48A
  8
0
  6
CONTINUOUS
 62
     7
 10
221.5976721123
 20
249.6751499891
 30
0.0
  0
VERTEX
  5
48B
  8
0
  6
CONTINUOUS
 62
     7
 10
220.2355927304
 20
249.2993784666
 30
0.0
  0
VERTEX
  5
48C
  8
0
  6
CONTINUOUS
 62
     7
 10
219.2115968541
 20
249.1830302
 30
0.0
  0
SEQEND
  5
8FC
  8
0
  6
CONTINUOUS
 62
     7
  0
POLYLINE
  5
6A
  8
0
  6
CONTINUOUS
 62
     7
 66
     1
 10
0.0
 20
0.0
 30
0.0
  0
VERTEX
  5
48D
  8
0
  6
CONTINUOUS
 62
     7
 10
166.9431364611
 20
249.1830302
 30
0.0
  0
VERTEX
  5
48E
  8
0
  6
CONTINUOUS
 62
     7
 10
165.54282666
 20
249.3778539419
 30
0.0
  0
VERTEX
  5
48F
  8
0
  6
CONTINUOUS
 62
     7
 10
164.1941970662
 20
249.8201204061
 30
0.0
  0
VERTEX
  5
490
  8
0
  6
CONTINUOUS
 62
     7
 10
162.9349416569
 20
250.5019737005
 30
0.0
  0
VERTEX
  5
491
  8
0
  6
CONTINUOUS
 62
     7
 10
161.7973661498
 20
251.4007521391
 30
0.0
  0
VERTEX
  5
492
  8
0
  6
CONTINUOUS
 62
     7
 10
160.8159577922
 20
252.4890375852
 30
0.0
  0
VERTEX
  5
493
  8
0
  6
CONTINUOUS
 62
     7
 10
160.0078231171
 20
253.735621047
 30
0.0
  0
VERTEX
  5
494
  8
0
  6
CONTINUOUS
 62
     7
 10
159.3930995539
 20
255.109353137
 30
0.0
  0
VERTEX
  5
495
  8
0
  6
CONTINUOUS
 62
     7
 10
158.9844143466
 20
256.5666032553
 30
0.0
  0
VERTEX
  5
496
  8
0
  6
CONTINUOUS
 62
     7
 10
158.8220751361
 20
257.6651407003
 30
0.0
  0
SEQEND
  5
8FB
  8
0
  6
CONTINUOUS
 62
     7
  0
POLYLINE
  5
6B
  8
0
  6
CONTINUOUS
 62
     7
 66
     1
 10
0.0
 20
0.0
 30
0.0
  0
VERTEX
  5
497
  8
0
  6
CONTINUOUS
 62
     7
 10
227.3326581792
 20
257.6651407003
 30
0.0
  0
VERTEX
  5
498
  8
0
  6
CONTINUOUS
 62
     7
 10
227.6723748521
 20
261.2874937773
 30
0.0
  0
VERTEX
  5
499
  8
0
  6
CONTINUOUS
 62
     7
 10
228.0122345761
 20
264.9058771849
 30
0.0
  0
VERTEX
  5
49A
  8
0
  6
CONTINUOUS
 62
     7
 10
228.3516591862
 20
268.5093832731
 30
0.0
  0
VERTEX
  5
49B
  8
0
  6
CONTINUOUS
 62
     7
 10
228.6899393872
 20
272.0822644949
 30
0.0
  0
SEQEND
  5
8FA
  8
0
  6
CONTINUOUS
 62
     7
  0
POLYLINE
  5
6C
  8
0
  6
CONTINUOUS
 62
     7
 66
     1
 10
0.0
 20
0.0
 30
0.0
  0
VERTEX
  5
49C
  8
0
  6
CONTINUOUS
 62
     7
 10
157.4647879676
 20
272.0823002577
 30
0.0
  0
VERTEX
  5
49D
  8
0
  6
CONTINUOUS
 62
     7
 10
157.8030681685
 20
268.5094190359
 30
0.0
  0
VERTEX
  5
49E
  8
0
  6
CONTINUOUS
 62
     7
 10
158.1424957589
 20
264.9059010267
 30
0.0
  0
VERTEX
  5
49F
  8
0
  6
CONTINUOUS
 62
     7
 10
158.4823554829
 20
261.2875056982
 30
0.0
  0
VERTEX
  5
4A0
  8
0
  6
CONTINUOUS
 62
     7
 10
158.8220751361
 20
257.6651407003
 30
0.0
  0
SEQEND
  5
8F9
  8
0
  6
CONTINUOUS
 62
     7
  0
POLYLINE
  5
6D
  8
0
  6
CONTINUOUS
 62
     7
 66
     1
 10
0.0
 20
0.0
 30
0.0
  0
VERTEX
  5
4A1
  8
0
  6
CONTINUOUS
 62
     7
 10
224.9972289876
 20
279.3023777723
 30
0.0
  0
VERTEX
  5
4A2
  8
0
  6
CONTINUOUS
 62
     7
 10
225.3909951524
 20
279.1347814321
 30
0.0
  0
VERTEX
  5
4A3
  8
0
  6
CONTINUOUS
 62
     7
 10
226.357967265
 20
278.4803701162
 30
0.0
  0
VERTEX
  5
4A4
  8
0
  6
CONTINUOUS
 62
     7
 10
227.177316554
 20
277.6516509771
 30
0.0
  0
VERTEX
  5
4A5
  8
0
  6
CONTINUOUS
 62
     7
 10
227.8366273717
 20
276.6697955847
 30
0.0
  0
VERTEX
  5
4A6
  8
0
  6
CONTINUOUS
 62
     7
 10
228.3202773408
 20
275.5557013273
 30
0.0
  0
VERTEX
  5
4A7
  8
0
  6
CONTINUOUS
 62
     7
 10
228.6203152016
 20
274.3423414945
 30
0.0
  0
VERTEX
  5
4A8
  8
0
  6
CONTINUOUS
 62
     7
 10
228.7269598321
 20
273.2263875723
 30
0.0
  0
VERTEX
  5
4A9
  8
0
  6
CONTINUOUS
 62
     7
 10
228.6899393872
 20
272.0822644949
 30
0.0
  0
SEQEND
  5
8F8
  8
0
  6
CONTINUOUS
 62
     7
  0
POLYLINE
  5
6E
  8
0
  6
CONTINUOUS
 62
     7
 66
     1
 10
0.0
 20
0.0
 30
0.0
  0
VERTEX
  5
4AA
  8
0
  6
CONTINUOUS
 62
     7
 10
157.4647879676
 20
272.0823002577
 30
0.0
  0
VERTEX
  5
4AB
  8
0
  6
CONTINUOUS
 62
     7
 10
157.4347531871
 20
273.3941150427
 30
0.0
  0
VERTEX
  5
4AC
  8
0
  6
CONTINUOUS
 62
     7
 10
157.5938707665
 20
274.6642900228
 30
0.0
  0
VERTEX
  5
4AD
  8
0
  6
CONTINUOUS
 62
     7
 10
157.9432553128
 20
275.857110095
 30
0.0
  0
VERTEX
  5
4AE
  8
0
  6
CONTINUOUS
 62
     7
 10
158.4752237872
 20
276.9423437834
 30
0.0
  0
VERTEX
  5
4AF
  8
0
  6
CONTINUOUS
 62
     7
 10
159.1829156951
 20
277.8905583143
 30
0.0
  0
VERTEX
  5
4B0
  8
0
  6
CONTINUOUS
 62
     7
 10
160.0475853757
 20
278.6777449369
 30
0.0
  0
VERTEX
  5
4B1
  8
0
  6
CONTINUOUS
 62
     7
 10
161.0463506058
 20
279.2790246725
 30
0.0
  0
VERTEX
  5
4B2
  8
0
  6
CONTINUOUS
 62
     7
 10
161.1495828704
 20
279.3168378591
 30
0.0
  0
SEQEND
  5
8F7
  8
0
  6
CONTINUOUS
 62
     7
  0
POLYLINE
  5
6F
  8
0
  6
CONTINUOUS
 62
     7
 66
     1
 10
0.0
 20
0.0
 30
0.0
  0
VERTEX
  5
4B3
  8
0
  6
CONTINUOUS
 62
     7
 10
166.9431364611
 20
249.1830302
 30
0.0
  0
VERTEX
  5
4B4
  8
0
  6
CONTINUOUS
 62
     7
 10
169.8607182578
 20
249.0527821302
 30
0.0
  0
VERTEX
  5
4B5
  8
0
  6
CONTINUOUS
 62
     7
 10
172.8218323067
 20
248.93805511
 30
0.0
  0
VERTEX
  5
4B6
  8
0
  6
CONTINUOUS
 62
     7
 10
175.8209145144
 20
248.839051795
 30
0.0
  0
VERTEX
  5
4B7
  8
0
  6
CONTINUOUS
 62
     7
 10
180.0790762976
 20
248.7270785093
 30
0.0
  0
VERTEX
  5
4B8
  8
0
  6
CONTINUOUS
 62
     7
 10
184.3851274327
 20
248.6468029737
 30
0.0
  0
VERTEX
  5
4B9
  8
0
  6
CONTINUOUS
 62
     7
 10
188.723225005
 20
248.5985232115
 30
0.0
  0
VERTEX
  5
4BA
  8
0
  6
CONTINUOUS
 62
     7
 10
193.0773681477
 20
248.5824061155
 30
0.0
  0
VERTEX
  5
4BB
  8
0
  6
CONTINUOUS
 62
     7
 10
197.43150533
 20
248.5985232115
 30
0.0
  0
VERTEX
  5
4BC
  8
0
  6
CONTINUOUS
 62
     7
 10
201.7696029023
 20
248.6468029737
 30
0.0
  0
VERTEX
  5
4BD
  8
0
  6
CONTINUOUS
 62
     7
 10
206.0756570176
 20
248.7270785093
 30
0.0
  0
VERTEX
  5
4BE
  8
0
  6
CONTINUOUS
 62
     7
 10
210.3338188008
 20
248.839051795
 30
0.0
  0
VERTEX
  5
4BF
  8
0
  6
CONTINUOUS
 62
     7
 10
213.3328980283
 20
248.93805511
 30
0.0
  0
VERTEX
  5
4C0
  8
0
  6
CONTINUOUS
 62
     7
 10
216.2940150574
 20
249.0527821302
 30
0.0
  0
VERTEX
  5
4C1
  8
0
  6
CONTINUOUS
 62
     7
 10
219.2115968541
 20
249.1830302
 30
0.0
  0
SEQEND
  5
8F6
  8
0
  6
CONTINUOUS
 62
     7
  0
POLYLINE
  5
70
  8
0
  6
CONTINUOUS
 62
     7
 66
     1
 10
0.0
 20
0.0
 30
0.0
  0
VERTEX
  5
4C2
  8
0
  6
CONTINUOUS
 62
     7
 10
108.1026917771
 20
272.3697138548
 30
0.0
  0
VERTEX
  5
4C3
  8
0
  6
CONTINUOUS
 62
     7
 10
108.1300994829
 20
273.6811829328
 30
0.0
  0
VERTEX
  5
4C4
  8
0
  6
CONTINUOUS
 62
     7
 10
107.9682624415
 20
274.950511527
 30
0.0
  0
VERTEX
  5
4C5
  8
0
  6
CONTINUOUS
 62
     7
 10
107.6161241606
 20
276.1420441389
 30
0.0
  0
VERTEX
  5
4C6
  8
0
  6
CONTINUOUS
 62
     7
 10
107.0814138726
 20
277.2255612135
 30
0.0
  0
VERTEX
  5
4C7
  8
0
  6
CONTINUOUS
 62
     7
 10
106.3710725383
 20
278.1716776609
 30
0.0
  0
VERTEX
  5
4C8
  8
0
  6
CONTINUOUS
 62
     7
 10
105.5038756207
 20
278.9564800978
 30
0.0
  0
VERTEX
  5
4C9
  8
0
  6
CONTINUOUS
 62
     7
 10
104.5029676036
 20
279.5551133871
 30
0.0
  0
VERTEX
  5
4CA
  8
0
  6
CONTINUOUS
 62
     7
 10
103.3939278201
 20
279.9579215765
 30
0.0
  0
VERTEX
  5
4CB
  8
0
  6
CONTINUOUS
 62
     7
 10
102.3655390815
 20
280.1389408827
 30
0.0
  0
VERTEX
  5
4CC
  8
0
  6
CONTINUOUS
 62
     7
 10
101.3000315503
 20
280.1616383314
 30
0.0
  0
SEQEND
  5
8F5
  8
0
  6
CONTINUOUS
 62
     7
  0
POLYLINE
  5
71
  8
0
  6
CONTINUOUS
 62
     7
 66
     1
 10
0.0
 20
0.0
 30
0.0
  0
VERTEX
  5
4CD
  8
0
  6
CONTINUOUS
 62
     7
 10
106.7610985116
 20
257.7961278677
 30
0.0
  0
VERTEX
  5
4CE
  8
0
  6
CONTINUOUS
 62
     7
 10
107.0949947909
 20
261.4441228628
 30
0.0
  0
VERTEX
  5
4CF
  8
0
  6
CONTINUOUS
 62
     7
 10
107.4309623317
 20
265.0893283605
 30
0.0
  0
VERTEX
  5
4D0
  8
0
  6
CONTINUOUS
 62
     7
 10
107.7676987723
 20
268.7416983366
 30
0.0
  0
VERTEX
  5
4D1
  8
0
  6
CONTINUOUS
 62
     7
 10
108.1026917771
 20
272.3697138548
 30
0.0
  0
SEQEND
  5
8F4
  8
0
  6
CONTINUOUS
 62
     7
  0
POLYLINE
  5
72
  8
0
  6
CONTINUOUS
 62
     7
 66
     1
 10
0.0
 20
0.0
 30
0.0
  0
VERTEX
  5
4D2
  8
0
  6
CONTINUOUS
 62
     7
 10
98.6372834519
 20
249.292094779
 30
0.0
  0
VERTEX
  5
4D3
  8
0
  6
CONTINUOUS
 62
     7
 10
100.0385916308
 20
249.4872761488
 30
0.0
  0
VERTEX
  5
4D4
  8
0
  6
CONTINUOUS
 62
     7
 10
101.3879603223
 20
249.9298644781
 30
0.0
  0
VERTEX
  5
4D5
  8
0
  6
CONTINUOUS
 62
     7
 10
102.6476895884
 20
250.6120396375
 30
0.0
  0
VERTEX
  5
4D6
  8
0
  6
CONTINUOUS
 62
     7
 10
103.7854707316
 20
251.5111280203
 30
0.0
  0
VERTEX
  5
4D7
  8
0
  6
CONTINUOUS
 62
     7
 10
104.7667390183
 20
252.5995803594
 30
0.0
  0
VERTEX
  5
4D8
  8
0
  6
CONTINUOUS
 62
     7
 10
105.5745846108
 20
253.8462591886
 30
0.0
  0
VERTEX
  5
4D9
  8
0
  6
CONTINUOUS
 62
     7
 10
106.1889565066
 20
255.220098567
 30
0.0
  0
VERTEX
  5
4DA
  8
0
  6
CONTINUOUS
 62
     7
 10
106.5972215012
 20
256.677384448
 30
0.0
  0
VERTEX
  5
4DB
  8
0
  6
CONTINUOUS
 62
     7
 10
106.7610985116
 20
257.7961278677
 30
0.0
  0
SEQEND
  5
8F3
  8
0
  6
CONTINUOUS
 62
     7
  0
POLYLINE
  5
73
  8
0
  6
CONTINUOUS
 62
     7
 66
     1
 10
0.0
 20
0.0
 30
0.0
  0
VERTEX
  5
4DC
  8
0
  6
CONTINUOUS
 62
     7
 10
47.5174492673
 20
249.292094779
 30
0.0
  0
VERTEX
  5
4DD
  8
0
  6
CONTINUOUS
 62
     7
 10
50.3418868855
 20
249.1652680158
 30
0.0
  0
VERTEX
  5
4DE
  8
0
  6
CONTINUOUS
 62
     7
 10
53.2076543645
 20
249.0533781767
 30
0.0
  0
VERTEX
  5
4DF
  8
0
  6
CONTINUOUS
 62
     7
 10
56.1094409302
 20
248.9566398382
 30
0.0
  0
VERTEX
  5
4E0
  8
0
  6
CONTINUOUS
 62
     7
 10
60.2964049653
 20
248.8452983618
 30
0.0
  0
VERTEX
  5
4E1
  8
0
  6
CONTINUOUS
 62
     7
 10
64.5304566697
 20
248.7654639006
 30
0.0
  0
VERTEX
  5
4E2
  8
0
  6
CONTINUOUS
 62
     7
 10
68.7960153893
 20
248.7174583196
 30
0.0
  0
VERTEX
  5
4E3
  8
0
  6
CONTINUOUS
 62
     7
 10
73.0773633794
 20
248.7014365911
 30
0.0
  0
VERTEX
  5
4E4
  8
0
  6
CONTINUOUS
 62
     7
 10
77.3587173299
 20
248.7174583196
 30
0.0
  0
VERTEX
  5
4E5
  8
0
  6
CONTINUOUS
 62
     7
 10
81.6242760495
 20
248.7654639006
 30
0.0
  0
VERTEX
  5
4E6
  8
0
  6
CONTINUOUS
 62
     7
 10
85.8583277539
 20
248.8452983618
 30
0.0
  0
VERTEX
  5
4E7
  8
0
  6
CONTINUOUS
 62
     7
 10
90.0452917889
 20
248.9566398382
 30
0.0
  0
VERTEX
  5
4E8
  8
0
  6
CONTINUOUS
 62
     7
 10
92.9470783547
 20
249.0533781767
 30
0.0
  0
VERTEX
  5
4E9
  8
0
  6
CONTINUOUS
 62
     7
 10
95.8128428534
 20
249.1652680158
 30
0.0
  0
VERTEX
  5
4EA
  8
0
  6
CONTINUOUS
 62
     7
 10
98.6372834519
 20
249.292094779
 30
0.0
  0
SEQEND
  5
8F2
  8
0
  6
CONTINUOUS
 62
     7
  0
POLYLINE
  5
74
  8
0
  6
CONTINUOUS
 62
     7
 66
     1
 10
0.0
 20
0.0
 30
0.0
  0
VERTEX
  5
4EB
  8
0
  6
CONTINUOUS
 62
     7
 10
39.3936342076
 20
257.7961278677
 30
0.0
  0
VERTEX
  5
4EC
  8
0
  6
CONTINUOUS
 62
     7
 10
39.641744502
 20
256.3007188558
 30
0.0
  0
VERTEX
  5
4ED
  8
0
  6
CONTINUOUS
 62
     7
 10
40.103424199
 20
254.8580241918
 30
0.0
  0
VERTEX
  5
4EE
  8
0
  6
CONTINUOUS
 62
     7
 10
40.7717531995
 20
253.5107565641
 30
0.0
  0
VERTEX
  5
4EF
  8
0
  6
CONTINUOUS
 62
     7
 10
41.6291660146
 20
252.2965384245
 30
0.0
  0
VERTEX
  5
4F0
  8
0
  6
CONTINUOUS
 62
     7
 10
42.6573818997
 20
251.2535644293
 30
0.0
  0
VERTEX
  5
4F1
  8
0
  6
CONTINUOUS
 62
     7
 10
43.8291615323
 20
250.4088831663
 30
0.0
  0
VERTEX
  5
4F2
  8
0
  6
CONTINUOUS
 62
     7
 10
45.1123482064
 20
249.7913671255
 30
0.0
  0
VERTEX
  5
4F3
  8
0
  6
CONTINUOUS
 62
     7
 10
46.4743262604
 20
249.4120550871
 30
0.0
  0
VERTEX
  5
4F4
  8
0
  6
CONTINUOUS
 62
     7
 10
47.5174492673
 20
249.292094779
 30
0.0
  0
SEQEND
  5
8F1
  8
0
  6
CONTINUOUS
 62
     7
  0
POLYLINE
  5
75
  8
0
  6
CONTINUOUS
 62
     7
 66
     1
 10
0.0
 20
0.0
 30
0.0
  0
VERTEX
  5
4F5
  8
0
  6
CONTINUOUS
 62
     7
 10
38.0520349816
 20
272.3697496176
 30
0.0
  0
VERTEX
  5
4F6
  8
0
  6
CONTINUOUS
 62
     7
 10
38.3870309666
 20
268.7417460203
 30
0.0
  0
VERTEX
  5
4F7
  8
0
  6
CONTINUOUS
 62
     7
 10
38.7237674073
 20
265.0893522024
 30
0.0
  0
VERTEX
  5
4F8
  8
0
  6
CONTINUOUS
 62
     7
 10
39.059734948
 20
261.4441347837
 30
0.0
  0
VERTEX
  5
4F9
  8
0
  6
CONTINUOUS
 62
     7
 10
39.3936342076
 20
257.7961278677
 30
0.0
  0
SEQEND
  5
8F0
  8
0
  6
CONTINUOUS
 62
     7
  0
POLYLINE
  5
76
  8
0
  6
CONTINUOUS
 62
     7
 66
     1
 10
0.0
 20
0.0
 30
0.0
  0
VERTEX
  5
4FA
  8
0
  6
CONTINUOUS
 62
     7
 10
44.8547488526
 20
280.1616383314
 30
0.0
  0
VERTEX
  5
4FB
  8
0
  6
CONTINUOUS
 62
     7
 10
43.6273759679
 20
280.120928359
 30
0.0
  0
VERTEX
  5
4FC
  8
0
  6
CONTINUOUS
 62
     7
 10
42.4539095238
 20
279.8699808836
 30
0.0
  0
VERTEX
  5
4FD
  8
0
  6
CONTINUOUS
 62
     7
 10
41.3681632355
 20
279.4112993002
 30
0.0
  0
VERTEX
  5
4FE
  8
0
  6
CONTINUOUS
 62
     7
 10
40.3988367394
 20
278.7592721701
 30
0.0
  0
VERTEX
  5
4FF
  8
0
  6
CONTINUOUS
 62
     7
 10
39.5771569089
 20
277.932901454
 30
0.0
  0
VERTEX
  5
500
  8
0
  6
CONTINUOUS
 62
     7
 10
38.915354617
 20
276.9531799078
 30
0.0
  0
VERTEX
  5
501
  8
0
  6
CONTINUOUS
 62
     7
 10
38.4290701226
 20
275.8408976316
 30
0.0
  0
VERTEX
  5
502
  8
0
  6
CONTINUOUS
 62
     7
 10
38.1263321713
 20
274.6289802313
 30
0.0
  0
VERTEX
  5
503
  8
0
  6
CONTINUOUS
 62
     7
 10
38.0172973946
 20
273.5136342764
 30
0.0
  0
VERTEX
  5
504
  8
0
  6
CONTINUOUS
 62
     7
 10
38.0520349816
 20
272.3697496176
 30
0.0
  0
SEQEND
  5
8EF
  8
0
  6
CONTINUOUS
 62
     7
  0
POLYLINE
  5
77
  8
0
  6
CONTINUOUS
 62
     7
 66
     1
 10
0.0
 20
0.0
 30
0.0
  0
VERTEX
  5
505
  8
0
  6
CONTINUOUS
 62
     7
 10
101.3000315503
 20
280.1616383314
 30
0.0
  0
VERTEX
  5
506
  8
0
  6
CONTINUOUS
 62
     7
 10
98.116523631
 20
280.0028992414
 30
0.0
  0
VERTEX
  5
507
  8
0
  6
CONTINUOUS
 62
     7
 10
94.8779261187
 20
279.8632813215
 30
0.0
  0
VERTEX
  5
508
  8
0
  6
CONTINUOUS
 62
     7
 10
91.5914809779
 20
279.7430945158
 30
0.0
  0
VERTEX
  5
509
  8
0
  6
CONTINUOUS
 62
     7
 10
87.9475122765
 20
279.6341491461
 30
0.0
  0
VERTEX
  5
50A
  8
0
  6
CONTINUOUS
 62
     7
 10
84.2643594817
 20
279.5491052389
 30
0.0
  0
VERTEX
  5
50B
  8
0
  6
CONTINUOUS
 62
     7
 10
80.5518156365
 20
279.4882012129
 30
0.0
  0
VERTEX
  5
50C
  8
0
  6
CONTINUOUS
 62
     7
 10
76.8194979504
 20
279.45159204
 30
0.0
  0
VERTEX
  5
50D
  8
0
  6
CONTINUOUS
 62
     7
 10
73.0773633794
 20
279.4393850088
 30
0.0
  0
VERTEX
  5
50E
  8
0
  6
CONTINUOUS
 62
     7
 10
69.3352288083
 20
279.45159204
 30
0.0
  0
VERTEX
  5
50F
  8
0
  6
CONTINUOUS
 62
     7
 10
65.6029170827
 20
279.4882012129
 30
0.0
  0
VERTEX
  5
510
  8
0
  6
CONTINUOUS
 62
     7
 10
61.8903702573
 20
279.5491052389
 30
0.0
  0
VERTEX
  5
511
  8
0
  6
CONTINUOUS
 62
     7
 10
58.2072204427
 20
279.6341491461
 30
0.0
  0
VERTEX
  5
512
  8
0
  6
CONTINUOUS
 62
     7
 10
54.5632487611
 20
279.7430945158
 30
0.0
  0
VERTEX
  5
513
  8
0
  6
CONTINUOUS
 62
     7
 10
51.2768215016
 20
279.8632813215
 30
0.0
  0
VERTEX
  5
514
  8
0
  6
CONTINUOUS
 62
     7
 10
48.0382388905
 20
280.0028992414
 30
0.0
  0
VERTEX
  5
515
  8
0
  6
CONTINUOUS
 62
     7
 10
44.8547488526
 20
280.1616383314
 30
0.0
  0
SEQEND
  5
8EE
  8
0
  6
CONTINUOUS
 62
     7
  0
POLYLINE
  5
78
  8
0
  6
CONTINUOUS
 62
     7
 66
     1
 10
0.0
 20
0.0
 30
0.0
  0
VERTEX
  5
516
  8
0
  6
CONTINUOUS
 62
     7
 10
107.332656391
 20
257.6651407003
 30
0.0
  0
VERTEX
  5
517
  8
0
  6
CONTINUOUS
 62
     7
 10
107.0811903552
 20
256.1702323675
 30
0.0
  0
VERTEX
  5
518
  8
0
  6
CONTINUOUS
 62
     7
 10
106.6163247899
 20
254.7286701917
 30
0.0
  0
VERTEX
  5
519
  8
0
  6
CONTINUOUS
 62
     7
 10
105.9450751618
 20
253.3831430197
 30
0.0
  0
VERTEX
  5
51A
  8
0
  6
CONTINUOUS
 62
     7
 10
105.0851321296
 20
252.1712017774
 30
0.0
  0
VERTEX
  5
51B
  8
0
  6
CONTINUOUS
 62
     7
 10
104.0548867062
 20
251.130945754
 30
0.0
  0
VERTEX
  5
51C
  8
0
  6
CONTINUOUS
 62
     7
 10
102.8816884831
 20
250.2893520117
 30
0.0
  0
VERTEX
  5
51D
  8
0
  6
CONTINUOUS
 62
     7
 10
101.5976733044
 20
249.6751499891
 30
0.0
  0
VERTEX
  5
51E
  8
0
  6
CONTINUOUS
 62
     7
 10
100.2355939225
 20
249.2993784666
 30
0.0
  0
VERTEX
  5
51F
  8
0
  6
CONTINUOUS
 62
     7
 10
99.211595066
 20
249.1830302
 30
0.0
  0
SEQEND
  5
8ED
  8
0
  6
CONTINUOUS
 62
     7
  0
POLYLINE
  5
79
  8
0
  6
CONTINUOUS
 62
     7
 66
     1
 10
0.0
 20
0.0
 30
0.0
  0
VERTEX
  5
520
  8
0
  6
CONTINUOUS
 62
     7
 10
46.943134673
 20
249.1830302
 30
0.0
  0
VERTEX
  5
521
  8
0
  6
CONTINUOUS
 62
     7
 10
45.5428248719
 20
249.3778539419
 30
0.0
  0
VERTEX
  5
522
  8
0
  6
CONTINUOUS
 62
     7
 10
44.1941982583
 20
249.8201204061
 30
0.0
  0
VERTEX
  5
523
  8
0
  6
CONTINUOUS
 62
     7
 10
42.934942849
 20
250.5019737005
 30
0.0
  0
VERTEX
  5
524
  8
0
  6
CONTINUOUS
 62
     7
 10
41.7973643616
 20
251.4007521391
 30
0.0
  0
VERTEX
  5
525
  8
0
  6
CONTINUOUS
 62
     7
 10
40.815956004
 20
252.4890375852
 30
0.0
  0
VERTEX
  5
526
  8
0
  6
CONTINUOUS
 62
     7
 10
40.0078243092
 20
253.735621047
 30
0.0
  0
VERTEX
  5
527
  8
0
  6
CONTINUOUS
 62
     7
 10
39.3930977658
 20
255.109353137
 30
0.0
  0
VERTEX
  5
528
  8
0
  6
CONTINUOUS
 62
     7
 10
38.9844125584
 20
256.5666032553
 30
0.0
  0
VERTEX
  5
529
  8
0
  6
CONTINUOUS
 62
     7
 10
38.8220733479
 20
257.6651407003
 30
0.0
  0
SEQEND
  5
8EC
  8
0
  6
CONTINUOUS
 62
     7
  0
POLYLINE
  5
7A
  8
0
  6
CONTINUOUS
 62
     7
 66
     1
 10
0.0
 20
0.0
 30
0.0
  0
VERTEX
  5
52A
  8
0
  6
CONTINUOUS
 62
     7
 10
107.332656391
 20
257.6651407003
 30
0.0
  0
VERTEX
  5
52B
  8
0
  6
CONTINUOUS
 62
     7
 10
107.6723730639
 20
261.2874937773
 30
0.0
  0
VERTEX
  5
52C
  8
0
  6
CONTINUOUS
 62
     7
 10
108.012232788
 20
264.9058771849
 30
0.0
  0
VERTEX
  5
52D
  8
0
  6
CONTINUOUS
 62
     7
 10
108.3516588882
 20
268.5093832731
 30
0.0
  0
VERTEX
  5
52E
  8
0
  6
CONTINUOUS
 62
     7
 10
108.6899375991
 20
272.0822644949
 30
0.0
  0
SEQEND
  5
8EB
  8
0
  6
CONTINUOUS
 62
     7
  0
POLYLINE
  5
7B
  8
0
  6
CONTINUOUS
 62
     7
 66
     1
 10
0.0
 20
0.0
 30
0.0
  0
VERTEX
  5
52F
  8
0
  6
CONTINUOUS
 62
     7
 10
37.4647861794
 20
272.0823002577
 30
0.0
  0
VERTEX
  5
530
  8
0
  6
CONTINUOUS
 62
     7
 10
37.8030663804
 20
268.5094190359
 30
0.0
  0
VERTEX
  5
531
  8
0
  6
CONTINUOUS
 62
     7
 10
38.142496951
 20
264.9059010267
 30
0.0
  0
VERTEX
  5
532
  8
0
  6
CONTINUOUS
 62
     7
 10
38.482356675
 20
261.2875056982
 30
0.0
  0
VERTEX
  5
533
  8
0
  6
CONTINUOUS
 62
     7
 10
38.8220733479
 20
257.6651407003
 30
0.0
  0
SEQEND
  5
8EA
  8
0
  6
CONTINUOUS
 62
     7
  0
POLYLINE
  5
7C
  8
0
  6
CONTINUOUS
 62
     7
 66
     1
 10
0.0
 20
0.0
 30
0.0
  0
VERTEX
  5
534
  8
0
  6
CONTINUOUS
 62
     7
 10
104.9972301797
 20
279.3023777723
 30
0.0
  0
VERTEX
  5
535
  8
0
  6
CONTINUOUS
 62
     7
 10
105.3909963444
 20
279.1347814321
 30
0.0
  0
VERTEX
  5
536
  8
0
  6
CONTINUOUS
 62
     7
 10
106.3579654769
 20
278.4803701162
 30
0.0
  0
VERTEX
  5
537
  8
0
  6
CONTINUOUS
 62
     7
 10
107.1773147658
 20
277.6516509771
 30
0.0
  0
VERTEX
  5
538
  8
0
  6
CONTINUOUS
 62
     7
 10
107.8366285638
 20
276.6697955847
 30
0.0
  0
VERTEX
  5
539
  8
0
  6
CONTINUOUS
 62
     7
 10
108.320280023
 20
275.5557013273
 30
0.0
  0
VERTEX
  5
53A
  8
0
  6
CONTINUOUS
 62
     7
 10
108.6203178839
 20
274.3423414945
 30
0.0
  0
VERTEX
  5
53B
  8
0
  6
CONTINUOUS
 62
     7
 10
108.7269610242
 20
273.2263875723
 30
0.0
  0
VERTEX
  5
53C
  8
0
  6
CONTINUOUS
 62
     7
 10
108.6899375991
 20
272.0822644949
 30
0.0
  0
SEQEND
  5
8E9
  8
0
  6
CONTINUOUS
 62
     7
  0
POLYLINE
  5
7D
  8
0
  6
CONTINUOUS
 62
     7
 66
     1
 10
0.0
 20
0.0
 30
0.0
  0
VERTEX
  5
53D
  8
0
  6
CONTINUOUS
 62
     7
 10
37.4647861794
 20
272.0823002577
 30
0.0
  0
VERTEX
  5
53E
  8
0
  6
CONTINUOUS
 62
     7
 10
37.4347513989
 20
273.3941150427
 30
0.0
  0
VERTEX
  5
53F
  8
0
  6
CONTINUOUS
 62
     7
 10
37.5938719586
 20
274.6642900228
 30
0.0
  0
VERTEX
  5
540
  8
0
  6
CONTINUOUS
 62
     7
 10
37.9432565049
 20
275.857110095
 30
0.0
  0
VERTEX
  5
541
  8
0
  6
CONTINUOUS
 62
     7
 10
38.4752219991
 20
276.9423437834
 30
0.0
  0
VERTEX
  5
542
  8
0
  6
CONTINUOUS
 62
     7
 10
39.1829139069
 20
277.8905583143
 30
0.0
  0
VERTEX
  5
543
  8
0
  6
CONTINUOUS
 62
     7
 10
40.0475865678
 20
278.6777449369
 30
0.0
  0
VERTEX
  5
544
  8
0
  6
CONTINUOUS
 62
     7
 10
41.0463517979
 20
279.2790246725
 30
0.0
  0
VERTEX
  5
545
  8
0
  6
CONTINUOUS
 62
     7
 10
41.1495810822
 20
279.3168378591
 30
0.0
  0
SEQEND
  5
8E8
  8
0
  6
CONTINUOUS
 62
     7
  0
POLYLINE
  5
7E
  8
0
  6
CONTINUOUS
 62
     7
 66
     1
 10
0.0
 20
0.0
 30
0.0
  0
VERTEX
  5
546
  8
0
  6
CONTINUOUS
 62
     7
 10
46.943134673
 20
249.1830302
 30
0.0
  0
VERTEX
  5
547
  8
0
  6
CONTINUOUS
 62
     7
 10
49.8607164696
 20
249.0527821302
 30
0.0
  0
VERTEX
  5
548
  8
0
  6
CONTINUOUS
 62
     7
 10
52.8218334988
 20
248.93805511
 30
0.0
  0
VERTEX
  5
549
  8
0
  6
CONTINUOUS
 62
     7
 10
55.8209127263
 20
248.839051795
 30
0.0
  0
VERTEX
  5
54A
  8
0
  6
CONTINUOUS
 62
     7
 10
60.0790745095
 20
248.7270785093
 30
0.0
  0
VERTEX
  5
54B
  8
0
  6
CONTINUOUS
 62
     7
 10
64.3851286248
 20
248.6468029737
 30
0.0
  0
VERTEX
  5
54C
  8
0
  6
CONTINUOUS
 62
     7
 10
68.7232261971
 20
248.5985232115
 30
0.0
  0
VERTEX
  5
54D
  8
0
  6
CONTINUOUS
 62
     7
 10
73.0773633794
 20
248.5824061155
 30
0.0
  0
VERTEX
  5
54E
  8
0
  6
CONTINUOUS
 62
     7
 10
77.4315065221
 20
248.5985232115
 30
0.0
  0
VERTEX
  5
54F
  8
0
  6
CONTINUOUS
 62
     7
 10
81.7696040944
 20
248.6468029737
 30
0.0
  0
VERTEX
  5
550
  8
0
  6
CONTINUOUS
 62
     7
 10
86.0756552295
 20
248.7270785093
 30
0.0
  0
VERTEX
  5
551
  8
0
  6
CONTINUOUS
 62
     7
 10
90.3338170127
 20
248.839051795
 30
0.0
  0
VERTEX
  5
552
  8
0
  6
CONTINUOUS
 62
     7
 10
93.3328992203
 20
248.93805511
 30
0.0
  0
VERTEX
  5
553
  8
0
  6
CONTINUOUS
 62
     7
 10
96.2940132693
 20
249.0527821302
 30
0.0
  0
VERTEX
  5
554
  8
0
  6
CONTINUOUS
 62
     7
 10
99.211595066
 20
249.1830302
 30
0.0
  0
SEQEND
  5
8E7
  8
0
  6
CONTINUOUS
 62
     7
  0
LINE
  5
7F
  8
0
  6
CONTINUOUS
 62
     7
 10
55.0773686246
 20
187.2416568518
 30
0.0
 11
55.0773686246
 21
188.2416558981
 31
0.0
  0
LINE
  5
80
  8
0
  6
CONTINUOUS
 62
     7
 10
55.0773686246
 20
188.2416558981
 30
0.0
 11
91.0773670748
 21
188.2416558981
 31
0.0
  0
LINE
  5
81
  8
0
  6
CONTINUOUS
 62
     7
 10
91.0773670748
 20
188.2416558981
 30
0.0
 11
91.0773670748
 21
187.2416568518
 31
0.0
  0
LINE
  5
82
  8
0
  6
CONTINUOUS
 62
     7
 10
88.0773669556
 20
177.8416527033
 30
0.0
 11
58.0773657635
 21
177.8416527033
 31
0.0
  0
ARC
  5
83
  8
0
  6
CONTINUOUS
 62
     7
 10
58.0773657635
 20
180.8416542768
 30
0.0
 40
3.0
 50
180.0
 51
270.0
  0
ARC
  5
84
  8
0
  6
CONTINUOUS
 62
     7
 10
88.0773657635
 20
180.8416542768
 30
0.0
 40
3.0
 50
270.0
 51
0.0
  0
LINE
  5
85
  8
0
  6
CONTINUOUS
 62
     7
 10
91.0773670748
 20
180.8416558027
 30
0.0
 11
91.0773670748
 21
187.2416568518
 31
0.0
  0
LINE
  5
86
  8
0
  6
CONTINUOUS
 62
     7
 10
55.0773686246
 20
180.8416558027
 30
0.0
 11
55.0773686246
 21
187.2416568518
 31
0.0
  0
LINE
  5
87
  8
0
  6
CONTINUOUS
 62
     7
 10
70.0773662404
 20
197.9629410028
 30
0.0
 11
70.0773662404
 21
198.2713592768
 31
0.0
  0
LINE
  5
88
  8
0
  6
CONTINUOUS
 62
     7
 10
76.0773664788
 20
198.2638133287
 30
0.0
 11
76.0773664788
 21
197.9629410028
 31
0.0
  0
LINE
  5
89
  8
0
  6
CONTINUOUS
 62
     7
 10
70.0773662404
 20
188.2416558981
 30
0.0
 11
70.0773662404
 21
197.9629410028
 31
0.0
  0
LINE
  5
8A
  8
0
  6
CONTINUOUS
 62
     7
 10
76.0773664788
 20
197.9629410028
 30
0.0
 11
76.0773664788
 21
188.2416558981
 31
0.0
  0
LINE
  5
8B
  8
0
  6
CONTINUOUS
 62
     7
 10
70.0773662404
 20
203.5246802091
 30
0.0
 11
70.0773662404
 21
243.3433247328
 31
0.0
  0
LINE
  5
8C
  8
0
  6
CONTINUOUS
 62
     7
 10
76.0773664788
 20
243.3433247328
 30
0.0
 11
76.0773664788
 21
203.5332751989
 31
0.0
  0
LINE
  5
8D
  8
0
  6
CONTINUOUS
 62
     7
 10
70.0773662404
 20
243.3433247328
 30
0.0
 11
70.0773662404
 21
244.8895526647
 31
0.0
  0
LINE
  5
8E
  8
0
  6
CONTINUOUS
 62
     7
 10
76.0773664788
 20
244.8895526647
 30
0.0
 11
76.0773664788
 21
243.3433247328
 31
0.0
  0
LINE
  5
8F
  8
0
  6
CONTINUOUS
 62
     7
 10
70.0773662404
 20
244.8895526647
 30
0.0
 11
70.0773662404
 21
248.5935164213
 31
0.0
  0
LINE
  5
90
  8
0
  6
CONTINUOUS
 62
     7
 10
76.0773664788
 20
248.5935164213
 30
0.0
 11
76.0773664788
 21
244.8895526647
 31
0.0
  0
ARC
  5
91
  8
0
  6
CONTINUOUS
 62
     7
 10
178.0773657635
 20
180.8416542768
 30
0.0
 40
3.0
 50
180.0
 51
270.0
  0
ARC
  5
92
  8
0
  6
CONTINUOUS
 62
     7
 10
208.0773657635
 20
180.8416542768
 30
0.0
 40
3.0
 50
270.0
 51
0.0
  0
LINE
  5
93
  8
0
  6
CONTINUOUS
 62
     7
 10
208.0773657635
 20
177.8416527033
 30
0.0
 11
178.0773645715
 21
177.8416527033
 31
0.0
  0
LINE
  5
94
  8
0
  6
CONTINUOUS
 62
     7
 10
211.0773629025
 20
180.8416558027
 30
0.0
 11
211.0773629025
 21
187.2416568518
 31
0.0
  0
LINE
  5
95
  8
0
  6
CONTINUOUS
 62
     7
 10
175.0773644522
 20
180.8416558027
 30
0.0
 11
175.0773644522
 21
187.2416568518
 31
0.0
  0
LINE
  5
96
  8
0
  6
CONTINUOUS
 62
     7
 10
175.0773644522
 20
188.2416558981
 30
0.0
 11
211.0773629025
 21
188.2416558981
 31
0.0
  0
LINE
  5
97
  8
0
  6
CONTINUOUS
 62
     7
 10
211.0773629025
 20
188.2416558981
 30
0.0
 11
211.0773629025
 21
187.2416568518
 31
0.0
  0
LINE
  5
98
  8
0
  6
CONTINUOUS
 62
     7
 10
175.0773644522
 20
187.2416568518
 30
0.0
 11
175.0773644522
 21
188.2416558981
 31
0.0
  0
LINE
  5
99
  8
0
  6
CONTINUOUS
 62
     7
 10
196.0773652867
 20
198.2638133287
 30
0.0
 11
196.0773652867
 21
197.9629410028
 31
0.0
  0
LINE
  5
9A
  8
0
  6
CONTINUOUS
 62
     7
 10
190.0773650483
 20
197.9629410028
 30
0.0
 11
190.0773650483
 21
198.2713592768
 31
0.0
  0
LINE
  5
9B
  8
0
  6
CONTINUOUS
 62
     7
 10
190.0773650483
 20
188.2416558981
 30
0.0
 11
190.0773650483
 21
197.9629410028
 31
0.0
  0
LINE
  5
9C
  8
0
  6
CONTINUOUS
 62
     7
 10
196.0773652867
 20
197.9629410028
 30
0.0
 11
196.0773652867
 21
188.2416558981
 31
0.0
  0
LINE
  5
9D
  8
0
  6
CONTINUOUS
 62
     7
 10
196.0773652867
 20
243.3433247328
 30
0.0
 11
196.0773652867
 21
203.5332751989
 31
0.0
  0
LINE
  5
9E
  8
0
  6
CONTINUOUS
 62
     7
 10
190.0773650483
 20
203.5246802091
 30
0.0
 11
190.0773650483
 21
243.3433247328
 31
0.0
  0
LINE
  5
9F
  8
0
  6
CONTINUOUS
 62
     7
 10
196.0773652867
 20
244.8895526647
 30
0.0
 11
196.0773652867
 21
243.3433247328
 31
0.0
  0
LINE
  5
A0
  8
0
  6
CONTINUOUS
 62
     7
 10
190.0773650483
 20
243.3433247328
 30
0.0
 11
190.0773650483
 21
244.8895526647
 31
0.0
  0
LINE
  5
A1
  8
0
  6
CONTINUOUS
 62
     7
 10
196.0773652867
 20
248.5935164213
 30
0.0
 11
196.0773652867
 21
244.8895526647
 31
0.0
  0
LINE
  5
A2
  8
0
  6
CONTINUOUS
 62
     7
 10
190.0773650483
 20
244.8895526647
 30
0.0
 11
190.0773650483
 21
248.5935164213
 31
0.0
  0
POLYLINE
  5
A3
  8
0
  6
CONTINUOUS
 62
     7
 66
     1
 10
0.0
 20
0.0
 30
0.0
  0
VERTEX
  5
555
  8
0
  6
CONTINUOUS
 62
     7
 10
110.6774365977
 20
203.9723528147
 30
0.0
  0
VERTEX
  5
556
  8
0
  6
CONTINUOUS
 62
     7
 10
110.58956296
 20
203.7182641744
 30
0.0
  0
VERTEX
  5
557
  8
0
  6
CONTINUOUS
 62
     7
 10
110.3242492751
 20
203.3632529497
 30
0.0
  0
VERTEX
  5
558
  8
0
  6
CONTINUOUS
 62
     7
 10
109.9152496532
 20
202.9315067053
 30
0.0
  0
VERTEX
  5
559
  8
0
  6
CONTINUOUS
 62
     7
 10
109.3568345979
 20
202.4295700312
 30
0.0
  0
VERTEX
  5
55A
  8
0
  6
CONTINUOUS
 62
     7
 10
108.6208736972
 20
201.8740905046
 30
0.0
  0
VERTEX
  5
55B
  8
0
  6
CONTINUOUS
 62
     7
 10
107.7187961415
 20
201.3258887052
 30
0.0
  0
VERTEX
  5
55C
  8
0
  6
CONTINUOUS
 62
     7
 10
106.8524158076
 20
200.9180618048
 30
0.0
  0
VERTEX
  5
55D
  8
0
  6
CONTINUOUS
 62
     7
 10
105.8687424735
 20
200.580580306
 30
0.0
  0
VERTEX
  5
55E
  8
0
  6
CONTINUOUS
 62
     7
 10
105.2436745242
 20
200.4303110361
 30
0.0
  0
VERTEX
  5
55F
  8
0
  6
CONTINUOUS
 62
     7
 10
104.5898652152
 20
200.3238571405
 30
0.0
  0
SEQEND
  5
8E6
  8
0
  6
CONTINUOUS
 62
     7
  0
POLYLINE
  5
A4
  8
0
  6
CONTINUOUS
 62
     7
 66
     1
 10
0.0
 20
0.0
 30
0.0
  0
VERTEX
  5
560
  8
0
  6
CONTINUOUS
 62
     7
 10
110.6774365977
 20
203.9723528147
 30
0.0
  0
VERTEX
  5
561
  8
0
  6
CONTINUOUS
 62
     7
 10
110.6774351076
 20
204.0271414041
 30
0.0
  0
VERTEX
  5
562
  8
0
  6
CONTINUOUS
 62
     7
 10
110.6772205309
 20
204.3198359728
 30
0.0
  0
VERTEX
  5
563
  8
0
  6
CONTINUOUS
 62
     7
 10
110.6767436937
 20
204.442544055
 30
0.0
  0
VERTEX
  5
564
  8
0
  6
CONTINUOUS
 62
     7
 10
110.6763935164
 20
204.4561756372
 30
0.0
  0
VERTEX
  5
565
  8
0
  6
CONTINUOUS
 62
     7
 10
110.6766393856
 20
204.4433189154
 30
0.0
  0
SEQEND
  5
8E5
  8
0
  6
CONTINUOUS
 62
     7
  0
POLYLINE
  5
A5
  8
0
  6
CONTINUOUS
 62
     7
 66
     1
 10
0.0
 20
0.0
 30
0.0
  0
VERTEX
  5
566
  8
0
  6
CONTINUOUS
 62
     7
 10
110.6773650721
 20
204.7397506952
 30
0.0
  0
VERTEX
  5
567
  8
0
  6
CONTINUOUS
 62
     7
 10
110.6626561359
 20
204.6919894934
 30
0.0
  0
VERTEX
  5
568
  8
0
  6
CONTINUOUS
 62
     7
 10
110.6773695425
 20
204.5651925325
 30
0.0
  0
SEQEND
  5
8E4
  8
0
  6
CONTINUOUS
 62
     7
  0
POLYLINE
  5
A6
  8
0
  6
CONTINUOUS
 62
     7
 66
     1
 10
0.0
 20
0.0
 30
0.0
  0
VERTEX
  5
569
  8
0
  6
CONTINUOUS
 62
     7
 10
35.4773646668
 20
204.5651925325
 30
0.0
  0
VERTEX
  5
56A
  8
0
  6
CONTINUOUS
 62
     7
 10
35.4920750932
 20
204.6919894934
 30
0.0
  0
VERTEX
  5
56B
  8
0
  6
CONTINUOUS
 62
     7
 10
35.4773646668
 20
204.7397506952
 30
0.0
  0
SEQEND
  5
8E3
  8
0
  6
CONTINUOUS
 62
     7
  0
POLYLINE
  5
A7
  8
0
  6
CONTINUOUS
 62
     7
 66
     1
 10
0.0
 20
0.0
 30
0.0
  0
VERTEX
  5
56C
  8
0
  6
CONTINUOUS
 62
     7
 10
35.4772931412
 20
203.9725316286
 30
0.0
  0
VERTEX
  5
56D
  8
0
  6
CONTINUOUS
 62
     7
 10
35.4772931412
 20
203.9772284746
 30
0.0
  0
VERTEX
  5
56E
  8
0
  6
CONTINUOUS
 62
     7
 10
35.4774659947
 20
204.295725894
 30
0.0
  0
VERTEX
  5
56F
  8
0
  6
CONTINUOUS
 62
     7
 10
35.4779309109
 20
204.4349683046
 30
0.0
  0
VERTEX
  5
570
  8
0
  6
CONTINUOUS
 62
     7
 10
35.4783183411
 20
204.4583333254
 30
0.0
  0
VERTEX
  5
571
  8
0
  6
CONTINUOUS
 62
     7
 10
35.478264697
 20
204.4409228086
 30
0.0
  0
SEQEND
  5
8E2
  8
0
  6
CONTINUOUS
 62
     7
  0
POLYLINE
  5
A8
  8
0
  6
CONTINUOUS
 62
     7
 66
     1
 10
0.0
 20
0.0
 30
0.0
  0
VERTEX
  5
572
  8
0
  6
CONTINUOUS
 62
     7
 10
41.5648645238
 20
200.3238571405
 30
0.0
  0
VERTEX
  5
573
  8
0
  6
CONTINUOUS
 62
     7
 10
40.5508166627
 20
200.5110216856
 30
0.0
  0
VERTEX
  5
574
  8
0
  6
CONTINUOUS
 62
     7
 10
39.5655101613
 20
200.8152020693
 30
0.0
  0
VERTEX
  5
575
  8
0
  6
CONTINUOUS
 62
     7
 10
38.6966711358
 20
201.1915934801
 30
0.0
  0
VERTEX
  5
576
  8
0
  6
CONTINUOUS
 62
     7
 10
37.9033988789
 20
201.63316257
 30
0.0
  0
VERTEX
  5
577
  8
0
  6
CONTINUOUS
 62
     7
 10
37.1459311322
 20
202.1535290003
 30
0.0
  0
VERTEX
  5
578
  8
0
  6
CONTINUOUS
 62
     7
 10
36.5046387986
 20
202.6830864668
 30
0.0
  0
VERTEX
  5
579
  8
0
  6
CONTINUOUS
 62
     7
 10
35.958397992
 20
203.2200945139
 30
0.0
  0
VERTEX
  5
57A
  8
0
  6
CONTINUOUS
 62
     7
 10
35.7502585725
 20
203.4587157488
 30
0.0
  0
VERTEX
  5
57B
  8
0
  6
CONTINUOUS
 62
     7
 10
35.5981415585
 20
203.6647451639
 30
0.0
  0
VERTEX
  5
57C
  8
0
  6
CONTINUOUS
 62
     7
 10
35.4772931412
 20
203.9725316286
 30
0.0
  0
SEQEND
  5
8E1
  8
0
  6
CONTINUOUS
 62
     7
  0
POLYLINE
  5
A9
  8
0
  6
CONTINUOUS
 62
     7
 66
     1
 10
0.0
 20
0.0
 30
0.0
  0
VERTEX
  5
57D
  8
0
  6
CONTINUOUS
 62
     7
 10
104.5898652152
 20
200.3238571405
 30
0.0
  0
VERTEX
  5
57E
  8
0
  6
CONTINUOUS
 62
     7
 10
97.5005364493
 20
199.5229435682
 30
0.0
  0
VERTEX
  5
57F
  8
0
  6
CONTINUOUS
 62
     7
 10
90.383470662
 20
198.8955033541
 30
0.0
  0
VERTEX
  5
580
  8
0
  6
CONTINUOUS
 62
     7
 10
83.2105642632
 20
198.4689367533
 30
0.0
  0
VERTEX
  5
581
  8
0
  6
CONTINUOUS
 62
     7
 10
76.023638852
 20
198.2617212057
 30
0.0
  0
VERTEX
  5
582
  8
0
  6
CONTINUOUS
 62
     7
 10
70.9606057481
 20
198.252524209
 30
0.0
  0
VERTEX
  5
583
  8
0
  6
CONTINUOUS
 62
     7
 10
65.8990746812
 20
198.3561945677
 30
0.0
  0
VERTEX
  5
584
  8
0
  6
CONTINUOUS
 62
     7
 10
60.8284121827
 20
198.5721302748
 30
0.0
  0
VERTEX
  5
585
  8
0
  6
CONTINUOUS
 62
     7
 10
55.7661360577
 20
198.8958848238
 30
0.0
  0
VERTEX
  5
586
  8
0
  6
CONTINUOUS
 62
     7
 10
48.6552542523
 20
199.5224369287
 30
0.0
  0
VERTEX
  5
587
  8
0
  6
CONTINUOUS
 62
     7
 10
41.5648645238
 20
200.3238571405
 30
0.0
  0
SEQEND
  5
8E0
  8
0
  6
CONTINUOUS
 62
     7
  0
POLYLINE
  5
AA
  8
0
  6
CONTINUOUS
 62
     7
 66
     1
 10
0.0
 20
0.0
 30
0.0
  0
VERTEX
  5
588
  8
0
  6
CONTINUOUS
 62
     7
 10
41.7447632626
 20
205.6564284086
 30
0.0
  0
VERTEX
  5
589
  8
0
  6
CONTINUOUS
 62
     7
 10
40.7382911519
 20
205.874074769
 30
0.0
  0
VERTEX
  5
58A
  8
0
  6
CONTINUOUS
 62
     7
 10
39.8136979417
 20
206.0638857603
 30
0.0
  0
VERTEX
  5
58B
  8
0
  6
CONTINUOUS
 62
     7
 10
39.0462046937
 20
206.201858592
 30
0.0
  0
VERTEX
  5
58C
  8
0
  6
CONTINUOUS
 62
     7
 10
38.4107238129
 20
206.2857819319
 30
0.0
  0
VERTEX
  5
58D
  8
0
  6
CONTINUOUS
 62
     7
 10
38.1089931802
 20
206.3065362692
 30
0.0
  0
VERTEX
  5
58E
  8
0
  6
CONTINUOUS
 62
     7
 10
37.8710037545
 20
206.3051117182
 30
0.0
  0
SEQEND
  5
8DF
  8
0
  6
CONTINUOUS
 62
     7
  0
ARC
  5
AB
  8
0
  6
CONTINUOUS
 62
     7
 10
72.9614175645
 20
344.8905937766
 30
0.0
 40
142.6906875431425
 50
257.3631130655
 51
260.3830519281
  0
ARC
  5
AC
  8
0
  6
CONTINUOUS
 62
     7
 10
72.4756246796
 20
348.5190812754
 30
0.0
 40
146.3883184210218
 50
279.6013542355
 51
282.6002885644
  0
POLYLINE
  5
AD
  8
0
  6
CONTINUOUS
 62
     7
 66
     1
 10
0.0
 20
0.0
 30
0.0
  0
VERTEX
  5
58F
  8
0
  6
CONTINUOUS
 62
     7
 10
108.2837274746
 20
206.3051117182
 30
0.0
  0
VERTEX
  5
590
  8
0
  6
CONTINUOUS
 62
     7
 10
107.8646397666
 20
206.2962008238
 30
0.0
  0
VERTEX
  5
591
  8
0
  6
CONTINUOUS
 62
     7
 10
107.2550094203
 20
206.2244845152
 30
0.0
  0
VERTEX
  5
592
  8
0
  6
CONTINUOUS
 62
     7
 10
106.5037643985
 20
206.0952258825
 30
0.0
  0
VERTEX
  5
593
  8
0
  6
CONTINUOUS
 62
     7
 10
105.5863893107
 20
205.9100342512
 30
0.0
  0
VERTEX
  5
594
  8
0
  6
CONTINUOUS
 62
     7
 10
104.4099664763
 20
205.6564284086
 30
0.0
  0
SEQEND
  5
8DE
  8
0
  6
CONTINUOUS
 62
     7
  0
POLYLINE
  5
AE
  8
0
  6
CONTINUOUS
 62
     7
 66
     1
 10
0.0
 20
0.0
 30
0.0
  0
VERTEX
  5
595
  8
0
  6
CONTINUOUS
 62
     7
 10
108.2837095932
 20
206.3051892042
 30
0.0
  0
VERTEX
  5
596
  8
0
  6
CONTINUOUS
 62
     7
 10
109.2007762269
 20
206.2503767729
 30
0.0
  0
VERTEX
  5
597
  8
0
  6
CONTINUOUS
 62
     7
 10
109.8019501642
 20
206.1958385229
 30
0.0
  0
VERTEX
  5
598
  8
0
  6
CONTINUOUS
 62
     7
 10
110.1594722346
 20
206.14010818
 30
0.0
  0
VERTEX
  5
599
  8
0
  6
CONTINUOUS
 62
     7
 10
110.37423075
 20
206.0834956884
 30
0.0
  0
VERTEX
  5
59A
  8
0
  6
CONTINUOUS
 62
     7
 10
110.4559770302
 20
206.0250652551
 30
0.0
  0
VERTEX
  5
59B
  8
0
  6
CONTINUOUS
 62
     7
 10
110.4528120235
 20
205.9675110102
 30
0.0
  0
VERTEX
  5
59C
  8
0
  6
CONTINUOUS
 62
     7
 10
110.4257112817
 20
205.9146595716
 30
0.0
  0
VERTEX
  5
59D
  8
0
  6
CONTINUOUS
 62
     7
 10
110.4235535935
 20
205.8677983999
 30
0.0
  0
VERTEX
  5
59E
  8
0
  6
CONTINUOUS
 62
     7
 10
110.4704907612
 20
205.7595027208
 30
0.0
  0
VERTEX
  5
59F
  8
0
  6
CONTINUOUS
 62
     7
 10
110.4797250108
 20
205.7179463625
 30
0.0
  0
SEQEND
  5
8DD
  8
0
  6
CONTINUOUS
 62
     7
  0
ARC
  5
AF
  8
0
  6
CONTINUOUS
 62
     7
 10
105.6333391016
 20
204.8890972603
 30
0.0
 40
4.945514220587443
 50
3.5861812415
 51
8.4290288726
  0
POLYLINE
  5
B0
  8
0
  6
CONTINUOUS
 62
     7
 66
     1
 10
0.0
 20
0.0
 30
0.0
  0
VERTEX
  5
5A0
  8
0
  6
CONTINUOUS
 62
     7
 10
104.480529435
 20
201.8206072569
 30
0.0
  0
VERTEX
  5
5A1
  8
0
  6
CONTINUOUS
 62
     7
 10
105.5042243079
 20
201.99953444
 30
0.0
  0
VERTEX
  5
5A2
  8
0
  6
CONTINUOUS
 62
     7
 10
106.5002030209
 20
202.2903156996
 30
0.0
  0
VERTEX
  5
5A3
  8
0
  6
CONTINUOUS
 62
     7
 10
107.3804563359
 20
202.6492608309
 30
0.0
  0
VERTEX
  5
5A4
  8
0
  6
CONTINUOUS
 62
     7
 10
108.1850862578
 20
203.0680669069
 30
0.0
  0
VERTEX
  5
5A5
  8
0
  6
CONTINUOUS
 62
     7
 10
108.94480557
 20
203.5517705202
 30
0.0
  0
VERTEX
  5
5A6
  8
0
  6
CONTINUOUS
 62
     7
 10
109.5862096623
 20
204.0383470774
 30
0.0
  0
VERTEX
  5
5A7
  8
0
  6
CONTINUOUS
 62
     7
 10
110.1139283255
 20
204.5116437197
 30
0.0
  0
VERTEX
  5
5A8
  8
0
  6
CONTINUOUS
 62
     7
 10
110.4571616725
 20
204.9047721147
 30
0.0
  0
VERTEX
  5
5A9
  8
0
  6
CONTINUOUS
 62
     7
 10
110.5452424363
 20
205.0654364347
 30
0.0
  0
VERTEX
  5
5AA
  8
0
  6
CONTINUOUS
 62
     7
 10
110.5691692308
 20
205.1984322786
 30
0.0
  0
SEQEND
  5
8DC
  8
0
  6
CONTINUOUS
 62
     7
  0
POLYLINE
  5
B1
  8
0
  6
CONTINUOUS
 62
     7
 66
     1
 10
0.0
 20
0.0
 30
0.0
  0
VERTEX
  5
5AB
  8
0
  6
CONTINUOUS
 62
     7
 10
104.480529435
 20
201.8206072569
 30
0.0
  0
VERTEX
  5
5AC
  8
0
  6
CONTINUOUS
 62
     7
 10
99.1297042445
 20
201.2340141058
 30
0.0
  0
VERTEX
  5
5AD
  8
0
  6
CONTINUOUS
 62
     7
 10
93.7635457591
 20
200.7360113382
 30
0.0
  0
VERTEX
  5
5AE
  8
0
  6
CONTINUOUS
 62
     7
 10
88.3712923602
 20
200.3388596296
 30
0.0
  0
VERTEX
  5
5AF
  8
0
  6
CONTINUOUS
 62
     7
 10
82.9681998566
 20
200.053877902
 30
0.0
  0
VERTEX
  5
5B0
  8
0
  6
CONTINUOUS
 62
     7
 10
77.0667082146
 20
199.880213809
 30
0.0
  0
VERTEX
  5
5B1
  8
0
  6
CONTINUOUS
 62
     7
 10
71.1615628079
 20
199.8538804769
 30
0.0
  0
VERTEX
  5
5B2
  8
0
  6
CONTINUOUS
 62
     7
 10
65.236396201
 20
199.9771548033
 30
0.0
  0
VERTEX
  5
5B3
  8
0
  6
CONTINUOUS
 62
     7
 10
59.3183523492
 20
200.2459240675
 30
0.0
  0
VERTEX
  5
5B4
  8
0
  6
CONTINUOUS
 62
     7
 10
54.8970645741
 20
200.5379391432
 30
0.0
  0
VERTEX
  5
5B5
  8
0
  6
CONTINUOUS
 62
     7
 10
50.4841214494
 20
200.9018374204
 30
0.0
  0
VERTEX
  5
5B6
  8
0
  6
CONTINUOUS
 62
     7
 10
46.073878415
 20
201.332057786
 30
0.0
  0
VERTEX
  5
5B7
  8
0
  6
CONTINUOUS
 62
     7
 10
41.6742032841
 20
201.8206072569
 30
0.0
  0
SEQEND
  5
8DB
  8
0
  6
CONTINUOUS
 62
     7
  0
POLYLINE
  5
B2
  8
0
  6
CONTINUOUS
 62
     7
 66
     1
 10
0.0
 20
0.0
 30
0.0
  0
VERTEX
  5
5B8
  8
0
  6
CONTINUOUS
 62
     7
 10
35.5855649785
 20
205.1984322786
 30
0.0
  0
VERTEX
  5
5B9
  8
0
  6
CONTINUOUS
 62
     7
 10
35.6599038914
 20
204.9637747526
 30
0.0
  0
VERTEX
  5
5BA
  8
0
  6
CONTINUOUS
 62
     7
 10
35.9171456174
 20
204.6383691549
 30
0.0
  0
VERTEX
  5
5BB
  8
0
  6
CONTINUOUS
 62
     7
 10
36.3268977479
 20
204.2447400808
 30
0.0
  0
VERTEX
  5
5BC
  8
0
  6
CONTINUOUS
 62
     7
 10
36.8946617917
 20
203.780920577
 30
0.0
  0
VERTEX
  5
5BD
  8
0
  6
CONTINUOUS
 62
     7
 10
37.6273876504
 20
203.2746804476
 30
0.0
  0
VERTEX
  5
5BE
  8
0
  6
CONTINUOUS
 62
     7
 10
38.5235792474
 20
202.7700794458
 30
0.0
  0
VERTEX
  5
5BF
  8
0
  6
CONTINUOUS
 62
     7
 10
39.4036954716
 20
202.382536006
 30
0.0
  0
VERTEX
  5
5C0
  8
0
  6
CONTINUOUS
 62
     7
 10
40.4014295415
 20
202.0612133264
 30
0.0
  0
VERTEX
  5
5C1
  8
0
  6
CONTINUOUS
 62
     7
 10
41.0242384747
 20
201.9204450369
 30
0.0
  0
VERTEX
  5
5C2
  8
0
  6
CONTINUOUS
 62
     7
 10
41.6742032841
 20
201.8206072569
 30
0.0
  0
SEQEND
  5
8DA
  8
0
  6
CONTINUOUS
 62
     7
  0
POLYLINE
  5
B3
  8
0
  6
CONTINUOUS
 62
     7
 66
     1
 10
0.0
 20
0.0
 30
0.0
  0
VERTEX
  5
5C3
  8
0
  6
CONTINUOUS
 62
     7
 10
35.5855649785
 20
205.1984382391
 30
0.0
  0
VERTEX
  5
5C4
  8
0
  6
CONTINUOUS
 62
     7
 10
35.6138831452
 20
205.4947746515
 30
0.0
  0
VERTEX
  5
5C5
  8
0
  6
CONTINUOUS
 62
     7
 10
35.6297081784
 20
205.619449687
 30
0.0
  0
SEQEND
  5
8D9
  8
0
  6
CONTINUOUS
 62
     7
  0
POLYLINE
  5
B4
  8
0
  6
CONTINUOUS
 62
     7
 66
     1
 10
0.0
 20
0.0
 30
0.0
  0
VERTEX
  5
5C6
  8
0
  6
CONTINUOUS
 62
     7
 10
35.675079234
 20
205.717439723
 30
0.0
  0
VERTEX
  5
5C7
  8
0
  6
CONTINUOUS
 62
     7
 10
35.6851881818
 20
205.7620836019
 30
0.0
  0
VERTEX
  5
5C8
  8
0
  6
CONTINUOUS
 62
     7
 10
35.7311791257
 20
205.8677983999
 30
0.0
  0
VERTEX
  5
5C9
  8
0
  6
CONTINUOUS
 62
     7
 10
35.7290214375
 20
205.9146595716
 30
0.0
  0
VERTEX
  5
5CA
  8
0
  6
CONTINUOUS
 62
     7
 10
35.7019192055
 20
205.9675110102
 30
0.0
  0
VERTEX
  5
5CB
  8
0
  6
CONTINUOUS
 62
     7
 10
35.6987541989
 20
206.0250652551
 30
0.0
  0
VERTEX
  5
5CC
  8
0
  6
CONTINUOUS
 62
     7
 10
35.7805019692
 20
206.0834956884
 30
0.0
  0
VERTEX
  5
5CD
  8
0
  6
CONTINUOUS
 62
     7
 10
35.9952575043
 20
206.14010818
 30
0.0
  0
VERTEX
  5
5CE
  8
0
  6
CONTINUOUS
 62
     7
 10
36.3527840451
 20
206.1958385229
 30
0.0
  0
VERTEX
  5
5CF
  8
0
  6
CONTINUOUS
 62
     7
 10
36.9539564923
 20
206.2503767729
 30
0.0
  0
VERTEX
  5
5D0
  8
0
  6
CONTINUOUS
 62
     7
 10
37.8710216359
 20
206.3051892042
 30
0.0
  0
SEQEND
  5
8D8
  8
0
  6
CONTINUOUS
 62
     7
  0
LINE
  5
B5
  8
0
  6
CONTINUOUS
 62
     7
 10
110.6773650721
 20
204.7402394533
 30
0.0
 11
110.6773650721
 21
205.0459397554
 31
0.0
  0
LINE
  5
B6
  8
0
  6
CONTINUOUS
 62
     7
 10
35.4773646668
 20
204.5651925325
 30
0.0
 11
35.4773646668
 21
204.3907297373
 31
0.0
  0
LINE
  5
B7
  8
0
  6
CONTINUOUS
 62
     7
 10
35.4773646668
 20
205.0357473612
 30
0.0
 11
35.4773646668
 21
204.7402394533
 31
0.0
  0
POLYLINE
  5
B8
  8
0
  6
CONTINUOUS
 62
     7
 66
     1
 10
0.0
 20
0.0
 30
0.0
  0
VERTEX
  5
5D1
  8
0
  6
CONTINUOUS
 62
     7
 10
230.6774383858
 20
203.9723528147
 30
0.0
  0
VERTEX
  5
5D2
  8
0
  6
CONTINUOUS
 62
     7
 10
230.5895632581
 20
203.7182641744
 30
0.0
  0
VERTEX
  5
5D3
  8
0
  6
CONTINUOUS
 62
     7
 10
230.3242510632
 20
203.3632529497
 30
0.0
  0
VERTEX
  5
5D4
  8
0
  6
CONTINUOUS
 62
     7
 10
229.9152499512
 20
202.9315067053
 30
0.0
  0
VERTEX
  5
5D5
  8
0
  6
CONTINUOUS
 62
     7
 10
229.3568319157
 20
202.4295700312
 30
0.0
  0
VERTEX
  5
5D6
  8
0
  6
CONTINUOUS
 62
     7
 10
228.6208754853
 20
201.8740905046
 30
0.0
  0
VERTEX
  5
5D7
  8
0
  6
CONTINUOUS
 62
     7
 10
227.7187949494
 20
201.3258887052
 30
0.0
  0
VERTEX
  5
5D8
  8
0
  6
CONTINUOUS
 62
     7
 10
226.8524175957
 20
200.9180618048
 30
0.0
  0
VERTEX
  5
5D9
  8
0
  6
CONTINUOUS
 62
     7
 10
225.8687383012
 20
200.580580306
 30
0.0
  0
VERTEX
  5
5DA
  8
0
  6
CONTINUOUS
 62
     7
 10
225.2436763123
 20
200.4303110361
 30
0.0
  0
VERTEX
  5
5DB
  8
0
  6
CONTINUOUS
 62
     7
 10
224.5898670033
 20
200.3238571405
 30
0.0
  0
SEQEND
  5
8D7
  8
0
  6
CONTINUOUS
 62
     7
  0
POLYLINE
  5
B9
  8
0
  6
CONTINUOUS
 62
     7
 66
     1
 10
0.0
 20
0.0
 30
0.0
  0
VERTEX
  5
5DC
  8
0
  6
CONTINUOUS
 62
     7
 10
230.6774383858
 20
203.9723528147
 30
0.0
  0
VERTEX
  5
5DD
  8
0
  6
CONTINUOUS
 62
     7
 10
230.6774324254
 20
204.0271414041
 30
0.0
  0
VERTEX
  5
5DE
  8
0
  6
CONTINUOUS
 62
     7
 10
230.6772178487
 20
204.3198359728
 30
0.0
  0
VERTEX
  5
5DF
  8
0
  6
CONTINUOUS
 62
     7
 10
230.6767410115
 20
204.442544055
 30
0.0
  0
VERTEX
  5
5E0
  8
0
  6
CONTINUOUS
 62
     7
 10
230.6763953046
 20
204.4561756372
 30
0.0
  0
VERTEX
  5
5E1
  8
0
  6
CONTINUOUS
 62
     7
 10
230.6766396836
 20
204.4433189154
 30
0.0
  0
SEQEND
  5
8D6
  8
0
  6
CONTINUOUS
 62
     7
  0
POLYLINE
  5
BA
  8
0
  6
CONTINUOUS
 62
     7
 66
     1
 10
0.0
 20
0.0
 30
0.0
  0
VERTEX
  5
5E2
  8
0
  6
CONTINUOUS
 62
     7
 10
230.6773668603
 20
204.7397506952
 30
0.0
  0
VERTEX
  5
5E3
  8
0
  6
CONTINUOUS
 62
     7
 10
230.6626564339
 20
204.6919894934
 30
0.0
  0
VERTEX
  5
5E4
  8
0
  6
CONTINUOUS
 62
     7
 10
230.6773668603
 20
204.5651925325
 30
0.0
  0
SEQEND
  5
8D5
  8
0
  6
CONTINUOUS
 62
     7
  0
POLYLINE
  5
BB
  8
0
  6
CONTINUOUS
 62
     7
 66
     1
 10
0.0
 20
0.0
 30
0.0
  0
VERTEX
  5
5E5
  8
0
  6
CONTINUOUS
 62
     7
 10
155.4773619846
 20
204.5651925325
 30
0.0
  0
VERTEX
  5
5E6
  8
0
  6
CONTINUOUS
 62
     7
 10
155.4920753912
 20
204.6919894934
 30
0.0
  0
VERTEX
  5
5E7
  8
0
  6
CONTINUOUS
 62
     7
 10
155.477366455
 20
204.7397506952
 30
0.0
  0
SEQEND
  5
8D4
  8
0
  6
CONTINUOUS
 62
     7
  0
POLYLINE
  5
BC
  8
0
  6
CONTINUOUS
 62
     7
 66
     1
 10
0.0
 20
0.0
 30
0.0
  0
VERTEX
  5
5E8
  8
0
  6
CONTINUOUS
 62
     7
 10
155.4772949294
 20
203.9725316286
 30
0.0
  0
VERTEX
  5
5E9
  8
0
  6
CONTINUOUS
 62
     7
 10
155.4772949294
 20
203.9772284746
 30
0.0
  0
VERTEX
  5
5EA
  8
0
  6
CONTINUOUS
 62
     7
 10
155.4774648026
 20
204.295725894
 30
0.0
  0
VERTEX
  5
5EB
  8
0
  6
CONTINUOUS
 62
     7
 10
155.4779297189
 20
204.4349683046
 30
0.0
  0
VERTEX
  5
5EC
  8
0
  6
CONTINUOUS
 62
     7
 10
155.4783156589
 20
204.4583333254
 30
0.0
  0
VERTEX
  5
5ED
  8
0
  6
CONTINUOUS
 62
     7
 10
155.4782635049
 20
204.4409228086
 30
0.0
  0
SEQEND
  5
8D3
  8
0
  6
CONTINUOUS
 62
     7
  0
POLYLINE
  5
BD
  8
0
  6
CONTINUOUS
 62
     7
 66
     1
 10
0.0
 20
0.0
 30
0.0
  0
VERTEX
  5
5EE
  8
0
  6
CONTINUOUS
 62
     7
 10
161.5648663119
 20
200.3238571405
 30
0.0
  0
VERTEX
  5
5EF
  8
0
  6
CONTINUOUS
 62
     7
 10
160.5508184508
 20
200.5110216856
 30
0.0
  0
VERTEX
  5
5F0
  8
0
  6
CONTINUOUS
 62
     7
 10
159.5655119494
 20
200.8152020693
 30
0.0
  0
VERTEX
  5
5F1
  8
0
  6
CONTINUOUS
 62
     7
 10
158.6966729239
 20
201.1915934801
 30
0.0
  0
VERTEX
  5
5F2
  8
0
  6
CONTINUOUS
 62
     7
 10
157.9034021572
 20
201.63316257
 30
0.0
  0
VERTEX
  5
5F3
  8
0
  6
CONTINUOUS
 62
     7
 10
157.1459299401
 20
202.1535290003
 30
0.0
  0
VERTEX
  5
5F4
  8
0
  6
CONTINUOUS
 62
     7
 10
156.5046361164
 20
202.6830864668
 30
0.0
  0
VERTEX
  5
5F5
  8
0
  6
CONTINUOUS
 62
     7
 10
155.9583997802
 20
203.2200945139
 30
0.0
  0
VERTEX
  5
5F6
  8
0
  6
CONTINUOUS
 62
     7
 10
155.7502573804
 20
203.4587157488
 30
0.0
  0
VERTEX
  5
5F7
  8
0
  6
CONTINUOUS
 62
     7
 10
155.5981433467
 20
203.6647451639
 30
0.0
  0
VERTEX
  5
5F8
  8
0
  6
CONTINUOUS
 62
     7
 10
155.4772949294
 20
203.9725316286
 30
0.0
  0
SEQEND
  5
8D2
  8
0
  6
CONTINUOUS
 62
     7
  0
POLYLINE
  5
BE
  8
0
  6
CONTINUOUS
 62
     7
 66
     1
 10
0.0
 20
0.0
 30
0.0
  0
VERTEX
  5
5F9
  8
0
  6
CONTINUOUS
 62
     7
 10
224.5898670033
 20
200.3238571405
 30
0.0
  0
VERTEX
  5
5FA
  8
0
  6
CONTINUOUS
 62
     7
 10
217.5005382375
 20
199.5229435682
 30
0.0
  0
VERTEX
  5
5FB
  8
0
  6
CONTINUOUS
 62
     7
 10
210.3834694699
 20
198.8955033541
 30
0.0
  0
VERTEX
  5
5FC
  8
0
  6
CONTINUOUS
 62
     7
 10
203.2105630711
 20
198.4689367533
 30
0.0
  0
VERTEX
  5
5FD
  8
0
  6
CONTINUOUS
 62
     7
 10
196.0236376599
 20
198.2617212057
 30
0.0
  0
VERTEX
  5
5FE
  8
0
  6
CONTINUOUS
 62
     7
 10
190.960604556
 20
198.252524209
 30
0.0
  0
VERTEX
  5
5FF
  8
0
  6
CONTINUOUS
 62
     7
 10
185.8990794495
 20
198.3561945677
 30
0.0
  0
VERTEX
  5
600
  8
0
  6
CONTINUOUS
 62
     7
 10
180.8284109906
 20
198.5721302748
 30
0.0
  0
VERTEX
  5
601
  8
0
  6
CONTINUOUS
 62
     7
 10
175.7661348656
 20
198.8958848238
 30
0.0
  0
VERTEX
  5
602
  8
0
  6
CONTINUOUS
 62
     7
 10
168.6552530602
 20
199.5224369287
 30
0.0
  0
VERTEX
  5
603
  8
0
  6
CONTINUOUS
 62
     7
 10
161.5648663119
 20
200.3238571405
 30
0.0
  0
SEQEND
  5
8D1
  8
0
  6
CONTINUOUS
 62
     7
  0
POLYLINE
  5
BF
  8
0
  6
CONTINUOUS
 62
     7
 66
     1
 10
0.0
 20
0.0
 30
0.0
  0
VERTEX
  5
604
  8
0
  6
CONTINUOUS
 62
     7
 10
161.7447650508
 20
205.6564284086
 30
0.0
  0
VERTEX
  5
605
  8
0
  6
CONTINUOUS
 62
     7
 10
160.73829294
 20
205.874074769
 30
0.0
  0
VERTEX
  5
606
  8
0
  6
CONTINUOUS
 62
     7
 10
159.8136967496
 20
206.0638857603
 30
0.0
  0
VERTEX
  5
607
  8
0
  6
CONTINUOUS
 62
     7
 10
159.0462064818
 20
206.201858592
 30
0.0
  0
VERTEX
  5
608
  8
0
  6
CONTINUOUS
 62
     7
 10
158.4107256011
 20
206.2857819319
 30
0.0
  0
VERTEX
  5
609
  8
0
  6
CONTINUOUS
 62
     7
 10
158.1089949683
 20
206.3065362692
 30
0.0
  0
VERTEX
  5
60A
  8
0
  6
CONTINUOUS
 62
     7
 10
157.8710040525
 20
206.3051117182
 30
0.0
  0
SEQEND
  5
8D0
  8
0
  6
CONTINUOUS
 62
     7
  0
ARC
  5
C0
  8
0
  6
CONTINUOUS
 62
     7
 10
192.9612004899
 20
344.8894809914
 30
0.0
 40
142.6895538329608
 50
257.3631010656
 51
260.3830639281
  0
ARC
  5
C1
  8
0
  6
CONTINUOUS
 62
     7
 10
192.4754333634
 20
348.5200654621
 30
0.0
 40
146.389321029583
 50
279.6013645076
 51
282.6002782923
  0
POLYLINE
  5
C2
  8
0
  6
CONTINUOUS
 62
     7
 66
     1
 10
0.0
 20
0.0
 30
0.0
  0
VERTEX
  5
60B
  8
0
  6
CONTINUOUS
 62
     7
 10
228.2837277726
 20
206.3051117182
 30
0.0
  0
VERTEX
  5
60C
  8
0
  6
CONTINUOUS
 62
     7
 10
227.8646415547
 20
206.2962008238
 30
0.0
  0
VERTEX
  5
60D
  8
0
  6
CONTINUOUS
 62
     7
 10
227.2550112084
 20
206.2244845152
 30
0.0
  0
VERTEX
  5
60E
  8
0
  6
CONTINUOUS
 62
     7
 10
226.5037661866
 20
206.0952258825
 30
0.0
  0
VERTEX
  5
60F
  8
0
  6
CONTINUOUS
 62
     7
 10
225.5863910989
 20
205.9100342512
 30
0.0
  0
VERTEX
  5
610
  8
0
  6
CONTINUOUS
 62
     7
 10
224.4099682645
 20
205.6564284086
 30
0.0
  0
SEQEND
  5
8CF
  8
0
  6
CONTINUOUS
 62
     7
  0
POLYLINE
  5
C3
  8
0
  6
CONTINUOUS
 62
     7
 66
     1
 10
0.0
 20
0.0
 30
0.0
  0
VERTEX
  5
611
  8
0
  6
CONTINUOUS
 62
     7
 10
228.2837098912
 20
206.3051892042
 30
0.0
  0
VERTEX
  5
612
  8
0
  6
CONTINUOUS
 62
     7
 10
229.2007750348
 20
206.2503767729
 30
0.0
  0
VERTEX
  5
613
  8
0
  6
CONTINUOUS
 62
     7
 10
229.801947482
 20
206.1958385229
 30
0.0
  0
VERTEX
  5
614
  8
0
  6
CONTINUOUS
 62
     7
 10
230.1594740227
 20
206.14010818
 30
0.0
  0
VERTEX
  5
615
  8
0
  6
CONTINUOUS
 62
     7
 10
230.3742295579
 20
206.0834956884
 30
0.0
  0
VERTEX
  5
616
  8
0
  6
CONTINUOUS
 62
     7
 10
230.4559773282
 20
206.0250652551
 30
0.0
  0
VERTEX
  5
617
  8
0
  6
CONTINUOUS
 62
     7
 10
230.4528123215
 20
205.9675110102
 30
0.0
  0
VERTEX
  5
618
  8
0
  6
CONTINUOUS
 62
     7
 10
230.4257100896
 20
205.9146595716
 30
0.0
  0
VERTEX
  5
619
  8
0
  6
CONTINUOUS
 62
     7
 10
230.4235524014
 20
205.8677983999
 30
0.0
  0
VERTEX
  5
61A
  8
0
  6
CONTINUOUS
 62
     7
 10
230.4704910592
 20
205.7595027208
 30
0.0
  0
VERTEX
  5
61B
  8
0
  6
CONTINUOUS
 62
     7
 10
230.4797238187
 20
205.7179463625
 30
0.0
  0
SEQEND
  5
8CE
  8
0
  6
CONTINUOUS
 62
     7
  0
ARC
  5
C4
  8
0
  6
CONTINUOUS
 62
     7
 10
225.6293604182
 20
204.888731497
 30
0.0
 40
4.949505315876244
 50
3.5875281047
 51
8.4264629008
  0
POLYLINE
  5
C5
  8
0
  6
CONTINUOUS
 62
     7
 66
     1
 10
0.0
 20
0.0
 30
0.0
  0
VERTEX
  5
61C
  8
0
  6
CONTINUOUS
 62
     7
 10
224.4805282429
 20
201.8206072569
 30
0.0
  0
VERTEX
  5
61D
  8
0
  6
CONTINUOUS
 62
     7
 10
225.504226096
 20
201.99953444
 30
0.0
  0
VERTEX
  5
61E
  8
0
  6
CONTINUOUS
 62
     7
 10
226.5002018288
 20
202.2903156996
 30
0.0
  0
VERTEX
  5
61F
  8
0
  6
CONTINUOUS
 62
     7
 10
227.3804551438
 20
202.6492608309
 30
0.0
  0
VERTEX
  5
620
  8
0
  6
CONTINUOUS
 62
     7
 10
228.185088046
 20
203.0680669069
 30
0.0
  0
VERTEX
  5
621
  8
0
  6
CONTINUOUS
 62
     7
 10
228.9448088483
 20
203.5517705202
 30
0.0
  0
VERTEX
  5
622
  8
0
  6
CONTINUOUS
 62
     7
 10
229.5862084702
 20
204.0383470774
 30
0.0
  0
VERTEX
  5
623
  8
0
  6
CONTINUOUS
 62
     7
 10
230.1139301137
 20
204.5116437197
 30
0.0
  0
VERTEX
  5
624
  8
0
  6
CONTINUOUS
 62
     7
 10
230.4571634606
 20
204.9047721147
 30
0.0
  0
VERTEX
  5
625
  8
0
  6
CONTINUOUS
 62
     7
 10
230.5452412442
 20
205.0654364347
 30
0.0
  0
VERTEX
  5
626
  8
0
  6
CONTINUOUS
 62
     7
 10
230.5691665486
 20
205.1984322786
 30
0.0
  0
SEQEND
  5
8CD
  8
0
  6
CONTINUOUS
 62
     7
  0
POLYLINE
  5
C6
  8
0
  6
CONTINUOUS
 62
     7
 66
     1
 10
0.0
 20
0.0
 30
0.0
  0
VERTEX
  5
627
  8
0
  6
CONTINUOUS
 62
     7
 10
224.4805282429
 20
201.8206072569
 30
0.0
  0
VERTEX
  5
628
  8
0
  6
CONTINUOUS
 62
     7
 10
219.1297060326
 20
201.2340141058
 30
0.0
  0
VERTEX
  5
629
  8
0
  6
CONTINUOUS
 62
     7
 10
213.7635475472
 20
200.7360113382
 30
0.0
  0
VERTEX
  5
62A
  8
0
  6
CONTINUOUS
 62
     7
 10
208.3712941483
 20
200.3388596296
 30
0.0
  0
VERTEX
  5
62B
  8
0
  6
CONTINUOUS
 62
     7
 10
202.9681986645
 20
200.053877902
 30
0.0
  0
VERTEX
  5
62C
  8
0
  6
CONTINUOUS
 62
     7
 10
197.0667070225
 20
199.880213809
 30
0.0
  0
VERTEX
  5
62D
  8
0
  6
CONTINUOUS
 62
     7
 10
191.1615616158
 20
199.8538804769
 30
0.0
  0
VERTEX
  5
62E
  8
0
  6
CONTINUOUS
 62
     7
 10
185.2363950089
 20
199.9771548033
 30
0.0
  0
VERTEX
  5
62F
  8
0
  6
CONTINUOUS
 62
     7
 10
179.3183511571
 20
200.2459240675
 30
0.0
  0
VERTEX
  5
630
  8
0
  6
CONTINUOUS
 62
     7
 10
174.8970663623
 20
200.5379391432
 30
0.0
  0
VERTEX
  5
631
  8
0
  6
CONTINUOUS
 62
     7
 10
170.4841232375
 20
200.9018374204
 30
0.0
  0
VERTEX
  5
632
  8
0
  6
CONTINUOUS
 62
     7
 10
166.0738802031
 20
201.332057786
 30
0.0
  0
VERTEX
  5
633
  8
0
  6
CONTINUOUS
 62
     7
 10
161.6742020921
 20
201.8206072569
 30
0.0
  0
SEQEND
  5
8CC
  8
0
  6
CONTINUOUS
 62
     7
  0
POLYLINE
  5
C7
  8
0
  6
CONTINUOUS
 62
     7
 66
     1
 10
0.0
 20
0.0
 30
0.0
  0
VERTEX
  5
634
  8
0
  6
CONTINUOUS
 62
     7
 10
155.5855622963
 20
205.1984322786
 30
0.0
  0
VERTEX
  5
635
  8
0
  6
CONTINUOUS
 62
     7
 10
155.6599041895
 20
204.9637747526
 30
0.0
  0
VERTEX
  5
636
  8
0
  6
CONTINUOUS
 62
     7
 10
155.9171474055
 20
204.6383691549
 30
0.0
  0
VERTEX
  5
637
  8
0
  6
CONTINUOUS
 62
     7
 10
156.326899536
 20
204.2447400808
 30
0.0
  0
VERTEX
  5
638
  8
0
  6
CONTINUOUS
 62
     7
 10
156.8946605996
 20
203.780920577
 30
0.0
  0
VERTEX
  5
639
  8
0
  6
CONTINUOUS
 62
     7
 10
157.6273849682
 20
203.2746804476
 30
0.0
  0
VERTEX
  5
63A
  8
0
  6
CONTINUOUS
 62
     7
 10
158.5235780553
 20
202.7700794458
 30
0.0
  0
VERTEX
  5
63B
  8
0
  6
CONTINUOUS
 62
     7
 10
159.4036942796
 20
202.382536006
 30
0.0
  0
VERTEX
  5
63C
  8
0
  6
CONTINUOUS
 62
     7
 10
160.4014283494
 20
202.0612133264
 30
0.0
  0
VERTEX
  5
63D
  8
0
  6
CONTINUOUS
 62
     7
 10
161.0242372826
 20
201.9204450369
 30
0.0
  0
VERTEX
  5
63E
  8
0
  6
CONTINUOUS
 62
     7
 10
161.6742020921
 20
201.8206072569
 30
0.0
  0
SEQEND
  5
8CB
  8
0
  6
CONTINUOUS
 62
     7
  0
POLYLINE
  5
C8
  8
0
  6
CONTINUOUS
 62
     7
 66
     1
 10
0.0
 20
0.0
 30
0.0
  0
VERTEX
  5
63F
  8
0
  6
CONTINUOUS
 62
     7
 10
155.5855622963
 20
205.1984382391
 30
0.0
  0
VERTEX
  5
640
  8
0
  6
CONTINUOUS
 62
     7
 10
155.613880463
 20
205.4947746515
 30
0.0
  0
VERTEX
  5
641
  8
0
  6
CONTINUOUS
 62
     7
 10
155.6297069863
 20
205.619449687
 30
0.0
  0
SEQEND
  5
8CA
  8
0
  6
CONTINUOUS
 62
     7
  0
POLYLINE
  5
C9
  8
0
  6
CONTINUOUS
 62
     7
 66
     1
 10
0.0
 20
0.0
 30
0.0
  0
VERTEX
  5
642
  8
0
  6
CONTINUOUS
 62
     7
 10
155.6750765518
 20
205.717439723
 30
0.0
  0
VERTEX
  5
643
  8
0
  6
CONTINUOUS
 62
     7
 10
155.6851869897
 20
205.7620836019
 30
0.0
  0
VERTEX
  5
644
  8
0
  6
CONTINUOUS
 62
     7
 10
155.7311779336
 20
205.8677983999
 30
0.0
  0
VERTEX
  5
645
  8
0
  6
CONTINUOUS
 62
     7
 10
155.7290202454
 20
205.9146595716
 30
0.0
  0
VERTEX
  5
646
  8
0
  6
CONTINUOUS
 62
     7
 10
155.7019195036
 20
205.9675110102
 30
0.0
  0
VERTEX
  5
647
  8
0
  6
CONTINUOUS
 62
     7
 10
155.6987544969
 20
206.0250652551
 30
0.0
  0
VERTEX
  5
648
  8
0
  6
CONTINUOUS
 62
     7
 10
155.7805007771
 20
206.0834956884
 30
0.0
  0
VERTEX
  5
649
  8
0
  6
CONTINUOUS
 62
     7
 10
155.9952592925
 20
206.14010818
 30
0.0
  0
VERTEX
  5
64A
  8
0
  6
CONTINUOUS
 62
     7
 10
156.3527813629
 20
206.1958385229
 30
0.0
  0
VERTEX
  5
64B
  8
0
  6
CONTINUOUS
 62
     7
 10
156.9539553002
 20
206.2503767729
 30
0.0
  0
VERTEX
  5
64C
  8
0
  6
CONTINUOUS
 62
     7
 10
157.8710219339
 20
206.3051892042
 30
0.0
  0
SEQEND
  5
8C9
  8
0
  6
CONTINUOUS
 62
     7
  0
LINE
  5
CA
  8
0
  6
CONTINUOUS
 62
     7
 10
230.6773668603
 20
204.7402394533
 30
0.0
 11
230.6773668603
 21
205.0459397554
 31
0.0
  0
LINE
  5
CB
  8
0
  6
CONTINUOUS
 62
     7
 10
155.477366455
 20
204.5651925325
 30
0.0
 11
155.477366455
 21
204.3907297373
 31
0.0
  0
LINE
  5
CC
  8
0
  6
CONTINUOUS
 62
     7
 10
155.477366455
 20
205.0357473612
 30
0.0
 11
155.477366455
 21
204.7402394533
 31
0.0
  0
LINE
  5
CD
  8
0
  6
CONTINUOUS
 62
     7
 10
156.1773663834
 20
201.6932857752
 30
0.0
 11
156.1773663834
 21
203.0048263788
 31
0.0
  0
LINE
  5
CE
  8
0
  6
CONTINUOUS
 62
     7
 10
155.3773662523
 20
202.9444409132
 30
0.0
 11
155.3773662523
 21
201.6932857752
 31
0.0
  0
ARC
  5
CF
  8
0
  6
CONTINUOUS
 62
     7
 10
156.3773657635
 20
202.9444402097
 30
0.0
 40
1.000000000000008
 50
138.1768700679
 51
180.0
  0
LINE
  5
D0
  8
0
  6
CONTINUOUS
 62
     7
 10
155.3773662523
 20
199.7285795927
 30
0.0
 11
155.3773662523
 21
201.6932857752
 31
0.0
  0
LINE
  5
D1
  8
0
  6
CONTINUOUS
 62
     7
 10
156.1773663834
 20
201.6932857752
 30
0.0
 11
156.1773663834
 21
199.7285795927
 31
0.0
  0
LINE
  5
D2
  8
0
  6
CONTINUOUS
 62
     7
 10
155.3773662523
 20
193.9063263655
 30
0.0
 11
155.3773662523
 21
199.7285795927
 31
0.0
  0
LINE
  5
D3
  8
0
  6
CONTINUOUS
 62
     7
 10
156.1773663834
 20
199.7285795927
 30
0.0
 11
156.1773663834
 21
193.9063263655
 31
0.0
  0
LINE
  5
D4
  8
0
  6
CONTINUOUS
 62
     7
 10
155.3773662523
 20
193.9063263655
 30
0.0
 11
155.3773662523
 21
193.6417353868
 31
0.0
  0
LINE
  5
D5
  8
0
  6
CONTINUOUS
 62
     7
 10
156.1773663834
 20
193.6417353868
 30
0.0
 11
156.1773663834
 21
193.9063263655
 31
0.0
  0
LINE
  5
D6
  8
0
  6
CONTINUOUS
 62
     7
 10
155.3773662523
 20
191.7493654013
 30
0.0
 11
155.3773662523
 21
193.6417353868
 31
0.0
  0
LINE
  5
D7
  8
0
  6
CONTINUOUS
 62
     7
 10
156.1773663834
 20
193.6417353868
 30
0.0
 11
156.1773663834
 21
191.7493654013
 31
0.0
  0
LINE
  5
D8
  8
0
  6
CONTINUOUS
 62
     7
 10
155.3773662523
 20
188.3373928785
 30
0.0
 11
155.3773662523
 21
191.7493654013
 31
0.0
  0
LINE
  5
D9
  8
0
  6
CONTINUOUS
 62
     7
 10
156.1773663834
 20
191.7493654013
 30
0.0
 11
156.1773663834
 21
188.3373928785
 31
0.0
  0
LINE
  5
DA
  8
0
  6
CONTINUOUS
 62
     7
 10
156.1773663834
 20
184.4416571379
 30
0.0
 11
155.3773662523
 21
184.4416571379
 31
0.0
  0
LINE
  5
DB
  8
0
  6
CONTINUOUS
 62
     7
 10
155.3773662523
 20
184.4416571379
 30
0.0
 11
155.3773662523
 21
186.4416552305
 31
0.0
  0
LINE
  5
DC
  8
0
  6
CONTINUOUS
 62
     7
 10
156.1773663834
 20
186.4416552305
 30
0.0
 11
156.1773663834
 21
184.4416571379
 31
0.0
  0
LINE
  5
DD
  8
0
  6
CONTINUOUS
 62
     7
 10
155.3773662523
 20
186.4416552305
 30
0.0
 11
155.3773662523
 21
188.3373928785
 31
0.0
  0
LINE
  5
DE
  8
0
  6
CONTINUOUS
 62
     7
 10
156.1773663834
 20
188.3373928785
 30
0.0
 11
156.1773663834
 21
186.4416552305
 31
0.0
  0
ARC
  5
DF
  8
0
  6
CONTINUOUS
 62
     7
 10
152.5773657635
 20
179.8416542768
 30
0.0
 40
2.000000000000028
 50
180.0
 51
270.0
  0
LINE
  5
E0
  8
0
  6
CONTINUOUS
 62
     7
 10
150.5773654655
 20
187.2416568518
 30
0.0
 11
150.5773654655
 21
179.8416567564
 31
0.0
  0
LINE
  5
E1
  8
0
  6
CONTINUOUS
 62
     7
 10
160.5773663596
 20
187.2416568518
 30
0.0
 11
160.5773663596
 21
179.8416567564
 31
0.0
  0
ARC
  5
E2
  8
0
  6
CONTINUOUS
 62
     7
 10
158.5773657635
 20
179.8416542768
 30
0.0
 40
2.0
 50
270.0
 51
0.0
  0
LINE
  5
E3
  8
0
  6
CONTINUOUS
 62
     7
 10
158.5773652867
 20
177.8416527033
 30
0.0
 11
152.5773650483
 21
177.8416527033
 31
0.0
  0
LINE
  5
E4
  8
0
  6
CONTINUOUS
 62
     7
 10
160.5773663596
 20
188.2416558981
 30
0.0
 11
156.1773663834
 21
188.2416558981
 31
0.0
  0
LINE
  5
E5
  8
0
  6
CONTINUOUS
 62
     7
 10
160.5773663596
 20
188.2416558981
 30
0.0
 11
160.5773663596
 21
187.2416568518
 31
0.0
  0
LINE
  5
E6
  8
0
  6
CONTINUOUS
 62
     7
 10
155.3773662523
 20
188.2416558981
 30
0.0
 11
150.5773654655
 21
188.2416558981
 31
0.0
  0
LINE
  5
E7
  8
0
  6
CONTINUOUS
 62
     7
 10
150.5773654655
 20
188.2416558981
 30
0.0
 11
150.5773654655
 21
187.2416568518
 31
0.0
  0
LINE
  5
E8
  8
0
  6
CONTINUOUS
 62
     7
 10
35.3773659543
 20
202.9444409132
 30
0.0
 11
35.3773659543
 21
201.6932857752
 31
0.0
  0
ARC
  5
E9
  8
0
  6
CONTINUOUS
 62
     7
 10
36.3773657635
 20
202.9444402097
 30
0.0
 40
1.000000000000018
 50
138.1768700679
 51
180.0
  0
LINE
  5
EA
  8
0
  6
CONTINUOUS
 62
     7
 10
36.1773675755
 20
201.6932857752
 30
0.0
 11
36.1773675755
 21
203.0048263788
 31
0.0
  0
LINE
  5
EB
  8
0
  6
CONTINUOUS
 62
     7
 10
35.3773659543
 20
199.7285795927
 30
0.0
 11
35.3773659543
 21
201.6932857752
 31
0.0
  0
LINE
  5
EC
  8
0
  6
CONTINUOUS
 62
     7
 10
36.1773675755
 20
201.6932857752
 30
0.0
 11
36.1773675755
 21
199.7285795927
 31
0.0
  0
LINE
  5
ED
  8
0
  6
CONTINUOUS
 62
     7
 10
35.3773659543
 20
193.9063263655
 30
0.0
 11
35.3773659543
 21
199.7285795927
 31
0.0
  0
LINE
  5
EE
  8
0
  6
CONTINUOUS
 62
     7
 10
36.1773675755
 20
199.7285795927
 30
0.0
 11
36.1773675755
 21
193.9063263655
 31
0.0
  0
LINE
  5
EF
  8
0
  6
CONTINUOUS
 62
     7
 10
35.3773659543
 20
193.9063263655
 30
0.0
 11
35.3773659543
 21
193.6417353868
 31
0.0
  0
LINE
  5
F0
  8
0
  6
CONTINUOUS
 62
     7
 10
36.1773675755
 20
193.6417353868
 30
0.0
 11
36.1773675755
 21
193.9063263655
 31
0.0
  0
LINE
  5
F1
  8
0
  6
CONTINUOUS
 62
     7
 10
35.3773659543
 20
191.7493654013
 30
0.0
 11
35.3773659543
 21
193.6417353868
 31
0.0
  0
LINE
  5
F2
  8
0
  6
CONTINUOUS
 62
     7
 10
36.1773675755
 20
193.6417353868
 30
0.0
 11
36.1773675755
 21
191.7493654013
 31
0.0
  0
LINE
  5
F3
  8
0
  6
CONTINUOUS
 62
     7
 10
35.3773659543
 20
188.3373928785
 30
0.0
 11
35.3773659543
 21
191.7493654013
 31
0.0
  0
LINE
  5
F4
  8
0
  6
CONTINUOUS
 62
     7
 10
36.1773675755
 20
191.7493654013
 30
0.0
 11
36.1773675755
 21
188.3373928785
 31
0.0
  0
LINE
  5
F5
  8
0
  6
CONTINUOUS
 62
     7
 10
36.1773675755
 20
184.4416571379
 30
0.0
 11
35.3773659543
 21
184.4416571379
 31
0.0
  0
LINE
  5
F6
  8
0
  6
CONTINUOUS
 62
     7
 10
35.3773659543
 20
184.4416571379
 30
0.0
 11
35.3773659543
 21
186.4416552305
 31
0.0
  0
LINE
  5
F7
  8
0
  6
CONTINUOUS
 62
     7
 10
36.1773675755
 20
186.4416552305
 30
0.0
 11
36.1773675755
 21
184.4416571379
 31
0.0
  0
LINE
  5
F8
  8
0
  6
CONTINUOUS
 62
     7
 10
35.3773659543
 20
186.4416552305
 30
0.0
 11
35.3773659543
 21
188.3373928785
 31
0.0
  0
LINE
  5
F9
  8
0
  6
CONTINUOUS
 62
     7
 10
36.1773675755
 20
188.3373928785
 30
0.0
 11
36.1773675755
 21
186.4416552305
 31
0.0
  0
ARC
  5
FA
  8
0
  6
CONTINUOUS
 62
     7
 10
32.5773657635
 20
179.8416542768
 30
0.0
 40
2.000000000000004
 50
180.0
 51
270.0
  0
LINE
  5
FB
  8
0
  6
CONTINUOUS
 62
     7
 10
30.5773681477
 20
187.2416568518
 30
0.0
 11
30.5773681477
 21
179.8416567564
 31
0.0
  0
LINE
  5
FC
  8
0
  6
CONTINUOUS
 62
     7
 10
40.5773645715
 20
187.2416568518
 30
0.0
 11
40.5773645715
 21
179.8416567564
 31
0.0
  0
ARC
  5
FD
  8
0
  6
CONTINUOUS
 62
     7
 10
38.5773657635
 20
179.8416542768
 30
0.0
 40
2.0
 50
270.0
 51
0.0
  0
LINE
  5
FE
  8
0
  6
CONTINUOUS
 62
     7
 10
38.5773664788
 20
177.8416527033
 30
0.0
 11
32.5773662404
 21
177.8416527033
 31
0.0
  0
LINE
  5
FF
  8
0
  6
CONTINUOUS
 62
     7
 10
35.3773659543
 20
188.2416558981
 30
0.0
 11
30.5773681477
 21
188.2416558981
 31
0.0
  0
LINE
  5
100
  8
0
  6
CONTINUOUS
 62
     7
 10
30.5773681477
 20
188.2416558981
 30
0.0
 11
30.5773681477
 21
187.2416568518
 31
0.0
  0
LINE
  5
101
  8
0
  6
CONTINUOUS
 62
     7
 10
40.5773645715
 20
188.2416558981
 30
0.0
 11
36.1773675755
 21
188.2416558981
 31
0.0
  0
LINE
  5
102
  8
0
  6
CONTINUOUS
 62
     7
 10
40.5773645715
 20
188.2416558981
 30
0.0
 11
40.5773645715
 21
187.2416568518
 31
0.0
  0
ARC
  5
103
  8
0
  6
CONTINUOUS
 62
     7
 10
109.7773657635
 20
202.9444402097
 30
0.0
 40
1.0
 50
0.0
 51
42.1872028391
  0
LINE
  5
104
  8
0
  6
CONTINUOUS
 62
     7
 10
110.7773652748
 20
202.9444409132
 30
0.0
 11
110.7773652748
 21
201.6932857752
 31
0.0
  0
LINE
  5
105
  8
0
  6
CONTINUOUS
 62
     7
 10
109.9773651437
 20
201.6932857752
 30
0.0
 11
109.9773651437
 21
202.997077775
 31
0.0
  0
LINE
  5
106
  8
0
  6
CONTINUOUS
 62
     7
 10
109.9773651437
 20
201.6932857752
 30
0.0
 11
109.9773651437
 21
199.7285795927
 31
0.0
  0
LINE
  5
107
  8
0
  6
CONTINUOUS
 62
     7
 10
110.7773652748
 20
199.7285795927
 30
0.0
 11
110.7773652748
 21
201.6932857752
 31
0.0
  0
LINE
  5
108
  8
0
  6
CONTINUOUS
 62
     7
 10
109.9773651437
 20
199.7285795927
 30
0.0
 11
109.9773651437
 21
193.9063263655
 31
0.0
  0
LINE
  5
109
  8
0
  6
CONTINUOUS
 62
     7
 10
110.7773652748
 20
193.9063263655
 30
0.0
 11
110.7773652748
 21
199.7285795927
 31
0.0
  0
LINE
  5
10A
  8
0
  6
CONTINUOUS
 62
     7
 10
109.9773651437
 20
193.6417353868
 30
0.0
 11
109.9773651437
 21
193.9063263655
 31
0.0
  0
LINE
  5
10B
  8
0
  6
CONTINUOUS
 62
     7
 10
110.7773652748
 20
193.9063263655
 30
0.0
 11
110.7773652748
 21
193.6417353868
 31
0.0
  0
LINE
  5
10C
  8
0
  6
CONTINUOUS
 62
     7
 10
109.9773651437
 20
193.6417353868
 30
0.0
 11
109.9773651437
 21
191.7493654013
 31
0.0
  0
LINE
  5
10D
  8
0
  6
CONTINUOUS
 62
     7
 10
110.7773652748
 20
191.7493654013
 30
0.0
 11
110.7773652748
 21
193.6417353868
 31
0.0
  0
LINE
  5
10E
  8
0
  6
CONTINUOUS
 62
     7
 10
109.9773651437
 20
191.7493654013
 30
0.0
 11
109.9773651437
 21
188.3373928785
 31
0.0
  0
LINE
  5
10F
  8
0
  6
CONTINUOUS
 62
     7
 10
110.7773652748
 20
188.3373928785
 30
0.0
 11
110.7773652748
 21
191.7493654013
 31
0.0
  0
LINE
  5
110
  8
0
  6
CONTINUOUS
 62
     7
 10
109.9773651437
 20
184.4416571379
 30
0.0
 11
110.7773652748
 21
184.4416571379
 31
0.0
  0
LINE
  5
111
  8
0
  6
CONTINUOUS
 62
     7
 10
109.9773651437
 20
186.4416552305
 30
0.0
 11
109.9773651437
 21
184.4416571379
 31
0.0
  0
LINE
  5
112
  8
0
  6
CONTINUOUS
 62
     7
 10
110.7773652748
 20
184.4416571379
 30
0.0
 11
110.7773652748
 21
186.4416552305
 31
0.0
  0
LINE
  5
113
  8
0
  6
CONTINUOUS
 62
     7
 10
109.9773651437
 20
188.3373928785
 30
0.0
 11
109.9773651437
 21
186.4416552305
 31
0.0
  0
LINE
  5
114
  8
0
  6
CONTINUOUS
 62
     7
 10
110.7773652748
 20
186.4416552305
 30
0.0
 11
110.7773652748
 21
188.3373928785
 31
0.0
  0
ARC
  5
115
  8
0
  6
CONTINUOUS
 62
     7
 10
107.5773657635
 20
179.8416542768
 30
0.0
 40
2.0
 50
180.0
 51
270.0
  0
LINE
  5
116
  8
0
  6
CONTINUOUS
 62
     7
 10
105.5773651675
 20
187.2416568518
 30
0.0
 11
105.5773651675
 21
179.8416567564
 31
0.0
  0
LINE
  5
117
  8
0
  6
CONTINUOUS
 62
     7
 10
115.5773660616
 20
187.2416568518
 30
0.0
 11
115.5773660616
 21
179.8416567564
 31
0.0
  0
LINE
  5
118
  8
0
  6
CONTINUOUS
 62
     7
 10
107.5773662404
 20
177.8416527033
 30
0.0
 11
113.5773664788
 21
177.8416527033
 31
0.0
  0
ARC
  5
119
  8
0
  6
CONTINUOUS
 62
     7
 10
113.5773657635
 20
179.8416542768
 30
0.0
 40
2.0
 50
270.0
 51
0.0
  0
LINE
  5
11A
  8
0
  6
CONTINUOUS
 62
     7
 10
105.5773651675
 20
188.2416558981
 30
0.0
 11
109.9773651437
 21
188.2416558981
 31
0.0
  0
LINE
  5
11B
  8
0
  6
CONTINUOUS
 62
     7
 10
105.5773651675
 20
188.2416558981
 30
0.0
 11
105.5773651675
 21
187.2416568518
 31
0.0
  0
LINE
  5
11C
  8
0
  6
CONTINUOUS
 62
     7
 10
110.7773652748
 20
188.2416558981
 30
0.0
 11
115.5773660616
 21
188.2416558981
 31
0.0
  0
LINE
  5
11D
  8
0
  6
CONTINUOUS
 62
     7
 10
115.5773660616
 20
188.2416558981
 30
0.0
 11
115.5773660616
 21
187.2416568518
 31
0.0
  0
ARC
  5
11E
  8
0
  6
CONTINUOUS
 62
     7
 10
229.7773657635
 20
202.9444402097
 30
0.0
 40
1.0
 50
0.0
 51
42.1872028391
  0
LINE
  5
11F
  8
0
  6
CONTINUOUS
 62
     7
 10
230.7773655728
 20
202.9444409132
 30
0.0
 11
230.7773655728
 21
201.6932857752
 31
0.0
  0
LINE
  5
120
  8
0
  6
CONTINUOUS
 62
     7
 10
229.9773639516
 20
201.6932857752
 30
0.0
 11
229.9773639516
 21
202.997077775
 31
0.0
  0
LINE
  5
121
  8
0
  6
CONTINUOUS
 62
     7
 10
230.7773655728
 20
199.7285795927
 30
0.0
 11
230.7773655728
 21
201.6932857752
 31
0.0
  0
LINE
  5
122
  8
0
  6
CONTINUOUS
 62
     7
 10
229.9773639516
 20
201.6932857752
 30
0.0
 11
229.9773639516
 21
199.7285795927
 31
0.0
  0
LINE
  5
123
  8
0
  6
CONTINUOUS
 62
     7
 10
230.7773655728
 20
193.9063263655
 30
0.0
 11
230.7773655728
 21
199.7285795927
 31
0.0
  0
LINE
  5
124
  8
0
  6
CONTINUOUS
 62
     7
 10
229.9773639516
 20
199.7285795927
 30
0.0
 11
229.9773639516
 21
193.9063263655
 31
0.0
  0
LINE
  5
125
  8
0
  6
CONTINUOUS
 62
     7
 10
230.7773655728
 20
193.9063263655
 30
0.0
 11
230.7773655728
 21
193.6417353868
 31
0.0
  0
LINE
  5
126
  8
0
  6
CONTINUOUS
 62
     7
 10
229.9773639516
 20
193.6417353868
 30
0.0
 11
229.9773639516
 21
193.9063263655
 31
0.0
  0
LINE
  5
127
  8
0
  6
CONTINUOUS
 62
     7
 10
230.7773655728
 20
191.7493654013
 30
0.0
 11
230.7773655728
 21
193.6417353868
 31
0.0
  0
LINE
  5
128
  8
0
  6
CONTINUOUS
 62
     7
 10
229.9773639516
 20
193.6417353868
 30
0.0
 11
229.9773639516
 21
191.7493654013
 31
0.0
  0
LINE
  5
129
  8
0
  6
CONTINUOUS
 62
     7
 10
230.7773655728
 20
188.3373928785
 30
0.0
 11
230.7773655728
 21
191.7493654013
 31
0.0
  0
LINE
  5
12A
  8
0
  6
CONTINUOUS
 62
     7
 10
229.9773639516
 20
191.7493654013
 30
0.0
 11
229.9773639516
 21
188.3373928785
 31
0.0
  0
LINE
  5
12B
  8
0
  6
CONTINUOUS
 62
     7
 10
230.7773655728
 20
186.4416552305
 30
0.0
 11
230.7773655728
 21
188.3373928785
 31
0.0
  0
LINE
  5
12C
  8
0
  6
CONTINUOUS
 62
     7
 10
229.9773639516
 20
188.3373928785
 30
0.0
 11
229.9773639516
 21
186.4416552305
 31
0.0
  0
LINE
  5
12D
  8
0
  6
CONTINUOUS
 62
     7
 10
229.9773639516
 20
184.4416571379
 30
0.0
 11
230.7773655728
 21
184.4416571379
 31
0.0
  0
LINE
  5
12E
  8
0
  6
CONTINUOUS
 62
     7
 10
230.7773655728
 20
184.4416571379
 30
0.0
 11
230.7773655728
 21
186.4416552305
 31
0.0
  0
LINE
  5
12F
  8
0
  6
CONTINUOUS
 62
     7
 10
229.9773639516
 20
186.4416552305
 30
0.0
 11
229.9773639516
 21
184.4416571379
 31
0.0
  0
LINE
  5
130
  8
0
  6
CONTINUOUS
 62
     7
 10
225.5773669556
 20
187.2416568518
 30
0.0
 11
225.5773669556
 21
179.8416567564
 31
0.0
  0
LINE
  5
131
  8
0
  6
CONTINUOUS
 62
     7
 10
235.5773633794
 20
187.2416568518
 30
0.0
 11
235.5773633794
 21
179.8416567564
 31
0.0
  0
ARC
  5
132
  8
0
  6
CONTINUOUS
 62
     7
 10
227.5773657635
 20
179.8416542768
 30
0.0
 40
2.0
 50
180.0
 51
270.0
  0
LINE
  5
133
  8
0
  6
CONTINUOUS
 62
     7
 10
227.5773650483
 20
177.8416527033
 30
0.0
 11
233.5773652867
 21
177.8416527033
 31
0.0
  0
ARC
  5
134
  8
0
  6
CONTINUOUS
 62
     7
 10
233.5773657635
 20
179.8416542768
 30
0.0
 40
2.0
 50
270.0
 51
0.0
  0
LINE
  5
135
  8
0
  6
CONTINUOUS
 62
     7
 10
225.5773669556
 20
188.2416558981
 30
0.0
 11
229.9773639516
 21
188.2416558981
 31
0.0
  0
LINE
  5
136
  8
0
  6
CONTINUOUS
 62
     7
 10
225.5773669556
 20
188.2416558981
 30
0.0
 11
225.5773669556
 21
187.2416568518
 31
0.0
  0
LINE
  5
137
  8
0
  6
CONTINUOUS
 62
     7
 10
230.7773655728
 20
188.2416558981
 30
0.0
 11
235.5773633794
 21
188.2416558981
 31
0.0
  0
LINE
  5
138
  8
0
  6
CONTINUOUS
 62
     7
 10
235.5773633794
 20
188.2416558981
 30
0.0
 11
235.5773633794
 21
187.2416568518
 31
0.0
  0
ARC
  5
139
  8
0
  6
CONTINUOUS
 62
     7
 10
133.0773657635
 20
228.4416542768
 30
0.0
 40
2.700000000000017
 50
0.0
 51
180.0
  0
ARC
  5
13A
  8
0
  6
CONTINUOUS
 62
     7
 10
133.0773657635
 20
181.8416542768
 30
0.0
 40
2.700000000000017
 50
180.0
 51
0.0
  0
ARC
  5
13B
  8
0
  6
CONTINUOUS
 62
     7
 10
137.0773657635
 20
180.6416542768
 30
0.0
 40
2.0
 50
270.0
 51
0.0
  0
LINE
  5
13C
  8
0
  6
CONTINUOUS
 62
     7
 10
137.0773656741
 20
178.6416543245
 30
0.0
 11
129.077365853
 21
178.6416543245
 31
0.0
  0
ARC
  5
13D
  8
0
  6
CONTINUOUS
 62
     7
 10
129.0773657635
 20
180.6416542768
 30
0.0
 40
2.000000000000014
 50
180.0
 51
270.0
  0
LINE
  5
13E
  8
0
  6
CONTINUOUS
 62
     7
 10
127.0773658977
 20
187.2416568518
 30
0.0
 11
127.0773658977
 21
180.6416524172
 31
0.0
  0
LINE
  5
13F
  8
0
  6
CONTINUOUS
 62
     7
 10
139.0773656294
 20
187.2416568518
 30
0.0
 11
139.0773656294
 21
180.6416524172
 31
0.0
  0
LINE
  5
140
  8
0
  6
CONTINUOUS
 62
     7
 10
127.0773658977
 20
187.2416568518
 30
0.0
 11
127.0773658977
 21
188.4416533232
 31
0.0
  0
LINE
  5
141
  8
0
  6
CONTINUOUS
 62
     7
 10
127.0773658977
 20
188.4416533232
 30
0.0
 11
130.3773656935
 21
188.4416533232
 31
0.0
  0
LINE
  5
142
  8
0
  6
CONTINUOUS
 62
     7
 10
135.7773658336
 20
188.4416533232
 30
0.0
 11
139.0773656294
 21
188.4416533232
 31
0.0
  0
LINE
  5
143
  8
0
  6
CONTINUOUS
 62
     7
 10
139.0773656294
 20
188.4416533232
 30
0.0
 11
139.0773656294
 21
187.2416568518
 31
0.0
  0
ARC
  5
144
  8
0
  6
CONTINUOUS
 62
     7
 10
253.0773657635
 20
228.4416542768
 30
0.0
 40
2.699999999999989
 50
0.0
 51
180.0
  0
ARC
  5
145
  8
0
  6
CONTINUOUS
 62
     7
 10
253.0773657635
 20
181.8416542768
 30
0.0
 40
2.699999999999989
 50
180.0
 51
0.0
  0
ARC
  5
146
  8
0
  6
CONTINUOUS
 62
     7
 10
257.0773657635
 20
180.6416542768
 30
0.0
 40
2.0
 50
270.0
 51
0.0
  0
LINE
  5
147
  8
0
  6
CONTINUOUS
 62
     7
 10
257.0773667172
 20
178.6416543245
 30
0.0
 11
249.0773624257
 21
178.6416543245
 31
0.0
  0
ARC
  5
148
  8
0
  6
CONTINUOUS
 62
     7
 10
249.0773657635
 20
180.6416542768
 30
0.0
 40
2.0
 50
180.0
 51
270.0
  0
LINE
  5
149
  8
0
  6
CONTINUOUS
 62
     7
 10
247.077364333
 20
187.2416568518
 30
0.0
 11
247.077364333
 21
180.6416524172
 31
0.0
  0
LINE
  5
14A
  8
0
  6
CONTINUOUS
 62
     7
 10
259.0773648099
 20
187.2416568518
 30
0.0
 11
259.0773648099
 21
180.6416524172
 31
0.0
  0
LINE
  5
14B
  8
0
  6
CONTINUOUS
 62
     7
 10
247.077364333
 20
188.4416533232
 30
0.0
 11
250.3773635701
 21
188.4416533232
 31
0.0
  0
LINE
  5
14C
  8
0
  6
CONTINUOUS
 62
     7
 10
255.7773655728
 20
188.4416533232
 30
0.0
 11
259.0773648099
 21
188.4416533232
 31
0.0
  0
LINE
  5
14D
  8
0
  6
CONTINUOUS
 62
     7
 10
259.0773648099
 20
188.4416533232
 30
0.0
 11
259.0773648099
 21
187.2416568518
 31
0.0
  0
LINE
  5
14E
  8
0
  6
CONTINUOUS
 62
     7
 10
247.077364333
 20
187.2416568518
 30
0.0
 11
247.077364333
 21
188.4416533232
 31
0.0
  0
ARC
  5
14F
  8
0
  6
CONTINUOUS
 62
     7
 10
13.0773657635
 20
228.4416542768
 30
0.0
 40
2.699999999999994
 50
0.0
 51
180.0
  0
ARC
  5
150
  8
0
  6
CONTINUOUS
 62
     7
 10
13.0773657635
 20
181.8416542768
 30
0.0
 40
2.699999999999994
 50
180.0
 51
0.0
  0
ARC
  5
151
  8
0
  6
CONTINUOUS
 62
     7
 10
17.0773657635
 20
180.6416542768
 30
0.0
 40
2.0
 50
270.0
 51
0.0
  0
LINE
  5
152
  8
0
  6
CONTINUOUS
 62
     7
 10
17.0773691014
 20
178.6416543245
 30
0.0
 11
9.0773648099
 21
178.6416543245
 31
0.0
  0
ARC
  5
153
  8
0
  6
CONTINUOUS
 62
     7
 10
9.0773657635
 20
180.6416542768
 30
0.0
 40
2.000000000000002
 50
180.0
 51
270.0
  0
LINE
  5
154
  8
0
  6
CONTINUOUS
 62
     7
 10
7.0773667172
 20
187.2416568518
 30
0.0
 11
7.0773667172
 21
180.6416524172
 31
0.0
  0
LINE
  5
155
  8
0
  6
CONTINUOUS
 62
     7
 10
19.0773671941
 20
187.2416568518
 30
0.0
 11
19.0773671941
 21
180.6416524172
 31
0.0
  0
LINE
  5
156
  8
0
  6
CONTINUOUS
 62
     7
 10
7.0773667172
 20
188.4416533232
 30
0.0
 11
10.3773659543
 21
188.4416533232
 31
0.0
  0
LINE
  5
157
  8
0
  6
CONTINUOUS
 62
     7
 10
15.777367957
 20
188.4416533232
 30
0.0
 11
19.0773671941
 21
188.4416533232
 31
0.0
  0
LINE
  5
158
  8
0
  6
CONTINUOUS
 62
     7
 10
7.0773667172
 20
187.2416568518
 30
0.0
 11
7.0773667172
 21
188.4416533232
 31
0.0
  0
LINE
  5
159
  8
0
  6
CONTINUOUS
 62
     7
 10
19.0773671941
 20
188.4416533232
 30
0.0
 11
19.0773671941
 21
187.2416568518
 31
0.0
  0
LINE
  5
15A
  8
0
  6
CONTINUOUS
 62
     7
 10
50.9044355229
 20
113.6416542873
 30
0.0
 11
54.6630805806
 21
113.6416542873
 31
0.0
  0
LINE
  5
15B
  8
0
  6
CONTINUOUS
 62
     7
 10
54.6630805806
 20
112.4416542768
 30
0.0
 11
50.9044355229
 21
112.4416542768
 31
0.0
  0
LINE
  5
15C
  8
0
  6
CONTINUOUS
 62
     7
 10
61.4916509465
 20
113.6416542873
 30
0.0
 11
65.2502960042
 21
113.6416542873
 31
0.0
  0
LINE
  5
15D
  8
0
  6
CONTINUOUS
 62
     7
 10
65.2502960042
 20
112.4416542768
 30
0.0
 11
61.4916509465
 21
112.4416542768
 31
0.0
  0
LINE
  5
15E
  8
0
  6
CONTINUOUS
 62
     7
 10
54.6630805806
 20
113.6416542873
 30
0.0
 11
61.4916509465
 21
113.6416542873
 31
0.0
  0
LINE
  5
15F
  8
0
  6
CONTINUOUS
 62
     7
 10
54.6630805806
 20
112.4416542768
 30
0.0
 11
61.4916509465
 21
112.4416542768
 31
0.0
  0
LINE
  5
160
  8
0
  6
CONTINUOUS
 62
     7
 10
200.9044355229
 20
113.6416542873
 30
0.0
 11
204.6630805806
 21
113.6416542873
 31
0.0
  0
LINE
  5
161
  8
0
  6
CONTINUOUS
 62
     7
 10
204.6630805806
 20
112.4416542768
 30
0.0
 11
200.9044355229
 21
112.4416542768
 31
0.0
  0
LINE
  5
162
  8
0
  6
CONTINUOUS
 62
     7
 10
211.4916509465
 20
113.6416542873
 30
0.0
 11
215.2502960042
 21
113.6416542873
 31
0.0
  0
LINE
  5
163
  8
0
  6
CONTINUOUS
 62
     7
 10
215.2502960042
 20
112.4416542768
 30
0.0
 11
211.4916509465
 21
112.4416542768
 31
0.0
  0
LINE
  5
164
  8
0
  6
CONTINUOUS
 62
     7
 10
204.6630805806
 20
113.6416542873
 30
0.0
 11
211.4916509465
 21
113.6416542873
 31
0.0
  0
LINE
  5
165
  8
0
  6
CONTINUOUS
 62
     7
 10
204.6630805806
 20
112.4416542768
 30
0.0
 11
211.4916509465
 21
112.4416542768
 31
0.0
  0
LINE
  5
166
  8
0
  6
CONTINUOUS
 62
     7
 10
46.0773652867
 20
112.4416542768
 30
0.0
 11
46.0773652867
 21
113.6416542873
 31
0.0
  0
LINE
  5
167
  8
0
  6
CONTINUOUS
 62
     7
 10
50.9044355229
 20
113.6416542873
 30
0.0
 11
46.0773652867
 21
113.6416542873
 31
0.0
  0
LINE
  5
168
  8
0
  6
CONTINUOUS
 62
     7
 10
46.0773652867
 20
112.4416542768
 30
0.0
 11
50.9044355229
 21
112.4416542768
 31
0.0
  0
LINE
  5
169
  8
0
  6
CONTINUOUS
 62
     7
 10
70.0773662404
 20
112.4416542768
 30
0.0
 11
70.0773662404
 21
113.6416542873
 31
0.0
  0
LINE
  5
16A
  8
0
  6
CONTINUOUS
 62
     7
 10
70.0773662404
 20
113.6416542873
 30
0.0
 11
65.2502960042
 21
113.6416542873
 31
0.0
  0
LINE
  5
16B
  8
0
  6
CONTINUOUS
 62
     7
 10
65.2502960042
 20
112.4416542768
 30
0.0
 11
70.0773662404
 21
112.4416542768
 31
0.0
  0
LINE
  5
16C
  8
0
  6
CONTINUOUS
 62
     7
 10
196.0773652867
 20
112.4416542768
 30
0.0
 11
196.0773652867
 21
113.6416542873
 31
0.0
  0
LINE
  5
16D
  8
0
  6
CONTINUOUS
 62
     7
 10
200.9044355229
 20
113.6416542873
 30
0.0
 11
196.0773652867
 21
113.6416542873
 31
0.0
  0
LINE
  5
16E
  8
0
  6
CONTINUOUS
 62
     7
 10
196.0773652867
 20
112.4416542768
 30
0.0
 11
200.9044355229
 21
112.4416542768
 31
0.0
  0
LINE
  5
16F
  8
0
  6
CONTINUOUS
 62
     7
 10
220.0773662404
 20
112.4416542768
 30
0.0
 11
220.0773662404
 21
113.6416542873
 31
0.0
  0
LINE
  5
170
  8
0
  6
CONTINUOUS
 62
     7
 10
220.0773662404
 20
113.6416542873
 30
0.0
 11
215.2502960042
 21
113.6416542873
 31
0.0
  0
LINE
  5
171
  8
0
  6
CONTINUOUS
 62
     7
 10
215.2502960042
 20
112.4416542768
 30
0.0
 11
220.0773662404
 21
112.4416542768
 31
0.0
  0
POLYLINE
  5
172
  8
0
  6
CONTINUOUS
 62
     7
 66
     1
 10
0.0
 20
0.0
 30
0.0
  0
VERTEX
  5
64D
  8
0
  6
CONTINUOUS
 62
     7
 10
62.8773635701
 20
177.8416527033
 30
0.0
  0
VERTEX
  5
64E
  8
0
  6
CONTINUOUS
 62
     7
 10
62.9088348225
 20
177.8101874113
 30
0.0
  0
VERTEX
  5
64F
  8
0
  6
CONTINUOUS
 62
     7
 10
63.0012458638
 20
177.71777637
 30
0.0
  0
VERTEX
  5
650
  8
0
  6
CONTINUOUS
 62
     7
 10
63.0581504182
 20
177.6608718157
 30
0.0
  0
VERTEX
  5
651
  8
0
  6
CONTINUOUS
 62
     7
 10
63.0773669556
 20
177.6416552782
 30
0.0
  0
SEQEND
  5
8C8
  8
0
  6
CONTINUOUS
 62
     7
  0
LINE
  5
173
  8
0
  6
CONTINUOUS
 62
     7
 10
63.0773669556
 20
177.6416552782
 30
0.0
 11
63.0773669556
 21
113.6416542873
 31
0.0
  0
LINE
  5
174
  8
0
  6
CONTINUOUS
 62
     7
 10
4.2773670033
 20
178.6416543245
 30
0.0
 11
4.2773670033
 21
186.6416526556
 31
0.0
  0
LINE
  5
175
  8
0
  6
CONTINUOUS
 62
     7
 10
261.8773645238
 20
178.6416543245
 30
0.0
 11
261.8773645238
 21
178.0416560888
 31
0.0
  0
ARC
  5
176
  8
0
  6
CONTINUOUS
 62
     7
 10
261.4773657635
 20
178.0416542768
 30
0.0
 40
0.4000000000000341
 50
270.0
 51
0.0
  0
LINE
  5
177
  8
0
  6
CONTINUOUS
 62
     7
 10
4.2773670033
 20
178.0416560888
 30
0.0
 11
4.2773670033
 21
178.6416543245
 31
0.0
  0
ARC
  5
178
  8
0
  6
CONTINUOUS
 62
     7
 10
4.6773657635
 20
178.0416542768
 30
0.0
 40
0.4000000000000057
 50
180.0
 51
270.0
  0
LINE
  5
179
  8
0
  6
CONTINUOUS
 62
     7
 10
203.0773645715
 20
113.6416542873
 30
0.0
 11
203.0773645715
 21
177.6416552782
 31
0.0
  0
POLYLINE
  5
17A
  8
0
  6
CONTINUOUS
 62
     7
 66
     1
 10
0.0
 20
0.0
 30
0.0
  0
VERTEX
  5
652
  8
0
  6
CONTINUOUS
 62
     7
 10
203.277367957
 20
177.8416527033
 30
0.0
  0
VERTEX
  5
653
  8
0
  6
CONTINUOUS
 62
     7
 10
203.2458967046
 20
177.8101874113
 30
0.0
  0
VERTEX
  5
654
  8
0
  6
CONTINUOUS
 62
     7
 10
203.1534856633
 20
177.71777637
 30
0.0
  0
VERTEX
  5
655
  8
0
  6
CONTINUOUS
 62
     7
 10
203.0965811089
 20
177.6608718157
 30
0.0
  0
VERTEX
  5
656
  8
0
  6
CONTINUOUS
 62
     7
 10
203.0773645715
 20
177.6416552782
 30
0.0
  0
SEQEND
  5
8C7
  8
0
  6
CONTINUOUS
 62
     7
  0
POLYLINE
  5
17B
  8
0
  6
CONTINUOUS
 62
     7
 66
     1
 10
0.0
 20
0.0
 30
0.0
  0
VERTEX
  5
657
  8
0
  6
CONTINUOUS
 62
     7
 10
53.0773645715
 20
177.6416552782
 30
0.0
  0
VERTEX
  5
658
  8
0
  6
CONTINUOUS
 62
     7
 10
53.0965811089
 20
177.6608718157
 30
0.0
  0
VERTEX
  5
659
  8
0
  6
CONTINUOUS
 62
     7
 10
53.1534856633
 20
177.71777637
 30
0.0
  0
VERTEX
  5
65A
  8
0
  6
CONTINUOUS
 62
     7
 10
53.2458967046
 20
177.8101874113
 30
0.0
  0
VERTEX
  5
65B
  8
0
  6
CONTINUOUS
 62
     7
 10
53.3702617959
 20
177.9345465422
 30
0.0
  0
VERTEX
  5
65C
  8
0
  6
CONTINUOUS
 62
     7
 10
53.5217946843
 20
178.086085391
 30
0.0
  0
VERTEX
  5
65D
  8
0
  6
CONTINUOUS
 62
     7
 10
53.6946839169
 20
178.2589686632
 30
0.0
  0
VERTEX
  5
65E
  8
0
  6
CONTINUOUS
 62
     7
 10
53.8822776154
 20
178.4465623617
 30
0.0
  0
VERTEX
  5
65F
  8
0
  6
CONTINUOUS
 62
     7
 10
54.0773636178
 20
178.6416543245
 30
0.0
  0
SEQEND
  5
8C6
  8
0
  6
CONTINUOUS
 62
     7
  0
LINE
  5
17C
  8
0
  6
CONTINUOUS
 62
     7
 10
53.0773645715
 20
177.6416552782
 30
0.0
 11
4.6773618535
 21
177.6416552782
 31
0.0
  0
ARC
  5
17D
  8
0
  6
CONTINUOUS
 62
     7
 10
261.4773657635
 20
187.2416542768
 30
0.0
 40
0.4000000000000057
 50
0.0
 51
90.0
  0
LINE
  5
17E
  8
0
  6
CONTINUOUS
 62
     7
 10
261.8773645238
 20
187.2416568518
 30
0.0
 11
261.8773645238
 21
186.6416526556
 31
0.0
  0
LINE
  5
17F
  8
0
  6
CONTINUOUS
 62
     7
 10
261.8773645238
 20
186.6416526556
 30
0.0
 11
261.8773645238
 21
178.6416543245
 31
0.0
  0
LINE
  5
180
  8
0
  6
CONTINUOUS
 62
     7
 10
4.6773618535
 20
187.6416517019
 30
0.0
 11
7.0773667172
 21
187.6416517019
 31
0.0
  0
LINE
  5
181
  8
0
  6
CONTINUOUS
 62
     7
 10
19.0773671941
 20
187.6416517019
 30
0.0
 11
30.5773681477
 21
187.6416517019
 31
0.0
  0
LINE
  5
182
  8
0
  6
CONTINUOUS
 62
     7
 10
40.5773645715
 20
187.6416517019
 30
0.0
 11
55.0773686246
 21
187.6416517019
 31
0.0
  0
LINE
  5
183
  8
0
  6
CONTINUOUS
 62
     7
 10
91.0773670748
 20
187.6416517019
 30
0.0
 11
105.5773651675
 21
187.6416517019
 31
0.0
  0
LINE
  5
184
  8
0
  6
CONTINUOUS
 62
     7
 10
115.5773660616
 20
187.6416517019
 30
0.0
 11
127.0773658977
 21
187.6416517019
 31
0.0
  0
LINE
  5
185
  8
0
  6
CONTINUOUS
 62
     7
 10
139.0773656294
 20
187.6416517019
 30
0.0
 11
150.5773654655
 21
187.6416517019
 31
0.0
  0
LINE
  5
186
  8
0
  6
CONTINUOUS
 62
     7
 10
160.5773663596
 20
187.6416517019
 30
0.0
 11
175.0773644522
 21
187.6416517019
 31
0.0
  0
LINE
  5
187
  8
0
  6
CONTINUOUS
 62
     7
 10
211.0773629025
 20
187.6416517019
 30
0.0
 11
225.5773669556
 21
187.6416517019
 31
0.0
  0
LINE
  5
188
  8
0
  6
CONTINUOUS
 62
     7
 10
235.5773633794
 20
187.6416517019
 30
0.0
 11
247.077364333
 21
187.6416517019
 31
0.0
  0
LINE
  5
189
  8
0
  6
CONTINUOUS
 62
     7
 10
259.0773648099
 20
187.6416517019
 30
0.0
 11
261.4773696736
 21
187.6416517019
 31
0.0
  0
LINE
  5
18A
  8
0
  6
CONTINUOUS
 62
     7
 10
53.0773645715
 20
113.6416542873
 30
0.0
 11
53.0773645715
 21
177.6416552782
 31
0.0
  0
POLYLINE
  5
18B
  8
0
  6
CONTINUOUS
 62
     7
 66
     1
 10
0.0
 20
0.0
 30
0.0
  0
VERTEX
  5
660
  8
0
  6
CONTINUOUS
 62
     7
 10
213.0773669556
 20
177.6416552782
 30
0.0
  0
VERTEX
  5
661
  8
0
  6
CONTINUOUS
 62
     7
 10
213.0581504182
 20
177.6608718157
 30
0.0
  0
VERTEX
  5
662
  8
0
  6
CONTINUOUS
 62
     7
 10
213.0012458638
 20
177.71777637
 30
0.0
  0
VERTEX
  5
663
  8
0
  6
CONTINUOUS
 62
     7
 10
212.9088348225
 20
177.8101874113
 30
0.0
  0
VERTEX
  5
664
  8
0
  6
CONTINUOUS
 62
     7
 10
212.7844697312
 20
177.9345465422
 30
0.0
  0
VERTEX
  5
665
  8
0
  6
CONTINUOUS
 62
     7
 10
212.6329368428
 20
178.086085391
 30
0.0
  0
VERTEX
  5
666
  8
0
  6
CONTINUOUS
 62
     7
 10
212.4600476102
 20
178.2589686632
 30
0.0
  0
VERTEX
  5
667
  8
0
  6
CONTINUOUS
 62
     7
 10
212.2724539117
 20
178.4465623617
 30
0.0
  0
VERTEX
  5
668
  8
0
  6
CONTINUOUS
 62
     7
 10
212.0773679093
 20
178.6416543245
 30
0.0
  0
SEQEND
  5
8C5
  8
0
  6
CONTINUOUS
 62
     7
  0
LINE
  5
18C
  8
0
  6
CONTINUOUS
 62
     7
 10
261.4773696736
 20
177.6416552782
 30
0.0
 11
213.0773669556
 21
177.6416552782
 31
0.0
  0
LINE
  5
18D
  8
0
  6
CONTINUOUS
 62
     7
 10
203.0773645715
 20
177.6416552782
 30
0.0
 11
63.0773669556
 21
177.6416552782
 31
0.0
  0
LINE
  5
18E
  8
0
  6
CONTINUOUS
 62
     7
 10
213.0773669556
 20
177.6416552782
 30
0.0
 11
213.0773669556
 21
113.6416542873
 31
0.0
  0
LINE
  5
18F
  8
0
  6
CONTINUOUS
 62
     7
 10
4.2773670033
 20
186.6416526556
 30
0.0
 11
4.2773670033
 21
187.2416568518
 31
0.0
  0
ARC
  5
190
  8
0
  6
CONTINUOUS
 62
     7
 10
4.6773657635
 20
187.2416542768
 30
0.0
 40
0.4000000000000057
 50
90.0
 51
180.0
  0
POLYLINE
  5
191
  8
0
  6
CONTINUOUS
 62
     7
 66
     1
 10
0.0
 20
0.0
 30
0.0
  0
VERTEX
  5
669
  8
0
  6
CONTINUOUS
 62
     7
 10
318.1791321118
 20
279.1807246923
 30
0.0
  0
VERTEX
  5
66A
  8
0
  6
CONTINUOUS
 62
     7
 10
318.7644094903
 20
276.5412283659
 30
0.0
  0
VERTEX
  5
66B
  8
0
  6
CONTINUOUS
 62
     7
 10
319.3237722594
 20
274.0794611692
 30
0.0
  0
VERTEX
  5
66C
  8
0
  6
CONTINUOUS
 62
     7
 10
319.8623419482
 20
271.7964244604
 30
0.0
  0
VERTEX
  5
66D
  8
0
  6
CONTINUOUS
 62
     7
 10
320.3542844135
 20
269.6871352911
 30
0.0
  0
VERTEX
  5
66E
  8
0
  6
CONTINUOUS
 62
     7
 10
320.7644805987
 20
267.7649927854
 30
0.0
  0
VERTEX
  5
66F
  8
0
  6
CONTINUOUS
 62
     7
 10
321.0767508227
 20
266.0644365072
 30
0.0
  0
VERTEX
  5
670
  8
0
  6
CONTINUOUS
 62
     7
 10
321.208481558
 20
265.2460408926
 30
0.0
  0
SEQEND
  5
8C4
  8
0
  6
CONTINUOUS
 62
     7
  0
ARC
  5
192
  8
0
  6
CONTINUOUS
 62
     7
 10
107.8776388407
 20
228.5723589705
 30
0.0
 40
216.3961531961245
 50
5.3056924443
 51
8.16556371
  0
LINE
  5
193
  8
0
  6
CONTINUOUS
 62
     7
 10
319.3509236652
 20
279.4393850088
 30
0.0
 11
318.1791321118
 21
279.1807246923
 31
0.0
  0
LINE
  5
194
  8
0
  6
CONTINUOUS
 62
     7
 10
323.3466461975
 20
248.5824061155
 30
0.0
 11
324.5407291431
 21
248.7014365911
 31
0.0
  0
POLYLINE
  5
195
  8
0
  6
CONTINUOUS
 62
     7
 66
     1
 10
0.0
 20
0.0
 30
0.0
  0
VERTEX
  5
671
  8
0
  6
CONTINUOUS
 62
     7
 10
403.4221023996
 20
202.0699573278
 30
0.0
  0
VERTEX
  5
672
  8
0
  6
CONTINUOUS
 62
     7
 10
405.2061171014
 20
202.1661830664
 30
0.0
  0
VERTEX
  5
673
  8
0
  6
CONTINUOUS
 62
     7
 10
407.6272100885
 20
202.3105216741
 30
0.0
  0
VERTEX
  5
674
  8
0
  6
CONTINUOUS
 62
     7
 10
408.8188976724
 20
202.3004246473
 30
0.0
  0
VERTEX
  5
675
  8
0
  6
CONTINUOUS
 62
     7
 10
409.9687070329
 20
202.1508706331
 30
0.0
  0
VERTEX
  5
676
  8
0
  6
CONTINUOUS
 62
     7
 10
411.0596031625
 20
201.8132282019
 30
0.0
  0
VERTEX
  5
677
  8
0
  6
CONTINUOUS
 62
     7
 10
412.0965690095
 20
201.3044489145
 30
0.0
  0
VERTEX
  5
678
  8
0
  6
CONTINUOUS
 62
     7
 10
413.4139449079
 20
200.4190278768
 30
0.0
  0
VERTEX
  5
679
  8
0
  6
CONTINUOUS
 62
     7
 10
414.6801919419
 20
199.3713510752
 30
0.0
  0
VERTEX
  5
67A
  8
0
  6
CONTINUOUS
 62
     7
 10
415.9208745439
 20
198.242540431
 30
0.0
  0
SEQEND
  5
8C3
  8
0
  6
CONTINUOUS
 62
     7
  0
LINE
  5
196
  8
0
  6
CONTINUOUS
 62
     7
 10
415.9211129624
 20
198.2562077761
 30
0.0
 11
415.9491509874
 21
199.8622251272
 31
0.0
  0
LINE
  5
197
  8
0
  6
CONTINUOUS
 62
     7
 10
403.4221023996
 20
203.9444399595
 30
0.0
 11
389.8220986802
 21
203.9444399595
 31
0.0
  0
LINE
  5
198
  8
0
  6
CONTINUOUS
 62
     7
 10
384.4220996577
 20
203.9444399595
 30
0.0
 11
342.2875706781
 21
203.9444399595
 31
0.0
  0
LINE
  5
199
  8
0
  6
CONTINUOUS
 62
     7
 10
339.8221001703
 20
188.4416533232
 30
0.0
 11
339.8221001703
 21
213.4416533232
 31
0.0
  0
LINE
  5
19A
  8
0
  6
CONTINUOUS
 62
     7
 10
334.4221002165
 20
213.4416533232
 30
0.0
 11
334.4221002165
 21
188.4416533232
 31
0.0
  0
ARC
  5
19B
  8
0
  6
CONTINUOUS
 62
     7
 10
352.1221002538
 20
213.4416542768
 30
0.0
 40
12.29999999999998
 50
90.0
 51
180.0
  0
ARC
  5
19C
  8
0
  6
CONTINUOUS
 62
     7
 10
352.1221002538
 20
213.4416542768
 30
0.0
 40
17.70000000000002
 50
90.0
 51
180.0
  0
LINE
  5
19D
  8
0
  6
CONTINUOUS
 62
     7
 10
343.1221001525
 20
179.1416538477
 30
0.0
 11
372.122100063
 21
179.1416538477
 31
0.0
  0
LINE
  5
19E
  8
0
  6
CONTINUOUS
 62
     7
 10
372.122100063
 20
184.5416558504
 30
0.0
 11
343.1221001525
 21
184.5416558504
 31
0.0
  0
LINE
  5
19F
  8
0
  6
CONTINUOUS
 62
     7
 10
372.122100063
 20
231.1416579008
 30
0.0
 11
352.122099765
 21
231.1416579008
 31
0.0
  0
LINE
  5
1A0
  8
0
  6
CONTINUOUS
 62
     7
 10
352.122099765
 20
225.7416558981
 30
0.0
 11
372.122100063
 21
225.7416558981
 31
0.0
  0
ARC
  5
1A1
  8
0
  6
CONTINUOUS
 62
     7
 10
372.1221002538
 20
213.4416542768
 30
0.0
 40
12.30000000000001
 50
0.0
 51
90.0
  0
ARC
  5
1A2
  8
0
  6
CONTINUOUS
 62
     7
 10
372.1221002538
 20
213.4416542768
 30
0.0
 40
17.70000000000005
 50
360.0
 51
90.0
  0
ARC
  5
1A3
  8
0
  6
CONTINUOUS
 62
     7
 10
372.1221002538
 20
196.8416542768
 30
0.0
 40
12.30000000000001
 50
270.0
 51
0.0
  0
ARC
  5
1A4
  8
0
  6
CONTINUOUS
 62
     7
 10
372.1221002538
 20
196.8416542768
 30
0.0
 40
17.70000000000005
 50
270.0
 51
0.0
  0
LINE
  5
1A5
  8
0
  6
CONTINUOUS
 62
     7
 10
389.8220986802
 20
196.8416524649
 30
0.0
 11
389.8220986802
 21
213.4416533232
 31
0.0
  0
LINE
  5
1A6
  8
0
  6
CONTINUOUS
 62
     7
 10
384.4220996577
 20
213.4416533232
 30
0.0
 11
384.4220996577
 21
196.8416524649
 31
0.0
  0
POLYLINE
  5
1A7
  8
0
  6
CONTINUOUS
 62
     7
 66
     1
 10
0.0
 20
0.0
 30
0.0
  0
VERTEX
  5
67B
  8
0
  6
CONTINUOUS
 62
     7
 10
328.2383479852
 20
249.1830302
 30
0.0
  0
VERTEX
  5
67C
  8
0
  6
CONTINUOUS
 62
     7
 10
328.7859008391
 20
249.3778539419
 30
0.0
  0
VERTEX
  5
67D
  8
0
  6
CONTINUOUS
 62
     7
 10
329.318826713
 20
249.8201204061
 30
0.0
  0
VERTEX
  5
67E
  8
0
  6
CONTINUOUS
 62
     7
 10
329.8178040166
 20
250.5019737005
 30
0.0
  0
VERTEX
  5
67F
  8
0
  6
CONTINUOUS
 62
     7
 10
330.262498625
 20
251.4007521391
 30
0.0
  0
VERTEX
  5
680
  8
0
  6
CONTINUOUS
 62
     7
 10
330.6306131858
 20
252.4890375852
 30
0.0
  0
VERTEX
  5
681
  8
0
  6
CONTINUOUS
 62
     7
 10
330.9063554484
 20
253.735621047
 30
0.0
  0
VERTEX
  5
682
  8
0
  6
CONTINUOUS
 62
     7
 10
331.0725540597
 20
255.109353137
 30
0.0
  0
VERTEX
  5
683
  8
0
  6
CONTINUOUS
 62
     7
 10
331.1182108451
 20
256.5666032553
 30
0.0
  0
VERTEX
  5
684
  8
0
  6
CONTINUOUS
 62
     7
 10
331.069754504
 20
257.6651407003
 30
0.0
  0
SEQEND
  5
8C2
  8
0
  6
CONTINUOUS
 62
     7
  0
POLYLINE
  5
1A8
  8
0
  6
CONTINUOUS
 62
     7
 66
     1
 10
0.0
 20
0.0
 30
0.0
  0
VERTEX
  5
685
  8
0
  6
CONTINUOUS
 62
     7
 10
328.2383479852
 20
249.1830302
 30
0.0
  0
VERTEX
  5
686
  8
0
  6
CONTINUOUS
 62
     7
 10
327.177587219
 20
249.0527821302
 30
0.0
  0
VERTEX
  5
687
  8
0
  6
CONTINUOUS
 62
     7
 10
326.2431748886
 20
248.93805511
 30
0.0
  0
VERTEX
  5
688
  8
0
  6
CONTINUOUS
 62
     7
 10
325.4368350584
 20
248.839051795
 30
0.0
  0
VERTEX
  5
689
  8
0
  6
CONTINUOUS
 62
     7
 10
324.5249368925
 20
248.7270785093
 30
0.0
  0
VERTEX
  5
68A
  8
0
  6
CONTINUOUS
 62
     7
 10
323.8711029966
 20
248.6468029737
 30
0.0
  0
VERTEX
  5
68B
  8
0
  6
CONTINUOUS
 62
     7
 10
323.4779179771
 20
248.5985232115
 30
0.0
  0
VERTEX
  5
68C
  8
0
  6
CONTINUOUS
 62
     7
 10
323.3466461975
 20
248.5824061155
 30
0.0
  0
SEQEND
  5
8C1
  8
0
  6
CONTINUOUS
 62
     7
  0
POLYLINE
  5
1A9
  8
0
  6
CONTINUOUS
 62
     7
 66
     1
 10
0.0
 20
0.0
 30
0.0
  0
VERTEX
  5
68D
  8
0
  6
CONTINUOUS
 62
     7
 10
318.1791321118
 20
279.1807246923
 30
0.0
  0
VERTEX
  5
68E
  8
0
  6
CONTINUOUS
 62
     7
 10
318.2761491019
 20
279.1926337004
 30
0.0
  0
VERTEX
  5
68F
  8
0
  6
CONTINUOUS
 62
     7
 10
318.5667888004
 20
279.2283130407
 30
0.0
  0
VERTEX
  5
690
  8
0
  6
CONTINUOUS
 62
     7
 10
319.0504044969
 20
279.2877031088
 30
0.0
  0
VERTEX
  5
691
  8
0
  6
CONTINUOUS
 62
     7
 10
319.7257251222
 20
279.3706131697
 30
0.0
  0
VERTEX
  5
692
  8
0
  6
CONTINUOUS
 62
     7
 10
320.5908492882
 20
279.4768405676
 30
0.0
  0
VERTEX
  5
693
  8
0
  6
CONTINUOUS
 62
     7
 10
321.5612263162
 20
279.5959902525
 30
0.0
  0
VERTEX
  5
694
  8
0
  6
CONTINUOUS
 62
     7
 10
322.6907745678
 20
279.7346783399
 30
0.0
  0
VERTEX
  5
695
  8
0
  6
CONTINUOUS
 62
     7
 10
323.9769921381
 20
279.8926068067
 30
0.0
  0
SEQEND
  5
8C0
  8
0
  6
CONTINUOUS
 62
     7
  0
POLYLINE
  5
1AA
  8
0
  6
CONTINUOUS
 62
     7
 66
     1
 10
0.0
 20
0.0
 30
0.0
  0
VERTEX
  5
696
  8
0
  6
CONTINUOUS
 62
     7
 10
329.4351526279
 20
272.0823002577
 30
0.0
  0
VERTEX
  5
697
  8
0
  6
CONTINUOUS
 62
     7
 10
329.1325718839
 20
273.3941150427
 30
0.0
  0
VERTEX
  5
698
  8
0
  6
CONTINUOUS
 62
     7
 10
328.7146166641
 20
274.6642900228
 30
0.0
  0
VERTEX
  5
699
  8
0
  6
CONTINUOUS
 62
     7
 10
328.1967469234
 20
275.857110095
 30
0.0
  0
VERTEX
  5
69A
  8
0
  6
CONTINUOUS
 62
     7
 10
327.6031412859
 20
276.9423437834
 30
0.0
  0
VERTEX
  5
69B
  8
0
  6
CONTINUOUS
 62
     7
 10
326.9576922733
 20
277.8905583143
 30
0.0
  0
VERTEX
  5
69C
  8
0
  6
CONTINUOUS
 62
     7
 10
326.2874998827
 20
278.6777449369
 30
0.0
  0
VERTEX
  5
69D
  8
0
  6
CONTINUOUS
 62
     7
 10
325.6203920323
 20
279.2790246725
 30
0.0
  0
VERTEX
  5
69E
  8
0
  6
CONTINUOUS
 62
     7
 10
324.9770589847
 20
279.6845269918
 30
0.0
  0
VERTEX
  5
69F
  8
0
  6
CONTINUOUS
 62
     7
 10
324.4544484396
 20
279.8677874327
 30
0.0
  0
VERTEX
  5
6A0
  8
0
  6
CONTINUOUS
 62
     7
 10
323.9769921381
 20
279.8926068067
 30
0.0
  0
SEQEND
  5
8BF
  8
0
  6
CONTINUOUS
 62
     7
  0
POLYLINE
  5
1AB
  8
0
  6
CONTINUOUS
 62
     7
 66
     1
 10
0.0
 20
0.0
 30
0.0
  0
VERTEX
  5
6A1
  8
0
  6
CONTINUOUS
 62
     7
 10
329.4351526279
 20
272.0823002577
 30
0.0
  0
VERTEX
  5
6A2
  8
0
  6
CONTINUOUS
 62
     7
 10
330.0082579929
 20
268.5094190359
 30
0.0
  0
VERTEX
  5
6A3
  8
0
  6
CONTINUOUS
 62
     7
 10
330.4325156588
 20
264.9059010267
 30
0.0
  0
VERTEX
  5
6A4
  8
0
  6
CONTINUOUS
 62
     7
 10
330.7727628131
 20
261.2875056982
 30
0.0
  0
VERTEX
  5
6A5
  8
0
  6
CONTINUOUS
 62
     7
 10
331.069754504
 20
257.6651407003
 30
0.0
  0
SEQEND
  5
8BE
  8
0
  6
CONTINUOUS
 62
     7
  0
POLYLINE
  5
1AC
  8
0
  6
CONTINUOUS
 62
     7
 66
     1
 10
0.0
 20
0.0
 30
0.0
  0
VERTEX
  5
6A6
  8
0
  6
CONTINUOUS
 62
     7
 10
324.9875799496
 20
280.1616383314
 30
0.0
  0
VERTEX
  5
6A7
  8
0
  6
CONTINUOUS
 62
     7
 10
325.5401477892
 20
280.120928359
 30
0.0
  0
VERTEX
  5
6A8
  8
0
  6
CONTINUOUS
 62
     7
 10
326.1510842223
 20
279.8699808836
 30
0.0
  0
VERTEX
  5
6A9
  8
0
  6
CONTINUOUS
 62
     7
 10
326.8031918187
 20
279.4112993002
 30
0.0
  0
VERTEX
  5
6AA
  8
0
  6
CONTINUOUS
 62
     7
 10
327.4738051672
 20
278.7592721701
 30
0.0
  0
VERTEX
  5
6AB
  8
0
  6
CONTINUOUS
 62
     7
 10
328.1357758422
 20
277.932901454
 30
0.0
  0
VERTEX
  5
6AC
  8
0
  6
CONTINUOUS
 62
     7
 10
328.7670426745
 20
276.9531799078
 30
0.0
  0
VERTEX
  5
6AD
  8
0
  6
CONTINUOUS
 62
     7
 10
329.3426000256
 20
275.8408976316
 30
0.0
  0
VERTEX
  5
6AE
  8
0
  6
CONTINUOUS
 62
     7
 10
329.8370600421
 20
274.6289802313
 30
0.0
  0
VERTEX
  5
6AF
  8
0
  6
CONTINUOUS
 62
     7
 10
330.1842421968
 20
273.5136342764
 30
0.0
  0
VERTEX
  5
6B0
  8
0
  6
CONTINUOUS
 62
     7
 10
330.4425195534
 20
272.3697496176
 30
0.0
  0
SEQEND
  5
8BD
  8
0
  6
CONTINUOUS
 62
     7
  0
POLYLINE
  5
1AD
  8
0
  6
CONTINUOUS
 62
     7
 66
     1
 10
0.0
 20
0.0
 30
0.0
  0
VERTEX
  5
6B1
  8
0
  6
CONTINUOUS
 62
     7
 10
330.4425195534
 20
272.3697496176
 30
0.0
  0
VERTEX
  5
6B2
  8
0
  6
CONTINUOUS
 62
     7
 10
331.03114038
 20
268.7417460203
 30
0.0
  0
VERTEX
  5
6B3
  8
0
  6
CONTINUOUS
 62
     7
 10
331.4664412964
 20
265.0893522024
 30
0.0
  0
VERTEX
  5
6B4
  8
0
  6
CONTINUOUS
 62
     7
 10
331.813057207
 20
261.4441347837
 30
0.0
  0
VERTEX
  5
6B5
  8
0
  6
CONTINUOUS
 62
     7
 10
332.1167331863
 20
257.7961278677
 30
0.0
  0
SEQEND
  5
8BC
  8
0
  6
CONTINUOUS
 62
     7
  0
POLYLINE
  5
1AE
  8
0
  6
CONTINUOUS
 62
     7
 66
     1
 10
0.0
 20
0.0
 30
0.0
  0
VERTEX
  5
6B6
  8
0
  6
CONTINUOUS
 62
     7
 10
329.2968199331
 20
249.292094779
 30
0.0
  0
VERTEX
  5
6B7
  8
0
  6
CONTINUOUS
 62
     7
 10
328.2756053586
 20
249.1652680158
 30
0.0
  0
VERTEX
  5
6B8
  8
0
  6
CONTINUOUS
 62
     7
 10
327.3746781726
 20
249.0533781767
 30
0.0
  0
VERTEX
  5
6B9
  8
0
  6
CONTINUOUS
 62
     7
 10
326.5956812281
 20
248.9566398382
 30
0.0
  0
VERTEX
  5
6BA
  8
0
  6
CONTINUOUS
 62
     7
 10
325.6991588254
 20
248.8452983618
 30
0.0
  0
VERTEX
  5
6BB
  8
0
  6
CONTINUOUS
 62
     7
 10
325.0563450832
 20
248.7654639006
 30
0.0
  0
VERTEX
  5
6BC
  8
0
  6
CONTINUOUS
 62
     7
 10
324.6697895903
 20
248.7174583196
 30
0.0
  0
VERTEX
  5
6BD
  8
0
  6
CONTINUOUS
 62
     7
 10
324.5407291431
 20
248.7014365911
 30
0.0
  0
SEQEND
  5
8BB
  8
0
  6
CONTINUOUS
 62
     7
  0
POLYLINE
  5
1AF
  8
0
  6
CONTINUOUS
 62
     7
 66
     1
 10
0.0
 20
0.0
 30
0.0
  0
VERTEX
  5
6BE
  8
0
  6
CONTINUOUS
 62
     7
 10
332.1167335589
 20
257.7961278677
 30
0.0
  0
VERTEX
  5
6BF
  8
0
  6
CONTINUOUS
 62
     7
 10
332.1668137539
 20
256.3007188558
 30
0.0
  0
VERTEX
  5
6C0
  8
0
  6
CONTINUOUS
 62
     7
 10
332.0904084224
 20
254.8580241918
 30
0.0
  0
VERTEX
  5
6C1
  8
0
  6
CONTINUOUS
 62
     7
 10
331.893903457
 20
253.5107565641
 30
0.0
  0
VERTEX
  5
6C2
  8
0
  6
CONTINUOUS
 62
     7
 10
331.5924544562
 20
252.2965384245
 30
0.0
  0
VERTEX
  5
6C3
  8
0
  6
CONTINUOUS
 62
     7
 10
331.201922961
 20
251.2535644293
 30
0.0
  0
VERTEX
  5
6C4
  8
0
  6
CONTINUOUS
 62
     7
 10
330.7426524092
 20
250.4088831663
 30
0.0
  0
VERTEX
  5
6C5
  8
0
  6
CONTINUOUS
 62
     7
 10
330.2360922773
 20
249.7913671255
 30
0.0
  0
VERTEX
  5
6C6
  8
0
  6
CONTINUOUS
 62
     7
 10
329.7015093941
 20
249.4120550871
 30
0.0
  0
VERTEX
  5
6C7
  8
0
  6
CONTINUOUS
 62
     7
 10
329.2968199331
 20
249.292094779
 30
0.0
  0
SEQEND
  5
8BA
  8
0
  6
CONTINUOUS
 62
     7
  0
LINE
  5
1B0
  8
0
  6
CONTINUOUS
 62
     7
 10
324.9876008112
 20
280.1616383314
 30
0.0
 11
324.1395816881
 21
280.0529909849
 31
0.0
  0
POLYLINE
  5
1B1
  8
0
  6
CONTINUOUS
 62
     7
 66
     1
 10
0.0
 20
0.0
 30
0.0
  0
VERTEX
  5
6C8
  8
0
  6
CONTINUOUS
 62
     7
 10
319.3509236652
 20
279.4393850088
 30
0.0
  0
VERTEX
  5
6C9
  8
0
  6
CONTINUOUS
 62
     7
 10
319.4462687451
 20
279.45159204
 30
0.0
  0
VERTEX
  5
6CA
  8
0
  6
CONTINUOUS
 62
     7
 10
319.7318927128
 20
279.4882012129
 30
0.0
  0
VERTEX
  5
6CB
  8
0
  6
CONTINUOUS
 62
     7
 10
320.207151838
 20
279.5491052389
 30
0.0
  0
VERTEX
  5
6CC
  8
0
  6
CONTINUOUS
 62
     7
 10
320.8708152849
 20
279.6341491461
 30
0.0
  0
VERTEX
  5
6CD
  8
0
  6
CONTINUOUS
 62
     7
 10
321.7209920961
 20
279.7430945158
 30
0.0
  0
VERTEX
  5
6CE
  8
0
  6
CONTINUOUS
 62
     7
 10
322.6589114148
 20
279.8632813215
 30
0.0
  0
VERTEX
  5
6CF
  8
0
  6
CONTINUOUS
 62
     7
 10
323.7485692579
 20
280.0028992414
 30
0.0
  0
VERTEX
  5
6D0
  8
0
  6
CONTINUOUS
 62
     7
 10
324.9875799496
 20
280.1616383314
 30
0.0
  0
SEQEND
  5
8B9
  8
0
  6
CONTINUOUS
 62
     7
  0
LINE
  5
1B2
  8
0
  6
CONTINUOUS
 62
     7
 10
326.5206702728
 20
259.85322721
 30
0.0
 11
326.3640948314
 21
261.1284328222
 31
0.0
  0
LINE
  5
1B3
  8
0
  6
CONTINUOUS
 62
     7
 10
325.9542898018
 20
259.7836924314
 30
0.0
 11
325.2230741758
 21
265.7389713049
 31
0.0
  0
LINE
  5
1B4
  8
0
  6
CONTINUOUS
 62
     7
 10
326.5206702728
 20
259.85322721
 30
0.0
 11
325.9542898018
 21
259.7836924314
 31
0.0
  0
LINE
  5
1B5
  8
0
  6
CONTINUOUS
 62
     7
 10
325.6822594185
 20
265.7953453779
 30
0.0
 11
325.2230741758
 21
265.7389713049
 31
0.0
  0
LINE
  5
1B6
  8
0
  6
CONTINUOUS
 62
     7
 10
325.9542898018
 20
259.7836924314
 30
0.0
 11
324.23174388
 21
259.5721913099
 31
0.0
  0
LINE
  5
1B7
  8
0
  6
CONTINUOUS
 62
     7
 10
325.2230741758
 20
265.7389713049
 30
0.0
 11
323.5005289991
 21
265.5274701834
 31
0.0
  0
POLYLINE
  5
1B8
  8
0
  6
CONTINUOUS
 62
     7
 66
     1
 10
0.0
 20
0.0
 30
0.0
  0
VERTEX
  5
6D1
  8
0
  6
CONTINUOUS
 62
     7
 10
324.23174388
 20
259.5721913099
 30
0.0
  0
VERTEX
  5
6D2
  8
0
  6
CONTINUOUS
 62
     7
 10
324.1997197945
 20
259.5682574034
 30
0.0
  0
VERTEX
  5
6D3
  8
0
  6
CONTINUOUS
 62
     7
 10
324.1600439627
 20
259.5633817434
 30
0.0
  0
VERTEX
  5
6D4
  8
0
  6
CONTINUOUS
 62
     7
 10
324.1130486805
 20
259.5576120138
 30
0.0
  0
VERTEX
  5
6D5
  8
0
  6
CONTINUOUS
 62
     7
 10
324.0591303188
 20
259.5509958982
 30
0.0
  0
VERTEX
  5
6D6
  8
0
  6
CONTINUOUS
 62
     7
 10
323.9987403829
 20
259.5435810804
 30
0.0
  0
VERTEX
  5
6D7
  8
0
  6
CONTINUOUS
 62
     7
 10
323.932384022
 20
259.535427165
 30
0.0
  0
VERTEX
  5
6D8
  8
0
  6
CONTINUOUS
 62
     7
 10
323.8606200297
 20
259.5266175985
 30
0.0
  0
VERTEX
  5
6D9
  8
0
  6
CONTINUOUS
 62
     7
 10
323.7840504129
 20
259.5172119856
 30
0.0
  0
SEQEND
  5
8B8
  8
0
  6
CONTINUOUS
 62
     7
  0
POLYLINE
  5
1B9
  8
0
  6
CONTINUOUS
 62
     7
 66
     1
 10
0.0
 20
0.0
 30
0.0
  0
VERTEX
  5
6DA
  8
0
  6
CONTINUOUS
 62
     7
 10
323.0528340418
 20
265.472490859
 30
0.0
  0
VERTEX
  5
6DB
  8
0
  6
CONTINUOUS
 62
     7
 10
323.1294036586
 20
265.481896472
 30
0.0
  0
VERTEX
  5
6DC
  8
0
  6
CONTINUOUS
 62
     7
 10
323.2011676509
 20
265.4907060385
 30
0.0
  0
VERTEX
  5
6DD
  8
0
  6
CONTINUOUS
 62
     7
 10
323.2675240118
 20
265.4988599539
 30
0.0
  0
VERTEX
  5
6DE
  8
0
  6
CONTINUOUS
 62
     7
 10
323.3279139478
 20
265.5062747717
 30
0.0
  0
VERTEX
  5
6DF
  8
0
  6
CONTINUOUS
 62
     7
 10
323.3818323094
 20
265.5128908872
 30
0.0
  0
VERTEX
  5
6E0
  8
0
  6
CONTINUOUS
 62
     7
 10
323.4288275916
 20
265.5186606169
 30
0.0
  0
VERTEX
  5
6E1
  8
0
  6
CONTINUOUS
 62
     7
 10
323.4685034234
 20
265.5235362768
 30
0.0
  0
VERTEX
  5
6E2
  8
0
  6
CONTINUOUS
 62
     7
 10
323.5005289991
 20
265.5274701834
 30
0.0
  0
SEQEND
  5
8B7
  8
0
  6
CONTINUOUS
 62
     7
  0
LINE
  5
1BA
  8
0
  6
CONTINUOUS
 62
     7
 10
323.7840504129
 20
259.5172119856
 30
0.0
 11
319.4528595287
 21
258.9854193449
 31
0.0
  0
LINE
  5
1BB
  8
0
  6
CONTINUOUS
 62
     7
 10
323.0528340418
 20
265.472490859
 30
0.0
 11
318.7216446478
 21
264.9406862974
 31
0.0
  0
LINE
  5
1BC
  8
0
  6
CONTINUOUS
 62
     7
 10
318.956586786
 20
258.9244795561
 30
0.0
 11
318.2253704149
 21
264.8797584295
 31
0.0
  0
POLYLINE
  5
1BD
  8
0
  6
CONTINUOUS
 62
     7
 66
     1
 10
0.0
 20
0.0
 30
0.0
  0
VERTEX
  5
6E3
  8
0
  6
CONTINUOUS
 62
     7
 10
319.4528595287
 20
258.9854193449
 30
0.0
  0
VERTEX
  5
6E4
  8
0
  6
CONTINUOUS
 62
     7
 10
319.3449095566
 20
258.9721632719
 30
0.0
  0
VERTEX
  5
6E5
  8
0
  6
CONTINUOUS
 62
     7
 10
319.24729652
 20
258.9601708174
 30
0.0
  0
VERTEX
  5
6E6
  8
0
  6
CONTINUOUS
 62
     7
 10
319.1616938192
 20
258.9496684789
 30
0.0
  0
VERTEX
  5
6E7
  8
0
  6
CONTINUOUS
 62
     7
 10
319.0895632584
 20
258.9408112287
 30
0.0
  0
VERTEX
  5
6E8
  8
0
  6
CONTINUOUS
 62
     7
 10
319.0321401436
 20
258.9337540388
 30
0.0
  0
VERTEX
  5
6E9
  8
0
  6
CONTINUOUS
 62
     7
 10
318.9904079516
 20
258.9286280393
 30
0.0
  0
VERTEX
  5
6EA
  8
0
  6
CONTINUOUS
 62
     7
 10
318.9650789578
 20
258.9255166769
 30
0.0
  0
VERTEX
  5
6EB
  8
0
  6
CONTINUOUS
 62
     7
 10
318.956586786
 20
258.9244795561
 30
0.0
  0
SEQEND
  5
8B6
  8
0
  6
CONTINUOUS
 62
     7
  0
POLYLINE
  5
1BE
  8
0
  6
CONTINUOUS
 62
     7
 66
     1
 10
0.0
 20
0.0
 30
0.0
  0
VERTEX
  5
6EC
  8
0
  6
CONTINUOUS
 62
     7
 10
318.2253704149
 20
264.8797584295
 30
0.0
  0
VERTEX
  5
6ED
  8
0
  6
CONTINUOUS
 62
     7
 10
318.2338625867
 20
264.8807955503
 30
0.0
  0
VERTEX
  5
6EE
  8
0
  6
CONTINUOUS
 62
     7
 10
318.2591915805
 20
264.8839069128
 30
0.0
  0
VERTEX
  5
6EF
  8
0
  6
CONTINUOUS
 62
     7
 10
318.3009237725
 20
264.8890329122
 30
0.0
  0
VERTEX
  5
6F0
  8
0
  6
CONTINUOUS
 62
     7
 10
318.3583468873
 20
264.8960901022
 30
0.0
  0
VERTEX
  5
6F1
  8
0
  6
CONTINUOUS
 62
     7
 10
318.4304774482
 20
264.9049354315
 30
0.0
  0
VERTEX
  5
6F2
  8
0
  6
CONTINUOUS
 62
     7
 10
318.516081639
 20
264.9154496908
 30
0.0
  0
VERTEX
  5
6F3
  8
0
  6
CONTINUOUS
 62
     7
 10
318.6136931855
 20
264.9274421453
 30
0.0
  0
VERTEX
  5
6F4
  8
0
  6
CONTINUOUS
 62
     7
 10
318.7216446478
 20
264.9406862974
 30
0.0
  0
SEQEND
  5
8B5
  8
0
  6
CONTINUOUS
 62
     7
  0
LINE
  5
1BF
  8
0
  6
CONTINUOUS
 62
     7
 10
326.322100379
 20
177.8416527033
 30
0.0
 11
331.3221000809
 21
177.8416527033
 31
0.0
  0
LINE
  5
1C0
  8
0
  6
CONTINUOUS
 62
     7
 10
317.6268846471
 20
264.8062659025
 30
0.0
 11
313.6566997249
 21
264.3187952757
 31
0.0
  0
LINE
  5
1C1
  8
0
  6
CONTINUOUS
 62
     7
 10
315.1096195657
 20
244.2802024603
 30
0.0
 11
312.6641527493
 21
264.196927619
 31
0.0
  0
POLYLINE
  5
1C2
  8
0
  6
CONTINUOUS
 62
     7
 66
     1
 10
0.0
 20
0.0
 30
0.0
  0
VERTEX
  5
6F5
  8
0
  6
CONTINUOUS
 62
     7
 10
312.6641527493
 20
264.196927619
 30
0.0
  0
VERTEX
  5
6F6
  8
0
  6
CONTINUOUS
 62
     7
 10
312.6832247455
 20
264.199264121
 30
0.0
  0
VERTEX
  5
6F7
  8
0
  6
CONTINUOUS
 62
     7
 10
312.7397061069
 20
264.2062021017
 30
0.0
  0
VERTEX
  5
6F8
  8
0
  6
CONTINUOUS
 62
     7
 10
312.8314272244
 20
264.2174673796
 30
0.0
  0
VERTEX
  5
6F9
  8
0
  6
CONTINUOUS
 62
     7
 10
312.9548639733
 20
264.2326188803
 30
0.0
  0
VERTEX
  5
6FA
  8
0
  6
CONTINUOUS
 62
     7
 10
313.105270334
 20
264.2510843992
 30
0.0
  0
VERTEX
  5
6FB
  8
0
  6
CONTINUOUS
 62
     7
 10
313.276869126
 20
264.2721606016
 30
0.0
  0
VERTEX
  5
6FC
  8
0
  6
CONTINUOUS
 62
     7
 10
313.4630636055
 20
264.2950130224
 30
0.0
  0
VERTEX
  5
6FD
  8
0
  6
CONTINUOUS
 62
     7
 10
313.6566997249
 20
264.3187952757
 30
0.0
  0
SEQEND
  5
8B4
  8
0
  6
CONTINUOUS
 62
     7
  0
LINE
  5
1C3
  8
0
  6
CONTINUOUS
 62
     7
 10
324.9632813711
 20
201.1122596979
 30
0.0
 11
315.4731408436
 21
242.2185731649
 31
0.0
  0
ARC
  5
1C4
  8
0
  6
CONTINUOUS
 62
     7
 10
334.9605420973
 20
246.7175919678
 30
0.0
 40
20.00000000000004
 50
187.0
 51
193.0
  0
LINE
  5
1C5
  8
0
  6
CONTINUOUS
 62
     7
 10
319.3506465037
 20
258.9728666067
 30
0.0
 11
321.0648954589
 21
245.0114203214
 31
0.0
  0
POLYLINE
  5
1C6
  8
0
  6
CONTINUOUS
 62
     7
 66
     1
 10
0.0
 20
0.0
 30
0.0
  0
VERTEX
  5
6FE
  8
0
  6
CONTINUOUS
 62
     7
 10
317.6268846471
 20
264.8062659025
 30
0.0
  0
VERTEX
  5
6FF
  8
0
  6
CONTINUOUS
 62
     7
 10
317.7070975978
 20
264.8161245107
 30
0.0
  0
VERTEX
  5
700
  8
0
  6
CONTINUOUS
 62
     7
 10
317.7867860276
 20
264.8258996725
 30
0.0
  0
VERTEX
  5
701
  8
0
  6
CONTINUOUS
 62
     7
 10
317.8654298861
 20
264.8355556249
 30
0.0
  0
VERTEX
  5
702
  8
0
  6
CONTINUOUS
 62
     7
 10
317.9425106127
 20
264.8450208425
 30
0.0
  0
VERTEX
  5
703
  8
0
  6
CONTINUOUS
 62
     7
 10
318.0175290186
 20
264.8542357206
 30
0.0
  0
VERTEX
  5
704
  8
0
  6
CONTINUOUS
 62
     7
 10
318.0899903853
 20
264.8631287336
 30
0.0
  0
VERTEX
  5
705
  8
0
  6
CONTINUOUS
 62
     7
 10
318.1594223458
 20
264.8716641188
 30
0.0
  0
VERTEX
  5
706
  8
0
  6
CONTINUOUS
 62
     7
 10
318.2253704149
 20
264.8797584295
 30
0.0
  0
SEQEND
  5
8B3
  8
0
  6
CONTINUOUS
 62
     7
  0
LINE
  5
1C7
  8
0
  6
CONTINUOUS
 62
     7
 10
321.3193610985
 20
243.5682726621
 30
0.0
 11
330.809501626
 21
202.4619651556
 31
0.0
  0
ARC
  5
1C8
  8
0
  6
CONTINUOUS
 62
     7
 10
334.9605420973
 20
246.7175919678
 30
0.0
 40
14.00000000000004
 50
187.0
 51
193.0
  0
LINE
  5
1C9
  8
0
  6
CONTINUOUS
 62
     7
 10
325.3221005876
 20
177.8416527033
 30
0.0
 11
325.3221005876
 21
197.9629410028
 31
0.0
  0
LINE
  5
1CA
  8
0
  6
CONTINUOUS
 62
     7
 10
326.322100379
 20
177.8416527033
 30
0.0
 11
325.3221005876
 21
177.8416527033
 31
0.0
  0
ARC
  5
1CB
  8
0
  6
CONTINUOUS
 62
     7
 10
311.3221002538
 20
197.9629421108
 30
0.0
 40
14.00000000000004
 50
0.0
 51
13.0
  0
LINE
  5
1CC
  8
0
  6
CONTINUOUS
 62
     7
 10
331.3221000809
 20
197.9629410028
 30
0.0
 11
331.3221000809
 21
196.1791349172
 31
0.0
  0
ARC
  5
1CD
  8
0
  6
CONTINUOUS
 62
     7
 10
311.3221002538
 20
197.9629421108
 30
0.0
 40
20.00000000000006
 50
0.0
 51
13.0
  0
LINE
  5
1CE
  8
0
  6
CONTINUOUS
 62
     7
 10
348.3778246421
 20
204.5102608919
 30
0.0
 11
347.1556932408
 21
203.9398384809
 31
0.0
  0
POLYLINE
  5
1CF
  8
0
  6
CONTINUOUS
 62
     7
 66
     1
 10
0.0
 20
0.0
 30
0.0
  0
VERTEX
  5
707
  8
0
  6
CONTINUOUS
 62
     7
 10
353.0105159361
 20
205.1415515661
 30
0.0
  0
VERTEX
  5
708
  8
0
  6
CONTINUOUS
 62
     7
 10
351.8780366261
 20
205.1335287809
 30
0.0
  0
VERTEX
  5
709
  8
0
  6
CONTINUOUS
 62
     7
 10
350.7993579585
 20
205.0632787466
 30
0.0
  0
VERTEX
  5
70A
  8
0
  6
CONTINUOUS
 62
     7
 10
349.8655275185
 20
204.9354029417
 30
0.0
  0
VERTEX
  5
70B
  8
0
  6
CONTINUOUS
 62
     7
 10
349.0517333824
 20
204.7506285429
 30
0.0
  0
VERTEX
  5
70C
  8
0
  6
CONTINUOUS
 62
     7
 10
348.3778246421
 20
204.5102608919
 30
0.0
  0
SEQEND
  5
8B2
  8
0
  6
CONTINUOUS
 62
     7
  0
POLYLINE
  5
1D0
  8
0
  6
CONTINUOUS
 62
     7
 66
     1
 10
0.0
 20
0.0
 30
0.0
  0
VERTEX
  5
70D
  8
0
  6
CONTINUOUS
 62
     7
 10
356.0312391002
 20
205.0888014555
 30
0.0
  0
VERTEX
  5
70E
  8
0
  6
CONTINUOUS
 62
     7
 10
354.520875283
 20
205.1151884317
 30
0.0
  0
VERTEX
  5
70F
  8
0
  6
CONTINUOUS
 62
     7
 10
353.0105159361
 20
205.1415515661
 30
0.0
  0
SEQEND
  5
8B1
  8
0
  6
CONTINUOUS
 62
     7
  0
POLYLINE
  5
1D1
  8
0
  6
CONTINUOUS
 62
     7
 66
     1
 10
0.0
 20
0.0
 30
0.0
  0
VERTEX
  5
710
  8
0
  6
CONTINUOUS
 62
     7
 10
361.0304773528
 20
205.0015342951
 30
0.0
  0
VERTEX
  5
711
  8
0
  6
CONTINUOUS
 62
     7
 10
358.527335592
 20
205.0382626772
 30
0.0
  0
VERTEX
  5
712
  8
0
  6
CONTINUOUS
 62
     7
 10
356.0368717391
 20
205.0886524439
 30
0.0
  0
SEQEND
  5
8B0
  8
0
  6
CONTINUOUS
 62
     7
  0
LINE
  5
1D2
  8
0
  6
CONTINUOUS
 62
     7
 10
361.0565975983
 20
205.0010812998
 30
0.0
 11
361.0304773528
 21
205.0015342951
 31
0.0
  0
POLYLINE
  5
1D3
  8
0
  6
CONTINUOUS
 62
     7
 66
     1
 10
0.0
 20
0.0
 30
0.0
  0
VERTEX
  5
713
  8
0
  6
CONTINUOUS
 62
     7
 10
366.0637975413
 20
204.9136651277
 30
0.0
  0
VERTEX
  5
714
  8
0
  6
CONTINUOUS
 62
     7
 10
363.5600507934
 20
204.9576533556
 30
0.0
  0
VERTEX
  5
715
  8
0
  6
CONTINUOUS
 62
     7
 10
361.0566303808
 20
205.0010812998
 30
0.0
  0
SEQEND
  5
8AF
  8
0
  6
CONTINUOUS
 62
     7
  0
LINE
  5
1D4
  8
0
  6
CONTINUOUS
 62
     7
 10
367.9145038802
 20
204.8741293669
 30
0.0
 11
366.0638124425
 21
204.9135876417
 31
0.0
  0
LINE
  5
1D5
  8
0
  6
CONTINUOUS
 62
     7
 10
376.028195091
 20
204.7397506952
 30
0.0
 11
367.9145038802
 21
204.8741293669
 31
0.0
  0
POLYLINE
  5
1D6
  8
0
  6
CONTINUOUS
 62
     7
 66
     1
 10
0.0
 20
0.0
 30
0.0
  0
VERTEX
  5
716
  8
0
  6
CONTINUOUS
 62
     7
 10
384.4220996577
 20
204.5950127363
 30
0.0
  0
VERTEX
  5
717
  8
0
  6
CONTINUOUS
 62
     7
 10
379.2000711639
 20
204.6919894934
 30
0.0
  0
VERTEX
  5
718
  8
0
  6
CONTINUOUS
 62
     7
 10
376.0282070119
 20
204.7397506952
 30
0.0
  0
SEQEND
  5
8AE
  8
0
  6
CONTINUOUS
 62
     7
  0
POLYLINE
  5
1D7
  8
0
  6
CONTINUOUS
 62
     7
 66
     1
 10
0.0
 20
0.0
 30
0.0
  0
VERTEX
  5
719
  8
0
  6
CONTINUOUS
 62
     7
 10
396.0259408433
 20
204.3907118559
 30
0.0
  0
VERTEX
  5
71A
  8
0
  6
CONTINUOUS
 62
     7
 10
391.0274059255
 20
204.4355524301
 30
0.0
  0
VERTEX
  5
71B
  8
0
  6
CONTINUOUS
 62
     7
 10
389.8220986802
 20
204.4668091059
 30
0.0
  0
SEQEND
  5
8AD
  8
0
  6
CONTINUOUS
 62
     7
  0
POLYLINE
  5
1D8
  8
0
  6
CONTINUOUS
 62
     7
 66
     1
 10
0.0
 20
0.0
 30
0.0
  0
VERTEX
  5
71C
  8
0
  6
CONTINUOUS
 62
     7
 10
407.6816231687
 20
203.9725316286
 30
0.0
  0
VERTEX
  5
71D
  8
0
  6
CONTINUOUS
 62
     7
 10
407.6562971551
 20
203.9772284746
 30
0.0
  0
VERTEX
  5
71E
  8
0
  6
CONTINUOUS
 62
     7
 10
405.2432865579
 20
204.295725894
 30
0.0
  0
VERTEX
  5
71F
  8
0
  6
CONTINUOUS
 62
     7
 10
402.8548211534
 20
204.4349683046
 30
0.0
  0
VERTEX
  5
720
  8
0
  6
CONTINUOUS
 62
     7
 10
400.488904186
 20
204.4583333254
 30
0.0
  0
VERTEX
  5
721
  8
0
  6
CONTINUOUS
 62
     7
 10
398.134079643
 20
204.423655343
 30
0.0
  0
VERTEX
  5
722
  8
0
  6
CONTINUOUS
 62
     7
 10
396.0259408433
 20
204.3907297373
 30
0.0
  0
SEQEND
  5
8AC
  8
0
  6
CONTINUOUS
 62
     7
  0
ARC
  5
1D9
  8
0
  6
CONTINUOUS
 62
     7
 10
405.4459620965
 20
191.685145185
 30
0.0
 40
12.48911710425699
 50
43.7647639822
 51
79.6879731616
  0
POLYLINE
  5
1DA
  8
0
  6
CONTINUOUS
 62
     7
 66
     1
 10
0.0
 20
0.0
 30
0.0
  0
VERTEX
  5
723
  8
0
  6
CONTINUOUS
 62
     7
 10
415.9117609937
 20
198.2563687086
 30
0.0
  0
VERTEX
  5
724
  8
0
  6
CONTINUOUS
 62
     7
 10
415.9143239934
 20
198.252524209
 30
0.0
  0
VERTEX
  5
725
  8
0
  6
CONTINUOUS
 62
     7
 10
415.8456177194
 20
198.3561945677
 30
0.0
  0
VERTEX
  5
726
  8
0
  6
CONTINUOUS
 62
     7
 10
415.7016546208
 20
198.5721302748
 30
0.0
  0
VERTEX
  5
727
  8
0
  6
CONTINUOUS
 62
     7
 10
415.4827982862
 20
198.8958848238
 30
0.0
  0
VERTEX
  5
728
  8
0
  6
CONTINUOUS
 62
     7
 10
415.0480241258
 20
199.5224369287
 30
0.0
  0
VERTEX
  5
729
  8
0
  6
CONTINUOUS
 62
     7
 10
414.4654244859
 20
200.3238571405
 30
0.0
  0
SEQEND
  5
8AB
  8
0
  6
CONTINUOUS
 62
     7
  0
POLYLINE
  5
1DB
  8
0
  6
CONTINUOUS
 62
     7
 66
     1
 10
0.0
 20
0.0
 30
0.0
  0
VERTEX
  5
72A
  8
0
  6
CONTINUOUS
 62
     7
 10
407.6153547246
 20
205.1984322786
 30
0.0
  0
VERTEX
  5
72B
  8
0
  6
CONTINUOUS
 62
     7
 10
408.7634593923
 20
204.9592030763
 30
0.0
  0
VERTEX
  5
72C
  8
0
  6
CONTINUOUS
 62
     7
 10
409.8654360253
 20
204.6383691549
 30
0.0
  0
VERTEX
  5
72D
  8
0
  6
CONTINUOUS
 62
     7
 10
410.8859271485
 20
204.2383921861
 30
0.0
  0
VERTEX
  5
72E
  8
0
  6
CONTINUOUS
 62
     7
 10
411.8087024171
 20
203.780920577
 30
0.0
  0
VERTEX
  5
72F
  8
0
  6
CONTINUOUS
 62
     7
 10
412.6663596112
 20
203.2681000948
 30
0.0
  0
VERTEX
  5
730
  8
0
  6
CONTINUOUS
 62
     7
 10
413.3862227876
 20
202.7700794458
 30
0.0
  0
VERTEX
  5
731
  8
0
  6
CONTINUOUS
 62
     7
 10
413.8926059682
 20
202.3779464483
 30
0.0
  0
VERTEX
  5
732
  8
0
  6
CONTINUOUS
 62
     7
 10
414.2625481565
 20
202.0612133264
 30
0.0
  0
VERTEX
  5
733
  8
0
  6
CONTINUOUS
 62
     7
 10
414.4113809545
 20
201.9197774649
 30
0.0
  0
VERTEX
  5
734
  8
0
  6
CONTINUOUS
 62
     7
 10
414.501908489
 20
201.8206072569
 30
0.0
  0
SEQEND
  5
8AA
  8
0
  6
CONTINUOUS
 62
     7
  0
POLYLINE
  5
1DC
  8
0
  6
CONTINUOUS
 62
     7
 66
     1
 10
0.0
 20
0.0
 30
0.0
  0
VERTEX
  5
735
  8
0
  6
CONTINUOUS
 62
     7
 10
348.2106157322
 20
205.6564284086
 30
0.0
  0
VERTEX
  5
736
  8
0
  6
CONTINUOUS
 62
     7
 10
348.7940341909
 20
205.874074769
 30
0.0
  0
VERTEX
  5
737
  8
0
  6
CONTINUOUS
 62
     7
 10
349.5638102967
 20
206.0638857603
 30
0.0
  0
VERTEX
  5
738
  8
0
  6
CONTINUOUS
 62
     7
 10
350.454038449
 20
206.201858592
 30
0.0
  0
VERTEX
  5
739
  8
0
  6
CONTINUOUS
 62
     7
 10
351.4887616713
 20
206.2857819319
 30
0.0
  0
VERTEX
  5
73A
  8
0
  6
CONTINUOUS
 62
     7
 10
352.1603763778
 20
206.3065362692
 30
0.0
  0
VERTEX
  5
73B
  8
0
  6
CONTINUOUS
 62
     7
 10
352.8654888947
 20
206.3051117182
 30
0.0
  0
SEQEND
  5
8A9
  8
0
  6
CONTINUOUS
 62
     7
  0
ARC
  5
1DD
  8
0
  6
CONTINUOUS
 62
     7
 10
394.8025823831
 20
105.8023560395
 30
0.0
 40
110.1891425010063
 50
115.0137833831
 51
117.0477933463
  0
POLYLINE
  5
1DE
  8
0
  6
CONTINUOUS
 62
     7
 66
     1
 10
0.0
 20
0.0
 30
0.0
  0
VERTEX
  5
73C
  8
0
  6
CONTINUOUS
 62
     7
 10
415.9376890142
 20
199.8624218225
 30
0.0
  0
VERTEX
  5
73D
  8
0
  6
CONTINUOUS
 62
     7
 10
415.943500467
 20
199.8538804769
 30
0.0
  0
VERTEX
  5
73E
  8
0
  6
CONTINUOUS
 62
     7
 10
415.8589691598
 20
199.9771548033
 30
0.0
  0
VERTEX
  5
73F
  8
0
  6
CONTINUOUS
 62
     7
 10
415.6719715078
 20
200.2459240675
 30
0.0
  0
VERTEX
  5
740
  8
0
  6
CONTINUOUS
 62
     7
 10
415.4651553113
 20
200.5379391432
 30
0.0
  0
VERTEX
  5
741
  8
0
  6
CONTINUOUS
 62
     7
 10
415.2013034303
 20
200.9018374204
 30
0.0
  0
VERTEX
  5
742
  8
0
  6
CONTINUOUS
 62
     7
 10
414.8800403554
 20
201.332057786
 30
0.0
  0
VERTEX
  5
743
  8
0
  6
CONTINUOUS
 62
     7
 10
414.501908489
 20
201.8206072569
 30
0.0
  0
SEQEND
  5
8A8
  8
0
  6
CONTINUOUS
 62
     7
  0
POLYLINE
  5
1DF
  8
0
  6
CONTINUOUS
 62
     7
 66
     1
 10
0.0
 20
0.0
 30
0.0
  0
VERTEX
  5
744
  8
0
  6
CONTINUOUS
 62
     7
 10
407.6153547246
 20
205.1984382391
 30
0.0
  0
VERTEX
  5
745
  8
0
  6
CONTINUOUS
 62
     7
 10
405.2183300931
 20
205.4947746515
 30
0.0
  0
VERTEX
  5
746
  8
0
  6
CONTINUOUS
 62
     7
 10
402.8786391694
 20
205.6250584841
 30
0.0
  0
VERTEX
  5
747
  8
0
  6
CONTINUOUS
 62
     7
 10
400.5842358548
 20
205.6483042955
 30
0.0
  0
VERTEX
  5
748
  8
0
  6
CONTINUOUS
 62
     7
 10
398.326364227
 20
205.6164038896
 30
0.0
  0
VERTEX
  5
749
  8
0
  6
CONTINUOUS
 62
     7
 10
396.0958332498
 20
205.5800569773
 30
0.0
  0
VERTEX
  5
74A
  8
0
  6
CONTINUOUS
 62
     7
 10
393.8683957536
 20
205.5786562681
 30
0.0
  0
VERTEX
  5
74B
  8
0
  6
CONTINUOUS
 62
     7
 10
391.6274935681
 20
205.6105089903
 30
0.0
  0
VERTEX
  5
74C
  8
0
  6
CONTINUOUS
 62
     7
 10
389.8220986802
 20
205.6546045065
 30
0.0
  0
SEQEND
  5
8A7
  8
0
  6
CONTINUOUS
 62
     7
  0
POLYLINE
  5
1E0
  8
0
  6
CONTINUOUS
 62
     7
 66
     1
 10
0.0
 20
0.0
 30
0.0
  0
VERTEX
  5
74D
  8
0
  6
CONTINUOUS
 62
     7
 10
384.4220996577
 20
205.7791126489
 30
0.0
  0
VERTEX
  5
74E
  8
0
  6
CONTINUOUS
 62
     7
 10
379.2174936015
 20
205.8677983999
 30
0.0
  0
VERTEX
  5
74F
  8
0
  6
CONTINUOUS
 62
     7
 10
375.9199768979
 20
205.9146595716
 30
0.0
  0
VERTEX
  5
750
  8
0
  6
CONTINUOUS
 62
     7
 10
372.61970944
 20
205.9675110102
 30
0.0
  0
VERTEX
  5
751
  8
0
  6
CONTINUOUS
 62
     7
 10
369.3188876588
 20
206.0250652551
 30
0.0
  0
VERTEX
  5
752
  8
0
  6
CONTINUOUS
 62
     7
 10
366.0206974227
 20
206.0834956884
 30
0.0
  0
VERTEX
  5
753
  8
0
  6
CONTINUOUS
 62
     7
 10
362.7255142409
 20
206.14010818
 30
0.0
  0
VERTEX
  5
754
  8
0
  6
CONTINUOUS
 62
     7
 10
359.4333738763
 20
206.1958385229
 30
0.0
  0
VERTEX
  5
755
  8
0
  6
CONTINUOUS
 62
     7
 10
356.157098778
 20
206.2503767729
 30
0.0
  0
VERTEX
  5
756
  8
0
  6
CONTINUOUS
 62
     7
 10
352.8654948551
 20
206.3051892042
 30
0.0
  0
SEQEND
  5
8A6
  8
0
  6
CONTINUOUS
 62
     7
  0
POLYLINE
  5
1E1
  8
0
  6
CONTINUOUS
 62
     7
 66
     1
 10
0.0
 20
0.0
 30
0.0
  0
VERTEX
  5
757
  8
0
  6
CONTINUOUS
 62
     7
 10
389.8220986802
 20
204.4904602289
 30
0.0
  0
VERTEX
  5
758
  8
0
  6
CONTINUOUS
 62
     7
 10
392.2293693502
 20
204.4325543165
 30
0.0
  0
VERTEX
  5
759
  8
0
  6
CONTINUOUS
 62
     7
 10
396.0259408433
 20
204.3907297373
 30
0.0
  0
SEQEND
  5
8A5
  8
0
  6
CONTINUOUS
 62
     7
  0
POLYLINE
  5
1E2
  8
0
  6
CONTINUOUS
 62
     7
 66
     1
 10
0.0
 20
0.0
 30
0.0
  0
VERTEX
  5
75A
  8
0
  6
CONTINUOUS
 62
     7
 10
367.9166675288
 20
204.9979937792
 30
0.0
  0
VERTEX
  5
75B
  8
0
  6
CONTINUOUS
 62
     7
 10
370.3250528056
 20
205.0557626009
 30
0.0
  0
VERTEX
  5
75C
  8
0
  6
CONTINUOUS
 62
     7
 10
373.1827587564
 20
204.9271655798
 30
0.0
  0
VERTEX
  5
75D
  8
0
  6
CONTINUOUS
 62
     7
 10
376.0282248933
 20
204.7402394533
 30
0.0
  0
SEQEND
  5
8A4
  8
0
  6
CONTINUOUS
 62
     7
  0
LINE
  5
1E3
  8
0
  6
CONTINUOUS
 62
     7
 10
366.0638124425
 20
204.9136412859
 30
0.0
 11
367.9166675288
 21
204.9979937792
 31
0.0
  0
POLYLINE
  5
1E4
  8
0
  6
CONTINUOUS
 62
     7
 66
     1
 10
0.0
 20
0.0
 30
0.0
  0
VERTEX
  5
75E
  8
0
  6
CONTINUOUS
 62
     7
 10
356.0368717391
 20
205.0887001276
 30
0.0
  0
VERTEX
  5
75F
  8
0
  6
CONTINUOUS
 62
     7
 10
357.2166324336
 20
205.171860528
 30
0.0
  0
VERTEX
  5
760
  8
0
  6
CONTINUOUS
 62
     7
 10
358.4111318667
 20
205.1652980566
 30
0.0
  0
VERTEX
  5
761
  8
0
  6
CONTINUOUS
 62
     7
 10
359.7317755897
 20
205.0923479318
 30
0.0
  0
VERTEX
  5
762
  8
0
  6
CONTINUOUS
 62
     7
 10
361.0566005785
 20
205.0011528253
 30
0.0
  0
SEQEND
  5
8A3
  8
0
  6
CONTINUOUS
 62
     7
  0
LINE
  5
1E5
  8
0
  6
CONTINUOUS
 62
     7
 10
341.9221003283
 20
187.2416568518
 30
0.0
 11
341.9221003283
 21
186.6416526556
 31
0.0
  0
ARC
  5
1E6
  8
0
  6
CONTINUOUS
 62
     7
 10
341.5221002538
 20
187.2416542768
 30
0.0
 40
0.3999999999999773
 50
0.0
 51
90.0
  0
LINE
  5
1E7
  8
0
  6
CONTINUOUS
 62
     7
 10
331.9221001793
 20
177.8416527033
 30
0.0
 11
331.3221000809
 21
177.8416527033
 31
0.0
  0
LINE
  5
1E8
  8
0
  6
CONTINUOUS
 62
     7
 10
331.9221001793
 20
178.6416543245
 30
0.0
 11
331.9221001793
 21
177.8416527033
 31
0.0
  0
LINE
  5
1E9
  8
0
  6
CONTINUOUS
 62
     7
 10
331.3221000809
 20
177.8416527033
 30
0.0
 11
331.3221000809
 21
178.6416543245
 31
0.0
  0
LINE
  5
1EA
  8
0
  6
CONTINUOUS
 62
     7
 10
342.5221004266
 20
177.8416527033
 30
0.0
 11
341.9221003283
 21
177.8416527033
 31
0.0
  0
LINE
  5
1EB
  8
0
  6
CONTINUOUS
 62
     7
 10
341.9221003283
 20
177.8416527033
 30
0.0
 11
341.9221003283
 21
178.6416543245
 31
0.0
  0
LINE
  5
1EC
  8
0
  6
CONTINUOUS
 62
     7
 10
342.5221004266
 20
178.6416543245
 30
0.0
 11
342.5221004266
 21
177.8416527033
 31
0.0
  0
ARC
  5
1ED
  8
0
  6
CONTINUOUS
 62
     7
 10
401.4221002538
 20
201.693284395
 30
0.0
 40
2.0
 50
280.7804509646
 51
0.0
  0
ARC
  5
1EE
  8
0
  6
CONTINUOUS
 62
     7
 10
326.9777316966
 20
592.6690329909
 30
0.0
 40
400.0000000000001
 50
274.5077079787
 51
278.256844918
  0
ARC
  5
1EF
  8
0
  6
CONTINUOUS
 62
     7
 10
326.9777316966
 20
592.6690329909
 30
0.0
 40
400.0
 50
279.0392433502
 51
280.7804509646
  0
ARC
  5
1F0
  8
0
  6
CONTINUOUS
 62
     7
 10
345.840102076
 20
353.4114082772
 30
0.0
 40
160.0000000000003
 50
273.0746772222
 51
274.5077079787
  0
ARC
  5
1F1
  8
0
  6
CONTINUOUS
 62
     7
 10
355.1193876057
 20
180.6604463115
 30
0.0
 40
12.99999999999996
 50
93.0746772222
 51
121.4611845106
  0
ARC
  5
1F2
  8
0
  6
CONTINUOUS
 62
     7
 10
350.4221002538
 20
188.3373917674
 30
0.0
 40
4.0
 50
121.4611845106
 51
180.0
  0
LINE
  5
1F3
  8
0
  6
CONTINUOUS
 62
     7
 10
346.4221001346
 20
186.4416552305
 30
0.0
 11
346.4221001346
 21
188.3373928785
 31
0.0
  0
ARC
  5
1F4
  8
0
  6
CONTINUOUS
 62
     7
 10
344.4221002538
 20
186.4416542768
 30
0.0
 40
2.000000000000032
 50
288.1948723388
 51
0.0
  0
LINE
  5
1F5
  8
0
  6
CONTINUOUS
 62
     7
 10
330.3221002895
 20
184.4416571379
 30
0.0
 11
331.1221004207
 21
184.4416571379
 31
0.0
  0
ARC
  5
1F6
  8
0
  6
CONTINUOUS
 62
     7
 10
330.3221002538
 20
186.4416542768
 30
0.0
 40
2.0
 50
180.0
 51
270.0
  0
LINE
  5
1F7
  8
0
  6
CONTINUOUS
 62
     7
 10
328.3220999617
 20
189.4884837389
 30
0.0
 11
328.3220999617
 21
186.4416552305
 31
0.0
  0
ARC
  5
1F8
  8
0
  6
CONTINUOUS
 62
     7
 10
336.3221002538
 20
189.4884819445
 30
0.0
 40
8.000000000000043
 50
148.4862321611
 51
180.0
  0
ARC
  5
1F9
  8
0
  6
CONTINUOUS
 62
     7
 10
346.5522752907
 20
183.2160407359
 30
0.0
 40
19.99999999999994
 50
102.5040575207
 51
109.6643105065
  0
ARC
  5
1FA
  8
0
  6
CONTINUOUS
 62
     7
 10
346.5522752907
 20
183.2160407359
 30
0.0
 40
19.99999999999997
 50
127.337488847
 51
148.4862321611
  0
LINE
  5
1FB
  8
0
  6
CONTINUOUS
 62
     7
 10
342.2221001912
 20
202.7416539907
 30
0.0
 11
342.2221001912
 21
202.9444409132
 31
0.0
  0
LINE
  5
1FC
  8
0
  6
CONTINUOUS
 62
     7
 10
403.4221023996
 20
202.9444409132
 30
0.0
 11
403.4221023996
 21
201.6932857752
 31
0.0
  0
LINE
  5
1FD
  8
0
  6
CONTINUOUS
 62
     7
 10
342.2221001912
 20
203.9365125418
 30
0.0
 11
342.2789194364
 21
203.9365125418
 31
0.0
  0
LINE
  5
1FE
  8
0
  6
CONTINUOUS
 62
     7
 10
342.2789194364
 20
203.9365125418
 30
0.0
 11
342.2875706781
 21
203.938402009
 31
0.0
  0
LINE
  5
1FF
  8
0
  6
CONTINUOUS
 62
     7
 10
403.4221023996
 20
203.9444399595
 30
0.0
 11
403.4221023996
 21
202.9444409132
 31
0.0
  0
LINE
  5
200
  8
0
  6
CONTINUOUS
 62
     7
 10
342.2221001912
 20
202.9444409132
 30
0.0
 11
342.2221001912
 21
203.9365125418
 31
0.0
  0
LINE
  5
201
  8
0
  6
CONTINUOUS
 62
     7
 10
342.3221003939
 20
187.2416568518
 30
0.0
 11
342.3221003939
 21
180.6416524172
 31
0.0
  0
ARC
  5
202
  8
0
  6
CONTINUOUS
 62
     7
 10
341.9221002538
 20
187.2416542768
 30
0.0
 40
0.4000000000000341
 50
0.0
 51
90.0
  0
LINE
  5
203
  8
0
  6
CONTINUOUS
 62
     7
 10
332.3221002448
 20
187.6416517019
 30
0.0
 11
332.9221003432
 21
187.6416517019
 31
0.0
  0
LINE
  5
204
  8
0
  6
CONTINUOUS
 62
     7
 10
340.9221001644
 20
187.6416517019
 30
0.0
 11
341.9221003283
 21
187.6416517019
 31
0.0
  0
ARC
  5
205
  8
0
  6
CONTINUOUS
 62
     7
 10
332.3221002538
 20
187.2416542768
 30
0.0
 40
0.4000000000000341
 50
90.0
 51
180.0
  0
LINE
  5
206
  8
0
  6
CONTINUOUS
 62
     7
 10
331.9221001793
 20
186.6416526556
 30
0.0
 11
331.9221001793
 21
187.2416568518
 31
0.0
  0
LINE
  5
207
  8
0
  6
CONTINUOUS
 62
     7
 10
331.1221004207
 20
180.6416524172
 30
0.0
 11
331.1221004207
 21
187.2416568518
 31
0.0
  0
ARC
  5
208
  8
0
  6
CONTINUOUS
 62
     7
 10
332.3221002538
 20
187.2416542768
 30
0.0
 40
1.200000000000045
 50
90.0
 51
180.0
  0
ARC
  5
209
  8
0
  6
CONTINUOUS
 62
     7
 10
341.9221002538
 20
187.2416542768
 30
0.0
 40
1.200000000000017
 50
0.0
 51
90.0
  0
LINE
  5
20A
  8
0
  6
CONTINUOUS
 62
     7
 10
343.1221001525
 20
187.2416568518
 30
0.0
 11
343.1221001525
 21
180.6416524172
 31
0.0
  0
LINE
  5
20B
  8
0
  6
CONTINUOUS
 62
     7
 10
332.3221002448
 20
188.4416533232
 30
0.0
 11
341.9221003283
 21
188.4416533232
 31
0.0
  0
LINE
  5
20C
  8
0
  6
CONTINUOUS
 62
     7
 10
331.9221001793
 20
178.6416543245
 30
0.0
 11
331.1221004207
 21
178.6416543245
 31
0.0
  0
LINE
  5
20D
  8
0
  6
CONTINUOUS
 62
     7
 10
331.1221004207
 20
178.6416543245
 30
0.0
 11
331.1221004207
 21
180.6416524172
 31
0.0
  0
LINE
  5
20E
  8
0
  6
CONTINUOUS
 62
     7
 10
343.1221001525
 20
178.6416543245
 30
0.0
 11
342.3221003939
 21
178.6416543245
 31
0.0
  0
LINE
  5
20F
  8
0
  6
CONTINUOUS
 62
     7
 10
343.1221001525
 20
180.6416524172
 30
0.0
 11
343.1221001525
 21
178.6416543245
 31
0.0
  0
LINE
  5
210
  8
0
  6
CONTINUOUS
 62
     7
 10
342.3221003939
 20
178.6416543245
 30
0.0
 11
342.3221003939
 21
180.6416524172
 31
0.0
  0
LINE
  5
211
  8
0
  6
CONTINUOUS
 62
     7
 10
340.9221001644
 20
177.6416552782
 30
0.0
 11
332.9221003432
 21
177.6416552782
 31
0.0
  0
ARC
  5
212
  8
0
  6
CONTINUOUS
 62
     7
 10
332.9221002538
 20
186.6416542768
 30
0.0
 40
1.0
 50
90.0
 51
180.0
  0
LINE
  5
213
  8
0
  6
CONTINUOUS
 62
     7
 10
331.9221001793
 20
178.6416543245
 30
0.0
 11
331.9221001793
 21
186.6416526556
 31
0.0
  0
ARC
  5
214
  8
0
  6
CONTINUOUS
 62
     7
 10
332.9221002538
 20
178.6416542768
 30
0.0
 40
1.0
 50
180.0
 51
270.0
  0
LINE
  5
215
  8
0
  6
CONTINUOUS
 62
     7
 10
332.9221003432
 20
187.6416517019
 30
0.0
 11
340.9221001644
 21
187.6416517019
 31
0.0
  0
ARC
  5
216
  8
0
  6
CONTINUOUS
 62
     7
 10
340.9221002538
 20
178.6416542768
 30
0.0
 40
1.0
 50
270.0
 51
0.0
  0
LINE
  5
217
  8
0
  6
CONTINUOUS
 62
     7
 10
341.9221003283
 20
186.6416526556
 30
0.0
 11
341.9221003283
 21
178.6416543245
 31
0.0
  0
ARC
  5
218
  8
0
  6
CONTINUOUS
 62
     7
 10
340.9221002538
 20
186.6416542768
 30
0.0
 40
1.0
 50
0.0
 51
90.0
  0
LINE
  5
219
  8
0
  6
CONTINUOUS
 62
     7
 10
324.922100522
 20
112.4416542768
 30
0.0
 11
324.922100522
 21
113.6416542873
 31
0.0
  0
LINE
  5
21A
  8
0
  6
CONTINUOUS
 62
     7
 10
328.9221004326
 20
112.4416542768
 30
0.0
 11
324.922100522
 21
112.4416542768
 31
0.0
  0
LINE
  5
21B
  8
0
  6
CONTINUOUS
 62
     7
 10
324.922100522
 20
113.6416542873
 30
0.0
 11
328.9221004326
 21
113.6416542873
 31
0.0
  0
LINE
  5
21C
  8
0
  6
CONTINUOUS
 62
     7
 10
328.9221004326
 20
112.4416542768
 30
0.0
 11
330.9221003879
 21
112.4416542768
 31
0.0
  0
LINE
  5
21D
  8
0
  6
CONTINUOUS
 62
     7
 10
328.9221004326
 20
113.6416542873
 30
0.0
 11
330.9221003879
 21
113.6416542873
 31
0.0
  0
LINE
  5
21E
  8
0
  6
CONTINUOUS
 62
     7
 10
330.9221003879
 20
112.4416542768
 30
0.0
 11
358.290521868
 21
112.4416542768
 31
0.0
  0
LINE
  5
21F
  8
0
  6
CONTINUOUS
 62
     7
 10
358.290521868
 20
113.6416542873
 30
0.0
 11
330.9221003879
 21
113.6416542873
 31
0.0
  0
LINE
  5
220
  8
0
  6
CONTINUOUS
 62
     7
 10
360.9220997173
 20
113.6416542873
 30
0.0
 11
360.9220997173
 21
112.4416542768
 31
0.0
  0
LINE
  5
221
  8
0
  6
CONTINUOUS
 62
     7
 10
360.9220997173
 20
112.4416542768
 30
0.0
 11
358.290521868
 21
112.4416542768
 31
0.0
  0
LINE
  5
222
  8
0
  6
CONTINUOUS
 62
     7
 10
358.290521868
 20
113.6416542873
 30
0.0
 11
360.9220997173
 21
113.6416542873
 31
0.0
  0
LINE
  5
223
  8
0
  6
CONTINUOUS
 62
     7
 10
331.9221001793
 20
113.6416542873
 30
0.0
 11
331.9221001793
 21
177.8416527033
 31
0.0
  0
LINE
  5
224
  8
0
  6
CONTINUOUS
 62
     7
 10
341.9221003283
 20
177.8416527033
 30
0.0
 11
341.9221003283
 21
113.6416542873
 31
0.0
  0
LINE
  5
225
  8
0
  6
CONTINUOUS
 62
     7
 10
157.6858154014
 20
50.56628409
 30
0.0
 11
158.2924699858
 21
49.5127023307
 31
0.0
  0
LINE
  5
226
  8
0
  6
CONTINUOUS
 62
     7
 10
227.862322934
 20
49.5127496419
 30
0.0
 11
228.4689730481
 21
50.5663213429
 31
0.0
  0
LINE
  5
227
  8
0
  6
CONTINUOUS
 62
     7
 10
37.6858180836
 20
50.56628409
 30
0.0
 11
38.2924681977
 21
49.5127023307
 31
0.0
  0
LINE
  5
228
  8
0
  6
CONTINUOUS
 62
     7
 10
107.8623211459
 20
49.5127496419
 30
0.0
 11
108.46897126
 21
50.5663213429
 31
0.0
  0
ARC
  5
229
  8
0
  6
CONTINUOUS
 62
     7
 10
103.5040629131
 20
-26.0557924268
 30
0.0
 40
8.129960244974924
 50
287.2568980878
 51
289.6914725677
  0
ARC
  5
22A
  8
0
  6
CONTINUOUS
 62
     7
 10
42.7606762481
 20
-25.6886264619
 30
0.0
 40
8.513091866192163
 50
250.4729318557
 51
252.737418923
  0
ARC
  5
22B
  8
0
  6
CONTINUOUS
 62
     7
 10
223.504049495
 20
-26.0556812447
 30
0.0
 40
8.130070049071346
 50
287.2567479278
 51
289.6913094466
  0
ARC
  5
22C
  8
0
  6
CONTINUOUS
 62
     7
 10
162.7599566792
 20
-25.6908664899
 30
0.0
 40
8.510739561470375
 50
250.4724682313
 51
252.7375622255
  0
LINE
  5
22D
  8
0
  6
CONTINUOUS
 62
     7
 10
130.3773656935
 20
43.2714083574
 30
0.0
 11
130.3773656935
 21
28.2714088557
 31
0.0
  0
LINE
  5
22E
  8
0
  6
CONTINUOUS
 62
     7
 10
135.7773658336
 20
28.2714088557
 30
0.0
 11
135.7773658336
 21
43.2714083574
 31
0.0
  0
LINE
  5
22F
  8
0
  6
CONTINUOUS
 62
     7
 10
135.7773658336
 20
8.2714085576
 30
0.0
 11
135.7773658336
 21
28.2714088557
 31
0.0
  0
LINE
  5
230
  8
0
  6
CONTINUOUS
 62
     7
 10
130.3773656935
 20
28.2714088557
 30
0.0
 11
130.3773656935
 21
8.2714085576
 31
0.0
  0
LINE
  5
231
  8
0
  6
CONTINUOUS
 62
     7
 10
130.3773656935
 20
8.2714085576
 30
0.0
 11
130.3773656935
 21
-6.7285890582
 31
0.0
  0
LINE
  5
232
  8
0
  6
CONTINUOUS
 62
     7
 10
135.7773658336
 20
-6.7285890582
 30
0.0
 11
135.7773658336
 21
8.2714085576
 31
0.0
  0
LINE
  5
233
  8
0
  6
CONTINUOUS
 62
     7
 10
250.3773635701
 20
43.2714083574
 30
0.0
 11
250.3773635701
 21
28.2714088557
 31
0.0
  0
LINE
  5
234
  8
0
  6
CONTINUOUS
 62
     7
 10
255.7773655728
 20
28.2714088557
 30
0.0
 11
255.7773655728
 21
43.2714083574
 31
0.0
  0
LINE
  5
235
  8
0
  6
CONTINUOUS
 62
     7
 10
255.7773655728
 20
8.2714085576
 30
0.0
 11
255.7773655728
 21
28.2714088557
 31
0.0
  0
LINE
  5
236
  8
0
  6
CONTINUOUS
 62
     7
 10
250.3773635701
 20
28.2714088557
 30
0.0
 11
250.3773635701
 21
8.2714085576
 31
0.0
  0
LINE
  5
237
  8
0
  6
CONTINUOUS
 62
     7
 10
250.3773635701
 20
8.2714085576
 30
0.0
 11
250.3773635701
 21
-6.7285890582
 31
0.0
  0
LINE
  5
238
  8
0
  6
CONTINUOUS
 62
     7
 10
255.7773655728
 20
-6.7285890582
 30
0.0
 11
255.7773655728
 21
8.2714085576
 31
0.0
  0
LINE
  5
239
  8
0
  6
CONTINUOUS
 62
     7
 10
10.3773659543
 20
43.2714083574
 30
0.0
 11
10.3773659543
 21
28.2714088557
 31
0.0
  0
LINE
  5
23A
  8
0
  6
CONTINUOUS
 62
     7
 10
15.777367957
 20
28.2714088557
 30
0.0
 11
15.777367957
 21
43.2714083574
 31
0.0
  0
LINE
  5
23B
  8
0
  6
CONTINUOUS
 62
     7
 10
15.777367957
 20
8.2714085576
 30
0.0
 11
15.777367957
 21
28.2714088557
 31
0.0
  0
LINE
  5
23C
  8
0
  6
CONTINUOUS
 62
     7
 10
10.3773659543
 20
28.2714088557
 30
0.0
 11
10.3773659543
 21
8.2714085576
 31
0.0
  0
LINE
  5
23D
  8
0
  6
CONTINUOUS
 62
     7
 10
10.3773659543
 20
8.2714085576
 30
0.0
 11
10.3773659543
 21
-6.7285890582
 31
0.0
  0
LINE
  5
23E
  8
0
  6
CONTINUOUS
 62
     7
 10
15.777367957
 20
-6.7285890582
 30
0.0
 11
15.777367957
 21
8.2714085576
 31
0.0
  0
POLYLINE
  5
23F
  8
0
  6
CONTINUOUS
 62
     7
 66
     1
 10
0.0
 20
0.0
 30
0.0
  0
VERTEX
  5
763
  8
0
  6
CONTINUOUS
 62
     7
 10
228.102690585
 20
49.9508773086
 30
0.0
  0
VERTEX
  5
764
  8
0
  6
CONTINUOUS
 62
     7
 10
228.1300968007
 20
50.2554376719
 30
0.0
  0
VERTEX
  5
765
  8
0
  6
CONTINUOUS
 62
     7
 10
227.9682582692
 20
50.675053626
 30
0.0
  0
VERTEX
  5
766
  8
0
  6
CONTINUOUS
 62
     7
 10
227.6161199883
 20
51.1941825149
 30
0.0
  0
VERTEX
  5
767
  8
0
  6
CONTINUOUS
 62
     7
 10
227.0814126805
 20
51.7885592875
 30
0.0
  0
VERTEX
  5
768
  8
0
  6
CONTINUOUS
 62
     7
 10
226.3710743264
 20
52.434161782
 30
0.0
  0
VERTEX
  5
769
  8
0
  6
CONTINUOUS
 62
     7
 10
225.5038744286
 20
53.1038467882
 30
0.0
  0
VERTEX
  5
76A
  8
0
  6
CONTINUOUS
 62
     7
 10
224.5029634312
 20
53.7696038482
 30
0.0
  0
VERTEX
  5
76B
  8
0
  6
CONTINUOUS
 62
     7
 10
223.3939296082
 20
54.4108797905
 30
0.0
  0
VERTEX
  5
76C
  8
0
  6
CONTINUOUS
 62
     7
 10
222.3655408696
 20
54.9311903415
 30
0.0
  0
VERTEX
  5
76D
  8
0
  6
CONTINUOUS
 62
     7
 10
221.3000303582
 20
55.4059078095
 30
0.0
  0
SEQEND
  5
8A2
  8
0
  6
CONTINUOUS
 62
     7
  0
ARC
  5
240
  8
0
  6
CONTINUOUS
 62
     7
 10
223.6057933979
 20
52.1799902746
 30
0.0
 40
5.019066539358612
 50
308.9515864466
 51
333.6323745761
  0
POLYLINE
  5
241
  8
0
  6
CONTINUOUS
 62
     7
 66
     1
 10
0.0
 20
0.0
 30
0.0
  0
VERTEX
  5
76E
  8
0
  6
CONTINUOUS
 62
     7
 10
218.6372822598
 20
51.0966886876
 30
0.0
  0
VERTEX
  5
76F
  8
0
  6
CONTINUOUS
 62
     7
 10
220.038593419
 20
50.5518873331
 30
0.0
  0
VERTEX
  5
770
  8
0
  6
CONTINUOUS
 62
     7
 10
221.3879591302
 20
50.0211675761
 30
0.0
  0
VERTEX
  5
771
  8
0
  6
CONTINUOUS
 62
     7
 10
222.6476913766
 20
49.5238558498
 30
0.0
  0
VERTEX
  5
772
  8
0
  6
CONTINUOUS
 62
     7
 10
223.7854725198
 20
49.0803674904
 30
0.0
  0
VERTEX
  5
773
  8
0
  6
CONTINUOUS
 62
     7
 10
224.7667378262
 20
48.7131194321
 30
0.0
  0
VERTEX
  5
774
  8
0
  6
CONTINUOUS
 62
     7
 10
225.5745834187
 20
48.4379508642
 30
0.0
  0
VERTEX
  5
775
  8
0
  6
CONTINUOUS
 62
     7
 10
226.1889582948
 20
48.2721095083
 30
0.0
  0
VERTEX
  5
776
  8
0
  6
CONTINUOUS
 62
     7
 10
226.5972203091
 20
48.2266732601
 30
0.0
  0
VERTEX
  5
777
  8
0
  6
CONTINUOUS
 62
     7
 10
226.7610973195
 20
48.2767750618
 30
0.0
  0
SEQEND
  5
8A1
  8
0
  6
CONTINUOUS
 62
     7
  0
ARC
  5
242
  8
0
  6
CONTINUOUS
 62
     7
 10
193.0773651675
 20
-15.1959836118
 30
0.0
 40
71.04947404698471
 50
68.915269925
 51
111.084730075
  0
POLYLINE
  5
243
  8
0
  6
CONTINUOUS
 62
     7
 66
     1
 10
0.0
 20
0.0
 30
0.0
  0
VERTEX
  5
778
  8
0
  6
CONTINUOUS
 62
     7
 10
159.3936330155
 20
48.2767750618
 30
0.0
  0
VERTEX
  5
779
  8
0
  6
CONTINUOUS
 62
     7
 10
159.6417433099
 20
48.2266948668
 30
0.0
  0
VERTEX
  5
77A
  8
0
  6
CONTINUOUS
 62
     7
 10
160.1034230069
 20
48.3031001983
 30
0.0
  0
VERTEX
  5
77B
  8
0
  6
CONTINUOUS
 62
     7
 10
160.7717520074
 20
48.4996051637
 30
0.0
  0
VERTEX
  5
77C
  8
0
  6
CONTINUOUS
 62
     7
 10
161.6291648225
 20
48.8010541645
 30
0.0
  0
VERTEX
  5
77D
  8
0
  6
CONTINUOUS
 62
     7
 10
162.6573807076
 20
49.1915856597
 30
0.0
  0
VERTEX
  5
77E
  8
0
  6
CONTINUOUS
 62
     7
 10
163.8291603402
 20
49.6508562115
 30
0.0
  0
VERTEX
  5
77F
  8
0
  6
CONTINUOUS
 62
     7
 10
165.1123470143
 20
50.1574163434
 30
0.0
  0
VERTEX
  5
780
  8
0
  6
CONTINUOUS
 62
     7
 10
166.4743250684
 20
50.6919992266
 30
0.0
  0
VERTEX
  5
781
  8
0
  6
CONTINUOUS
 62
     7
 10
167.5174480752
 20
51.0966886876
 30
0.0
  0
SEQEND
  5
8A0
  8
0
  6
CONTINUOUS
 62
     7
  0
ARC
  5
244
  8
0
  6
CONTINUOUS
 62
     7
 10
162.5485977179
 20
52.1795816592
 30
0.0
 40
5.018535513636198
 50
206.3639998462
 51
231.048492575
  0
POLYLINE
  5
245
  8
0
  6
CONTINUOUS
 62
     7
 66
     1
 10
0.0
 20
0.0
 30
0.0
  0
VERTEX
  5
782
  8
0
  6
CONTINUOUS
 62
     7
 10
164.8547476605
 20
55.4059286711
 30
0.0
  0
VERTEX
  5
783
  8
0
  6
CONTINUOUS
 62
     7
 10
163.6273747758
 20
54.8533608315
 30
0.0
  0
VERTEX
  5
784
  8
0
  6
CONTINUOUS
 62
     7
 10
162.453911312
 20
54.2424243984
 30
0.0
  0
VERTEX
  5
785
  8
0
  6
CONTINUOUS
 62
     7
 10
161.3681590632
 20
53.590316802
 30
0.0
  0
VERTEX
  5
786
  8
0
  6
CONTINUOUS
 62
     7
 10
160.3988355473
 20
52.9197034535
 30
0.0
  0
VERTEX
  5
787
  8
0
  6
CONTINUOUS
 62
     7
 10
159.577158697
 20
52.2577327785
 30
0.0
  0
VERTEX
  5
788
  8
0
  6
CONTINUOUS
 62
     7
 10
158.9153534249
 20
51.6264659462
 30
0.0
  0
VERTEX
  5
789
  8
0
  6
CONTINUOUS
 62
     7
 10
158.4290689305
 20
51.0509085951
 30
0.0
  0
VERTEX
  5
78A
  8
0
  6
CONTINUOUS
 62
     7
 10
158.126327999
 20
50.5564485786
 30
0.0
  0
VERTEX
  5
78B
  8
0
  6
CONTINUOUS
 62
     7
 10
158.0173006729
 20
50.2092664239
 30
0.0
  0
VERTEX
  5
78C
  8
0
  6
CONTINUOUS
 62
     7
 10
158.0520352796
 20
49.9509890673
 30
0.0
  0
SEQEND
  5
89F
  8
0
  6
CONTINUOUS
 62
     7
  0
ARC
  5
246
  8
0
  6
CONTINUOUS
 62
     7
 10
193.0773639402
 20
-12.423610853
 30
0.0
 40
73.4667441889476
 50
67.4086667073
 51
112.5912909408
  0
POLYLINE
  5
247
  8
0
  6
CONTINUOUS
 62
     7
 66
     1
 10
0.0
 20
0.0
 30
0.0
  0
VERTEX
  5
78D
  8
0
  6
CONTINUOUS
 62
     7
 10
157.4647879676
 20
50.9583559928
 30
0.0
  0
VERTEX
  5
78E
  8
0
  6
CONTINUOUS
 62
     7
 10
157.4347531871
 20
51.2609367368
 30
0.0
  0
VERTEX
  5
78F
  8
0
  6
CONTINUOUS
 62
     7
 10
157.5938707665
 20
51.6788919566
 30
0.0
  0
VERTEX
  5
790
  8
0
  6
CONTINUOUS
 62
     7
 10
157.9432553128
 20
52.1967616973
 30
0.0
  0
VERTEX
  5
791
  8
0
  6
CONTINUOUS
 62
     7
 10
158.4752237872
 20
52.7903673348
 30
0.0
  0
VERTEX
  5
792
  8
0
  6
CONTINUOUS
 62
     7
 10
159.1829156951
 20
53.4358163473
 30
0.0
  0
VERTEX
  5
793
  8
0
  6
CONTINUOUS
 62
     7
 10
160.0475853757
 20
54.106008738
 30
0.0
  0
VERTEX
  5
794
  8
0
  6
CONTINUOUS
 62
     7
 10
161.0463506058
 20
54.7731165883
 30
0.0
  0
VERTEX
  5
795
  8
0
  6
CONTINUOUS
 62
     7
 10
162.1535366849
 20
55.416449636
 30
0.0
  0
VERTEX
  5
796
  8
0
  6
CONTINUOUS
 62
     7
 10
163.1805306748
 20
55.9390601811
 30
0.0
  0
VERTEX
  5
797
  8
0
  6
CONTINUOUS
 62
     7
 10
164.2449265794
 20
56.4165164826
 30
0.0
  0
SEQEND
  5
89E
  8
0
  6
CONTINUOUS
 62
     7
  0
POLYLINE
  5
248
  8
0
  6
CONTINUOUS
 62
     7
 66
     1
 10
0.0
 20
0.0
 30
0.0
  0
VERTEX
  5
798
  8
0
  6
CONTINUOUS
 62
     7
 10
221.9098514394
 20
56.4164971111
 30
0.0
  0
VERTEX
  5
799
  8
0
  6
CONTINUOUS
 62
     7
 10
223.1357520894
 20
55.8608834741
 30
0.0
  0
VERTEX
  5
79A
  8
0
  6
CONTINUOUS
 62
     7
 10
224.3073886708
 20
55.2475107012
 30
0.0
  0
VERTEX
  5
79B
  8
0
  6
CONTINUOUS
 62
     7
 10
225.3909951524
 20
54.5936723349
 30
0.0
  0
VERTEX
  5
79C
  8
0
  6
CONTINUOUS
 62
     7
 10
226.357967265
 20
53.9220300612
 30
0.0
  0
VERTEX
  5
79D
  8
0
  6
CONTINUOUS
 62
     7
 10
227.177316554
 20
53.2595706282
 30
0.0
  0
VERTEX
  5
79E
  8
0
  6
CONTINUOUS
 62
     7
 10
227.8366273717
 20
52.6284416315
 30
0.0
  0
VERTEX
  5
79F
  8
0
  6
CONTINUOUS
 62
     7
 10
228.3202773408
 20
52.053610712
 30
0.0
  0
VERTEX
  5
7A0
  8
0
  6
CONTINUOUS
 62
     7
 10
228.6203152016
 20
51.5603897271
 30
0.0
  0
VERTEX
  5
7A1
  8
0
  6
CONTINUOUS
 62
     7
 10
228.7269598321
 20
51.214741647
 30
0.0
  0
VERTEX
  5
7A2
  8
0
  6
CONTINUOUS
 62
     7
 10
228.6899393872
 20
50.9582442341
 30
0.0
  0
SEQEND
  5
89D
  8
0
  6
CONTINUOUS
 62
     7
  0
ARC
  5
249
  8
0
  6
CONTINUOUS
 62
     7
 10
193.0773659024
 20
-12.3681564296
 30
0.0
 40
74.58311326932271
 50
67.2580150351
 51
112.7419464699
  0
POLYLINE
  5
24A
  8
0
  6
CONTINUOUS
 62
     7
 66
     1
 10
0.0
 20
0.0
 30
0.0
  0
VERTEX
  5
7A3
  8
0
  6
CONTINUOUS
 62
     7
 10
108.1026917771
 20
49.9508773086
 30
0.0
  0
VERTEX
  5
7A4
  8
0
  6
CONTINUOUS
 62
     7
 10
108.1300994829
 20
50.2554376719
 30
0.0
  0
VERTEX
  5
7A5
  8
0
  6
CONTINUOUS
 62
     7
 10
107.9682624415
 20
50.675053626
 30
0.0
  0
VERTEX
  5
7A6
  8
0
  6
CONTINUOUS
 62
     7
 10
107.6161241606
 20
51.1941825149
 30
0.0
  0
VERTEX
  5
7A7
  8
0
  6
CONTINUOUS
 62
     7
 10
107.0814138726
 20
51.7885592875
 30
0.0
  0
VERTEX
  5
7A8
  8
0
  6
CONTINUOUS
 62
     7
 10
106.3710725383
 20
52.434161782
 30
0.0
  0
VERTEX
  5
7A9
  8
0
  6
CONTINUOUS
 62
     7
 10
105.5038756207
 20
53.1038467882
 30
0.0
  0
VERTEX
  5
7AA
  8
0
  6
CONTINUOUS
 62
     7
 10
104.5029676036
 20
53.7696038482
 30
0.0
  0
VERTEX
  5
7AB
  8
0
  6
CONTINUOUS
 62
     7
 10
103.3939278201
 20
54.4108797905
 30
0.0
  0
VERTEX
  5
7AC
  8
0
  6
CONTINUOUS
 62
     7
 10
102.3655390815
 20
54.9311903415
 30
0.0
  0
VERTEX
  5
7AD
  8
0
  6
CONTINUOUS
 62
     7
 10
101.3000315503
 20
55.4059078095
 30
0.0
  0
SEQEND
  5
89C
  8
0
  6
CONTINUOUS
 62
     7
  0
ARC
  5
24B
  8
0
  6
CONTINUOUS
 62
     7
 10
103.6056992348
 20
52.1800666905
 30
0.0
 40
5.01918591271078
 50
308.9518845672
 51
333.6320764555
  0
POLYLINE
  5
24C
  8
0
  6
CONTINUOUS
 62
     7
 66
     1
 10
0.0
 20
0.0
 30
0.0
  0
VERTEX
  5
7AE
  8
0
  6
CONTINUOUS
 62
     7
 10
98.6372834519
 20
51.0966886876
 30
0.0
  0
VERTEX
  5
7AF
  8
0
  6
CONTINUOUS
 62
     7
 10
100.0385916308
 20
50.5518873331
 30
0.0
  0
VERTEX
  5
7B0
  8
0
  6
CONTINUOUS
 62
     7
 10
101.3879603223
 20
50.0211675761
 30
0.0
  0
VERTEX
  5
7B1
  8
0
  6
CONTINUOUS
 62
     7
 10
102.6476895884
 20
49.5238558498
 30
0.0
  0
VERTEX
  5
7B2
  8
0
  6
CONTINUOUS
 62
     7
 10
103.7854707316
 20
49.0803674904
 30
0.0
  0
VERTEX
  5
7B3
  8
0
  6
CONTINUOUS
 62
     7
 10
104.7667390183
 20
48.7131194321
 30
0.0
  0
VERTEX
  5
7B4
  8
0
  6
CONTINUOUS
 62
     7
 10
105.5745846108
 20
48.4379508642
 30
0.0
  0
VERTEX
  5
7B5
  8
0
  6
CONTINUOUS
 62
     7
 10
106.1889565066
 20
48.2721095083
 30
0.0
  0
VERTEX
  5
7B6
  8
0
  6
CONTINUOUS
 62
     7
 10
106.5972215012
 20
48.2266732601
 30
0.0
  0
VERTEX
  5
7B7
  8
0
  6
CONTINUOUS
 62
     7
 10
106.7610985116
 20
48.2767750618
 30
0.0
  0
SEQEND
  5
89B
  8
0
  6
CONTINUOUS
 62
     7
  0
ARC
  5
24D
  8
0
  6
CONTINUOUS
 62
     7
 10
73.0773663596
 20
-15.1959836118
 30
0.0
 40
71.04947404698474
 50
68.915269925
 51
111.084730075
  0
POLYLINE
  5
24E
  8
0
  6
CONTINUOUS
 62
     7
 66
     1
 10
0.0
 20
0.0
 30
0.0
  0
VERTEX
  5
7B8
  8
0
  6
CONTINUOUS
 62
     7
 10
39.3936342076
 20
48.2767750618
 30
0.0
  0
VERTEX
  5
7B9
  8
0
  6
CONTINUOUS
 62
     7
 10
39.641744502
 20
48.2266948668
 30
0.0
  0
VERTEX
  5
7BA
  8
0
  6
CONTINUOUS
 62
     7
 10
40.103424199
 20
48.3031001983
 30
0.0
  0
VERTEX
  5
7BB
  8
0
  6
CONTINUOUS
 62
     7
 10
40.7717531995
 20
48.4996051637
 30
0.0
  0
VERTEX
  5
7BC
  8
0
  6
CONTINUOUS
 62
     7
 10
41.6291660146
 20
48.8010541645
 30
0.0
  0
VERTEX
  5
7BD
  8
0
  6
CONTINUOUS
 62
     7
 10
42.6573818997
 20
49.1915856597
 30
0.0
  0
VERTEX
  5
7BE
  8
0
  6
CONTINUOUS
 62
     7
 10
43.8291615323
 20
49.6508562115
 30
0.0
  0
VERTEX
  5
7BF
  8
0
  6
CONTINUOUS
 62
     7
 10
45.1123482064
 20
50.1574163434
 30
0.0
  0
VERTEX
  5
7C0
  8
0
  6
CONTINUOUS
 62
     7
 10
46.4743262604
 20
50.6919992266
 30
0.0
  0
VERTEX
  5
7C1
  8
0
  6
CONTINUOUS
 62
     7
 10
47.5174492673
 20
51.0966886876
 30
0.0
  0
SEQEND
  5
89A
  8
0
  6
CONTINUOUS
 62
     7
  0
ARC
  5
24F
  8
0
  6
CONTINUOUS
 62
     7
 10
42.5485525074
 20
52.1795484775
 30
0.0
 40
5.018480537436058
 50
206.3638881184
 51
231.0486664117
  0
POLYLINE
  5
250
  8
0
  6
CONTINUOUS
 62
     7
 66
     1
 10
0.0
 20
0.0
 30
0.0
  0
VERTEX
  5
7C2
  8
0
  6
CONTINUOUS
 62
     7
 10
44.8547488526
 20
55.4059286711
 30
0.0
  0
VERTEX
  5
7C3
  8
0
  6
CONTINUOUS
 62
     7
 10
43.6273759679
 20
54.8533608315
 30
0.0
  0
VERTEX
  5
7C4
  8
0
  6
CONTINUOUS
 62
     7
 10
42.4539095238
 20
54.2424243984
 30
0.0
  0
VERTEX
  5
7C5
  8
0
  6
CONTINUOUS
 62
     7
 10
41.3681632355
 20
53.590316802
 30
0.0
  0
VERTEX
  5
7C6
  8
0
  6
CONTINUOUS
 62
     7
 10
40.3988367394
 20
52.9197034535
 30
0.0
  0
VERTEX
  5
7C7
  8
0
  6
CONTINUOUS
 62
     7
 10
39.5771569089
 20
52.2577327785
 30
0.0
  0
VERTEX
  5
7C8
  8
0
  6
CONTINUOUS
 62
     7
 10
38.915354617
 20
51.6264659462
 30
0.0
  0
VERTEX
  5
7C9
  8
0
  6
CONTINUOUS
 62
     7
 10
38.4290701226
 20
51.0509085951
 30
0.0
  0
VERTEX
  5
7CA
  8
0
  6
CONTINUOUS
 62
     7
 10
38.1263321713
 20
50.5564485786
 30
0.0
  0
VERTEX
  5
7CB
  8
0
  6
CONTINUOUS
 62
     7
 10
38.0172973946
 20
50.2092664239
 30
0.0
  0
VERTEX
  5
7CC
  8
0
  6
CONTINUOUS
 62
     7
 10
38.0520349816
 20
49.9509890673
 30
0.0
  0
SEQEND
  5
899
  8
0
  6
CONTINUOUS
 62
     7
  0
ARC
  5
251
  8
0
  6
CONTINUOUS
 62
     7
 10
73.0773651323
 20
-12.423610853
 30
0.0
 40
73.466744188948
 50
67.4086667073
 51
112.5912909408
  0
POLYLINE
  5
252
  8
0
  6
CONTINUOUS
 62
     7
 66
     1
 10
0.0
 20
0.0
 30
0.0
  0
VERTEX
  5
7CD
  8
0
  6
CONTINUOUS
 62
     7
 10
37.4647861794
 20
50.9583559928
 30
0.0
  0
VERTEX
  5
7CE
  8
0
  6
CONTINUOUS
 62
     7
 10
37.4347513989
 20
51.2609367368
 30
0.0
  0
VERTEX
  5
7CF
  8
0
  6
CONTINUOUS
 62
     7
 10
37.5938719586
 20
51.6788919566
 30
0.0
  0
VERTEX
  5
7D0
  8
0
  6
CONTINUOUS
 62
     7
 10
37.9432565049
 20
52.1967616973
 30
0.0
  0
VERTEX
  5
7D1
  8
0
  6
CONTINUOUS
 62
     7
 10
38.4752219991
 20
52.7903673348
 30
0.0
  0
VERTEX
  5
7D2
  8
0
  6
CONTINUOUS
 62
     7
 10
39.1829139069
 20
53.4358163473
 30
0.0
  0
VERTEX
  5
7D3
  8
0
  6
CONTINUOUS
 62
     7
 10
40.0475865678
 20
54.106008738
 30
0.0
  0
VERTEX
  5
7D4
  8
0
  6
CONTINUOUS
 62
     7
 10
41.0463517979
 20
54.7731165883
 30
0.0
  0
VERTEX
  5
7D5
  8
0
  6
CONTINUOUS
 62
     7
 10
42.153537877
 20
55.416449636
 30
0.0
  0
VERTEX
  5
7D6
  8
0
  6
CONTINUOUS
 62
     7
 10
43.1805318669
 20
55.9390601811
 30
0.0
  0
VERTEX
  5
7D7
  8
0
  6
CONTINUOUS
 62
     7
 10
44.2449277715
 20
56.4165164826
 30
0.0
  0
SEQEND
  5
898
  8
0
  6
CONTINUOUS
 62
     7
  0
POLYLINE
  5
253
  8
0
  6
CONTINUOUS
 62
     7
 66
     1
 10
0.0
 20
0.0
 30
0.0
  0
VERTEX
  5
7D8
  8
0
  6
CONTINUOUS
 62
     7
 10
101.9098526315
 20
56.4164971111
 30
0.0
  0
VERTEX
  5
7D9
  8
0
  6
CONTINUOUS
 62
     7
 10
103.1357532815
 20
55.8608834741
 30
0.0
  0
VERTEX
  5
7DA
  8
0
  6
CONTINUOUS
 62
     7
 10
104.3073898629
 20
55.2475107012
 30
0.0
  0
VERTEX
  5
7DB
  8
0
  6
CONTINUOUS
 62
     7
 10
105.3909963444
 20
54.5936723349
 30
0.0
  0
VERTEX
  5
7DC
  8
0
  6
CONTINUOUS
 62
     7
 10
106.3579654769
 20
53.9220300612
 30
0.0
  0
VERTEX
  5
7DD
  8
0
  6
CONTINUOUS
 62
     7
 10
107.1773147658
 20
53.2595706282
 30
0.0
  0
VERTEX
  5
7DE
  8
0
  6
CONTINUOUS
 62
     7
 10
107.8366285638
 20
52.6284416315
 30
0.0
  0
VERTEX
  5
7DF
  8
0
  6
CONTINUOUS
 62
     7
 10
108.320280023
 20
52.053610712
 30
0.0
  0
VERTEX
  5
7E0
  8
0
  6
CONTINUOUS
 62
     7
 10
108.6203178839
 20
51.5603897271
 30
0.0
  0
VERTEX
  5
7E1
  8
0
  6
CONTINUOUS
 62
     7
 10
108.7269610242
 20
51.214741647
 30
0.0
  0
VERTEX
  5
7E2
  8
0
  6
CONTINUOUS
 62
     7
 10
108.6899375991
 20
50.9582442341
 30
0.0
  0
SEQEND
  5
897
  8
0
  6
CONTINUOUS
 62
     7
  0
ARC
  5
254
  8
0
  6
CONTINUOUS
 62
     7
 10
73.0773670945
 20
-12.3681564296
 30
0.0
 40
74.58311326932247
 50
67.2580150351
 51
112.7419464699
  0
ARC
  5
255
  8
0
  6
CONTINUOUS
 62
     7
 10
88.6486667223
 20
60.571288453
 30
0.0
 40
1.001322846789083
 50
30.2902315368
 51
90.0802155235
  0
LINE
  5
256
  8
0
  6
CONTINUOUS
 62
     7
 10
57.5074678735
 20
61.5726103184
 30
0.0
 11
63.4977704362
 21
61.5726103184
 31
0.0
  0
LINE
  5
257
  8
0
  6
CONTINUOUS
 62
     7
 10
82.6569563226
 20
61.5726103184
 30
0.0
 11
88.6472648457
 21
61.5726103184
 31
0.0
  0
ARC
  5
258
  8
0
  6
CONTINUOUS
 62
     7
 10
57.5060641482
 20
60.571291679
 30
0.0
 40
1.001319623372132
 50
89.9196784375
 51
149.7098745023
  0
LINE
  5
259
  8
0
  6
CONTINUOUS
 62
     7
 10
56.1585074738
 20
60.246110439
 30
0.0
 11
56.6414421872
 21
61.0763360855
 31
0.0
  0
LINE
  5
25A
  8
0
  6
CONTINUOUS
 62
     7
 10
55.3567475156
 20
60.0588237045
 30
0.0
 11
56.2950319127
 21
61.6718639729
 31
0.0
  0
ARC
  5
25B
  8
0
  6
CONTINUOUS
 62
     7
 10
57.1596575711
 20
61.1668131142
 30
0.0
 40
1.001326070261691
 50
89.9198905166
 51
149.7096624231
  0
LINE
  5
25C
  8
0
  6
CONTINUOUS
 62
     7
 10
57.161057599
 20
62.1681382058
 30
0.0
 11
70.2796107606
 21
62.1681382058
 31
0.0
  0
ARC
  5
25D
  8
0
  6
CONTINUOUS
 62
     7
 10
71.0651244105
 20
62.7669993327
 30
0.0
 40
0.9877582414572555
 50
180.0217730305
 51
217.3212292825
  0
LINE
  5
25E
  8
0
  6
CONTINUOUS
 62
     7
 10
70.0773662404
 20
62.7666239736
 30
0.0
 11
70.0773662404
 21
66.7368088958
 31
0.0
  0
ARC
  5
25F
  8
0
  6
CONTINUOUS
 62
     7
 10
71.073652847
 20
66.7330691627
 30
0.0
 40
0.9962936254518783
 50
89.7865010734
 51
179.7849314505
  0
LINE
  5
260
  8
0
  6
CONTINUOUS
 62
     7
 10
75.0773674325
 20
67.7293558714
 30
0.0
 11
71.0773652867
 21
67.7293558714
 31
0.0
  0
ARC
  5
261
  8
0
  6
CONTINUOUS
 62
     7
 10
75.0810774031
 20
66.7330666751
 30
0.0
 40
0.9962961039020347
 50
0.2152110781
 51
90.213356398
  0
LINE
  5
262
  8
0
  6
CONTINUOUS
 62
     7
 10
76.0773664788
 20
62.7666239736
 30
0.0
 11
76.0773664788
 21
66.7368088958
 31
0.0
  0
ARC
  5
263
  8
0
  6
CONTINUOUS
 62
     7
 10
75.0895610764
 20
62.7670152937
 30
0.0
 40
0.9878054799480579
 50
322.6796954679
 51
359.9773022191
  0
LINE
  5
264
  8
0
  6
CONTINUOUS
 62
     7
 10
75.8751219586
 20
62.1681382058
 30
0.0
 11
88.9936751202
 21
62.1681382058
 31
0.0
  0
ARC
  5
265
  8
0
  6
CONTINUOUS
 62
     7
 10
88.9950769968
 20
61.1668163403
 30
0.0
 40
1.001322846788991
 50
30.2902315368
 51
90.0802155235
  0
LINE
  5
266
  8
0
  6
CONTINUOUS
 62
     7
 10
89.8597008065
 20
61.6718639729
 30
0.0
 11
90.7979852036
 21
60.0588237045
 31
0.0
  0
LINE
  5
267
  8
0
  6
CONTINUOUS
 62
     7
 10
89.513290532
 20
61.0763360855
 30
0.0
 11
89.9962222651
 21
60.246110439
 31
0.0
  0
ARC
  5
268
  8
0
  6
CONTINUOUS
 62
     7
 10
88.6486698239
 20
59.8400759778
 30
0.0
 40
1.001318955186612
 50
30.2902021812
 51
90.080393308
  0
ARC
  5
269
  8
0
  6
CONTINUOUS
 62
     7
 10
57.5060610467
 20
59.8400792039
 30
0.0
 40
1.001315731752493
 50
89.9195006515
 51
149.7099038593
  0
LINE
  5
26A
  8
0
  6
CONTINUOUS
 62
     7
 10
57.5074678735
 20
60.8413939473
 30
0.0
 11
58.9260047749
 21
60.8413939473
 31
0.0
  0
LINE
  5
26B
  8
0
  6
CONTINUOUS
 62
     7
 10
87.228724964
 20
60.8413939473
 30
0.0
 11
88.6472648457
 21
60.8413939473
 31
0.0
  0
LINE
  5
26C
  8
0
  6
CONTINUOUS
 62
     7
 10
70.0773662404
 20
62.1681382058
 30
0.0
 11
70.0773662404
 21
62.7666239736
 31
0.0
  0
LINE
  5
26D
  8
0
  6
CONTINUOUS
 62
     7
 10
76.0773664788
 20
62.7666239736
 30
0.0
 11
76.0773664788
 21
62.1681382058
 31
0.0
  0
LINE
  5
26E
  8
0
  6
CONTINUOUS
 62
     7
 10
76.0773664788
 20
55.7623450754
 30
0.0
 11
76.0773664788
 21
50.5583767888
 31
0.0
  0
LINE
  5
26F
  8
0
  6
CONTINUOUS
 62
     7
 10
70.0773662404
 20
50.5583767888
 30
0.0
 11
70.0773662404
 21
55.7623450754
 31
0.0
  0
ARC
  5
270
  8
0
  6
CONTINUOUS
 62
     7
 10
71.0773657635
 20
50.0714083669
 30
0.0
 40
1.0
 50
180.0
 51
270.0
  0
LINE
  5
271
  8
0
  6
CONTINUOUS
 62
     7
 10
70.0773662404
 20
50.0714083311
 30
0.0
 11
70.0773662404
 21
50.5583767888
 31
0.0
  0
ARC
  5
272
  8
0
  6
CONTINUOUS
 62
     7
 10
75.0773657635
 20
50.0714083669
 30
0.0
 40
1.0
 50
270.0
 51
0.0
  0
LINE
  5
273
  8
0
  6
CONTINUOUS
 62
     7
 10
76.0773664788
 20
50.5583767888
 30
0.0
 11
76.0773664788
 21
50.0714083311
 31
0.0
  0
LINE
  5
274
  8
0
  6
CONTINUOUS
 62
     7
 10
75.0773674325
 20
49.0714085398
 30
0.0
 11
71.0773652867
 21
49.0714085398
 31
0.0
  0
LINE
  5
275
  8
0
  6
CONTINUOUS
 62
     7
 10
91.0773670748
 20
38.871408358
 30
0.0
 11
91.0773670748
 21
48.0714083758
 31
0.0
  0
LINE
  5
276
  8
0
  6
CONTINUOUS
 62
     7
 10
55.0773686246
 20
38.871408358
 30
0.0
 11
55.0773686246
 21
48.0714083758
 31
0.0
  0
LINE
  5
277
  8
0
  6
CONTINUOUS
 62
     7
 10
76.0773664788
 20
50.0714083311
 30
0.0
 11
76.0773664788
 21
48.0714083758
 31
0.0
  0
LINE
  5
278
  8
0
  6
CONTINUOUS
 62
     7
 10
70.0773662404
 20
48.0714083758
 30
0.0
 11
70.0773662404
 21
50.0714083311
 31
0.0
  0
LINE
  5
279
  8
0
  6
CONTINUOUS
 62
     7
 10
55.0773686246
 20
48.0714083758
 30
0.0
 11
55.0773686246
 21
49.0714085398
 31
0.0
  0
LINE
  5
27A
  8
0
  6
CONTINUOUS
 62
     7
 10
55.0773686246
 20
49.0714085398
 30
0.0
 11
70.0773662404
 21
49.0714085398
 31
0.0
  0
LINE
  5
27B
  8
0
  6
CONTINUOUS
 62
     7
 10
76.0773664788
 20
49.0714085398
 30
0.0
 11
91.0773670748
 21
49.0714085398
 31
0.0
  0
LINE
  5
27C
  8
0
  6
CONTINUOUS
 62
     7
 10
91.0773670748
 20
49.0714085398
 30
0.0
 11
91.0773670748
 21
48.0714083758
 31
0.0
  0
LINE
  5
27D
  8
0
  6
CONTINUOUS
 62
     7
 10
91.0773670748
 20
37.8714081941
 30
0.0
 11
87.0511955098
 21
37.8714081941
 31
0.0
  0
LINE
  5
27E
  8
0
  6
CONTINUOUS
 62
     7
 10
59.1044432
 20
37.8714081941
 30
0.0
 11
55.0773686246
 21
37.8714081941
 31
0.0
  0
LINE
  5
27F
  8
0
  6
CONTINUOUS
 62
     7
 10
91.0773670748
 20
38.871408358
 30
0.0
 11
91.0773670748
 21
37.8714081941
 31
0.0
  0
LINE
  5
280
  8
0
  6
CONTINUOUS
 62
     7
 10
55.0773686246
 20
37.8714081941
 30
0.0
 11
55.0773686246
 21
38.871408358
 31
0.0
  0
ARC
  5
281
  8
0
  6
CONTINUOUS
 62
     7
 10
208.6486673789
 20
60.571291679
 30
0.0
 40
1.001319623372145
 50
30.2901254977
 51
90.0803215625
  0
LINE
  5
282
  8
0
  6
CONTINUOUS
 62
     7
 10
177.5074666814
 20
61.5726103184
 30
0.0
 11
183.4977752045
 21
61.5726103184
 31
0.0
  0
LINE
  5
283
  8
0
  6
CONTINUOUS
 62
     7
 10
202.6569610909
 20
61.5726103184
 30
0.0
 11
208.6472636536
 21
61.5726103184
 31
0.0
  0
ARC
  5
284
  8
0
  6
CONTINUOUS
 62
     7
 10
177.5060648048
 20
60.571288453
 30
0.0
 40
1.001322846789025
 50
89.9197844765
 51
149.7097684632
  0
LINE
  5
285
  8
0
  6
CONTINUOUS
 62
     7
 10
176.158509262
 20
60.246110439
 30
0.0
 11
176.6414409951
 21
61.0763360855
 31
0.0
  0
LINE
  5
286
  8
0
  6
CONTINUOUS
 62
     7
 10
175.3567463235
 20
60.0588237045
 30
0.0
 11
176.2950307206
 21
61.6718639729
 31
0.0
  0
ARC
  5
287
  8
0
  6
CONTINUOUS
 62
     7
 10
177.1596545303
 20
61.1668163403
 30
0.0
 40
1.001322846788979
 50
89.9197844765
 51
149.7097684632
  0
LINE
  5
288
  8
0
  6
CONTINUOUS
 62
     7
 10
177.1610564069
 20
62.1681382058
 30
0.0
 11
190.2796095685
 21
62.1681382058
 31
0.0
  0
ARC
  5
289
  8
0
  6
CONTINUOUS
 62
     7
 10
191.0651704507
 20
62.7670152937
 30
0.0
 40
0.9878054799479656
 50
180.0226977809
 51
217.3203045321
  0
LINE
  5
28A
  8
0
  6
CONTINUOUS
 62
     7
 10
190.0773650483
 20
62.7666239736
 30
0.0
 11
190.0773650483
 21
66.7368088958
 31
0.0
  0
ARC
  5
28B
  8
0
  6
CONTINUOUS
 62
     7
 10
191.073654124
 20
66.7330666751
 30
0.0
 40
0.996296103902056
 50
89.786643602
 51
179.7847889219
  0
LINE
  5
28C
  8
0
  6
CONTINUOUS
 62
     7
 10
195.0773662404
 20
67.7293558714
 30
0.0
 11
191.0773640946
 21
67.7293558714
 31
0.0
  0
ARC
  5
28D
  8
0
  6
CONTINUOUS
 62
     7
 10
195.0810786801
 20
66.7330691627
 30
0.0
 40
0.9962936254518924
 50
0.2150685495
 51
90.2134989266
  0
LINE
  5
28E
  8
0
  6
CONTINUOUS
 62
     7
 10
196.0773652867
 20
62.7666239736
 30
0.0
 11
196.0773652867
 21
66.7368088958
 31
0.0
  0
ARC
  5
28F
  8
0
  6
CONTINUOUS
 62
     7
 10
195.0896071166
 20
62.7669993327
 30
0.0
 40
0.9877582414573288
 50
322.6787707175
 51
359.9782269695
  0
LINE
  5
290
  8
0
  6
CONTINUOUS
 62
     7
 10
195.8751207665
 20
62.1681382058
 30
0.0
 11
208.9936739281
 21
62.1681382058
 31
0.0
  0
ARC
  5
291
  8
0
  6
CONTINUOUS
 62
     7
 10
208.995073956
 20
61.1668131142
 30
0.0
 40
1.00132607026173
 50
30.2903375769
 51
90.0801094834
  0
LINE
  5
292
  8
0
  6
CONTINUOUS
 62
     7
 10
209.8596996144
 20
61.6718639729
 30
0.0
 11
210.7979840115
 21
60.0588237045
 31
0.0
  0
LINE
  5
293
  8
0
  6
CONTINUOUS
 62
     7
 10
209.5132893399
 20
61.0763360855
 30
0.0
 11
209.9962240533
 21
60.246110439
 31
0.0
  0
ARC
  5
294
  8
0
  6
CONTINUOUS
 62
     7
 10
208.6486704804
 20
59.8400792039
 30
0.0
 40
1.00131573175252
 50
30.2900961407
 51
90.0804993485
  0
ARC
  5
295
  8
0
  6
CONTINUOUS
 62
     7
 10
177.5060617032
 20
59.8400759778
 30
0.0
 40
1.001318955186562
 50
89.919606692
 51
149.7097978188
  0
LINE
  5
296
  8
0
  6
CONTINUOUS
 62
     7
 10
177.5074666814
 20
60.8413939473
 30
0.0
 11
178.9260065631
 21
60.8413939473
 31
0.0
  0
LINE
  5
297
  8
0
  6
CONTINUOUS
 62
     7
 10
207.2287267522
 20
60.8413939473
 30
0.0
 11
208.6472636536
 21
60.8413939473
 31
0.0
  0
LINE
  5
298
  8
0
  6
CONTINUOUS
 62
     7
 10
196.0773652867
 20
62.7666239736
 30
0.0
 11
196.0773652867
 21
62.1681382058
 31
0.0
  0
LINE
  5
299
  8
0
  6
CONTINUOUS
 62
     7
 10
190.0773650483
 20
62.1681382058
 30
0.0
 11
190.0773650483
 21
62.7666239736
 31
0.0
  0
LINE
  5
29A
  8
0
  6
CONTINUOUS
 62
     7
 10
196.0773652867
 20
55.7623450754
 30
0.0
 11
196.0773652867
 21
50.5583767888
 31
0.0
  0
LINE
  5
29B
  8
0
  6
CONTINUOUS
 62
     7
 10
190.0773650483
 20
50.5583767888
 30
0.0
 11
190.0773650483
 21
55.7623450754
 31
0.0
  0
ARC
  5
29C
  8
0
  6
CONTINUOUS
 62
     7
 10
191.0773657635
 20
50.0714083669
 30
0.0
 40
1.0
 50
180.0
 51
270.0
  0
LINE
  5
29D
  8
0
  6
CONTINUOUS
 62
     7
 10
190.0773650483
 20
50.0714083311
 30
0.0
 11
190.0773650483
 21
50.5583767888
 31
0.0
  0
LINE
  5
29E
  8
0
  6
CONTINUOUS
 62
     7
 10
195.0773662404
 20
49.0714085398
 30
0.0
 11
191.0773640946
 21
49.0714085398
 31
0.0
  0
ARC
  5
29F
  8
0
  6
CONTINUOUS
 62
     7
 10
195.0773657635
 20
50.0714083669
 30
0.0
 40
1.0
 50
270.0
 51
0.0
  0
LINE
  5
2A0
  8
0
  6
CONTINUOUS
 62
     7
 10
196.0773652867
 20
50.5583767888
 30
0.0
 11
196.0773652867
 21
50.0714083311
 31
0.0
  0
LINE
  5
2A1
  8
0
  6
CONTINUOUS
 62
     7
 10
211.0773629025
 20
38.871408358
 30
0.0
 11
211.0773629025
 21
48.0714083758
 31
0.0
  0
LINE
  5
2A2
  8
0
  6
CONTINUOUS
 62
     7
 10
175.0773644522
 20
38.871408358
 30
0.0
 11
175.0773644522
 21
48.0714083758
 31
0.0
  0
LINE
  5
2A3
  8
0
  6
CONTINUOUS
 62
     7
 10
196.0773652867
 20
50.0714083311
 30
0.0
 11
196.0773652867
 21
48.0714083758
 31
0.0
  0
LINE
  5
2A4
  8
0
  6
CONTINUOUS
 62
     7
 10
190.0773650483
 20
48.0714083758
 30
0.0
 11
190.0773650483
 21
50.0714083311
 31
0.0
  0
LINE
  5
2A5
  8
0
  6
CONTINUOUS
 62
     7
 10
175.0773644522
 20
49.0714085398
 30
0.0
 11
190.0773650483
 21
49.0714085398
 31
0.0
  0
LINE
  5
2A6
  8
0
  6
CONTINUOUS
 62
     7
 10
175.0773644522
 20
48.0714083758
 30
0.0
 11
175.0773644522
 21
49.0714085398
 31
0.0
  0
LINE
  5
2A7
  8
0
  6
CONTINUOUS
 62
     7
 10
196.0773652867
 20
49.0714085398
 30
0.0
 11
211.0773629025
 21
49.0714085398
 31
0.0
  0
LINE
  5
2A8
  8
0
  6
CONTINUOUS
 62
     7
 10
211.0773629025
 20
49.0714085398
 30
0.0
 11
211.0773629025
 21
48.0714083758
 31
0.0
  0
LINE
  5
2A9
  8
0
  6
CONTINUOUS
 62
     7
 10
211.0773629025
 20
37.8714081941
 30
0.0
 11
207.0511943177
 21
37.8714081941
 31
0.0
  0
LINE
  5
2AA
  8
0
  6
CONTINUOUS
 62
     7
 10
179.1044420079
 20
37.8714081941
 30
0.0
 11
175.0773644522
 21
37.8714081941
 31
0.0
  0
LINE
  5
2AB
  8
0
  6
CONTINUOUS
 62
     7
 10
211.0773629025
 20
38.871408358
 30
0.0
 11
211.0773629025
 21
37.8714081941
 31
0.0
  0
LINE
  5
2AC
  8
0
  6
CONTINUOUS
 62
     7
 10
175.0773644522
 20
37.8714081941
 30
0.0
 11
175.0773644522
 21
38.871408358
 31
0.0
  0
ARC
  5
2AD
  8
0
  6
CONTINUOUS
 62
     7
 10
73.0773648695
 20
-34.1050868757
 30
0.0
 40
73.33969775843534
 50
64.3650289101
 51
115.6349710899
  0
ARC
  5
2AE
  8
0
  6
CONTINUOUS
 62
     7
 10
73.0773648695
 20
-34.1173665976
 30
0.0
 40
73.33114162064582
 50
64.7052184116
 51
115.2947815884
  0
ARC
  5
2AF
  8
0
  6
CONTINUOUS
 62
     7
 10
44.9551285766
 20
25.571947643
 30
0.0
 40
7.349220536149708
 50
115.9018429008
 51
164.5640797475
  0
ARC
  5
2B0
  8
0
  6
CONTINUOUS
 62
     7
 10
101.2156392184
 20
25.5852921612
 30
0.0
 40
7.330215684938175
 50
15.3687394777
 51
64.1653595472
  0
POLYLINE
  5
2B1
  8
0
  6
CONTINUOUS
 62
     7
 66
     1
 10
0.0
 20
0.0
 30
0.0
  0
VERTEX
  5
7E3
  8
0
  6
CONTINUOUS
 62
     7
 10
108.2837095932
 20
27.5280137656
 30
0.0
  0
VERTEX
  5
7E4
  8
0
  6
CONTINUOUS
 62
     7
 10
109.2007762269
 20
24.2364098427
 30
0.0
  0
VERTEX
  5
7E5
  8
0
  6
CONTINUOUS
 62
     7
 10
109.8019501642
 20
20.9601347444
 30
0.0
  0
VERTEX
  5
7E6
  8
0
  6
CONTINUOUS
 62
     7
 10
110.1594722346
 20
17.6679943797
 30
0.0
  0
VERTEX
  5
7E7
  8
0
  6
CONTINUOUS
 62
     7
 10
110.37423075
 20
14.372811198
 30
0.0
  0
VERTEX
  5
7E8
  8
0
  6
CONTINUOUS
 62
     7
 10
110.4559770302
 20
11.0746209619
 30
0.0
  0
VERTEX
  5
7E9
  8
0
  6
CONTINUOUS
 62
     7
 10
110.4528120235
 20
7.7737991807
 30
0.0
  0
VERTEX
  5
7EA
  8
0
  6
CONTINUOUS
 62
     7
 10
110.4257112817
 20
4.4735317228
 30
0.0
  0
VERTEX
  5
7EB
  8
0
  6
CONTINUOUS
 62
     7
 10
110.4235535935
 20
1.1760150192
 30
0.0
  0
VERTEX
  5
7EC
  8
0
  6
CONTINUOUS
 62
     7
 10
110.4704907612
 20
-5.1441336873
 30
0.0
  0
VERTEX
  5
7ED
  8
0
  6
CONTINUOUS
 62
     7
 10
110.5045801476
 20
-11.464863539
 30
0.0
  0
VERTEX
  5
7EE
  8
0
  6
CONTINUOUS
 62
     7
 10
110.5135834292
 20
-17.7180941107
 30
0.0
  0
VERTEX
  5
7EF
  8
0
  6
CONTINUOUS
 62
     7
 10
110.5153998808
 20
-19.5628161433
 30
0.0
  0
VERTEX
  5
7F0
  8
0
  6
CONTINUOUS
 62
     7
 10
110.5198896006
 20
-21.4303429129
 30
0.0
  0
VERTEX
  5
7F1
  8
0
  6
CONTINUOUS
 62
     7
 10
110.5290851072
 20
-23.3257050517
 30
0.0
  0
VERTEX
  5
7F2
  8
0
  6
CONTINUOUS
 62
     7
 10
110.5450740532
 20
-25.25327158
 30
0.0
  0
VERTEX
  5
7F3
  8
0
  6
CONTINUOUS
 62
     7
 10
110.5691692308
 20
-27.2218461039
 30
0.0
  0
SEQEND
  5
896
  8
0
  6
CONTINUOUS
 62
     7
  0
ARC
  5
2B2
  8
0
  6
CONTINUOUS
 62
     7
 10
103.8490247326
 20
-27.4151996268
 30
0.0
 40
6.722925528500807
 50
275.3899117811
 51
1.648072493
  0
ARC
  5
2B3
  8
0
  6
CONTINUOUS
 62
     7
 10
73.0773663596
 20
305.822534836
 30
0.0
 40
341.3783810085719
 50
264.7219387681
 51
275.2780612319
  0
ARC
  5
2B4
  8
0
  6
CONTINUOUS
 62
     7
 10
42.295707851
 20
-27.4240425436
 30
0.0
 40
6.713188569510109
 50
178.2740310627
 51
264.6879707465
  0
POLYLINE
  5
2B5
  8
0
  6
CONTINUOUS
 62
     7
 66
     1
 10
0.0
 20
0.0
 30
0.0
  0
VERTEX
  5
7F4
  8
0
  6
CONTINUOUS
 62
     7
 10
35.5855649785
 20
-27.2218461039
 30
0.0
  0
VERTEX
  5
7F5
  8
0
  6
CONTINUOUS
 62
     7
 10
35.6138831452
 20
-24.8248214724
 30
0.0
  0
VERTEX
  5
7F6
  8
0
  6
CONTINUOUS
 62
     7
 10
35.6304174737
 20
-22.4851305487
 30
0.0
  0
VERTEX
  5
7F7
  8
0
  6
CONTINUOUS
 62
     7
 10
35.6382137612
 20
-20.1907272341
 30
0.0
  0
VERTEX
  5
7F8
  8
0
  6
CONTINUOUS
 62
     7
 10
35.6410092191
 20
-17.9328556063
 30
0.0
  0
VERTEX
  5
7F9
  8
0
  6
CONTINUOUS
 62
     7
 10
35.6424099282
 20
-15.7023246291
 30
0.0
  0
VERTEX
  5
7FA
  8
0
  6
CONTINUOUS
 62
     7
 10
35.6453186349
 20
-13.4748871329
 30
0.0
  0
VERTEX
  5
7FB
  8
0
  6
CONTINUOUS
 62
     7
 10
35.6508618668
 20
-11.2339849475
 30
0.0
  0
VERTEX
  5
7FC
  8
0
  6
CONTINUOUS
 62
     7
 10
35.6851881818
 20
-5.0279254916
 30
0.0
  0
VERTEX
  5
7FD
  8
0
  6
CONTINUOUS
 62
     7
 10
35.7311791257
 20
1.1760150192
 30
0.0
  0
VERTEX
  5
7FE
  8
0
  6
CONTINUOUS
 62
     7
 10
35.7290214375
 20
4.4735317228
 30
0.0
  0
VERTEX
  5
7FF
  8
0
  6
CONTINUOUS
 62
     7
 10
35.7019192055
 20
7.7737991807
 30
0.0
  0
VERTEX
  5
800
  8
0
  6
CONTINUOUS
 62
     7
 10
35.6987541989
 20
11.0746209619
 30
0.0
  0
VERTEX
  5
801
  8
0
  6
CONTINUOUS
 62
     7
 10
35.7805019692
 20
14.372811198
 30
0.0
  0
VERTEX
  5
802
  8
0
  6
CONTINUOUS
 62
     7
 10
35.9952575043
 20
17.6679943797
 30
0.0
  0
VERTEX
  5
803
  8
0
  6
CONTINUOUS
 62
     7
 10
36.3527840451
 20
20.9601347444
 30
0.0
  0
VERTEX
  5
804
  8
0
  6
CONTINUOUS
 62
     7
 10
36.9539564923
 20
24.2364098427
 30
0.0
  0
VERTEX
  5
805
  8
0
  6
CONTINUOUS
 62
     7
 10
37.8710216359
 20
27.5280137656
 30
0.0
  0
SEQEND
  5
895
  8
0
  6
CONTINUOUS
 62
     7
  0
ARC
  5
2B6
  8
0
  6
CONTINUOUS
 62
     7
 10
101.5511584209
 20
25.4092536996
 30
0.0
 40
7.36504617154767
 50
15.544535697
 51
63.7662063664
  0
ARC
  5
2B7
  8
0
  6
CONTINUOUS
 62
     7
 10
44.5857321343
 20
25.4240428942
 30
0.0
 40
7.343900851565564
 50
116.1599543402
 51
164.5293254441
  0
LINE
  5
2B8
  8
0
  6
CONTINUOUS
 62
     7
 10
35.4773646668
 20
-5.6345875266
 30
0.0
 11
35.4773646668
 21
-15.6324322226
 31
0.0
  0
POLYLINE
  5
2B9
  8
0
  6
CONTINUOUS
 62
     7
 66
     1
 10
0.0
 20
0.0
 30
0.0
  0
VERTEX
  5
806
  8
0
  6
CONTINUOUS
 62
     7
 10
35.4773646668
 20
-5.6345875266
 30
0.0
  0
VERTEX
  5
807
  8
0
  6
CONTINUOUS
 62
     7
 10
35.4920750932
 20
1.1934374568
 30
0.0
  0
VERTEX
  5
808
  8
0
  6
CONTINUOUS
 62
     7
 10
35.4773646668
 20
4.3653016088
 30
0.0
  0
SEQEND
  5
894
  8
0
  6
CONTINUOUS
 62
     7
  0
LINE
  5
2BA
  8
0
  6
CONTINUOUS
 62
     7
 10
35.4773646668
 20
12.4768410919
 30
0.0
 11
35.4773646668
 21
4.3652837274
 31
0.0
  0
LINE
  5
2BB
  8
0
  6
CONTINUOUS
 62
     7
 10
35.506189473
 20
14.3296961782
 30
0.0
 11
35.4773646668
 21
12.4768410919
 31
0.0
  0
POLYLINE
  5
2BC
  8
0
  6
CONTINUOUS
 62
     7
 66
     1
 10
0.0
 20
0.0
 30
0.0
  0
VERTEX
  5
809
  8
0
  6
CONTINUOUS
 62
     7
 10
35.5058437661
 20
14.3297110793
 30
0.0
  0
VERTEX
  5
80A
  8
0
  6
CONTINUOUS
 62
     7
 10
35.6503492669
 20
16.8334578273
 30
0.0
  0
VERTEX
  5
80B
  8
0
  6
CONTINUOUS
 62
     7
 10
35.8746117429
 20
19.3368782399
 30
0.0
  0
SEQEND
  5
893
  8
0
  6
CONTINUOUS
 62
     7
  0
ARC
  5
2BD
  8
0
  6
CONTINUOUS
 62
     7
 10
95.2773798123
 20
12.4213101264
 30
0.0
 40
59.80425017893504
 50
168.4879968058
 51
173.3596190667
  0
POLYLINE
  5
2BE
  8
0
  6
CONTINUOUS
 62
     7
 66
     1
 10
0.0
 20
0.0
 30
0.0
  0
VERTEX
  5
80C
  8
0
  6
CONTINUOUS
 62
     7
 10
36.6773670987
 20
24.3622695205
 30
0.0
  0
VERTEX
  5
80D
  8
0
  6
CONTINUOUS
 62
     7
 10
37.0747929887
 20
25.8726333377
 30
0.0
  0
VERTEX
  5
80E
  8
0
  6
CONTINUOUS
 62
     7
 10
37.5079220608
 20
27.3829926846
 30
0.0
  0
SEQEND
  5
892
  8
0
  6
CONTINUOUS
 62
     7
  0
POLYLINE
  5
2BF
  8
0
  6
CONTINUOUS
 62
     7
 66
     1
 10
0.0
 20
0.0
 30
0.0
  0
VERTEX
  5
80F
  8
0
  6
CONTINUOUS
 62
     7
 10
35.4772931412
 20
-27.288114548
 30
0.0
  0
VERTEX
  5
810
  8
0
  6
CONTINUOUS
 62
     7
 10
35.4772931412
 20
-27.2627885344
 30
0.0
  0
VERTEX
  5
811
  8
0
  6
CONTINUOUS
 62
     7
 10
35.4774659947
 20
-24.8497779372
 30
0.0
  0
VERTEX
  5
812
  8
0
  6
CONTINUOUS
 62
     7
 10
35.4779309109
 20
-22.4613125327
 30
0.0
  0
VERTEX
  5
813
  8
0
  6
CONTINUOUS
 62
     7
 10
35.4783183411
 20
-20.0953955653
 30
0.0
  0
VERTEX
  5
814
  8
0
  6
CONTINUOUS
 62
     7
 10
35.4782110528
 20
-17.7405710223
 30
0.0
  0
VERTEX
  5
815
  8
0
  6
CONTINUOUS
 62
     7
 10
35.4773646668
 20
-15.6324322226
 30
0.0
  0
SEQEND
  5
891
  8
0
  6
CONTINUOUS
 62
     7
  0
POLYLINE
  5
2C0
  8
0
  6
CONTINUOUS
 62
     7
 66
     1
 10
0.0
 20
0.0
 30
0.0
  0
VERTEX
  5
816
  8
0
  6
CONTINUOUS
 62
     7
 10
108.6468091682
 20
27.3829926846
 30
0.0
  0
VERTEX
  5
817
  8
0
  6
CONTINUOUS
 62
     7
 10
109.0807265118
 20
25.8698378799
 30
0.0
  0
VERTEX
  5
818
  8
0
  6
CONTINUOUS
 62
     7
 10
109.4786992744
 20
24.3566800949
 30
0.0
  0
SEQEND
  5
890
  8
0
  6
CONTINUOUS
 62
     7
  0
ARC
  5
2C1
  8
0
  6
CONTINUOUS
 62
     7
 10
50.8342271511
 20
12.4144211159
 30
0.0
 40
59.84788180095786
 50
6.6421578114
 51
11.510226316
  0
POLYLINE
  5
2C2
  8
0
  6
CONTINUOUS
 62
     7
 66
     1
 10
0.0
 20
0.0
 30
0.0
  0
VERTEX
  5
819
  8
0
  6
CONTINUOUS
 62
     7
 10
110.2801194862
 20
19.3368782399
 30
0.0
  0
VERTEX
  5
81A
  8
0
  6
CONTINUOUS
 62
     7
 10
110.5043849424
 20
16.8334578273
 30
0.0
  0
VERTEX
  5
81B
  8
0
  6
CONTINUOUS
 62
     7
 10
110.6488904432
 20
14.3297110793
 30
0.0
  0
SEQEND
  5
88F
  8
0
  6
CONTINUOUS
 62
     7
  0
LINE
  5
2C3
  8
0
  6
CONTINUOUS
 62
     7
 10
110.6773650721
 20
12.4768410919
 30
0.0
 11
110.6485432462
 21
14.3296961782
 31
0.0
  0
LINE
  5
2C4
  8
0
  6
CONTINUOUS
 62
     7
 10
110.6773650721
 20
4.3652837274
 30
0.0
 11
110.6773650721
 21
12.4768410919
 31
0.0
  0
POLYLINE
  5
2C5
  8
0
  6
CONTINUOUS
 62
     7
 66
     1
 10
0.0
 20
0.0
 30
0.0
  0
VERTEX
  5
81C
  8
0
  6
CONTINUOUS
 62
     7
 10
110.6773650721
 20
4.3653016088
 30
0.0
  0
VERTEX
  5
81D
  8
0
  6
CONTINUOUS
 62
     7
 10
110.6626561359
 20
1.1934374568
 30
0.0
  0
VERTEX
  5
81E
  8
0
  6
CONTINUOUS
 62
     7
 10
110.6773695425
 20
-5.6345875266
 30
0.0
  0
SEQEND
  5
88E
  8
0
  6
CONTINUOUS
 62
     7
  0
POLYLINE
  5
2C6
  8
0
  6
CONTINUOUS
 62
     7
 66
     1
 10
0.0
 20
0.0
 30
0.0
  0
VERTEX
  5
81F
  8
0
  6
CONTINUOUS
 62
     7
 10
110.6774365977
 20
-27.2890622618
 30
0.0
  0
VERTEX
  5
820
  8
0
  6
CONTINUOUS
 62
     7
 10
110.6774351076
 20
-26.9811208251
 30
0.0
  0
VERTEX
  5
821
  8
0
  6
CONTINUOUS
 62
     7
 10
110.6772205309
 20
-24.5692725184
 30
0.0
  0
VERTEX
  5
822
  8
0
  6
CONTINUOUS
 62
     7
 10
110.6767436937
 20
-22.1847171786
 30
0.0
  0
VERTEX
  5
823
  8
0
  6
CONTINUOUS
 62
     7
 10
110.6763935164
 20
-19.8213691714
 30
0.0
  0
VERTEX
  5
824
  8
0
  6
CONTINUOUS
 62
     7
 10
110.6777122692
 20
-15.1125187876
 30
0.0
  0
VERTEX
  5
825
  8
0
  6
CONTINUOUS
 62
     7
 10
110.68118722
 20
-10.3786165717
 30
0.0
  0
VERTEX
  5
826
  8
0
  6
CONTINUOUS
 62
     7
 10
110.6773650721
 20
-5.6345875266
 30
0.0
  0
SEQEND
  5
88D
  8
0
  6
CONTINUOUS
 62
     7
  0
ARC
  5
2C7
  8
0
  6
CONTINUOUS
 62
     7
 10
104.0329530538
 20
-27.425705233
 30
0.0
 40
6.645888418137665
 50
292.5444045557
 51
1.1781144618
  0
ARC
  5
2C8
  8
0
  6
CONTINUOUS
 62
     7
 10
42.1248275365
 20
-27.421715888
 30
0.0
 40
6.648876811488228
 50
178.848631378
 51
250.6417809594
  0
LINE
  5
2C9
  8
0
  6
CONTINUOUS
 62
     7
 10
110.2773657516
 20
19.3630312679
 30
0.0
 11
110.2804055885
 21
19.3369110224
 31
0.0
  0
POLYLINE
  5
2CA
  8
0
  6
CONTINUOUS
 62
     7
 66
     1
 10
0.0
 20
0.0
 30
0.0
  0
VERTEX
  5
827
  8
0
  6
CONTINUOUS
 62
     7
 10
109.4785145
 20
24.3566368816
 30
0.0
  0
VERTEX
  5
828
  8
0
  6
CONTINUOUS
 62
     7
 10
109.9307006673
 20
21.870771527
 30
0.0
  0
VERTEX
  5
829
  8
0
  6
CONTINUOUS
 62
     7
 10
110.2773657516
 20
19.3630312679
 30
0.0
  0
SEQEND
  5
88C
  8
0
  6
CONTINUOUS
 62
     7
  0
POLYLINE
  5
2CB
  8
0
  6
CONTINUOUS
 62
     7
 66
     1
 10
0.0
 20
0.0
 30
0.0
  0
VERTEX
  5
82A
  8
0
  6
CONTINUOUS
 62
     7
 10
35.8773654774
 20
19.3630312679
 30
0.0
  0
VERTEX
  5
82B
  8
0
  6
CONTINUOUS
 62
     7
 10
36.2232929543
 20
21.8661730287
 30
0.0
  0
VERTEX
  5
82C
  8
0
  6
CONTINUOUS
 62
     7
 10
36.676216729
 20
24.3566368816
 30
0.0
  0
SEQEND
  5
88B
  8
0
  6
CONTINUOUS
 62
     7
  0
LINE
  5
2CC
  8
0
  6
CONTINUOUS
 62
     7
 10
35.8743256406
 20
19.3369110224
 30
0.0
 11
35.8773654774
 21
19.3630312679
 31
0.0
  0
LINE
  5
2CD
  8
0
  6
CONTINUOUS
 62
     7
 10
110.6485432462
 20
14.3296961782
 30
0.0
 11
110.6773650721
 21
12.4790047405
 31
0.0
  0
LINE
  5
2CE
  8
0
  6
CONTINUOUS
 62
     7
 10
35.4773646668
 20
12.4790047405
 30
0.0
 11
35.506189473
 21
14.3296961782
 31
0.0
  0
ARC
  5
2CF
  8
0
  6
CONTINUOUS
 62
     7
 10
164.9551419056
 20
25.571935771
 30
0.0
 40
7.349236256921749
 50
115.9018834053
 51
164.5640175698
  0
ARC
  5
2D0
  8
0
  6
CONTINUOUS
 62
     7
 10
193.0773666576
 20
-34.1173707733
 30
0.0
 40
73.33114539593397
 50
64.7052198057
 51
115.2947801943
  0
ARC
  5
2D1
  8
0
  6
CONTINUOUS
 62
     7
 10
221.2156484559
 20
25.5853006232
 30
0.0
 40
7.330204822447579
 50
15.3686942198
 51
64.1653831319
  0
POLYLINE
  5
2D2
  8
0
  6
CONTINUOUS
 62
     7
 66
     1
 10
0.0
 20
0.0
 30
0.0
  0
VERTEX
  5
82D
  8
0
  6
CONTINUOUS
 62
     7
 10
228.2837098912
 20
27.5280137656
 30
0.0
  0
VERTEX
  5
82E
  8
0
  6
CONTINUOUS
 62
     7
 10
229.2007750348
 20
24.2364098427
 30
0.0
  0
VERTEX
  5
82F
  8
0
  6
CONTINUOUS
 62
     7
 10
229.801947482
 20
20.9601347444
 30
0.0
  0
VERTEX
  5
830
  8
0
  6
CONTINUOUS
 62
     7
 10
230.1594740227
 20
17.6679943797
 30
0.0
  0
VERTEX
  5
831
  8
0
  6
CONTINUOUS
 62
     7
 10
230.3742295579
 20
14.372811198
 30
0.0
  0
VERTEX
  5
832
  8
0
  6
CONTINUOUS
 62
     7
 10
230.4559773282
 20
11.0746209619
 30
0.0
  0
VERTEX
  5
833
  8
0
  6
CONTINUOUS
 62
     7
 10
230.4528123215
 20
7.7737991807
 30
0.0
  0
VERTEX
  5
834
  8
0
  6
CONTINUOUS
 62
     7
 10
230.4257100896
 20
4.4735317228
 30
0.0
  0
VERTEX
  5
835
  8
0
  6
CONTINUOUS
 62
     7
 10
230.4235524014
 20
1.1760150192
 30
0.0
  0
VERTEX
  5
836
  8
0
  6
CONTINUOUS
 62
     7
 10
230.4704910592
 20
-5.1441336873
 30
0.0
  0
VERTEX
  5
837
  8
0
  6
CONTINUOUS
 62
     7
 10
230.5045789555
 20
-11.464863539
 30
0.0
  0
VERTEX
  5
838
  8
0
  6
CONTINUOUS
 62
     7
 10
230.5135852174
 20
-17.7180941107
 30
0.0
  0
VERTEX
  5
839
  8
0
  6
CONTINUOUS
 62
     7
 10
230.5153971986
 20
-19.5628161433
 30
0.0
  0
VERTEX
  5
83A
  8
0
  6
CONTINUOUS
 62
     7
 10
230.5198913888
 20
-21.4303429129
 30
0.0
  0
VERTEX
  5
83B
  8
0
  6
CONTINUOUS
 62
     7
 10
230.529082425
 20
-23.3257050517
 30
0.0
  0
VERTEX
  5
83C
  8
0
  6
CONTINUOUS
 62
     7
 10
230.5450743512
 20
-25.25327158
 30
0.0
  0
VERTEX
  5
83D
  8
0
  6
CONTINUOUS
 62
     7
 10
230.5691665486
 20
-27.2218461039
 30
0.0
  0
SEQEND
  5
88A
  8
0
  6
CONTINUOUS
 62
     7
  0
ARC
  5
2D3
  8
0
  6
CONTINUOUS
 62
     7
 10
223.8490347707
 20
-27.4152110098
 30
0.0
 40
6.722913140893536
 50
275.3898256084
 51
1.6481725824
  0
ARC
  5
2D4
  8
0
  6
CONTINUOUS
 62
     7
 10
193.0773651675
 20
305.8225398333
 30
0.0
 40
341.3783859847015
 50
264.7219388452
 51
275.2780611548
  0
ARC
  5
2D5
  8
0
  6
CONTINUOUS
 62
     7
 10
162.2957123552
 20
-27.4240360554
 30
0.0
 40
6.713195557275379
 50
178.274088261
 51
264.687927465
  0
POLYLINE
  5
2D6
  8
0
  6
CONTINUOUS
 62
     7
 66
     1
 10
0.0
 20
0.0
 30
0.0
  0
VERTEX
  5
83E
  8
0
  6
CONTINUOUS
 62
     7
 10
155.5855622963
 20
-27.2218461039
 30
0.0
  0
VERTEX
  5
83F
  8
0
  6
CONTINUOUS
 62
     7
 10
155.613880463
 20
-24.8248214724
 30
0.0
  0
VERTEX
  5
840
  8
0
  6
CONTINUOUS
 62
     7
 10
155.6304192618
 20
-22.4851305487
 30
0.0
  0
VERTEX
  5
841
  8
0
  6
CONTINUOUS
 62
     7
 10
155.6382155494
 20
-20.1907272341
 30
0.0
  0
VERTEX
  5
842
  8
0
  6
CONTINUOUS
 62
     7
 10
155.641008027
 20
-17.9328556063
 30
0.0
  0
VERTEX
  5
843
  8
0
  6
CONTINUOUS
 62
     7
 10
155.6424102262
 20
-15.7023246291
 30
0.0
  0
VERTEX
  5
844
  8
0
  6
CONTINUOUS
 62
     7
 10
155.645320423
 20
-13.4748871329
 30
0.0
  0
VERTEX
  5
845
  8
0
  6
CONTINUOUS
 62
     7
 10
155.6508621649
 20
-11.2339849475
 30
0.0
  0
VERTEX
  5
846
  8
0
  6
CONTINUOUS
 62
     7
 10
155.6851869897
 20
-5.0279254916
 30
0.0
  0
VERTEX
  5
847
  8
0
  6
CONTINUOUS
 62
     7
 10
155.7311779336
 20
1.1760150192
 30
0.0
  0
VERTEX
  5
848
  8
0
  6
CONTINUOUS
 62
     7
 10
155.7290202454
 20
4.4735317228
 30
0.0
  0
VERTEX
  5
849
  8
0
  6
CONTINUOUS
 62
     7
 10
155.7019195036
 20
7.7737991807
 30
0.0
  0
VERTEX
  5
84A
  8
0
  6
CONTINUOUS
 62
     7
 10
155.6987544969
 20
11.0746209619
 30
0.0
  0
VERTEX
  5
84B
  8
0
  6
CONTINUOUS
 62
     7
 10
155.7805007771
 20
14.372811198
 30
0.0
  0
VERTEX
  5
84C
  8
0
  6
CONTINUOUS
 62
     7
 10
155.9952592925
 20
17.6679943797
 30
0.0
  0
VERTEX
  5
84D
  8
0
  6
CONTINUOUS
 62
     7
 10
156.3527813629
 20
20.9601347444
 30
0.0
  0
VERTEX
  5
84E
  8
0
  6
CONTINUOUS
 62
     7
 10
156.9539553002
 20
24.2364098427
 30
0.0
  0
VERTEX
  5
84F
  8
0
  6
CONTINUOUS
 62
     7
 10
157.8710219339
 20
27.5280137656
 30
0.0
  0
SEQEND
  5
889
  8
0
  6
CONTINUOUS
 62
     7
  0
ARC
  5
2D7
  8
0
  6
CONTINUOUS
 62
     7
 10
193.0773666576
 20
-34.1050908418
 30
0.0
 40
73.33970133414124
 50
64.3650302506
 51
115.6349697494
  0
ARC
  5
2D8
  8
0
  6
CONTINUOUS
 62
     7
 10
221.5511436294
 20
25.4092422391
 30
0.0
 40
7.365063780396269
 50
15.5445901336
 51
63.7661300822
  0
ARC
  5
2D9
  8
0
  6
CONTINUOUS
 62
     7
 10
164.585728484
 20
25.4240451256
 30
0.0
 40
7.343896451029654
 50
116.1599239314
 51
164.5293340052
  0
LINE
  5
2DA
  8
0
  6
CONTINUOUS
 62
     7
 10
155.477366455
 20
-5.6345875266
 30
0.0
 11
155.477366455
 21
-15.6324322226
 31
0.0
  0
POLYLINE
  5
2DB
  8
0
  6
CONTINUOUS
 62
     7
 66
     1
 10
0.0
 20
0.0
 30
0.0
  0
VERTEX
  5
850
  8
0
  6
CONTINUOUS
 62
     7
 10
155.4773619846
 20
-5.6345875266
 30
0.0
  0
VERTEX
  5
851
  8
0
  6
CONTINUOUS
 62
     7
 10
155.4920753912
 20
1.1934374568
 30
0.0
  0
VERTEX
  5
852
  8
0
  6
CONTINUOUS
 62
     7
 10
155.477366455
 20
4.3653016088
 30
0.0
  0
SEQEND
  5
888
  8
0
  6
CONTINUOUS
 62
     7
  0
LINE
  5
2DC
  8
0
  6
CONTINUOUS
 62
     7
 10
155.477366455
 20
12.4768410919
 30
0.0
 11
155.477366455
 21
4.3652837274
 31
0.0
  0
LINE
  5
2DD
  8
0
  6
CONTINUOUS
 62
     7
 10
155.5061882809
 20
14.3296961782
 30
0.0
 11
155.477366455
 21
12.4768410919
 31
0.0
  0
POLYLINE
  5
2DE
  8
0
  6
CONTINUOUS
 62
     7
 66
     1
 10
0.0
 20
0.0
 30
0.0
  0
VERTEX
  5
853
  8
0
  6
CONTINUOUS
 62
     7
 10
155.5058410839
 20
14.3297110793
 30
0.0
  0
VERTEX
  5
854
  8
0
  6
CONTINUOUS
 62
     7
 10
155.6503465847
 20
16.8334578273
 30
0.0
  0
VERTEX
  5
855
  8
0
  6
CONTINUOUS
 62
     7
 10
155.8746120409
 20
19.3368782399
 30
0.0
  0
SEQEND
  5
887
  8
0
  6
CONTINUOUS
 62
     7
  0
ARC
  5
2DF
  8
0
  6
CONTINUOUS
 62
     7
 10
215.2762535003
 20
12.4214900999
 30
0.0
 40
59.80311031507878
 50
168.4879503506
 51
173.359665522
  0
POLYLINE
  5
2E0
  8
0
  6
CONTINUOUS
 62
     7
 66
     1
 10
0.0
 20
0.0
 30
0.0
  0
VERTEX
  5
856
  8
0
  6
CONTINUOUS
 62
     7
 10
156.6773659066
 20
24.3622695205
 30
0.0
  0
VERTEX
  5
857
  8
0
  6
CONTINUOUS
 62
     7
 10
157.0747917966
 20
25.8726333377
 30
0.0
  0
VERTEX
  5
858
  8
0
  6
CONTINUOUS
 62
     7
 10
157.5079223589
 20
27.3829926846
 30
0.0
  0
SEQEND
  5
886
  8
0
  6
CONTINUOUS
 62
     7
  0
POLYLINE
  5
2E1
  8
0
  6
CONTINUOUS
 62
     7
 66
     1
 10
0.0
 20
0.0
 30
0.0
  0
VERTEX
  5
859
  8
0
  6
CONTINUOUS
 62
     7
 10
155.4772949294
 20
-27.288114548
 30
0.0
  0
VERTEX
  5
85A
  8
0
  6
CONTINUOUS
 62
     7
 10
155.4772949294
 20
-27.2627885344
 30
0.0
  0
VERTEX
  5
85B
  8
0
  6
CONTINUOUS
 62
     7
 10
155.4774648026
 20
-24.8497779372
 30
0.0
  0
VERTEX
  5
85C
  8
0
  6
CONTINUOUS
 62
     7
 10
155.4779297189
 20
-22.4613125327
 30
0.0
  0
VERTEX
  5
85D
  8
0
  6
CONTINUOUS
 62
     7
 10
155.4783156589
 20
-20.0953955653
 30
0.0
  0
VERTEX
  5
85E
  8
0
  6
CONTINUOUS
 62
     7
 10
155.4782113508
 20
-17.7405710223
 30
0.0
  0
VERTEX
  5
85F
  8
0
  6
CONTINUOUS
 62
     7
 10
155.477366455
 20
-15.6324322226
 30
0.0
  0
SEQEND
  5
885
  8
0
  6
CONTINUOUS
 62
     7
  0
POLYLINE
  5
2E2
  8
0
  6
CONTINUOUS
 62
     7
 66
     1
 10
0.0
 20
0.0
 30
0.0
  0
VERTEX
  5
860
  8
0
  6
CONTINUOUS
 62
     7
 10
228.6468094662
 20
27.3829926846
 30
0.0
  0
VERTEX
  5
861
  8
0
  6
CONTINUOUS
 62
     7
 10
229.0807253197
 20
25.8698378799
 30
0.0
  0
VERTEX
  5
862
  8
0
  6
CONTINUOUS
 62
     7
 10
229.4786995724
 20
24.3566800949
 30
0.0
  0
SEQEND
  5
884
  8
0
  6
CONTINUOUS
 62
     7
  0
ARC
  5
2E3
  8
0
  6
CONTINUOUS
 62
     7
 10
170.8360674578
 20
12.4147150534
 30
0.0
 40
59.84602014342858
 50
6.6420820492
 51
11.5103020782
  0
POLYLINE
  5
2E4
  8
0
  6
CONTINUOUS
 62
     7
 66
     1
 10
0.0
 20
0.0
 30
0.0
  0
VERTEX
  5
863
  8
0
  6
CONTINUOUS
 62
     7
 10
230.2801197842
 20
19.3368782399
 30
0.0
  0
VERTEX
  5
864
  8
0
  6
CONTINUOUS
 62
     7
 10
230.5043822602
 20
16.8334578273
 30
0.0
  0
VERTEX
  5
865
  8
0
  6
CONTINUOUS
 62
     7
 10
230.648887761
 20
14.3297110793
 30
0.0
  0
SEQEND
  5
883
  8
0
  6
CONTINUOUS
 62
     7
  0
LINE
  5
2E5
  8
0
  6
CONTINUOUS
 62
     7
 10
230.6773668603
 20
12.4768410919
 30
0.0
 11
230.6485420541
 21
14.3296961782
 31
0.0
  0
LINE
  5
2E6
  8
0
  6
CONTINUOUS
 62
     7
 10
230.6773668603
 20
4.3652837274
 30
0.0
 11
230.6773668603
 21
12.4768410919
 31
0.0
  0
POLYLINE
  5
2E7
  8
0
  6
CONTINUOUS
 62
     7
 66
     1
 10
0.0
 20
0.0
 30
0.0
  0
VERTEX
  5
866
  8
0
  6
CONTINUOUS
 62
     7
 10
230.6773668603
 20
4.3653016088
 30
0.0
  0
VERTEX
  5
867
  8
0
  6
CONTINUOUS
 62
     7
 10
230.6626564339
 20
1.1934374568
 30
0.0
  0
VERTEX
  5
868
  8
0
  6
CONTINUOUS
 62
     7
 10
230.6773668603
 20
-5.6345875266
 30
0.0
  0
SEQEND
  5
882
  8
0
  6
CONTINUOUS
 62
     7
  0
POLYLINE
  5
2E8
  8
0
  6
CONTINUOUS
 62
     7
 66
     1
 10
0.0
 20
0.0
 30
0.0
  0
VERTEX
  5
869
  8
0
  6
CONTINUOUS
 62
     7
 10
230.6774383858
 20
-27.2890622618
 30
0.0
  0
VERTEX
  5
86A
  8
0
  6
CONTINUOUS
 62
     7
 10
230.6774324254
 20
-26.9811208251
 30
0.0
  0
VERTEX
  5
86B
  8
0
  6
CONTINUOUS
 62
     7
 10
230.6772178487
 20
-24.5692725184
 30
0.0
  0
VERTEX
  5
86C
  8
0
  6
CONTINUOUS
 62
     7
 10
230.6767410115
 20
-22.1847171786
 30
0.0
  0
VERTEX
  5
86D
  8
0
  6
CONTINUOUS
 62
     7
 10
230.6763953046
 20
-19.8213691714
 30
0.0
  0
VERTEX
  5
86E
  8
0
  6
CONTINUOUS
 62
     7
 10
230.6777125672
 20
-15.1125187876
 30
0.0
  0
VERTEX
  5
86F
  8
0
  6
CONTINUOUS
 62
     7
 10
230.681187518
 20
-10.3786165717
 30
0.0
  0
VERTEX
  5
870
  8
0
  6
CONTINUOUS
 62
     7
 10
230.6773668603
 20
-5.6345875266
 30
0.0
  0
SEQEND
  5
881
  8
0
  6
CONTINUOUS
 62
     7
  0
ARC
  5
2E9
  8
0
  6
CONTINUOUS
 62
     7
 10
224.0329443098
 20
-27.425698357
 30
0.0
 40
6.645898806713871
 50
292.5444656896
 51
1.178053328
  0
ARC
  5
2EA
  8
0
  6
CONTINUOUS
 62
     7
 10
162.1248236318
 20
-27.4217208618
 30
0.0
 40
6.648871219741811
 50
178.84858754
 51
250.6417888062
  0
LINE
  5
2EB
  8
0
  6
CONTINUOUS
 62
     7
 10
230.2773660496
 20
19.3630312679
 30
0.0
 11
230.2804058865
 21
19.3369110224
 31
0.0
  0
POLYLINE
  5
2EC
  8
0
  6
CONTINUOUS
 62
     7
 66
     1
 10
0.0
 20
0.0
 30
0.0
  0
VERTEX
  5
871
  8
0
  6
CONTINUOUS
 62
     7
 10
229.478514798
 20
24.3566368816
 30
0.0
  0
VERTEX
  5
872
  8
0
  6
CONTINUOUS
 62
     7
 10
229.9306994752
 20
21.870771527
 30
0.0
  0
VERTEX
  5
873
  8
0
  6
CONTINUOUS
 62
     7
 10
230.2773660496
 20
19.3630312679
 30
0.0
  0
SEQEND
  5
880
  8
0
  6
CONTINUOUS
 62
     7
  0
POLYLINE
  5
2ED
  8
0
  6
CONTINUOUS
 62
     7
 66
     1
 10
0.0
 20
0.0
 30
0.0
  0
VERTEX
  5
874
  8
0
  6
CONTINUOUS
 62
     7
 10
155.8773657755
 20
19.3630312679
 30
0.0
  0
VERTEX
  5
875
  8
0
  6
CONTINUOUS
 62
     7
 10
156.2232962326
 20
21.8661730287
 30
0.0
  0
VERTEX
  5
876
  8
0
  6
CONTINUOUS
 62
     7
 10
156.6762170271
 20
24.3566368816
 30
0.0
  0
SEQEND
  5
87F
  8
0
  6
CONTINUOUS
 62
     7
  0
LINE
  5
2EE
  8
0
  6
CONTINUOUS
 62
     7
 10
155.8743259386
 20
19.3369110224
 30
0.0
 11
155.8773657755
 21
19.3630312679
 31
0.0
  0
LINE
  5
2EF
  8
0
  6
CONTINUOUS
 62
     7
 10
230.6485420541
 20
14.3296961782
 30
0.0
 11
230.6773668603
 21
12.4790047405
 31
0.0
  0
LINE
  5
2F0
  8
0
  6
CONTINUOUS
 62
     7
 10
155.477366455
 20
12.4790047405
 30
0.0
 11
155.5061882809
 21
14.3296961782
 31
0.0
  0
LINE
  5
2F1
  8
0
  6
CONTINUOUS
 62
     7
 10
156.2516903952
 20
38.1714084295
 30
0.0
 11
156.2516903952
 21
38.1145891843
 31
0.0
  0
LINE
  5
2F2
  8
0
  6
CONTINUOUS
 62
     7
 10
156.2516903952
 20
38.1145891843
 30
0.0
 11
156.4732110575
 21
38.0993512568
 31
0.0
  0
LINE
  5
2F3
  8
0
  6
CONTINUOUS
 62
     7
 10
155.4739436582
 20
-23.0285937789
 30
0.0
 11
155.3773662523
 21
-23.0285937789
 31
0.0
  0
LINE
  5
2F4
  8
0
  6
CONTINUOUS
 62
     7
 10
155.3773662523
 20
-23.0285937789
 30
0.0
 11
155.3773662523
 21
38.1714084295
 31
0.0
  0
LINE
  5
2F5
  8
0
  6
CONTINUOUS
 62
     7
 10
155.3773662523
 20
38.1714084295
 30
0.0
 11
156.2516903952
 21
38.1714084295
 31
0.0
  0
ARC
  5
2F6
  8
0
  6
CONTINUOUS
 62
     7
 10
157.0413259654
 20
36.0598234215
 30
0.0
 40
1.996146860999656
 50
359.879897053
 51
86.0294823533
  0
LINE
  5
2F7
  8
0
  6
CONTINUOUS
 62
     7
 10
159.0374684409
 20
36.0556391177
 30
0.0
 11
159.0374684409
 21
31.6531178651
 31
0.0
  0
ARC
  5
2F8
  8
0
  6
CONTINUOUS
 62
     7
 10
160.2392610166
 20
31.6523345129
 30
0.0
 40
1.201792831047212
 50
179.9626534821
 51
232.2494355137
  0
LINE
  5
2F9
  8
0
  6
CONTINUOUS
 62
     7
 10
157.1795454696
 20
38.0511791555
 30
0.0
 11
156.4732110575
 21
38.0993512568
 31
0.0
  0
LINE
  5
2FA
  8
0
  6
CONTINUOUS
 62
     7
 10
155.3773662523
 20
38.1714084295
 30
0.0
 11
155.3773662523
 21
50.8915250299
 31
0.0
  0
LINE
  5
2FB
  8
0
  6
CONTINUOUS
 62
     7
 10
156.1773663834
 20
50.8915250299
 30
0.0
 11
156.1773663834
 21
38.1714084295
 31
0.0
  0
LINE
  5
2FC
  8
0
  6
CONTINUOUS
 62
     7
 10
155.3773662523
 20
52.071408659
 30
0.0
 11
156.1773663834
 21
52.071408659
 31
0.0
  0
LINE
  5
2FD
  8
0
  6
CONTINUOUS
 62
     7
 10
155.3773662523
 20
50.8915250299
 30
0.0
 11
155.3773662523
 21
52.071408659
 31
0.0
  0
LINE
  5
2FE
  8
0
  6
CONTINUOUS
 62
     7
 10
156.1773663834
 20
52.071408659
 30
0.0
 11
156.1773663834
 21
50.8915250299
 31
0.0
  0
LINE
  5
2FF
  8
0
  6
CONTINUOUS
 62
     7
 10
158.6121088341
 20
49.0714085398
 30
0.0
 11
156.1773663834
 21
49.0714085398
 31
0.0
  0
LINE
  5
300
  8
0
  6
CONTINUOUS
 62
     7
 10
160.5773663596
 20
48.443633422
 30
0.0
 11
160.5773663596
 21
48.0714083758
 31
0.0
  0
LINE
  5
301
  8
0
  6
CONTINUOUS
 62
     7
 10
150.5773654655
 20
49.0714085398
 30
0.0
 11
150.5773654655
 21
48.0714083758
 31
0.0
  0
LINE
  5
302
  8
0
  6
CONTINUOUS
 62
     7
 10
155.3773662523
 20
49.0714085398
 30
0.0
 11
150.5773654655
 21
49.0714085398
 31
0.0
  0
LINE
  5
303
  8
0
  6
CONTINUOUS
 62
     7
 10
150.5773654655
 20
48.0714083758
 30
0.0
 11
150.5773654655
 21
38.871408358
 31
0.0
  0
LINE
  5
304
  8
0
  6
CONTINUOUS
 62
     7
 10
160.5773663596
 20
48.0714083758
 30
0.0
 11
160.5773663596
 21
38.871408358
 31
0.0
  0
LINE
  5
305
  8
0
  6
CONTINUOUS
 62
     7
 10
155.3773662523
 20
37.8714081941
 30
0.0
 11
150.5773654655
 21
37.8714081941
 31
0.0
  0
LINE
  5
306
  8
0
  6
CONTINUOUS
 62
     7
 10
150.5773654655
 20
38.871408358
 30
0.0
 11
150.5773654655
 21
37.8714081941
 31
0.0
  0
LINE
  5
307
  8
0
  6
CONTINUOUS
 62
     7
 10
160.5773663596
 20
37.8714081941
 30
0.0
 11
157.8812560514
 21
37.8714081941
 31
0.0
  0
LINE
  5
308
  8
0
  6
CONTINUOUS
 62
     7
 10
160.5773663596
 20
38.871408358
 30
0.0
 11
160.5773663596
 21
37.8714081941
 31
0.0
  0
LINE
  5
309
  8
0
  6
CONTINUOUS
 62
     7
 10
36.2516886071
 20
38.1714084295
 30
0.0
 11
36.2516886071
 21
38.1145891843
 31
0.0
  0
LINE
  5
30A
  8
0
  6
CONTINUOUS
 62
     7
 10
36.2516886071
 20
38.1145891843
 30
0.0
 11
36.4732092694
 21
38.0993512568
 31
0.0
  0
LINE
  5
30B
  8
0
  6
CONTINUOUS
 62
     7
 10
35.4739433602
 20
-23.0285937789
 30
0.0
 11
35.3773659543
 21
-23.0285937789
 31
0.0
  0
LINE
  5
30C
  8
0
  6
CONTINUOUS
 62
     7
 10
35.3773659543
 20
-23.0285937789
 30
0.0
 11
35.3773659543
 21
38.1714084295
 31
0.0
  0
LINE
  5
30D
  8
0
  6
CONTINUOUS
 62
     7
 10
35.3773659543
 20
38.1714084295
 30
0.0
 11
36.2516886071
 21
38.1714084295
 31
0.0
  0
ARC
  5
30E
  8
0
  6
CONTINUOUS
 62
     7
 10
37.0413250685
 20
36.0598245608
 30
0.0
 40
1.99614597223751
 50
359.8798642969
 51
86.0293776011
  0
LINE
  5
30F
  8
0
  6
CONTINUOUS
 62
     7
 10
39.0374666528
 20
36.0556391177
 30
0.0
 11
39.0374666528
 21
31.6531178651
 31
0.0
  0
ARC
  5
310
  8
0
  6
CONTINUOUS
 62
     7
 10
40.2392592285
 20
31.6523345129
 30
0.0
 40
1.201792831047261
 50
179.9626534821
 51
232.2494355137
  0
LINE
  5
311
  8
0
  6
CONTINUOUS
 62
     7
 10
37.1795481519
 20
38.0511791555
 30
0.0
 11
36.4732092694
 21
38.0993512568
 31
0.0
  0
LINE
  5
312
  8
0
  6
CONTINUOUS
 62
     7
 10
35.3773659543
 20
38.1714084295
 30
0.0
 11
35.3773659543
 21
50.8915250299
 31
0.0
  0
LINE
  5
313
  8
0
  6
CONTINUOUS
 62
     7
 10
36.1773675755
 20
50.8915250299
 30
0.0
 11
36.1773675755
 21
38.1714084295
 31
0.0
  0
LINE
  5
314
  8
0
  6
CONTINUOUS
 62
     7
 10
35.3773659543
 20
52.071408659
 30
0.0
 11
36.1773675755
 21
52.071408659
 31
0.0
  0
LINE
  5
315
  8
0
  6
CONTINUOUS
 62
     7
 10
35.3773659543
 20
50.8915250299
 30
0.0
 11
35.3773659543
 21
52.071408659
 31
0.0
  0
LINE
  5
316
  8
0
  6
CONTINUOUS
 62
     7
 10
36.1773675755
 20
52.071408659
 30
0.0
 11
36.1773675755
 21
50.8915250299
 31
0.0
  0
LINE
  5
317
  8
0
  6
CONTINUOUS
 62
     7
 10
40.5773645715
 20
48.443633422
 30
0.0
 11
40.5773645715
 21
48.0714083758
 31
0.0
  0
LINE
  5
318
  8
0
  6
CONTINUOUS
 62
     7
 10
38.6121100262
 20
49.0714085398
 30
0.0
 11
36.1773675755
 21
49.0714085398
 31
0.0
  0
LINE
  5
319
  8
0
  6
CONTINUOUS
 62
     7
 10
35.3773659543
 20
49.0714085398
 30
0.0
 11
30.5773681477
 21
49.0714085398
 31
0.0
  0
LINE
  5
31A
  8
0
  6
CONTINUOUS
 62
     7
 10
30.5773681477
 20
49.0714085398
 30
0.0
 11
30.5773681477
 21
48.0714083758
 31
0.0
  0
LINE
  5
31B
  8
0
  6
CONTINUOUS
 62
     7
 10
40.5773645715
 20
48.0714083758
 30
0.0
 11
40.5773645715
 21
38.871408358
 31
0.0
  0
LINE
  5
31C
  8
0
  6
CONTINUOUS
 62
     7
 10
30.5773681477
 20
48.0714083758
 30
0.0
 11
30.5773681477
 21
38.871408358
 31
0.0
  0
LINE
  5
31D
  8
0
  6
CONTINUOUS
 62
     7
 10
40.5773645715
 20
37.8714081941
 30
0.0
 11
37.8812557534
 21
37.8714081941
 31
0.0
  0
LINE
  5
31E
  8
0
  6
CONTINUOUS
 62
     7
 10
40.5773645715
 20
38.871408358
 30
0.0
 11
40.5773645715
 21
37.8714081941
 31
0.0
  0
LINE
  5
31F
  8
0
  6
CONTINUOUS
 62
     7
 10
35.3773659543
 20
37.8714081941
 30
0.0
 11
30.5773681477
 21
37.8714081941
 31
0.0
  0
LINE
  5
320
  8
0
  6
CONTINUOUS
 62
     7
 10
30.5773681477
 20
38.871408358
 30
0.0
 11
30.5773681477
 21
37.8714081941
 31
0.0
  0
LINE
  5
321
  8
0
  6
CONTINUOUS
 62
     7
 10
110.7773652748
 20
-23.0285937789
 30
0.0
 11
110.7773652748
 21
38.1714084295
 31
0.0
  0
LINE
  5
322
  8
0
  6
CONTINUOUS
 62
     7
 10
110.6807878689
 20
-23.0285937789
 30
0.0
 11
110.7773652748
 21
-23.0285937789
 31
0.0
  0
LINE
  5
323
  8
0
  6
CONTINUOUS
 62
     7
 10
109.9030411319
 20
38.1145891843
 30
0.0
 11
109.6815204695
 21
38.0993512568
 31
0.0
  0
LINE
  5
324
  8
0
  6
CONTINUOUS
 62
     7
 10
109.9030411319
 20
38.1714084295
 30
0.0
 11
109.9030411319
 21
38.1145891843
 31
0.0
  0
LINE
  5
325
  8
0
  6
CONTINUOUS
 62
     7
 10
110.7773652748
 20
38.1714084295
 30
0.0
 11
109.9030411319
 21
38.1714084295
 31
0.0
  0
ARC
  5
326
  8
0
  6
CONTINUOUS
 62
     7
 10
105.9154285361
 20
31.6523451116
 30
0.0
 40
1.201834798489432
 50
308.2419419619
 51
0.0368399334
  0
LINE
  5
327
  8
0
  6
CONTINUOUS
 62
     7
 10
107.1172630862
 20
36.0556391177
 30
0.0
 11
107.1172630862
 21
31.6531178651
 31
0.0
  0
ARC
  5
328
  8
0
  6
CONTINUOUS
 62
     7
 10
109.1134055616
 20
36.0598234215
 30
0.0
 40
1.996146860999684
 50
93.9705176467
 51
180.120102947
  0
LINE
  5
329
  8
0
  6
CONTINUOUS
 62
     7
 10
108.9751860575
 20
38.0511791555
 30
0.0
 11
109.6815204695
 21
38.0993512568
 31
0.0
  0
LINE
  5
32A
  8
0
  6
CONTINUOUS
 62
     7
 10
110.7773652748
 20
38.1714084295
 30
0.0
 11
110.7773652748
 21
50.8915250299
 31
0.0
  0
LINE
  5
32B
  8
0
  6
CONTINUOUS
 62
     7
 10
109.9773651437
 20
50.8915250299
 30
0.0
 11
109.9773651437
 21
38.1714084295
 31
0.0
  0
LINE
  5
32C
  8
0
  6
CONTINUOUS
 62
     7
 10
110.7773652748
 20
52.071408659
 30
0.0
 11
109.9773651437
 21
52.071408659
 31
0.0
  0
LINE
  5
32D
  8
0
  6
CONTINUOUS
 62
     7
 10
110.7773652748
 20
50.8915250299
 30
0.0
 11
110.7773652748
 21
52.071408659
 31
0.0
  0
LINE
  5
32E
  8
0
  6
CONTINUOUS
 62
     7
 10
109.9773651437
 20
52.071408659
 30
0.0
 11
109.9773651437
 21
50.8915250299
 31
0.0
  0
LINE
  5
32F
  8
0
  6
CONTINUOUS
 62
     7
 10
110.7773652748
 20
49.0714085398
 30
0.0
 11
115.5773660616
 21
49.0714085398
 31
0.0
  0
LINE
  5
330
  8
0
  6
CONTINUOUS
 62
     7
 10
115.5773660616
 20
49.0714085398
 30
0.0
 11
115.5773660616
 21
48.0714083758
 31
0.0
  0
LINE
  5
331
  8
0
  6
CONTINUOUS
 62
     7
 10
107.5426316336
 20
49.0714085398
 30
0.0
 11
109.9773651437
 21
49.0714085398
 31
0.0
  0
LINE
  5
332
  8
0
  6
CONTINUOUS
 62
     7
 10
105.5773651675
 20
48.4378018526
 30
0.0
 11
105.5773651675
 21
48.0714083758
 31
0.0
  0
LINE
  5
333
  8
0
  6
CONTINUOUS
 62
     7
 10
115.5773660616
 20
48.0714083758
 30
0.0
 11
115.5773660616
 21
38.871408358
 31
0.0
  0
LINE
  5
334
  8
0
  6
CONTINUOUS
 62
     7
 10
105.5773651675
 20
48.0714083758
 30
0.0
 11
105.5773651675
 21
38.871408358
 31
0.0
  0
LINE
  5
335
  8
0
  6
CONTINUOUS
 62
     7
 10
110.7773652748
 20
37.8714081941
 30
0.0
 11
115.5773660616
 21
37.8714081941
 31
0.0
  0
LINE
  5
336
  8
0
  6
CONTINUOUS
 62
     7
 10
115.5773660616
 20
38.871408358
 30
0.0
 11
115.5773660616
 21
37.8714081941
 31
0.0
  0
LINE
  5
337
  8
0
  6
CONTINUOUS
 62
     7
 10
105.5773651675
 20
37.8714081941
 30
0.0
 11
108.2734754757
 21
37.8714081941
 31
0.0
  0
LINE
  5
338
  8
0
  6
CONTINUOUS
 62
     7
 10
105.5773651675
 20
38.871408358
 30
0.0
 11
105.5773651675
 21
37.8714081941
 31
0.0
  0
LINE
  5
339
  8
0
  6
CONTINUOUS
 62
     7
 10
230.7773655728
 20
-23.0285937789
 30
0.0
 11
230.7773655728
 21
38.1714084295
 31
0.0
  0
LINE
  5
33A
  8
0
  6
CONTINUOUS
 62
     7
 10
230.6807881669
 20
-23.0285937789
 30
0.0
 11
230.7773655728
 21
-23.0285937789
 31
0.0
  0
LINE
  5
33B
  8
0
  6
CONTINUOUS
 62
     7
 10
229.90304292
 20
38.1714084295
 30
0.0
 11
229.90304292
 21
38.1145891843
 31
0.0
  0
LINE
  5
33C
  8
0
  6
CONTINUOUS
 62
     7
 10
230.7773655728
 20
38.1714084295
 30
0.0
 11
229.90304292
 21
38.1714084295
 31
0.0
  0
LINE
  5
33D
  8
0
  6
CONTINUOUS
 62
     7
 10
229.90304292
 20
38.1145891843
 30
0.0
 11
229.6815222577
 21
38.0993512568
 31
0.0
  0
ARC
  5
33E
  8
0
  6
CONTINUOUS
 62
     7
 10
225.9154303243
 20
31.6523451116
 30
0.0
 40
1.201834798489488
 50
308.2419419619
 51
0.0368399334
  0
LINE
  5
33F
  8
0
  6
CONTINUOUS
 62
     7
 10
227.1172648743
 20
36.0556391177
 30
0.0
 11
227.1172648743
 21
31.6531178651
 31
0.0
  0
ARC
  5
340
  8
0
  6
CONTINUOUS
 62
     7
 10
229.1134064586
 20
36.0598245608
 30
0.0
 40
1.996145972237523
 50
93.9706223989
 51
180.1201357031
  0
LINE
  5
341
  8
0
  6
CONTINUOUS
 62
     7
 10
228.9751833752
 20
38.0511791555
 30
0.0
 11
229.6815222577
 21
38.0993512568
 31
0.0
  0
LINE
  5
342
  8
0
  6
CONTINUOUS
 62
     7
 10
230.7773655728
 20
38.1714084295
 30
0.0
 11
230.7773655728
 21
50.8915250299
 31
0.0
  0
LINE
  5
343
  8
0
  6
CONTINUOUS
 62
     7
 10
229.9773639516
 20
50.8915250299
 30
0.0
 11
229.9773639516
 21
38.1714084295
 31
0.0
  0
LINE
  5
344
  8
0
  6
CONTINUOUS
 62
     7
 10
230.7773655728
 20
52.071408659
 30
0.0
 11
229.9773639516
 21
52.071408659
 31
0.0
  0
LINE
  5
345
  8
0
  6
CONTINUOUS
 62
     7
 10
230.7773655728
 20
50.8915250299
 30
0.0
 11
230.7773655728
 21
52.071408659
 31
0.0
  0
LINE
  5
346
  8
0
  6
CONTINUOUS
 62
     7
 10
229.9773639516
 20
52.071408659
 30
0.0
 11
229.9773639516
 21
50.8915250299
 31
0.0
  0
LINE
  5
347
  8
0
  6
CONTINUOUS
 62
     7
 10
230.7773655728
 20
49.0714085398
 30
0.0
 11
235.5773633794
 21
49.0714085398
 31
0.0
  0
LINE
  5
348
  8
0
  6
CONTINUOUS
 62
     7
 10
235.5773633794
 20
49.0714085398
 30
0.0
 11
235.5773633794
 21
48.0714083758
 31
0.0
  0
LINE
  5
349
  8
0
  6
CONTINUOUS
 62
     7
 10
225.5773669556
 20
48.4378018526
 30
0.0
 11
225.5773669556
 21
48.0714083758
 31
0.0
  0
LINE
  5
34A
  8
0
  6
CONTINUOUS
 62
     7
 10
227.5426334218
 20
49.0714085398
 30
0.0
 11
229.9773639516
 21
49.0714085398
 31
0.0
  0
LINE
  5
34B
  8
0
  6
CONTINUOUS
 62
     7
 10
225.5773669556
 20
48.0714083758
 30
0.0
 11
225.5773669556
 21
38.871408358
 31
0.0
  0
LINE
  5
34C
  8
0
  6
CONTINUOUS
 62
     7
 10
235.5773633794
 20
48.0714083758
 30
0.0
 11
235.5773633794
 21
38.871408358
 31
0.0
  0
LINE
  5
34D
  8
0
  6
CONTINUOUS
 62
     7
 10
225.5773669556
 20
37.8714081941
 30
0.0
 11
228.2734757737
 21
37.8714081941
 31
0.0
  0
LINE
  5
34E
  8
0
  6
CONTINUOUS
 62
     7
 10
225.5773669556
 20
38.871408358
 30
0.0
 11
225.5773669556
 21
37.8714081941
 31
0.0
  0
LINE
  5
34F
  8
0
  6
CONTINUOUS
 62
     7
 10
230.7773655728
 20
37.8714081941
 30
0.0
 11
235.5773633794
 21
37.8714081941
 31
0.0
  0
LINE
  5
350
  8
0
  6
CONTINUOUS
 62
     7
 10
235.5773633794
 20
38.871408358
 30
0.0
 11
235.5773633794
 21
37.8714081941
 31
0.0
  0
ARC
  5
351
  8
0
  6
CONTINUOUS
 62
     7
 10
133.0773657635
 20
43.2714083669
 30
0.0
 40
2.700000000000017
 50
0.0
 51
180.0
  0
ARC
  5
352
  8
0
  6
CONTINUOUS
 62
     7
 10
133.0773657635
 20
-6.7285916331
 30
0.0
 40
2.700000000000017
 50
180.0
 51
0.0
  0
LINE
  5
353
  8
0
  6
CONTINUOUS
 62
     7
 10
127.0773658977
 20
48.0714083758
 30
0.0
 11
127.0773658977
 21
49.2714082
 31
0.0
  0
LINE
  5
354
  8
0
  6
CONTINUOUS
 62
     7
 10
127.0773658977
 20
49.2714082
 30
0.0
 11
139.0773656294
 21
49.2714082
 31
0.0
  0
LINE
  5
355
  8
0
  6
CONTINUOUS
 62
     7
 10
139.0773656294
 20
49.2714082
 30
0.0
 11
139.0773656294
 21
48.0714083758
 31
0.0
  0
LINE
  5
356
  8
0
  6
CONTINUOUS
 62
     7
 10
139.0773656294
 20
48.0714083758
 30
0.0
 11
139.0773656294
 21
38.4714082924
 31
0.0
  0
LINE
  5
357
  8
0
  6
CONTINUOUS
 62
     7
 10
127.0773658977
 20
48.0714083758
 30
0.0
 11
127.0773658977
 21
38.4714082924
 31
0.0
  0
LINE
  5
358
  8
0
  6
CONTINUOUS
 62
     7
 10
139.0773656294
 20
37.2714084682
 30
0.0
 11
135.7773658336
 21
37.2714084682
 31
0.0
  0
LINE
  5
359
  8
0
  6
CONTINUOUS
 62
     7
 10
130.3773656935
 20
37.2714084682
 30
0.0
 11
127.0773658977
 21
37.2714084682
 31
0.0
  0
LINE
  5
35A
  8
0
  6
CONTINUOUS
 62
     7
 10
139.0773656294
 20
38.4714082924
 30
0.0
 11
139.0773656294
 21
37.2714084682
 31
0.0
  0
LINE
  5
35B
  8
0
  6
CONTINUOUS
 62
     7
 10
127.0773658977
 20
37.2714084682
 30
0.0
 11
127.0773658977
 21
38.4714082924
 31
0.0
  0
ARC
  5
35C
  8
0
  6
CONTINUOUS
 62
     7
 10
253.0773657635
 20
43.2714083669
 30
0.0
 40
2.700000000000017
 50
0.0
 51
180.0
  0
ARC
  5
35D
  8
0
  6
CONTINUOUS
 62
     7
 10
253.0773657635
 20
-6.7285916331
 30
0.0
 40
2.700000000000017
 50
180.0
 51
0.0
  0
LINE
  5
35E
  8
0
  6
CONTINUOUS
 62
     7
 10
247.077364333
 20
48.0714083758
 30
0.0
 11
247.077364333
 21
49.2714082
 31
0.0
  0
LINE
  5
35F
  8
0
  6
CONTINUOUS
 62
     7
 10
247.077364333
 20
49.2714082
 30
0.0
 11
259.0773648099
 21
49.2714082
 31
0.0
  0
LINE
  5
360
  8
0
  6
CONTINUOUS
 62
     7
 10
259.0773648099
 20
49.2714082
 30
0.0
 11
259.0773648099
 21
48.0714083758
 31
0.0
  0
LINE
  5
361
  8
0
  6
CONTINUOUS
 62
     7
 10
247.077364333
 20
48.0714083758
 30
0.0
 11
247.077364333
 21
38.4714082924
 31
0.0
  0
LINE
  5
362
  8
0
  6
CONTINUOUS
 62
     7
 10
259.0773648099
 20
48.0714083758
 30
0.0
 11
259.0773648099
 21
38.4714082924
 31
0.0
  0
LINE
  5
363
  8
0
  6
CONTINUOUS
 62
     7
 10
259.0773648099
 20
37.2714084682
 30
0.0
 11
255.7773655728
 21
37.2714084682
 31
0.0
  0
LINE
  5
364
  8
0
  6
CONTINUOUS
 62
     7
 10
250.3773635701
 20
37.2714084682
 30
0.0
 11
247.077364333
 21
37.2714084682
 31
0.0
  0
LINE
  5
365
  8
0
  6
CONTINUOUS
 62
     7
 10
247.077364333
 20
37.2714084682
 30
0.0
 11
247.077364333
 21
38.4714082924
 31
0.0
  0
LINE
  5
366
  8
0
  6
CONTINUOUS
 62
     7
 10
259.0773648099
 20
38.4714082924
 30
0.0
 11
259.0773648099
 21
37.2714084682
 31
0.0
  0
ARC
  5
367
  8
0
  6
CONTINUOUS
 62
     7
 10
13.0773657635
 20
43.2714083669
 30
0.0
 40
2.699999999999994
 50
0.0
 51
180.0
  0
ARC
  5
368
  8
0
  6
CONTINUOUS
 62
     7
 10
13.0773657635
 20
-6.7285916331
 30
0.0
 40
2.699999999999994
 50
180.0
 51
0.0
  0
LINE
  5
369
  8
0
  6
CONTINUOUS
 62
     7
 10
7.0773667172
 20
48.0714083758
 30
0.0
 11
7.0773667172
 21
49.2714082
 31
0.0
  0
LINE
  5
36A
  8
0
  6
CONTINUOUS
 62
     7
 10
7.0773667172
 20
49.2714082
 30
0.0
 11
19.0773671941
 21
49.2714082
 31
0.0
  0
LINE
  5
36B
  8
0
  6
CONTINUOUS
 62
     7
 10
19.0773671941
 20
49.2714082
 30
0.0
 11
19.0773671941
 21
48.0714083758
 31
0.0
  0
LINE
  5
36C
  8
0
  6
CONTINUOUS
 62
     7
 10
7.0773667172
 20
48.0714083758
 30
0.0
 11
7.0773667172
 21
38.4714082924
 31
0.0
  0
LINE
  5
36D
  8
0
  6
CONTINUOUS
 62
     7
 10
19.0773671941
 20
48.0714083758
 30
0.0
 11
19.0773671941
 21
38.4714082924
 31
0.0
  0
LINE
  5
36E
  8
0
  6
CONTINUOUS
 62
     7
 10
19.0773671941
 20
37.2714084682
 30
0.0
 11
15.777367957
 21
37.2714084682
 31
0.0
  0
LINE
  5
36F
  8
0
  6
CONTINUOUS
 62
     7
 10
10.3773659543
 20
37.2714084682
 30
0.0
 11
7.0773667172
 21
37.2714084682
 31
0.0
  0
LINE
  5
370
  8
0
  6
CONTINUOUS
 62
     7
 10
7.0773667172
 20
37.2714084682
 30
0.0
 11
7.0773667172
 21
38.4714082924
 31
0.0
  0
LINE
  5
371
  8
0
  6
CONTINUOUS
 62
     7
 10
19.0773671941
 20
38.4714082924
 30
0.0
 11
19.0773671941
 21
37.2714084682
 31
0.0
  0
LINE
  5
372
  8
0
  6
CONTINUOUS
 62
     7
 10
4.6773618535
 20
48.4714084414
 30
0.0
 11
7.0773667172
 21
48.4714084414
 31
0.0
  0
LINE
  5
373
  8
0
  6
CONTINUOUS
 62
     7
 10
19.0773671941
 20
48.4714084414
 30
0.0
 11
30.5773681477
 21
48.4714084414
 31
0.0
  0
LINE
  5
374
  8
0
  6
CONTINUOUS
 62
     7
 10
40.675849326
 20
48.4714084414
 30
0.0
 11
55.0773686246
 21
48.4714084414
 31
0.0
  0
LINE
  5
375
  8
0
  6
CONTINUOUS
 62
     7
 10
91.0773670748
 20
48.4714084414
 30
0.0
 11
105.4763591365
 21
48.4714084414
 31
0.0
  0
LINE
  5
376
  8
0
  6
CONTINUOUS
 62
     7
 10
115.5773660616
 20
48.4714084414
 30
0.0
 11
127.0773658977
 21
48.4714084414
 31
0.0
  0
LINE
  5
377
  8
0
  6
CONTINUOUS
 62
     7
 10
139.0773656294
 20
48.4714084414
 30
0.0
 11
150.5773654655
 21
48.4714084414
 31
0.0
  0
LINE
  5
378
  8
0
  6
CONTINUOUS
 62
     7
 10
160.6758511142
 20
48.4714084414
 30
0.0
 11
175.0773644522
 21
48.4714084414
 31
0.0
  0
LINE
  5
379
  8
0
  6
CONTINUOUS
 62
     7
 10
211.0773629025
 20
48.4714084414
 30
0.0
 11
225.4763609246
 21
48.4714084414
 31
0.0
  0
LINE
  5
37A
  8
0
  6
CONTINUOUS
 62
     7
 10
235.5773633794
 20
48.4714084414
 30
0.0
 11
247.077364333
 21
48.4714084414
 31
0.0
  0
LINE
  5
37B
  8
0
  6
CONTINUOUS
 62
     7
 10
259.0773648099
 20
48.4714084414
 30
0.0
 11
261.4773696736
 21
48.4714084414
 31
0.0
  0
LINE
  5
37C
  8
0
  6
CONTINUOUS
 62
     7
 10
261.8773645238
 20
48.0714083758
 30
0.0
 11
261.8773645238
 21
47.4714082775
 31
0.0
  0
ARC
  5
37D
  8
0
  6
CONTINUOUS
 62
     7
 10
261.4773657635
 20
48.0714083669
 30
0.0
 40
0.4000000000000057
 50
0.0
 51
90.0
  0
LINE
  5
37E
  8
0
  6
CONTINUOUS
 62
     7
 10
4.2773670033
 20
47.4714082775
 30
0.0
 11
4.2773670033
 21
48.0714083758
 31
0.0
  0
ARC
  5
37F
  8
0
  6
CONTINUOUS
 62
     7
 10
4.6773657635
 20
48.0714083669
 30
0.0
 40
0.4000000000000057
 50
90.0
 51
180.0
  0
LINE
  5
380
  8
0
  6
CONTINUOUS
 62
     7
 10
4.2773670033
 20
39.4714084563
 30
0.0
 11
4.2773670033
 21
47.4714082775
 31
0.0
  0
LINE
  5
381
  8
0
  6
CONTINUOUS
 62
     7
 10
261.8773645238
 20
47.4714082775
 30
0.0
 11
261.8773645238
 21
39.4714084563
 31
0.0
  0
LINE
  5
382
  8
0
  6
CONTINUOUS
 62
     7
 10
261.4773696736
 20
38.4714082924
 30
0.0
 11
259.0773648099
 21
38.4714082924
 31
0.0
  0
LINE
  5
383
  8
0
  6
CONTINUOUS
 62
     7
 10
247.077364333
 20
38.4714082924
 30
0.0
 11
235.5773633794
 21
38.4714082924
 31
0.0
  0
LINE
  5
384
  8
0
  6
CONTINUOUS
 62
     7
 10
225.5773669556
 20
38.4714082924
 30
0.0
 11
211.0773629025
 21
38.4714082924
 31
0.0
  0
LINE
  5
385
  8
0
  6
CONTINUOUS
 62
     7
 10
175.0773644522
 20
38.4714082924
 30
0.0
 11
160.5773663596
 21
38.4714082924
 31
0.0
  0
LINE
  5
386
  8
0
  6
CONTINUOUS
 62
     7
 10
150.5773654655
 20
38.4714082924
 30
0.0
 11
139.0773656294
 21
38.4714082924
 31
0.0
  0
LINE
  5
387
  8
0
  6
CONTINUOUS
 62
     7
 10
127.0773658977
 20
38.4714082924
 30
0.0
 11
115.5773660616
 21
38.4714082924
 31
0.0
  0
LINE
  5
388
  8
0
  6
CONTINUOUS
 62
     7
 10
105.5773651675
 20
38.4714082924
 30
0.0
 11
91.0773670748
 21
38.4714082924
 31
0.0
  0
LINE
  5
389
  8
0
  6
CONTINUOUS
 62
     7
 10
55.0773686246
 20
38.4714082924
 30
0.0
 11
40.5773645715
 21
38.4714082924
 31
0.0
  0
LINE
  5
38A
  8
0
  6
CONTINUOUS
 62
     7
 10
30.5773681477
 20
38.4714082924
 30
0.0
 11
19.0773671941
 21
38.4714082924
 31
0.0
  0
LINE
  5
38B
  8
0
  6
CONTINUOUS
 62
     7
 10
7.0773667172
 20
38.4714082924
 30
0.0
 11
4.6773618535
 21
38.4714082924
 31
0.0
  0
ARC
  5
38C
  8
0
  6
CONTINUOUS
 62
     7
 10
4.6773657635
 20
38.8714083669
 30
0.0
 40
0.3999999999999986
 50
180.0
 51
270.0
  0
LINE
  5
38D
  8
0
  6
CONTINUOUS
 62
     7
 10
4.2773670033
 20
38.871408358
 30
0.0
 11
4.2773670033
 21
39.4714084563
 31
0.0
  0
LINE
  5
38E
  8
0
  6
CONTINUOUS
 62
     7
 10
261.8773645238
 20
39.4714084563
 30
0.0
 11
261.8773645238
 21
38.871408358
 31
0.0
  0
ARC
  5
38F
  8
0
  6
CONTINUOUS
 62
     7
 10
261.4773657635
 20
38.8714083669
 30
0.0
 40
0.3999999999999986
 50
270.0
 51
0.0
  0
POLYLINE
  5
390
  8
0
  6
CONTINUOUS
 62
     7
 66
     1
 10
0.0
 20
0.0
 30
0.0
  0
VERTEX
  5
877
  8
0
  6
CONTINUOUS
 62
     7
 10
47.4687522725
 20
34.6159015891
 30
0.0
  0
VERTEX
  5
878
  8
0
  6
CONTINUOUS
 62
     7
 10
47.0827764348
 20
36.8280437884
 30
0.0
  0
VERTEX
  5
879
  8
0
  6
CONTINUOUS
 62
     7
 10
46.8372231797
 20
38.4714082924
 30
0.0
  0
SEQEND
  5
87E
  8
0
  6
CONTINUOUS
 62
     7
  0
LINE
  5
391
  8
0
  6
CONTINUOUS
 62
     7
 10
46.0836178139
 20
48.4714084414
 30
0.0
 11
46.0773652867
 21
49.4714082328
 31
0.0
  0
LINE
  5
392
  8
0
  6
CONTINUOUS
 62
     7
 10
46.0773652867
 20
50.5361904499
 30
0.0
 11
46.0773652867
 21
49.4714082328
 31
0.0
  0
LINE
  5
393
  8
0
  6
CONTINUOUS
 62
     7
 10
66.0773640946
 20
55.4714080987
 30
0.0
 11
66.0118228272
 21
55.4714080987
 31
0.0
  0
ARC
  5
394
  8
0
  6
CONTINUOUS
 62
     7
 10
66.0773657635
 20
51.4714083669
 30
0.0
 40
4.0
 50
0.0
 51
90.0
  0
LINE
  5
395
  8
0
  6
CONTINUOUS
 62
     7
 10
70.0773662404
 20
49.4714082328
 30
0.0
 11
70.0763648824
 21
49.0714085398
 31
0.0
  0
ARC
  5
396
  8
0
  6
CONTINUOUS
 62
     7
 10
50.0773657635
 20
51.4714083669
 30
0.0
 40
1.500000000000001
 50
270.0
 51
38.8386719473
  0
ARC
  5
397
  8
0
  6
CONTINUOUS
 62
     7
 10
50.0773657635
 20
51.4714083669
 30
0.0
 40
1.5
 50
179.2809376961
 51
270.0
  0
CIRCLE
  5
398
  8
0
  6
CONTINUOUS
 62
     7
 10
66.0773657635
 20
51.4714083669
 30
0.0
 40
1.500000000000007
  0
LINE
  5
399
  8
0
  6
CONTINUOUS
 62
     7
 10
220.0773662404
 20
49.4714082328
 30
0.0
 11
220.0773662404
 21
50.5366367397
 31
0.0
  0
LINE
  5
39A
  8
0
  6
CONTINUOUS
 62
     7
 10
220.0773662404
 20
49.4714082328
 30
0.0
 11
220.0711137131
 21
48.4714084414
 31
0.0
  0
POLYLINE
  5
39B
  8
0
  6
CONTINUOUS
 62
     7
 66
     1
 10
0.0
 20
0.0
 30
0.0
  0
VERTEX
  5
87A
  8
0
  6
CONTINUOUS
 62
     7
 10
219.3175083474
 20
38.4714082924
 30
0.0
  0
VERTEX
  5
87B
  8
0
  6
CONTINUOUS
 62
     7
 10
219.0719550923
 20
36.8280437884
 30
0.0
  0
VERTEX
  5
87C
  8
0
  6
CONTINUOUS
 62
     7
 10
218.6858183221
 20
34.6150514779
 30
0.0
  0
SEQEND
  5
87D
  8
0
  6
CONTINUOUS
 62
     7
  0
LINE
  5
39C
  8
0
  6
CONTINUOUS
 62
     7
 10
196.0783666447
 20
49.0714085398
 30
0.0
 11
196.0773652867
 21
49.4714082328
 31
0.0
  0
ARC
  5
39D
  8
0
  6
CONTINUOUS
 62
     7
 10
216.0773657635
 20
51.4714083669
 30
0.0
 40
1.500000000000014
 50
141.2936122605
 51
0.5532366202
  0
CIRCLE
  5
39E
  8
0
  6
CONTINUOUS
 62
     7
 10
200.0773657635
 20
51.4714083669
 30
0.0
 40
1.5
  0
ARC
  5
39F
  8
0
  6
CONTINUOUS
 62
     7
 10
200.0773657635
 20
51.4714083669
 30
0.0
 40
4.0
 50
90.0
 51
180.0
  0
LINE
  5
3A0
  8
0
  6
CONTINUOUS
 62
     7
 10
200.1429086999
 20
55.4714080987
 30
0.0
 11
200.0773674325
 21
55.4714080987
 31
0.0
  0
ENDSEC
  0
EOF
