  0
SECTION
  2
HEADER
  9
$ACADVER
  1
AC1009
  9
$DWGCODEPAGE
  3
ansi_1252
  9
$INSBASE
 10
0.0
 20
0.0
 30
0.0
  9
$EXTMIN
 10
0.0
 20
0.0
 30
0.0
  9
$EXTMAX
 10
420.0
 20
297.0
 30
0.0
  9
$LIMMIN
 10
0.0
 20
0.0
  9
$LIMMAX
 10
420.0
 20
297.0
  9
$ORTHOMODE
 70
     0
  9
$REGENMODE
 70
     1
  9
$FILLMODE
 70
     1
  9
$QTEXTMODE
 70
     0
  9
$MIRRTEXT
 70
     1
  9
$DRAGMODE
 70
     2
  9
$LTSCALE
 40
1.0
  9
$OSMODE
 70
    37
  9
$ATTMODE
 70
     1
  9
$TEXTSIZE
 40
3.5
  9
$TRACEWID
 40
1.0
  9
$TEXTSTYLE
  7
STANDARD
  9
$CLAYER
  8
0
  9
$CELTYPE
  6
BYLAYER
  9
$CECOLOR
 62
   256
  9
$DIMSCALE
 40
1.0
  9
$DIMASZ
 40
4.0
  9
$DIMEXO
 40
0.0
  9
$DIMDLI
 40
3.75
  9
$DIMRND
 40
0.0
  9
$DIMDLE
 40
0.0
  9
$DIMEXE
 40
2.0
  9
$DIMTP
 40
0.0
  9
$DIMTM
 40
0.0
  9
$DIMTXT
 40
3.5
  9
$DIMCEN
 40
2.5
  9
$DIMTSZ
 40
0.0
  9
$DIMTOL
 70
     0
  9
$DIMLIM
 70
     0
  9
$DIMTIH
 70
     1
  9
$DIMTOH
 70
     1
  9
$DIMSE1
 70
     0
  9
$DIMSE2
 70
     0
  9
$DIMTAD
 70
     1
  9
$DIMZIN
 70
     0
  9
$DIMBLK
  1

  9
$DIMASO
 70
     1
  9
$DIMSHO
 70
     1
  9
$DIMPOST
  1

  9
$DIMAPOST
  1

  9
$DIMALT
 70
     0
  9
$DIMALTD
 70
     3
  9
$DIMALTF
 40
0.0393700787
  9
$DIMLFAC
 40
5.0
  9
$DIMTOFL
 70
     1
  9
$DIMTVP
 40
0.0
  9
$DIMTIX
 70
     0
  9
$DIMSOXD
 70
     0
  9
$DIMSAH
 70
     0
  9
$DIMBLK1
  1

  9
$DIMBLK2
  1

  9
$DIMSTYLE
  2
ISO-25
  9
$DIMCLRD
 70
     0
  9
$DIMCLRE
 70
     0
  9
$DIMCLRT
 70
     0
  9
$DIMTFAC
 40
1.0
  9
$DIMGAP
 40
1.524
  9
$LUNITS
 70
     2
  9
$LUPREC
 70
     2
  9
$SKETCHINC
 40
1.0
  9
$FILLETRAD
 40
10.0
  9
$AUNITS
 70
     0
  9
$AUPREC
 70
     2
  9
$MENU
  1
.
  9
$ELEVATION
 40
0.0
  9
$PELEVATION
 40
0.0
  9
$THICKNESS
 40
0.0
  9
$LIMCHECK
 70
     0
  9
$CHAMFERA
 40
10.0
  9
$CHAMFERB
 40
10.0
  9
$SKPOLY
 70
     0
  9
$TDCREATE
 40
2457802.455688507
  9
$TDUPDATE
 40
2457802.455688727
  9
$TDINDWG
 40
0.0000000116
  9
$TDUSRTIMER
 40
0.0000000116
  9
$USRTIMER
 70
     1
  9
$ANGBASE
 50
0.0
  9
$ANGDIR
 70
     0
  9
$PDMODE
 70
     0
  9
$PDSIZE
 40
-1.0
  9
$PLINEWID
 40
0.0
  9
$COORDS
 70
     1
  9
$SPLFRAME
 70
     0
  9
$SPLINETYPE
 70
     6
  9
$SPLINESEGS
 70
     8
  9
$ATTDIA
 70
     0
  9
$ATTREQ
 70
     1
  9
$HANDLING
 70
     1
  9
$HANDSEED
  5
885
  9
$SURFTAB1
 70
     6
  9
$SURFTAB2
 70
     6
  9
$SURFTYPE
 70
     6
  9
$SURFU
 70
     6
  9
$SURFV
 70
     6
  9
$UCSNAME
  2

  9
$UCSORG
 10
0.0
 20
0.0
 30
0.0
  9
$UCSXDIR
 10
1.0
 20
0.0
 30
0.0
  9
$UCSYDIR
 10
0.0
 20
1.0
 30
0.0
  9
$PUCSNAME
  2

  9
$PUCSORG
 10
0.0
 20
0.0
 30
0.0
  9
$PUCSXDIR
 10
1.0
 20
0.0
 30
0.0
  9
$PUCSYDIR
 10
0.0
 20
1.0
 30
0.0
  9
$USERI1
 70
     0
  9
$USERI2
 70
     0
  9
$USERI3
 70
     0
  9
$USERI4
 70
     0
  9
$USERI5
 70
     0
  9
$USERR1
 40
0.0
  9
$USERR2
 40
0.0
  9
$USERR3
 40
0.0
  9
$USERR4
 40
0.0
  9
$USERR5
 40
0.0
  9
$WORLDVIEW
 70
     1
  9
$SHADEDGE
 70
     3
  9
$SHADEDIF
 70
    70
  9
$TILEMODE
 70
     1
  9
$MAXACTVP
 70
    64
  9
$PLIMCHECK
 70
     0
  9
$PEXTMIN
 10
1.0000000000E+20
 20
1.0000000000E+20
 30
1.0000000000E+20
  9
$PEXTMAX
 10
-1.0000000000E+20
 20
-1.0000000000E+20
 30
-1.0000000000E+20
  9
$PLIMMIN
 10
0.0
 20
0.0
  9
$PLIMMAX
 10
420.0
 20
297.0
  9
$UNITMODE
 70
     0
  9
$VISRETAIN
 70
     1
  9
$PLINEGEN
 70
     0
  9
$PSLTSCALE
 70
     1
  0
ENDSEC
  0
SECTION
  2
TABLES
  0
TABLE
  2
VPORT
 70
     1
  0
VPORT
  2
*ACTIVE
 70
     0
 10
0.0
 20
0.0
 11
1.0
 21
1.0
 12
210.0
 22
148.5
 13
0.0
 23
0.0
 14
10.0
 24
10.0
 15
10.0
 25
10.0
 16
0.0
 26
0.0
 36
1.0
 17
0.0
 27
0.0
 37
0.0
 40
297.0
 41
1.4141414141
 42
50.0
 43
0.0
 44
0.0
 50
0.0
 51
0.0
 71
     0
 72
  2000
 73
     1
 74
     3
 75
     0
 76
     0
 77
     0
 78
     0
  0
ENDTAB
  0
TABLE
  2
LTYPE
 70
     6
  0
LTYPE
  2
CONTINUOUS
 70
     0
  3
Solid line
 72
    65
 73
     0
 40
0.0
  0
LTYPE
  2
HIDDEN
 70
     0
  3
Hidden __ __ __ __ __ __ __ __ __ __ __ __ __ __
 72
    65
 73
     2
 40
1.905
 49
1.27
 49
-0.635
  0
LTYPE
  2
PHANTOM
 70
     0
  3
Phantom ______  __  __  ______  __  __  ______
 72
    65
 73
     6
 40
12.7
 49
6.35
 49
-1.27
 49
1.27
 49
-1.27
 49
1.27
 49
-1.27
  0
LTYPE
  2
CENTER
 70
     0
  3
Center ____ _ ____ _ ____ _ ____ _ ____ _ ____
 72
    65
 73
     4
 40
10.16
 49
6.35
 49
-1.27
 49
1.27
 49
-1.27
  0
LTYPE
  2
CENTERX2
 70
     0
  3
Center (2x) ________  __  ________  __  _____
 72
    65
 73
     4
 40
20.32
 49
12.7
 49
-2.54
 49
2.54
 49
-2.54
  0
LTYPE
  2
DOT2
 70
     0
  3
Dot (.5x) ........................................
 72
    65
 73
     2
 40
0.635
 49
0.0
 49
-0.635
  0
ENDTAB
  0
TABLE
  2
LAYER
 70
     2
  0
LAYER
  2
0
 70
     0
 62
     7
  6
CONTINUOUS
  0
LAYER
  2
FORMAT
 70
     0
 62
     7
  6
CONTINUOUS
  0
ENDTAB
  0
TABLE
  2
STYLE
 70
     1
  0
STYLE
  2
STANDARD
 70
     0
 40
0.0
 41
1.0
 50
0.0
 71
     0
 42
3.5
  3
txt
  4

  0
ENDTAB
  0
TABLE
  2
VIEW
 70
     0
  0
ENDTAB
  0
TABLE
  2
UCS
 70
     0
  0
ENDTAB
  0
TABLE
  2
APPID
 70
     1
  0
APPID
  2
ACAD
 70
     0
  0
ENDTAB
  0
TABLE
  2
DIMSTYLE
 70
     1
  0
DIMSTYLE
  2
ISO-25
 70
     0
  3

  4

  5

  6

  7

 40
1.0
 41
2.5
 42
0.625
 43
3.75
 44
1.25
 45
0.0
 46
0.0
 47
0.0
 48
0.0
140
2.5
141
2.5
142
0.0
143
0.0393700787
144
1.0
145
0.0
146
1.0
147
0.625
 71
     0
 72
     0
 73
     0
 74
     0
 75
     0
 76
     0
 77
     1
 78
     8
170
     0
171
     3
172
     1
173
     0
174
     0
175
     0
176
     0
177
     0
178
     0
  0
ENDTAB
  0
ENDSEC
  0
SECTION
  2
BLOCKS
  0
BLOCK
  8
0
  2
$MODEL_SPACE
 70
     0
 10
0.0
 20
0.0
 30
0.0
  3
$MODEL_SPACE
  1

  0
ENDBLK
  5
21
  8
0
  0
BLOCK
 67
     1
  8
0
  2
$PAPER_SPACE
 70
     0
 10
0.0
 20
0.0
 30
0.0
  3
$PAPER_SPACE
  1

  0
ENDBLK
  5
1D
 67
     1
  8
0
  0
ENDSEC
  0
SECTION
  2
ENTITIES
  0
POLYLINE
  5
45
  8
0
  6
CONTINUOUS
 62
     7
 66
     1
 10
0.0
 20
0.0
 30
0.0
  0
VERTEX
  5
31A
  8
0
  6
CONTINUOUS
 62
     7
 10
99.2375660131
 20
269.5750805032
 30
0.0
  0
VERTEX
  5
31B
  8
0
  6
CONTINUOUS
 62
     7
 10
99.1730529258
 20
269.6045132768
 30
0.0
  0
VERTEX
  5
31C
  8
0
  6
CONTINUOUS
 62
     7
 10
98.6427355001
 20
269.8458405626
 30
0.0
  0
SEQEND
  5
884
  8
0
  6
CONTINUOUS
 62
     7
  0
LINE
  5
46
  8
0
  6
CONTINUOUS
 62
     7
 10
35.9725344369
 20
269.8464723718
 30
0.0
 11
35.3756237218
 21
269.5744963777
 31
0.0
  0
POLYLINE
  5
47
  8
0
  6
CONTINUOUS
 62
     7
 66
     1
 10
0.0
 20
0.0
 30
0.0
  0
VERTEX
  5
31D
  8
0
  6
CONTINUOUS
 62
     7
 10
219.237564821
 20
269.5750805032
 30
0.0
  0
VERTEX
  5
31E
  8
0
  6
CONTINUOUS
 62
     7
 10
219.1730547139
 20
269.6045132768
 30
0.0
  0
VERTEX
  5
31F
  8
0
  6
CONTINUOUS
 62
     7
 10
218.642734308
 20
269.8458405626
 30
0.0
  0
SEQEND
  5
883
  8
0
  6
CONTINUOUS
 62
     7
  0
LINE
  5
48
  8
0
  6
CONTINUOUS
 62
     7
 10
155.9725362251
 20
269.8464723718
 30
0.0
 11
155.3756225297
 21
269.5744963777
 31
0.0
  0
POLYLINE
  5
49
  8
0
  6
CONTINUOUS
 62
     7
 66
     1
 10
0.0
 20
0.0
 30
0.0
  0
VERTEX
  5
320
  8
0
  6
CONTINUOUS
 62
     7
 10
224.7440326402
 20
195.8779247892
 30
0.0
  0
VERTEX
  5
321
  8
0
  6
CONTINUOUS
 62
     7
 10
223.469172735
 20
195.7077118051
 30
0.0
  0
VERTEX
  5
322
  8
0
  6
CONTINUOUS
 62
     7
 10
222.3763275335
 20
195.5666454923
 30
0.0
  0
VERTEX
  5
323
  8
0
  6
CONTINUOUS
 62
     7
 10
221.4658010194
 20
195.4525145185
 30
0.0
  0
VERTEX
  5
324
  8
0
  6
CONTINUOUS
 62
     7
 10
220.7378256509
 20
195.3634830606
 30
0.0
  0
VERTEX
  5
325
  8
0
  6
CONTINUOUS
 62
     7
 10
220.1394367406
 20
195.291766752
 30
0.0
  0
VERTEX
  5
326
  8
0
  6
CONTINUOUS
 62
     7
 10
219.7183895299
 20
195.2421756876
 30
0.0
  0
VERTEX
  5
327
  8
0
  6
CONTINUOUS
 62
     7
 10
219.2822027395
 20
195.1919468534
 30
0.0
  0
VERTEX
  5
328
  8
0
  6
CONTINUOUS
 62
     7
 10
218.8128578851
 20
195.1391430986
 30
0.0
  0
VERTEX
  5
329
  8
0
  6
CONTINUOUS
 62
     7
 10
218.3103251645
 20
195.0839611185
 30
0.0
  0
VERTEX
  5
32A
  8
0
  6
CONTINUOUS
 62
     7
 10
217.7745866964
 20
195.0265916479
 30
0.0
  0
VERTEX
  5
32B
  8
0
  6
CONTINUOUS
 62
     7
 10
216.3802850435
 20
194.8839756143
 30
0.0
  0
VERTEX
  5
32C
  8
0
  6
CONTINUOUS
 62
     7
 10
214.8011195848
 20
194.7334798467
 30
0.0
  0
VERTEX
  5
32D
  8
0
  6
CONTINUOUS
 62
     7
 10
213.481556196
 20
194.6163567198
 30
0.0
  0
VERTEX
  5
32E
  8
0
  6
CONTINUOUS
 62
     7
 10
212.1548462102
 20
194.5071788919
 30
0.0
  0
VERTEX
  5
32F
  8
0
  6
CONTINUOUS
 62
     7
 10
210.9212863633
 20
194.4145115507
 30
0.0
  0
VERTEX
  5
330
  8
0
  6
CONTINUOUS
 62
     7
 10
209.7810375879
 20
194.3372341287
 30
0.0
  0
VERTEX
  5
331
  8
0
  6
CONTINUOUS
 62
     7
 10
208.7342608163
 20
194.2744048727
 30
0.0
  0
VERTEX
  5
332
  8
0
  6
CONTINUOUS
 62
     7
 10
207.7811050603
 20
194.2252846849
 30
0.0
  0
VERTEX
  5
333
  8
0
  6
CONTINUOUS
 62
     7
 10
206.9217074106
 20
194.1893371237
 30
0.0
  0
VERTEX
  5
334
  8
0
  6
CONTINUOUS
 62
     7
 10
206.1555016229
 20
194.1660734308
 30
0.0
  0
VERTEX
  5
335
  8
0
  6
CONTINUOUS
 62
     7
 10
205.7948875615
 20
194.1566260946
 30
0.0
  0
VERTEX
  5
336
  8
0
  6
CONTINUOUS
 62
     7
 10
205.4412174413
 20
194.1458734167
 30
0.0
  0
VERTEX
  5
337
  8
0
  6
CONTINUOUS
 62
     7
 10
205.0944793413
 20
194.1334160459
 30
0.0
  0
VERTEX
  5
338
  8
0
  6
CONTINUOUS
 62
     7
 10
204.7546673009
 20
194.1198679102
 30
0.0
  0
VERTEX
  5
339
  8
0
  6
CONTINUOUS
 62
     7
 10
204.199003
 20
194.096830715
 30
0.0
  0
VERTEX
  5
33A
  8
0
  6
CONTINUOUS
 62
     7
 10
203.5838413427
 20
194.0719457758
 30
0.0
  0
VERTEX
  5
33B
  8
0
  6
CONTINUOUS
 62
     7
 10
202.8509664724
 20
194.0436812532
 30
0.0
  0
VERTEX
  5
33C
  8
0
  6
CONTINUOUS
 62
     7
 10
202.0003545472
 20
194.0127285612
 30
0.0
  0
VERTEX
  5
33D
  8
0
  6
CONTINUOUS
 62
     7
 10
200.9829330633
 20
193.9782413137
 30
0.0
  0
VERTEX
  5
33E
  8
0
  6
CONTINUOUS
 62
     7
 10
199.8362410257
 20
193.942621578
 30
0.0
  0
VERTEX
  5
33F
  8
0
  6
CONTINUOUS
 62
     7
 10
198.560439367
 20
193.9069660795
 30
0.0
  0
VERTEX
  5
340
  8
0
  6
CONTINUOUS
 62
     7
 10
192.5128805826
 20
193.7923105848
 30
0.0
  0
VERTEX
  5
341
  8
0
  6
CONTINUOUS
 62
     7
 10
186.4958334157
 20
193.7628062856
 30
0.0
  0
VERTEX
  5
342
  8
0
  6
CONTINUOUS
 62
     7
 10
184.1212916562
 20
193.7737496984
 30
0.0
  0
VERTEX
  5
343
  8
0
  6
CONTINUOUS
 62
     7
 10
181.8862366865
 20
193.7957795751
 30
0.0
  0
VERTEX
  5
344
  8
0
  6
CONTINUOUS
 62
     7
 10
179.8050034234
 20
193.8266070974
 30
0.0
  0
VERTEX
  5
345
  8
0
  6
CONTINUOUS
 62
     7
 10
177.8776157091
 20
193.8641639841
 30
0.0
  0
VERTEX
  5
346
  8
0
  6
CONTINUOUS
 62
     7
 10
176.0943520257
 20
193.9067991865
 30
0.0
  0
VERTEX
  5
347
  8
0
  6
CONTINUOUS
 62
     7
 10
175.1849281976
 20
193.9315231931
 30
0.0
  0
VERTEX
  5
348
  8
0
  6
CONTINUOUS
 62
     7
 10
174.2327887008
 20
193.9596387041
 30
0.0
  0
VERTEX
  5
349
  8
0
  6
CONTINUOUS
 62
     7
 10
173.2379514167
 20
193.9915331495
 30
0.0
  0
VERTEX
  5
34A
  8
0
  6
CONTINUOUS
 62
     7
 10
172.2004401872
 20
194.0276356828
 30
0.0
  0
VERTEX
  5
34B
  8
0
  6
CONTINUOUS
 62
     7
 10
171.1760837028
 20
194.0662237299
 30
0.0
  0
VERTEX
  5
34C
  8
0
  6
CONTINUOUS
 62
     7
 10
170.507763643
 20
194.0930219782
 30
0.0
  0
VERTEX
  5
34D
  8
0
  6
CONTINUOUS
 62
     7
 10
170.0270939061
 20
194.113102783
 30
0.0
  0
VERTEX
  5
34E
  8
0
  6
CONTINUOUS
 62
     7
 10
169.7130549142
 20
194.1265793932
 30
0.0
  0
VERTEX
  5
34F
  8
0
  6
CONTINUOUS
 62
     7
 10
169.2321735809
 20
194.1473873747
 30
0.0
  0
VERTEX
  5
350
  8
0
  6
CONTINUOUS
 62
     7
 10
168.6762619207
 20
194.1704543722
 30
0.0
  0
VERTEX
  5
351
  8
0
  6
CONTINUOUS
 62
     7
 10
168.0453795383
 20
194.1945823324
 30
0.0
  0
VERTEX
  5
352
  8
0
  6
CONTINUOUS
 62
     7
 10
167.3395323942
 20
194.2219885481
 30
0.0
  0
VERTEX
  5
353
  8
0
  6
CONTINUOUS
 62
     7
 10
166.5578025768
 20
194.2562075746
 30
0.0
  0
VERTEX
  5
354
  8
0
  6
CONTINUOUS
 62
     7
 10
165.6956511924
 20
194.3010421884
 30
0.0
  0
VERTEX
  5
355
  8
0
  6
CONTINUOUS
 62
     7
 10
164.7525060365
 20
194.3573924196
 30
0.0
  0
VERTEX
  5
356
  8
0
  6
CONTINUOUS
 62
     7
 10
163.7284833381
 20
194.4258185518
 30
0.0
  0
VERTEX
  5
357
  8
0
  6
CONTINUOUS
 62
     7
 10
162.6237023065
 20
194.5070179594
 30
0.0
  0
VERTEX
  5
358
  8
0
  6
CONTINUOUS
 62
     7
 10
161.4382940719
 20
194.601807226
 30
0.0
  0
VERTEX
  5
359
  8
0
  6
CONTINUOUS
 62
     7
 10
159.3743103931
 20
194.7841735971
 30
0.0
  0
VERTEX
  5
35A
  8
0
  6
CONTINUOUS
 62
     7
 10
157.1190494487
 20
195.0068684709
 30
0.0
  0
VERTEX
  5
35B
  8
0
  6
CONTINUOUS
 62
     7
 10
154.7732073257
 20
195.2632638109
 30
0.0
  0
VERTEX
  5
35C
  8
0
  6
CONTINUOUS
 62
     7
 10
152.3567784021
 20
195.553115238
 30
0.0
  0
VERTEX
  5
35D
  8
0
  6
CONTINUOUS
 62
     7
 10
149.8701292465
 20
195.8779247892
 30
0.0
  0
SEQEND
  5
882
  8
0
  6
CONTINUOUS
 62
     7
  0
POLYLINE
  5
4A
  8
0
  6
CONTINUOUS
 62
     7
 66
     1
 10
0.0
 20
0.0
 30
0.0
  0
VERTEX
  5
35E
  8
0
  6
CONTINUOUS
 62
     7
 10
224.9071467111
 20
195.2941688192
 30
0.0
  0
VERTEX
  5
35F
  8
0
  6
CONTINUOUS
 62
     7
 10
224.8249280641
 20
195.6551643503
 30
0.0
  0
VERTEX
  5
360
  8
0
  6
CONTINUOUS
 62
     7
 10
224.6909129808
 20
196.2441476476
 30
0.0
  0
SEQEND
  5
881
  8
0
  6
CONTINUOUS
 62
     7
  0
POLYLINE
  5
4B
  8
0
  6
CONTINUOUS
 62
     7
 66
     1
 10
0.0
 20
0.0
 30
0.0
  0
VERTEX
  5
361
  8
0
  6
CONTINUOUS
 62
     7
 10
149.9232459256
 20
196.2441476476
 30
0.0
  0
VERTEX
  5
362
  8
0
  6
CONTINUOUS
 62
     7
 10
149.7905585358
 20
195.660999645
 30
0.0
  0
VERTEX
  5
363
  8
0
  6
CONTINUOUS
 62
     7
 10
149.7048083136
 20
195.284477104
 30
0.0
  0
SEQEND
  5
880
  8
0
  6
CONTINUOUS
 62
     7
  0
POLYLINE
  5
4C
  8
0
  6
CONTINUOUS
 62
     7
 66
     1
 10
0.0
 20
0.0
 30
0.0
  0
VERTEX
  5
364
  8
0
  6
CONTINUOUS
 62
     7
 10
104.7440308521
 20
195.8779247892
 30
0.0
  0
VERTEX
  5
365
  8
0
  6
CONTINUOUS
 62
     7
 10
103.4691709468
 20
195.7077118051
 30
0.0
  0
VERTEX
  5
366
  8
0
  6
CONTINUOUS
 62
     7
 10
102.3763302157
 20
195.5666454923
 30
0.0
  0
VERTEX
  5
367
  8
0
  6
CONTINUOUS
 62
     7
 10
101.4658022115
 20
195.4525145185
 30
0.0
  0
VERTEX
  5
368
  8
0
  6
CONTINUOUS
 62
     7
 10
100.737826843
 20
195.3634830606
 30
0.0
  0
VERTEX
  5
369
  8
0
  6
CONTINUOUS
 62
     7
 10
100.1394349525
 20
195.291766752
 30
0.0
  0
VERTEX
  5
36A
  8
0
  6
CONTINUOUS
 62
     7
 10
99.7183877418
 20
195.2421756876
 30
0.0
  0
VERTEX
  5
36B
  8
0
  6
CONTINUOUS
 62
     7
 10
99.2822069118
 20
195.1919468534
 30
0.0
  0
VERTEX
  5
36C
  8
0
  6
CONTINUOUS
 62
     7
 10
98.8128590772
 20
195.1391430986
 30
0.0
  0
VERTEX
  5
36D
  8
0
  6
CONTINUOUS
 62
     7
 10
98.3103263566
 20
195.0839611185
 30
0.0
  0
VERTEX
  5
36E
  8
0
  6
CONTINUOUS
 62
     7
 10
97.7745878885
 20
195.0265916479
 30
0.0
  0
VERTEX
  5
36F
  8
0
  6
CONTINUOUS
 62
     7
 10
96.3802832553
 20
194.8839756143
 30
0.0
  0
VERTEX
  5
370
  8
0
  6
CONTINUOUS
 62
     7
 10
94.8011177966
 20
194.7334798467
 30
0.0
  0
VERTEX
  5
371
  8
0
  6
CONTINUOUS
 62
     7
 10
93.4815573881
 20
194.6163567198
 30
0.0
  0
VERTEX
  5
372
  8
0
  6
CONTINUOUS
 62
     7
 10
92.1548474023
 20
194.5071788919
 30
0.0
  0
VERTEX
  5
373
  8
0
  6
CONTINUOUS
 62
     7
 10
90.9212845752
 20
194.4145115507
 30
0.0
  0
VERTEX
  5
374
  8
0
  6
CONTINUOUS
 62
     7
 10
89.7810357997
 20
194.3372341287
 30
0.0
  0
VERTEX
  5
375
  8
0
  6
CONTINUOUS
 62
     7
 10
88.7342620084
 20
194.2744048727
 30
0.0
  0
VERTEX
  5
376
  8
0
  6
CONTINUOUS
 62
     7
 10
87.7811062524
 20
194.2252846849
 30
0.0
  0
VERTEX
  5
377
  8
0
  6
CONTINUOUS
 62
     7
 10
86.9217086027
 20
194.1893371237
 30
0.0
  0
VERTEX
  5
378
  8
0
  6
CONTINUOUS
 62
     7
 10
86.1554998348
 20
194.1660734308
 30
0.0
  0
VERTEX
  5
379
  8
0
  6
CONTINUOUS
 62
     7
 10
85.7948887536
 20
194.1566260946
 30
0.0
  0
VERTEX
  5
37A
  8
0
  6
CONTINUOUS
 62
     7
 10
85.4412186334
 20
194.1458734167
 30
0.0
  0
VERTEX
  5
37B
  8
0
  6
CONTINUOUS
 62
     7
 10
85.0944775531
 20
194.1334160459
 30
0.0
  0
VERTEX
  5
37C
  8
0
  6
CONTINUOUS
 62
     7
 10
84.754668493
 20
194.1198679102
 30
0.0
  0
VERTEX
  5
37D
  8
0
  6
CONTINUOUS
 62
     7
 10
84.1990071723
 20
194.096830715
 30
0.0
  0
VERTEX
  5
37E
  8
0
  6
CONTINUOUS
 62
     7
 10
83.5838395545
 20
194.0719457758
 30
0.0
  0
VERTEX
  5
37F
  8
0
  6
CONTINUOUS
 62
     7
 10
82.8509646842
 20
194.0436812532
 30
0.0
  0
VERTEX
  5
380
  8
0
  6
CONTINUOUS
 62
     7
 10
82.0003557393
 20
194.0127285612
 30
0.0
  0
VERTEX
  5
381
  8
0
  6
CONTINUOUS
 62
     7
 10
80.9829342553
 20
193.9782413137
 30
0.0
  0
VERTEX
  5
382
  8
0
  6
CONTINUOUS
 62
     7
 10
79.8362422178
 20
193.942621578
 30
0.0
  0
VERTEX
  5
383
  8
0
  6
CONTINUOUS
 62
     7
 10
78.5604375789
 20
193.9069660795
 30
0.0
  0
VERTEX
  5
384
  8
0
  6
CONTINUOUS
 62
     7
 10
72.5128817746
 20
193.7923105848
 30
0.0
  0
VERTEX
  5
385
  8
0
  6
CONTINUOUS
 62
     7
 10
66.4958346078
 20
193.7628062856
 30
0.0
  0
VERTEX
  5
386
  8
0
  6
CONTINUOUS
 62
     7
 10
64.1212928483
 20
193.7737496984
 30
0.0
  0
VERTEX
  5
387
  8
0
  6
CONTINUOUS
 62
     7
 10
61.8862378785
 20
193.7957795751
 30
0.0
  0
VERTEX
  5
388
  8
0
  6
CONTINUOUS
 62
     7
 10
59.8050046155
 20
193.8266070974
 30
0.0
  0
VERTEX
  5
389
  8
0
  6
CONTINUOUS
 62
     7
 10
57.8776169011
 20
193.8641639841
 30
0.0
  0
VERTEX
  5
38A
  8
0
  6
CONTINUOUS
 62
     7
 10
56.0943532178
 20
193.9067991865
 30
0.0
  0
VERTEX
  5
38B
  8
0
  6
CONTINUOUS
 62
     7
 10
55.1849293897
 20
193.9315231931
 30
0.0
  0
VERTEX
  5
38C
  8
0
  6
CONTINUOUS
 62
     7
 10
54.2327869127
 20
193.9596387041
 30
0.0
  0
VERTEX
  5
38D
  8
0
  6
CONTINUOUS
 62
     7
 10
53.2379496286
 20
193.9915331495
 30
0.0
  0
VERTEX
  5
38E
  8
0
  6
CONTINUOUS
 62
     7
 10
52.2004413793
 20
194.0276356828
 30
0.0
  0
VERTEX
  5
38F
  8
0
  6
CONTINUOUS
 62
     7
 10
51.1760819146
 20
194.0662237299
 30
0.0
  0
VERTEX
  5
390
  8
0
  6
CONTINUOUS
 62
     7
 10
50.5077648351
 20
194.0930219782
 30
0.0
  0
VERTEX
  5
391
  8
0
  6
CONTINUOUS
 62
     7
 10
50.0270950982
 20
194.113102783
 30
0.0
  0
VERTEX
  5
392
  8
0
  6
CONTINUOUS
 62
     7
 10
49.7130561063
 20
194.1265793932
 30
0.0
  0
VERTEX
  5
393
  8
0
  6
CONTINUOUS
 62
     7
 10
49.2321717927
 20
194.1473873747
 30
0.0
  0
VERTEX
  5
394
  8
0
  6
CONTINUOUS
 62
     7
 10
48.6762631128
 20
194.1704543722
 30
0.0
  0
VERTEX
  5
395
  8
0
  6
CONTINUOUS
 62
     7
 10
48.0453777501
 20
194.1945823324
 30
0.0
  0
VERTEX
  5
396
  8
0
  6
CONTINUOUS
 62
     7
 10
47.3395335862
 20
194.2219885481
 30
0.0
  0
VERTEX
  5
397
  8
0
  6
CONTINUOUS
 62
     7
 10
46.5578007886
 20
194.2562075746
 30
0.0
  0
VERTEX
  5
398
  8
0
  6
CONTINUOUS
 62
     7
 10
45.6956494043
 20
194.3010421884
 30
0.0
  0
VERTEX
  5
399
  8
0
  6
CONTINUOUS
 62
     7
 10
44.7525072286
 20
194.3573924196
 30
0.0
  0
VERTEX
  5
39A
  8
0
  6
CONTINUOUS
 62
     7
 10
43.72848155
 20
194.4258185518
 30
0.0
  0
VERTEX
  5
39B
  8
0
  6
CONTINUOUS
 62
     7
 10
42.6237034986
 20
194.5070179594
 30
0.0
  0
VERTEX
  5
39C
  8
0
  6
CONTINUOUS
 62
     7
 10
41.4382922838
 20
194.601807226
 30
0.0
  0
VERTEX
  5
39D
  8
0
  6
CONTINUOUS
 62
     7
 10
39.3743086049
 20
194.7841735971
 30
0.0
  0
VERTEX
  5
39E
  8
0
  6
CONTINUOUS
 62
     7
 10
37.1190476606
 20
195.0068684709
 30
0.0
  0
VERTEX
  5
39F
  8
0
  6
CONTINUOUS
 62
     7
 10
34.7732055375
 20
195.2632638109
 30
0.0
  0
VERTEX
  5
3A0
  8
0
  6
CONTINUOUS
 62
     7
 10
32.3567795942
 20
195.553115238
 30
0.0
  0
VERTEX
  5
3A1
  8
0
  6
CONTINUOUS
 62
     7
 10
29.8701274583
 20
195.8779247892
 30
0.0
  0
SEQEND
  5
87F
  8
0
  6
CONTINUOUS
 62
     7
  0
POLYLINE
  5
4D
  8
0
  6
CONTINUOUS
 62
     7
 66
     1
 10
0.0
 20
0.0
 30
0.0
  0
VERTEX
  5
3A2
  8
0
  6
CONTINUOUS
 62
     7
 10
104.9071434328
 20
195.2941688192
 30
0.0
  0
VERTEX
  5
3A3
  8
0
  6
CONTINUOUS
 62
     7
 10
104.8249277661
 20
195.6551643503
 30
0.0
  0
VERTEX
  5
3A4
  8
0
  6
CONTINUOUS
 62
     7
 10
104.6909141729
 20
196.2441476476
 30
0.0
  0
SEQEND
  5
87E
  8
0
  6
CONTINUOUS
 62
     7
  0
POLYLINE
  5
4E
  8
0
  6
CONTINUOUS
 62
     7
 66
     1
 10
0.0
 20
0.0
 30
0.0
  0
VERTEX
  5
3A5
  8
0
  6
CONTINUOUS
 62
     7
 10
29.9232471177
 20
196.2441476476
 30
0.0
  0
VERTEX
  5
3A6
  8
0
  6
CONTINUOUS
 62
     7
 10
29.790561218
 20
195.660999645
 30
0.0
  0
VERTEX
  5
3A7
  8
0
  6
CONTINUOUS
 62
     7
 10
29.7048080156
 20
195.284477104
 30
0.0
  0
SEQEND
  5
87D
  8
0
  6
CONTINUOUS
 62
     7
  0
LINE
  5
4F
  8
0
  6
CONTINUOUS
 62
     7
 10
45.1341498086
 20
103.8898714301
 30
0.0
 11
48.8927948663
 21
103.8898714301
 31
0.0
  0
LINE
  5
50
  8
0
  6
CONTINUOUS
 62
     7
 10
48.8927948663
 20
102.6898714197
 30
0.0
 11
45.1341498086
 21
102.6898714197
 31
0.0
  0
LINE
  5
51
  8
0
  6
CONTINUOUS
 62
     7
 10
48.8927948663
 20
103.8898714301
 30
0.0
 11
55.7213652322
 21
103.8898714301
 31
0.0
  0
LINE
  5
52
  8
0
  6
CONTINUOUS
 62
     7
 10
48.8927948663
 20
102.6898714197
 30
0.0
 11
55.7213652322
 21
102.6898714197
 31
0.0
  0
LINE
  5
53
  8
0
  6
CONTINUOUS
 62
     7
 10
55.7213652322
 20
103.8898714301
 30
0.0
 11
59.4800102899
 21
103.8898714301
 31
0.0
  0
LINE
  5
54
  8
0
  6
CONTINUOUS
 62
     7
 10
59.4800102899
 20
102.6898714197
 30
0.0
 11
55.7213652322
 21
102.6898714197
 31
0.0
  0
LINE
  5
55
  8
0
  6
CONTINUOUS
 62
     7
 10
198.8927948663
 20
102.6898714197
 30
0.0
 11
195.1341498086
 21
102.6898714197
 31
0.0
  0
LINE
  5
56
  8
0
  6
CONTINUOUS
 62
     7
 10
195.1341498086
 20
103.8898714301
 30
0.0
 11
198.8927948663
 21
103.8898714301
 31
0.0
  0
LINE
  5
57
  8
0
  6
CONTINUOUS
 62
     7
 10
198.8927948663
 20
102.6898714197
 30
0.0
 11
205.7213652322
 21
102.6898714197
 31
0.0
  0
LINE
  5
58
  8
0
  6
CONTINUOUS
 62
     7
 10
198.8927948663
 20
103.8898714301
 30
0.0
 11
205.7213652322
 21
103.8898714301
 31
0.0
  0
LINE
  5
59
  8
0
  6
CONTINUOUS
 62
     7
 10
209.4800102899
 20
102.6898714197
 30
0.0
 11
205.7213652322
 21
102.6898714197
 31
0.0
  0
LINE
  5
5A
  8
0
  6
CONTINUOUS
 62
     7
 10
205.7213652322
 20
103.8898714301
 30
0.0
 11
209.4800102899
 21
103.8898714301
 31
0.0
  0
LINE
  5
5B
  8
0
  6
CONTINUOUS
 62
     7
 10
40.3070795724
 20
102.6898714197
 30
0.0
 11
40.3070795724
 21
103.8898714301
 31
0.0
  0
LINE
  5
5C
  8
0
  6
CONTINUOUS
 62
     7
 10
45.1341498086
 20
103.8898714301
 30
0.0
 11
40.3070795724
 21
103.8898714301
 31
0.0
  0
LINE
  5
5D
  8
0
  6
CONTINUOUS
 62
     7
 10
40.3070795724
 20
102.6898714197
 30
0.0
 11
45.1341498086
 21
102.6898714197
 31
0.0
  0
LINE
  5
5E
  8
0
  6
CONTINUOUS
 62
     7
 10
64.3070805261
 20
102.6898714197
 30
0.0
 11
64.3070805261
 21
103.8898714301
 31
0.0
  0
LINE
  5
5F
  8
0
  6
CONTINUOUS
 62
     7
 10
64.3070805261
 20
103.8898714301
 30
0.0
 11
59.4800102899
 21
103.8898714301
 31
0.0
  0
LINE
  5
60
  8
0
  6
CONTINUOUS
 62
     7
 10
59.4800102899
 20
102.6898714197
 30
0.0
 11
64.3070805261
 21
102.6898714197
 31
0.0
  0
LINE
  5
61
  8
0
  6
CONTINUOUS
 62
     7
 10
190.3070795724
 20
102.6898714197
 30
0.0
 11
190.3070795724
 21
103.8898714301
 31
0.0
  0
LINE
  5
62
  8
0
  6
CONTINUOUS
 62
     7
 10
190.3070795724
 20
102.6898714197
 30
0.0
 11
195.1341498086
 21
102.6898714197
 31
0.0
  0
LINE
  5
63
  8
0
  6
CONTINUOUS
 62
     7
 10
195.1341498086
 20
103.8898714301
 30
0.0
 11
190.3070795724
 21
103.8898714301
 31
0.0
  0
LINE
  5
64
  8
0
  6
CONTINUOUS
 62
     7
 10
214.3070805261
 20
102.6898714197
 30
0.0
 11
214.3070805261
 21
103.8898714301
 31
0.0
  0
LINE
  5
65
  8
0
  6
CONTINUOUS
 62
     7
 10
209.4800102899
 20
102.6898714197
 30
0.0
 11
214.3070805261
 21
102.6898714197
 31
0.0
  0
LINE
  5
66
  8
0
  6
CONTINUOUS
 62
     7
 10
214.3070805261
 20
103.8898714301
 30
0.0
 11
209.4800102899
 21
103.8898714301
 31
0.0
  0
POLYLINE
  5
67
  8
0
  6
CONTINUOUS
 62
     7
 66
     1
 10
0.0
 20
0.0
 30
0.0
  0
VERTEX
  5
3A8
  8
0
  6
CONTINUOUS
 62
     7
 10
207.3070812414
 20
167.889872421
 30
0.0
  0
VERTEX
  5
3A9
  8
0
  6
CONTINUOUS
 62
     7
 10
207.2878647039
 20
167.9090889585
 30
0.0
  0
VERTEX
  5
3AA
  8
0
  6
CONTINUOUS
 62
     7
 10
207.2309601495
 20
167.9659935129
 30
0.0
  0
VERTEX
  5
3AB
  8
0
  6
CONTINUOUS
 62
     7
 10
207.1385491083
 20
168.0584045541
 30
0.0
  0
VERTEX
  5
3AC
  8
0
  6
CONTINUOUS
 62
     7
 10
207.0141840169
 20
168.182763685
 30
0.0
  0
VERTEX
  5
3AD
  8
0
  6
CONTINUOUS
 62
     7
 10
206.8626511285
 20
168.3343025339
 30
0.0
  0
VERTEX
  5
3AE
  8
0
  6
CONTINUOUS
 62
     7
 10
206.6897618959
 20
168.5071858061
 30
0.0
  0
VERTEX
  5
3AF
  8
0
  6
CONTINUOUS
 62
     7
 10
206.5021681974
 20
168.6947795046
 30
0.0
  0
VERTEX
  5
3B0
  8
0
  6
CONTINUOUS
 62
     7
 10
206.307082195
 20
168.8898714674
 30
0.0
  0
SEQEND
  5
87C
  8
0
  6
CONTINUOUS
 62
     7
  0
LINE
  5
68
  8
0
  6
CONTINUOUS
 62
     7
 10
230.5070746133
 20
167.889872421
 30
0.0
 11
207.3070812414
 21
167.889872421
 31
0.0
  0
POLYLINE
  5
69
  8
0
  6
CONTINUOUS
 62
     7
 66
     1
 10
0.0
 20
0.0
 30
0.0
  0
VERTEX
  5
3B1
  8
0
  6
CONTINUOUS
 62
     7
 10
197.5070822427
 20
168.0898698461
 30
0.0
  0
VERTEX
  5
3B2
  8
0
  6
CONTINUOUS
 62
     7
 10
197.4756109903
 20
168.0584045541
 30
0.0
  0
VERTEX
  5
3B3
  8
0
  6
CONTINUOUS
 62
     7
 10
197.383199949
 20
167.9659935129
 30
0.0
  0
VERTEX
  5
3B4
  8
0
  6
CONTINUOUS
 62
     7
 10
197.3262953946
 20
167.9090889585
 30
0.0
  0
VERTEX
  5
3B5
  8
0
  6
CONTINUOUS
 62
     7
 10
197.3070788572
 20
167.889872421
 30
0.0
  0
SEQEND
  5
87B
  8
0
  6
CONTINUOUS
 62
     7
  0
LINE
  5
6A
  8
0
  6
CONTINUOUS
 62
     7
 10
197.3070788572
 20
167.889872421
 30
0.0
 11
57.3070812414
 21
167.889872421
 31
0.0
  0
POLYLINE
  5
6B
  8
0
  6
CONTINUOUS
 62
     7
 66
     1
 10
0.0
 20
0.0
 30
0.0
  0
VERTEX
  5
3B6
  8
0
  6
CONTINUOUS
 62
     7
 10
57.1070778558
 20
168.0898698461
 30
0.0
  0
VERTEX
  5
3B7
  8
0
  6
CONTINUOUS
 62
     7
 10
57.1385491083
 20
168.0584045541
 30
0.0
  0
VERTEX
  5
3B8
  8
0
  6
CONTINUOUS
 62
     7
 10
57.2309601495
 20
167.9659935129
 30
0.0
  0
VERTEX
  5
3B9
  8
0
  6
CONTINUOUS
 62
     7
 10
57.2878647039
 20
167.9090889585
 30
0.0
  0
VERTEX
  5
3BA
  8
0
  6
CONTINUOUS
 62
     7
 10
57.3070812414
 20
167.889872421
 30
0.0
  0
SEQEND
  5
87A
  8
0
  6
CONTINUOUS
 62
     7
  0
LINE
  5
6C
  8
0
  6
CONTINUOUS
 62
     7
 10
24.1070854852
 20
177.8898688448
 30
0.0
 11
24.8070824334
 21
177.8898688448
 31
0.0
  0
LINE
  5
6D
  8
0
  6
CONTINUOUS
 62
     7
 10
34.8070788572
 20
177.8898688448
 30
0.0
 11
49.3070829103
 21
177.8898688448
 31
0.0
  0
LINE
  5
6E
  8
0
  6
CONTINUOUS
 62
     7
 10
85.3070813606
 20
177.8898688448
 30
0.0
 11
99.8070794532
 21
177.8898688448
 31
0.0
  0
LINE
  5
6F
  8
0
  6
CONTINUOUS
 62
     7
 10
109.8070803473
 20
177.8898688448
 30
0.0
 11
144.8070797512
 21
177.8898688448
 31
0.0
  0
LINE
  5
70
  8
0
  6
CONTINUOUS
 62
     7
 10
154.8070806453
 20
177.8898688448
 30
0.0
 11
169.307078738
 21
177.8898688448
 31
0.0
  0
LINE
  5
71
  8
0
  6
CONTINUOUS
 62
     7
 10
205.3070771882
 20
177.8898688448
 30
0.0
 11
219.8070812414
 21
177.8898688448
 31
0.0
  0
LINE
  5
72
  8
0
  6
CONTINUOUS
 62
     7
 10
229.8070776651
 20
177.8898688448
 30
0.0
 11
230.5070746133
 21
177.8898688448
 31
0.0
  0
LINE
  5
73
  8
0
  6
CONTINUOUS
 62
     7
 10
23.7070787141
 20
168.8898714674
 30
0.0
 11
23.7070787141
 21
176.8898697984
 31
0.0
  0
LINE
  5
74
  8
0
  6
CONTINUOUS
 62
     7
 10
197.3070788572
 20
103.8898714301
 30
0.0
 11
197.3070788572
 21
167.889872421
 31
0.0
  0
LINE
  5
75
  8
0
  6
CONTINUOUS
 62
     7
 10
230.9070813844
 20
176.8898697984
 30
0.0
 11
230.9070813844
 21
168.8898714674
 31
0.0
  0
LINE
  5
76
  8
0
  6
CONTINUOUS
 62
     7
 10
23.7070787141
 20
176.8898697984
 30
0.0
 11
23.7070787141
 21
177.4898739946
 31
0.0
  0
ARC
  5
77
  8
0
  6
CONTINUOUS
 62
     7
 10
24.1070800493
 20
177.4898714197
 30
0.0
 40
0.4000000000000057
 50
90.0
 51
180.0
  0
LINE
  5
78
  8
0
  6
CONTINUOUS
 62
     7
 10
23.7070787141
 20
168.2898732317
 30
0.0
 11
23.7070787141
 21
168.8898714674
 31
0.0
  0
ARC
  5
79
  8
0
  6
CONTINUOUS
 62
     7
 10
24.1070800493
 20
168.2898714197
 30
0.0
 40
0.4000000000000057
 50
180.0
 51
270.0
  0
LINE
  5
7A
  8
0
  6
CONTINUOUS
 62
     7
 10
47.3070788572
 20
103.8898714301
 30
0.0
 11
47.3070788572
 21
167.889872421
 31
0.0
  0
POLYLINE
  5
7B
  8
0
  6
CONTINUOUS
 62
     7
 66
     1
 10
0.0
 20
0.0
 30
0.0
  0
VERTEX
  5
3BB
  8
0
  6
CONTINUOUS
 62
     7
 10
47.3070788572
 20
167.889872421
 30
0.0
  0
VERTEX
  5
3BC
  8
0
  6
CONTINUOUS
 62
     7
 10
47.3262953946
 20
167.9090889585
 30
0.0
  0
VERTEX
  5
3BD
  8
0
  6
CONTINUOUS
 62
     7
 10
47.383199949
 20
167.9659935129
 30
0.0
  0
VERTEX
  5
3BE
  8
0
  6
CONTINUOUS
 62
     7
 10
47.4756109903
 20
168.0584045541
 30
0.0
  0
VERTEX
  5
3BF
  8
0
  6
CONTINUOUS
 62
     7
 10
47.5999760816
 20
168.182763685
 30
0.0
  0
VERTEX
  5
3C0
  8
0
  6
CONTINUOUS
 62
     7
 10
47.75150897
 20
168.3343025339
 30
0.0
  0
VERTEX
  5
3C1
  8
0
  6
CONTINUOUS
 62
     7
 10
47.9243982026
 20
168.5071858061
 30
0.0
  0
VERTEX
  5
3C2
  8
0
  6
CONTINUOUS
 62
     7
 10
48.1119919011
 20
168.6947795046
 30
0.0
  0
VERTEX
  5
3C3
  8
0
  6
CONTINUOUS
 62
     7
 10
48.3070779035
 20
168.8898714674
 30
0.0
  0
SEQEND
  5
879
  8
0
  6
CONTINUOUS
 62
     7
  0
ARC
  5
7C
  8
0
  6
CONTINUOUS
 62
     7
 10
230.5070800493
 20
177.4898714197
 30
0.0
 40
0.4000000000000341
 50
0.0
 51
90.0
  0
LINE
  5
7D
  8
0
  6
CONTINUOUS
 62
     7
 10
230.9070813844
 20
177.4898739946
 30
0.0
 11
230.9070813844
 21
176.8898697984
 31
0.0
  0
LINE
  5
7E
  8
0
  6
CONTINUOUS
 62
     7
 10
57.3070812414
 20
167.889872421
 30
0.0
 11
57.3070812414
 21
103.8898714301
 31
0.0
  0
LINE
  5
7F
  8
0
  6
CONTINUOUS
 62
     7
 10
207.3070812414
 20
167.889872421
 30
0.0
 11
207.3070812414
 21
103.8898714301
 31
0.0
  0
LINE
  5
80
  8
0
  6
CONTINUOUS
 62
     7
 10
47.3070788572
 20
167.889872421
 30
0.0
 11
24.1070854852
 21
167.889872421
 31
0.0
  0
LINE
  5
81
  8
0
  6
CONTINUOUS
 62
     7
 10
230.9070813844
 20
168.8898714674
 30
0.0
 11
230.9070813844
 21
168.2898732317
 31
0.0
  0
ARC
  5
82
  8
0
  6
CONTINUOUS
 62
     7
 10
230.5070800493
 20
168.2898714197
 30
0.0
 40
0.4000000000000341
 50
270.0
 51
0.0
  0
POLYLINE
  5
83
  8
0
  6
CONTINUOUS
 62
     7
 66
     1
 10
0.0
 20
0.0
 30
0.0
  0
VERTEX
  5
3C4
  8
0
  6
CONTINUOUS
 62
     7
 10
102.3324060628
 20
262.6179309976
 30
0.0
  0
VERTEX
  5
3C5
  8
0
  6
CONTINUOUS
 62
     7
 10
102.3598137686
 20
263.9294000757
 30
0.0
  0
VERTEX
  5
3C6
  8
0
  6
CONTINUOUS
 62
     7
 10
102.1979767272
 20
265.1987286699
 30
0.0
  0
VERTEX
  5
3C7
  8
0
  6
CONTINUOUS
 62
     7
 10
101.8458384464
 20
266.3902612817
 30
0.0
  0
VERTEX
  5
3C8
  8
0
  6
CONTINUOUS
 62
     7
 10
101.3111281583
 20
267.4737783563
 30
0.0
  0
VERTEX
  5
3C9
  8
0
  6
CONTINUOUS
 62
     7
 10
100.600786824
 20
268.4198948038
 30
0.0
  0
VERTEX
  5
3CA
  8
0
  6
CONTINUOUS
 62
     7
 10
99.7335899064
 20
269.2046972406
 30
0.0
  0
VERTEX
  5
3CB
  8
0
  6
CONTINUOUS
 62
     7
 10
98.7326818893
 20
269.8033305299
 30
0.0
  0
VERTEX
  5
3CC
  8
0
  6
CONTINUOUS
 62
     7
 10
97.6236421058
 20
270.2061387193
 30
0.0
  0
VERTEX
  5
3CD
  8
0
  6
CONTINUOUS
 62
     7
 10
96.5952533672
 20
270.3871580255
 30
0.0
  0
VERTEX
  5
3CE
  8
0
  6
CONTINUOUS
 62
     7
 10
95.529745836
 20
270.4098554743
 30
0.0
  0
SEQEND
  5
878
  8
0
  6
CONTINUOUS
 62
     7
  0
POLYLINE
  5
84
  8
0
  6
CONTINUOUS
 62
     7
 66
     1
 10
0.0
 20
0.0
 30
0.0
  0
VERTEX
  5
3CF
  8
0
  6
CONTINUOUS
 62
     7
 10
100.9908127973
 20
248.0443450105
 30
0.0
  0
VERTEX
  5
3D0
  8
0
  6
CONTINUOUS
 62
     7
 10
101.3247090766
 20
251.6923400057
 30
0.0
  0
VERTEX
  5
3D1
  8
0
  6
CONTINUOUS
 62
     7
 10
101.6606766174
 20
255.3375455034
 30
0.0
  0
VERTEX
  5
3D2
  8
0
  6
CONTINUOUS
 62
     7
 10
101.997413058
 20
258.9899154794
 30
0.0
  0
VERTEX
  5
3D3
  8
0
  6
CONTINUOUS
 62
     7
 10
102.3324060628
 20
262.6179309976
 30
0.0
  0
SEQEND
  5
877
  8
0
  6
CONTINUOUS
 62
     7
  0
POLYLINE
  5
85
  8
0
  6
CONTINUOUS
 62
     7
 66
     1
 10
0.0
 20
0.0
 30
0.0
  0
VERTEX
  5
3D4
  8
0
  6
CONTINUOUS
 62
     7
 10
92.8669977376
 20
239.5403119219
 30
0.0
  0
VERTEX
  5
3D5
  8
0
  6
CONTINUOUS
 62
     7
 10
94.2683059165
 20
239.7354932916
 30
0.0
  0
VERTEX
  5
3D6
  8
0
  6
CONTINUOUS
 62
     7
 10
95.617674608
 20
240.178081621
 30
0.0
  0
VERTEX
  5
3D7
  8
0
  6
CONTINUOUS
 62
     7
 10
96.8774038741
 20
240.8602567804
 30
0.0
  0
VERTEX
  5
3D8
  8
0
  6
CONTINUOUS
 62
     7
 10
98.0151850173
 20
241.7593451631
 30
0.0
  0
VERTEX
  5
3D9
  8
0
  6
CONTINUOUS
 62
     7
 10
98.996453304
 20
242.8477975023
 30
0.0
  0
VERTEX
  5
3DA
  8
0
  6
CONTINUOUS
 62
     7
 10
99.8042988965
 20
244.0944763315
 30
0.0
  0
VERTEX
  5
3DB
  8
0
  6
CONTINUOUS
 62
     7
 10
100.4186707923
 20
245.4683157099
 30
0.0
  0
VERTEX
  5
3DC
  8
0
  6
CONTINUOUS
 62
     7
 10
100.8269357869
 20
246.9256015909
 30
0.0
  0
VERTEX
  5
3DD
  8
0
  6
CONTINUOUS
 62
     7
 10
100.9908127973
 20
248.0443450105
 30
0.0
  0
SEQEND
  5
876
  8
0
  6
CONTINUOUS
 62
     7
  0
POLYLINE
  5
86
  8
0
  6
CONTINUOUS
 62
     7
 66
     1
 10
0.0
 20
0.0
 30
0.0
  0
VERTEX
  5
3DE
  8
0
  6
CONTINUOUS
 62
     7
 10
41.747163553
 20
239.5403119219
 30
0.0
  0
VERTEX
  5
3DF
  8
0
  6
CONTINUOUS
 62
     7
 10
44.5716011712
 20
239.4134851587
 30
0.0
  0
VERTEX
  5
3E0
  8
0
  6
CONTINUOUS
 62
     7
 10
47.4373686502
 20
239.3015953195
 30
0.0
  0
VERTEX
  5
3E1
  8
0
  6
CONTINUOUS
 62
     7
 10
50.339155216
 20
239.2048569811
 30
0.0
  0
VERTEX
  5
3E2
  8
0
  6
CONTINUOUS
 62
     7
 10
54.526119251
 20
239.0935155046
 30
0.0
  0
VERTEX
  5
3E3
  8
0
  6
CONTINUOUS
 62
     7
 10
58.7601709554
 20
239.0136810434
 30
0.0
  0
VERTEX
  5
3E4
  8
0
  6
CONTINUOUS
 62
     7
 10
63.025729675
 20
238.9656754625
 30
0.0
  0
VERTEX
  5
3E5
  8
0
  6
CONTINUOUS
 62
     7
 10
67.3070776651
 20
238.949653734
 30
0.0
  0
VERTEX
  5
3E6
  8
0
  6
CONTINUOUS
 62
     7
 10
71.5884316156
 20
238.9656754625
 30
0.0
  0
VERTEX
  5
3E7
  8
0
  6
CONTINUOUS
 62
     7
 10
75.8539903352
 20
239.0136810434
 30
0.0
  0
VERTEX
  5
3E8
  8
0
  6
CONTINUOUS
 62
     7
 10
80.0880420396
 20
239.0935155046
 30
0.0
  0
VERTEX
  5
3E9
  8
0
  6
CONTINUOUS
 62
     7
 10
84.2750060747
 20
239.2048569811
 30
0.0
  0
VERTEX
  5
3EA
  8
0
  6
CONTINUOUS
 62
     7
 10
87.1767926404
 20
239.3015953195
 30
0.0
  0
VERTEX
  5
3EB
  8
0
  6
CONTINUOUS
 62
     7
 10
90.0425571391
 20
239.4134851587
 30
0.0
  0
VERTEX
  5
3EC
  8
0
  6
CONTINUOUS
 62
     7
 10
92.8669977376
 20
239.5403119219
 30
0.0
  0
SEQEND
  5
875
  8
0
  6
CONTINUOUS
 62
     7
  0
POLYLINE
  5
87
  8
0
  6
CONTINUOUS
 62
     7
 66
     1
 10
0.0
 20
0.0
 30
0.0
  0
VERTEX
  5
3ED
  8
0
  6
CONTINUOUS
 62
     7
 10
33.6233484933
 20
248.0443450105
 30
0.0
  0
VERTEX
  5
3EE
  8
0
  6
CONTINUOUS
 62
     7
 10
33.8714587877
 20
246.5489359987
 30
0.0
  0
VERTEX
  5
3EF
  8
0
  6
CONTINUOUS
 62
     7
 10
34.3331384847
 20
245.1062413347
 30
0.0
  0
VERTEX
  5
3F0
  8
0
  6
CONTINUOUS
 62
     7
 10
35.0014674852
 20
243.758973707
 30
0.0
  0
VERTEX
  5
3F1
  8
0
  6
CONTINUOUS
 62
     7
 10
35.8588803003
 20
242.5447555673
 30
0.0
  0
VERTEX
  5
3F2
  8
0
  6
CONTINUOUS
 62
     7
 10
36.8870961854
 20
241.5017815721
 30
0.0
  0
VERTEX
  5
3F3
  8
0
  6
CONTINUOUS
 62
     7
 10
38.058875818
 20
240.6571003092
 30
0.0
  0
VERTEX
  5
3F4
  8
0
  6
CONTINUOUS
 62
     7
 10
39.3420624921
 20
240.0395842684
 30
0.0
  0
VERTEX
  5
3F5
  8
0
  6
CONTINUOUS
 62
     7
 10
40.7040405462
 20
239.6602722299
 30
0.0
  0
VERTEX
  5
3F6
  8
0
  6
CONTINUOUS
 62
     7
 10
41.747163553
 20
239.5403119219
 30
0.0
  0
SEQEND
  5
874
  8
0
  6
CONTINUOUS
 62
     7
  0
POLYLINE
  5
88
  8
0
  6
CONTINUOUS
 62
     7
 66
     1
 10
0.0
 20
0.0
 30
0.0
  0
VERTEX
  5
3F7
  8
0
  6
CONTINUOUS
 62
     7
 10
32.2817492673
 20
262.6179667604
 30
0.0
  0
VERTEX
  5
3F8
  8
0
  6
CONTINUOUS
 62
     7
 10
32.6167452524
 20
258.9899631632
 30
0.0
  0
VERTEX
  5
3F9
  8
0
  6
CONTINUOUS
 62
     7
 10
32.953481693
 20
255.3375693453
 30
0.0
  0
VERTEX
  5
3FA
  8
0
  6
CONTINUOUS
 62
     7
 10
33.2894492338
 20
251.6923519266
 30
0.0
  0
VERTEX
  5
3FB
  8
0
  6
CONTINUOUS
 62
     7
 10
33.6233484933
 20
248.0443450105
 30
0.0
  0
SEQEND
  5
873
  8
0
  6
CONTINUOUS
 62
     7
  0
POLYLINE
  5
89
  8
0
  6
CONTINUOUS
 62
     7
 66
     1
 10
0.0
 20
0.0
 30
0.0
  0
VERTEX
  5
3FC
  8
0
  6
CONTINUOUS
 62
     7
 10
39.0844631383
 20
270.4098554743
 30
0.0
  0
VERTEX
  5
3FD
  8
0
  6
CONTINUOUS
 62
     7
 10
37.8570902536
 20
270.3691455019
 30
0.0
  0
VERTEX
  5
3FE
  8
0
  6
CONTINUOUS
 62
     7
 10
36.6836238096
 20
270.1181980264
 30
0.0
  0
VERTEX
  5
3FF
  8
0
  6
CONTINUOUS
 62
     7
 10
35.5978775213
 20
269.659516443
 30
0.0
  0
VERTEX
  5
400
  8
0
  6
CONTINUOUS
 62
     7
 10
34.6285510251
 20
269.0074893129
 30
0.0
  0
VERTEX
  5
401
  8
0
  6
CONTINUOUS
 62
     7
 10
33.8068711946
 20
268.1811185968
 30
0.0
  0
VERTEX
  5
402
  8
0
  6
CONTINUOUS
 62
     7
 10
33.1450689027
 20
267.2013970506
 30
0.0
  0
VERTEX
  5
403
  8
0
  6
CONTINUOUS
 62
     7
 10
32.6587844083
 20
266.0891147745
 30
0.0
  0
VERTEX
  5
404
  8
0
  6
CONTINUOUS
 62
     7
 10
32.356046457
 20
264.8771973741
 30
0.0
  0
VERTEX
  5
405
  8
0
  6
CONTINUOUS
 62
     7
 10
32.2470116803
 20
263.7618514192
 30
0.0
  0
VERTEX
  5
406
  8
0
  6
CONTINUOUS
 62
     7
 10
32.2817492673
 20
262.6179667604
 30
0.0
  0
SEQEND
  5
872
  8
0
  6
CONTINUOUS
 62
     7
  0
POLYLINE
  5
8A
  8
0
  6
CONTINUOUS
 62
     7
 66
     1
 10
0.0
 20
0.0
 30
0.0
  0
VERTEX
  5
407
  8
0
  6
CONTINUOUS
 62
     7
 10
95.529745836
 20
270.4098554743
 30
0.0
  0
VERTEX
  5
408
  8
0
  6
CONTINUOUS
 62
     7
 10
92.3462379167
 20
270.2511163843
 30
0.0
  0
VERTEX
  5
409
  8
0
  6
CONTINUOUS
 62
     7
 10
89.1076404044
 20
270.1114984644
 30
0.0
  0
VERTEX
  5
40A
  8
0
  6
CONTINUOUS
 62
     7
 10
85.8211952636
 20
269.9913116586
 30
0.0
  0
VERTEX
  5
40B
  8
0
  6
CONTINUOUS
 62
     7
 10
82.1772265622
 20
269.8823662889
 30
0.0
  0
VERTEX
  5
40C
  8
0
  6
CONTINUOUS
 62
     7
 10
78.4940737674
 20
269.7973223818
 30
0.0
  0
VERTEX
  5
40D
  8
0
  6
CONTINUOUS
 62
     7
 10
74.7815299222
 20
269.7364183557
 30
0.0
  0
VERTEX
  5
40E
  8
0
  6
CONTINUOUS
 62
     7
 10
71.0492122362
 20
269.6998091829
 30
0.0
  0
VERTEX
  5
40F
  8
0
  6
CONTINUOUS
 62
     7
 10
67.3070776651
 20
269.6876021517
 30
0.0
  0
VERTEX
  5
410
  8
0
  6
CONTINUOUS
 62
     7
 10
63.564943094
 20
269.6998091829
 30
0.0
  0
VERTEX
  5
411
  8
0
  6
CONTINUOUS
 62
     7
 10
59.8326313684
 20
269.7364183557
 30
0.0
  0
VERTEX
  5
412
  8
0
  6
CONTINUOUS
 62
     7
 10
56.120084543
 20
269.7973223818
 30
0.0
  0
VERTEX
  5
413
  8
0
  6
CONTINUOUS
 62
     7
 10
52.4369347284
 20
269.8823662889
 30
0.0
  0
VERTEX
  5
414
  8
0
  6
CONTINUOUS
 62
     7
 10
48.7929630468
 20
269.9913116586
 30
0.0
  0
VERTEX
  5
415
  8
0
  6
CONTINUOUS
 62
     7
 10
45.5065357873
 20
270.1114984644
 30
0.0
  0
VERTEX
  5
416
  8
0
  6
CONTINUOUS
 62
     7
 10
42.2679531762
 20
270.2511163843
 30
0.0
  0
VERTEX
  5
417
  8
0
  6
CONTINUOUS
 62
     7
 10
39.0844631383
 20
270.4098554743
 30
0.0
  0
SEQEND
  5
871
  8
0
  6
CONTINUOUS
 62
     7
  0
POLYLINE
  5
8B
  8
0
  6
CONTINUOUS
 62
     7
 66
     1
 10
0.0
 20
0.0
 30
0.0
  0
VERTEX
  5
418
  8
0
  6
CONTINUOUS
 62
     7
 10
101.5623706767
 20
247.9133578432
 30
0.0
  0
VERTEX
  5
419
  8
0
  6
CONTINUOUS
 62
     7
 10
101.3109046409
 20
246.4184495104
 30
0.0
  0
VERTEX
  5
41A
  8
0
  6
CONTINUOUS
 62
     7
 10
100.8460390756
 20
244.9768873346
 30
0.0
  0
VERTEX
  5
41B
  8
0
  6
CONTINUOUS
 62
     7
 10
100.1747894475
 20
243.6313601625
 30
0.0
  0
VERTEX
  5
41C
  8
0
  6
CONTINUOUS
 62
     7
 10
99.3148464153
 20
242.4194189203
 30
0.0
  0
VERTEX
  5
41D
  8
0
  6
CONTINUOUS
 62
     7
 10
98.2846009919
 20
241.3791628969
 30
0.0
  0
VERTEX
  5
41E
  8
0
  6
CONTINUOUS
 62
     7
 10
97.1114027688
 20
240.5375691545
 30
0.0
  0
VERTEX
  5
41F
  8
0
  6
CONTINUOUS
 62
     7
 10
95.8273875902
 20
239.923367132
 30
0.0
  0
VERTEX
  5
420
  8
0
  6
CONTINUOUS
 62
     7
 10
94.4653082082
 20
239.5475956094
 30
0.0
  0
VERTEX
  5
421
  8
0
  6
CONTINUOUS
 62
     7
 10
93.4413093517
 20
239.4312473428
 30
0.0
  0
SEQEND
  5
870
  8
0
  6
CONTINUOUS
 62
     7
  0
POLYLINE
  5
8C
  8
0
  6
CONTINUOUS
 62
     7
 66
     1
 10
0.0
 20
0.0
 30
0.0
  0
VERTEX
  5
422
  8
0
  6
CONTINUOUS
 62
     7
 10
41.1728489587
 20
239.4312473428
 30
0.0
  0
VERTEX
  5
423
  8
0
  6
CONTINUOUS
 62
     7
 10
39.7725391576
 20
239.6260710848
 30
0.0
  0
VERTEX
  5
424
  8
0
  6
CONTINUOUS
 62
     7
 10
38.423912544
 20
240.068337549
 30
0.0
  0
VERTEX
  5
425
  8
0
  6
CONTINUOUS
 62
     7
 10
37.1646571348
 20
240.7501908434
 30
0.0
  0
VERTEX
  5
426
  8
0
  6
CONTINUOUS
 62
     7
 10
36.0270786474
 20
241.6489692819
 30
0.0
  0
VERTEX
  5
427
  8
0
  6
CONTINUOUS
 62
     7
 10
35.0456702897
 20
242.7372547281
 30
0.0
  0
VERTEX
  5
428
  8
0
  6
CONTINUOUS
 62
     7
 10
34.2375385949
 20
243.9838381899
 30
0.0
  0
VERTEX
  5
429
  8
0
  6
CONTINUOUS
 62
     7
 10
33.6228120515
 20
245.3575702799
 30
0.0
  0
VERTEX
  5
42A
  8
0
  6
CONTINUOUS
 62
     7
 10
33.2141268442
 20
246.8148203981
 30
0.0
  0
VERTEX
  5
42B
  8
0
  6
CONTINUOUS
 62
     7
 10
33.0517876336
 20
247.9133578432
 30
0.0
  0
SEQEND
  5
86F
  8
0
  6
CONTINUOUS
 62
     7
  0
POLYLINE
  5
8D
  8
0
  6
CONTINUOUS
 62
     7
 66
     1
 10
0.0
 20
0.0
 30
0.0
  0
VERTEX
  5
42C
  8
0
  6
CONTINUOUS
 62
     7
 10
101.5623706767
 20
247.9133578432
 30
0.0
  0
VERTEX
  5
42D
  8
0
  6
CONTINUOUS
 62
     7
 10
101.9020873496
 20
251.5357109201
 30
0.0
  0
VERTEX
  5
42E
  8
0
  6
CONTINUOUS
 62
     7
 10
102.2419470737
 20
255.1540943277
 30
0.0
  0
VERTEX
  5
42F
  8
0
  6
CONTINUOUS
 62
     7
 10
102.5813731739
 20
258.757600416
 30
0.0
  0
VERTEX
  5
430
  8
0
  6
CONTINUOUS
 62
     7
 10
102.9196518848
 20
262.3304816377
 30
0.0
  0
SEQEND
  5
86E
  8
0
  6
CONTINUOUS
 62
     7
  0
POLYLINE
  5
8E
  8
0
  6
CONTINUOUS
 62
     7
 66
     1
 10
0.0
 20
0.0
 30
0.0
  0
VERTEX
  5
431
  8
0
  6
CONTINUOUS
 62
     7
 10
31.6945004651
 20
262.3305174005
 30
0.0
  0
VERTEX
  5
432
  8
0
  6
CONTINUOUS
 62
     7
 10
32.0327806661
 20
258.7576361788
 30
0.0
  0
VERTEX
  5
433
  8
0
  6
CONTINUOUS
 62
     7
 10
32.3722112367
 20
255.1541181696
 30
0.0
  0
VERTEX
  5
434
  8
0
  6
CONTINUOUS
 62
     7
 10
32.7120709607
 20
251.535722841
 30
0.0
  0
VERTEX
  5
435
  8
0
  6
CONTINUOUS
 62
     7
 10
33.0517876336
 20
247.9133578432
 30
0.0
  0
SEQEND
  5
86D
  8
0
  6
CONTINUOUS
 62
     7
  0
POLYLINE
  5
8F
  8
0
  6
CONTINUOUS
 62
     7
 66
     1
 10
0.0
 20
0.0
 30
0.0
  0
VERTEX
  5
436
  8
0
  6
CONTINUOUS
 62
     7
 10
99.2269444654
 20
269.5505949152
 30
0.0
  0
VERTEX
  5
437
  8
0
  6
CONTINUOUS
 62
     7
 10
99.6207106302
 20
269.382998575
 30
0.0
  0
VERTEX
  5
438
  8
0
  6
CONTINUOUS
 62
     7
 10
100.5876797626
 20
268.7285872591
 30
0.0
  0
VERTEX
  5
439
  8
0
  6
CONTINUOUS
 62
     7
 10
101.4070290515
 20
267.89986812
 30
0.0
  0
VERTEX
  5
43A
  8
0
  6
CONTINUOUS
 62
     7
 10
102.0663428495
 20
266.9180127275
 30
0.0
  0
VERTEX
  5
43B
  8
0
  6
CONTINUOUS
 62
     7
 10
102.5499943087
 20
265.8039184702
 30
0.0
  0
VERTEX
  5
43C
  8
0
  6
CONTINUOUS
 62
     7
 10
102.8500321696
 20
264.5905586374
 30
0.0
  0
VERTEX
  5
43D
  8
0
  6
CONTINUOUS
 62
     7
 10
102.9566753099
 20
263.4746047151
 30
0.0
  0
VERTEX
  5
43E
  8
0
  6
CONTINUOUS
 62
     7
 10
102.9196518848
 20
262.3304816377
 30
0.0
  0
SEQEND
  5
86C
  8
0
  6
CONTINUOUS
 62
     7
  0
POLYLINE
  5
90
  8
0
  6
CONTINUOUS
 62
     7
 66
     1
 10
0.0
 20
0.0
 30
0.0
  0
VERTEX
  5
43F
  8
0
  6
CONTINUOUS
 62
     7
 10
31.6945004651
 20
262.3305174005
 30
0.0
  0
VERTEX
  5
440
  8
0
  6
CONTINUOUS
 62
     7
 10
31.6644656846
 20
263.6423321855
 30
0.0
  0
VERTEX
  5
441
  8
0
  6
CONTINUOUS
 62
     7
 10
31.8235862443
 20
264.9125071657
 30
0.0
  0
VERTEX
  5
442
  8
0
  6
CONTINUOUS
 62
     7
 10
32.1729707906
 20
266.1053272379
 30
0.0
  0
VERTEX
  5
443
  8
0
  6
CONTINUOUS
 62
     7
 10
32.7049362848
 20
267.1905609262
 30
0.0
  0
VERTEX
  5
444
  8
0
  6
CONTINUOUS
 62
     7
 10
33.4126281926
 20
268.1387754572
 30
0.0
  0
VERTEX
  5
445
  8
0
  6
CONTINUOUS
 62
     7
 10
34.2773008535
 20
268.9259620798
 30
0.0
  0
VERTEX
  5
446
  8
0
  6
CONTINUOUS
 62
     7
 10
35.2760660837
 20
269.5272418153
 30
0.0
  0
VERTEX
  5
447
  8
0
  6
CONTINUOUS
 62
     7
 10
35.3792953679
 20
269.565055002
 30
0.0
  0
SEQEND
  5
86B
  8
0
  6
CONTINUOUS
 62
     7
  0
POLYLINE
  5
91
  8
0
  6
CONTINUOUS
 62
     7
 66
     1
 10
0.0
 20
0.0
 30
0.0
  0
VERTEX
  5
448
  8
0
  6
CONTINUOUS
 62
     7
 10
41.1728489587
 20
239.4312473428
 30
0.0
  0
VERTEX
  5
449
  8
0
  6
CONTINUOUS
 62
     7
 10
44.0904307554
 20
239.3009992731
 30
0.0
  0
VERTEX
  5
44A
  8
0
  6
CONTINUOUS
 62
     7
 10
47.0515477846
 20
239.1862722528
 30
0.0
  0
VERTEX
  5
44B
  8
0
  6
CONTINUOUS
 62
     7
 10
50.050627012
 20
239.0872689378
 30
0.0
  0
VERTEX
  5
44C
  8
0
  6
CONTINUOUS
 62
     7
 10
54.3087887952
 20
238.9752956522
 30
0.0
  0
VERTEX
  5
44D
  8
0
  6
CONTINUOUS
 62
     7
 10
58.6148429105
 20
238.8950201166
 30
0.0
  0
VERTEX
  5
44E
  8
0
  6
CONTINUOUS
 62
     7
 10
62.9529404828
 20
238.8467403543
 30
0.0
  0
VERTEX
  5
44F
  8
0
  6
CONTINUOUS
 62
     7
 10
67.3070776651
 20
238.8306232584
 30
0.0
  0
VERTEX
  5
450
  8
0
  6
CONTINUOUS
 62
     7
 10
71.6612208078
 20
238.8467403543
 30
0.0
  0
VERTEX
  5
451
  8
0
  6
CONTINUOUS
 62
     7
 10
75.9993183801
 20
238.8950201166
 30
0.0
  0
VERTEX
  5
452
  8
0
  6
CONTINUOUS
 62
     7
 10
80.3053695152
 20
238.9752956522
 30
0.0
  0
VERTEX
  5
453
  8
0
  6
CONTINUOUS
 62
     7
 10
84.5635312984
 20
239.0872689378
 30
0.0
  0
VERTEX
  5
454
  8
0
  6
CONTINUOUS
 62
     7
 10
87.5626135061
 20
239.1862722528
 30
0.0
  0
VERTEX
  5
455
  8
0
  6
CONTINUOUS
 62
     7
 10
90.523727555
 20
239.3009992731
 30
0.0
  0
VERTEX
  5
456
  8
0
  6
CONTINUOUS
 62
     7
 10
93.4413093517
 20
239.4312473428
 30
0.0
  0
SEQEND
  5
86A
  8
0
  6
CONTINUOUS
 62
     7
  0
POLYLINE
  5
92
  8
0
  6
CONTINUOUS
 62
     7
 66
     1
 10
0.0
 20
0.0
 30
0.0
  0
VERTEX
  5
457
  8
0
  6
CONTINUOUS
 62
     7
 10
222.3324048707
 20
262.6179309976
 30
0.0
  0
VERTEX
  5
458
  8
0
  6
CONTINUOUS
 62
     7
 10
222.3598110864
 20
263.9294000757
 30
0.0
  0
VERTEX
  5
459
  8
0
  6
CONTINUOUS
 62
     7
 10
222.1979725549
 20
265.1987286699
 30
0.0
  0
VERTEX
  5
45A
  8
0
  6
CONTINUOUS
 62
     7
 10
221.845834274
 20
266.3902612817
 30
0.0
  0
VERTEX
  5
45B
  8
0
  6
CONTINUOUS
 62
     7
 10
221.3111269662
 20
267.4737783563
 30
0.0
  0
VERTEX
  5
45C
  8
0
  6
CONTINUOUS
 62
     7
 10
220.6007886121
 20
268.4198948038
 30
0.0
  0
VERTEX
  5
45D
  8
0
  6
CONTINUOUS
 62
     7
 10
219.7335887143
 20
269.2046972406
 30
0.0
  0
VERTEX
  5
45E
  8
0
  6
CONTINUOUS
 62
     7
 10
218.732677717
 20
269.8033305299
 30
0.0
  0
VERTEX
  5
45F
  8
0
  6
CONTINUOUS
 62
     7
 10
217.6236438939
 20
270.2061387193
 30
0.0
  0
VERTEX
  5
460
  8
0
  6
CONTINUOUS
 62
     7
 10
216.5952551553
 20
270.3871580255
 30
0.0
  0
VERTEX
  5
461
  8
0
  6
CONTINUOUS
 62
     7
 10
215.5297446439
 20
270.4098554743
 30
0.0
  0
SEQEND
  5
869
  8
0
  6
CONTINUOUS
 62
     7
  0
POLYLINE
  5
93
  8
0
  6
CONTINUOUS
 62
     7
 66
     1
 10
0.0
 20
0.0
 30
0.0
  0
VERTEX
  5
462
  8
0
  6
CONTINUOUS
 62
     7
 10
220.9908116052
 20
248.0443450105
 30
0.0
  0
VERTEX
  5
463
  8
0
  6
CONTINUOUS
 62
     7
 10
221.3247108648
 20
251.6923400057
 30
0.0
  0
VERTEX
  5
464
  8
0
  6
CONTINUOUS
 62
     7
 10
221.6606784055
 20
255.3375455034
 30
0.0
  0
VERTEX
  5
465
  8
0
  6
CONTINUOUS
 62
     7
 10
221.9974148462
 20
258.9899154794
 30
0.0
  0
VERTEX
  5
466
  8
0
  6
CONTINUOUS
 62
     7
 10
222.3324048707
 20
262.6179309976
 30
0.0
  0
SEQEND
  5
868
  8
0
  6
CONTINUOUS
 62
     7
  0
POLYLINE
  5
94
  8
0
  6
CONTINUOUS
 62
     7
 66
     1
 10
0.0
 20
0.0
 30
0.0
  0
VERTEX
  5
467
  8
0
  6
CONTINUOUS
 62
     7
 10
212.8669965455
 20
239.5403119219
 30
0.0
  0
VERTEX
  5
468
  8
0
  6
CONTINUOUS
 62
     7
 10
214.2683077047
 20
239.7354932916
 30
0.0
  0
VERTEX
  5
469
  8
0
  6
CONTINUOUS
 62
     7
 10
215.6176734159
 20
240.178081621
 30
0.0
  0
VERTEX
  5
46A
  8
0
  6
CONTINUOUS
 62
     7
 10
216.8774056623
 20
240.8602567804
 30
0.0
  0
VERTEX
  5
46B
  8
0
  6
CONTINUOUS
 62
     7
 10
218.0151868055
 20
241.7593451631
 30
0.0
  0
VERTEX
  5
46C
  8
0
  6
CONTINUOUS
 62
     7
 10
218.9964521119
 20
242.8477975023
 30
0.0
  0
VERTEX
  5
46D
  8
0
  6
CONTINUOUS
 62
     7
 10
219.8042977044
 20
244.0944763315
 30
0.0
  0
VERTEX
  5
46E
  8
0
  6
CONTINUOUS
 62
     7
 10
220.4186725805
 20
245.4683157099
 30
0.0
  0
VERTEX
  5
46F
  8
0
  6
CONTINUOUS
 62
     7
 10
220.8269345949
 20
246.9256015909
 30
0.0
  0
VERTEX
  5
470
  8
0
  6
CONTINUOUS
 62
     7
 10
220.9908116052
 20
248.0443450105
 30
0.0
  0
SEQEND
  5
867
  8
0
  6
CONTINUOUS
 62
     7
  0
POLYLINE
  5
95
  8
0
  6
CONTINUOUS
 62
     7
 66
     1
 10
0.0
 20
0.0
 30
0.0
  0
VERTEX
  5
471
  8
0
  6
CONTINUOUS
 62
     7
 10
161.7471623609
 20
239.5403119219
 30
0.0
  0
VERTEX
  5
472
  8
0
  6
CONTINUOUS
 62
     7
 10
164.5716029594
 20
239.4134851587
 30
0.0
  0
VERTEX
  5
473
  8
0
  6
CONTINUOUS
 62
     7
 10
167.4373674581
 20
239.3015953195
 30
0.0
  0
VERTEX
  5
474
  8
0
  6
CONTINUOUS
 62
     7
 10
170.3391540239
 20
239.2048569811
 30
0.0
  0
VERTEX
  5
475
  8
0
  6
CONTINUOUS
 62
     7
 10
174.5261180589
 20
239.0935155046
 30
0.0
  0
VERTEX
  5
476
  8
0
  6
CONTINUOUS
 62
     7
 10
178.7601697633
 20
239.0136810434
 30
0.0
  0
VERTEX
  5
477
  8
0
  6
CONTINUOUS
 62
     7
 10
183.0257284829
 20
238.9656754625
 30
0.0
  0
VERTEX
  5
478
  8
0
  6
CONTINUOUS
 62
     7
 10
187.3070824334
 20
238.949653734
 30
0.0
  0
VERTEX
  5
479
  8
0
  6
CONTINUOUS
 62
     7
 10
191.5884304235
 20
238.9656754625
 30
0.0
  0
VERTEX
  5
47A
  8
0
  6
CONTINUOUS
 62
     7
 10
195.8539891431
 20
239.0136810434
 30
0.0
  0
VERTEX
  5
47B
  8
0
  6
CONTINUOUS
 62
     7
 10
200.0880408475
 20
239.0935155046
 30
0.0
  0
VERTEX
  5
47C
  8
0
  6
CONTINUOUS
 62
     7
 10
204.2750048826
 20
239.2048569811
 30
0.0
  0
VERTEX
  5
47D
  8
0
  6
CONTINUOUS
 62
     7
 10
207.1767914483
 20
239.3015953195
 30
0.0
  0
VERTEX
  5
47E
  8
0
  6
CONTINUOUS
 62
     7
 10
210.0425589273
 20
239.4134851587
 30
0.0
  0
VERTEX
  5
47F
  8
0
  6
CONTINUOUS
 62
     7
 10
212.8669965455
 20
239.5403119219
 30
0.0
  0
SEQEND
  5
866
  8
0
  6
CONTINUOUS
 62
     7
  0
POLYLINE
  5
96
  8
0
  6
CONTINUOUS
 62
     7
 66
     1
 10
0.0
 20
0.0
 30
0.0
  0
VERTEX
  5
480
  8
0
  6
CONTINUOUS
 62
     7
 10
153.6233473012
 20
248.0443450105
 30
0.0
  0
VERTEX
  5
481
  8
0
  6
CONTINUOUS
 62
     7
 10
153.8714575956
 20
246.5489359987
 30
0.0
  0
VERTEX
  5
482
  8
0
  6
CONTINUOUS
 62
     7
 10
154.3331372926
 20
245.1062413347
 30
0.0
  0
VERTEX
  5
483
  8
0
  6
CONTINUOUS
 62
     7
 10
155.0014662931
 20
243.758973707
 30
0.0
  0
VERTEX
  5
484
  8
0
  6
CONTINUOUS
 62
     7
 10
155.8588791082
 20
242.5447555673
 30
0.0
  0
VERTEX
  5
485
  8
0
  6
CONTINUOUS
 62
     7
 10
156.8870949933
 20
241.5017815721
 30
0.0
  0
VERTEX
  5
486
  8
0
  6
CONTINUOUS
 62
     7
 10
158.0588746259
 20
240.6571003092
 30
0.0
  0
VERTEX
  5
487
  8
0
  6
CONTINUOUS
 62
     7
 10
159.3420613
 20
240.0395842684
 30
0.0
  0
VERTEX
  5
488
  8
0
  6
CONTINUOUS
 62
     7
 10
160.7040393541
 20
239.6602722299
 30
0.0
  0
VERTEX
  5
489
  8
0
  6
CONTINUOUS
 62
     7
 10
161.7471623609
 20
239.5403119219
 30
0.0
  0
SEQEND
  5
865
  8
0
  6
CONTINUOUS
 62
     7
  0
POLYLINE
  5
97
  8
0
  6
CONTINUOUS
 62
     7
 66
     1
 10
0.0
 20
0.0
 30
0.0
  0
VERTEX
  5
48A
  8
0
  6
CONTINUOUS
 62
     7
 10
152.2817495653
 20
262.6179667604
 30
0.0
  0
VERTEX
  5
48B
  8
0
  6
CONTINUOUS
 62
     7
 10
152.6167440603
 20
258.9899631632
 30
0.0
  0
VERTEX
  5
48C
  8
0
  6
CONTINUOUS
 62
     7
 10
152.9534834812
 20
255.3375693453
 30
0.0
  0
VERTEX
  5
48D
  8
0
  6
CONTINUOUS
 62
     7
 10
153.2894510219
 20
251.6923519266
 30
0.0
  0
VERTEX
  5
48E
  8
0
  6
CONTINUOUS
 62
     7
 10
153.6233473012
 20
248.0443450105
 30
0.0
  0
SEQEND
  5
864
  8
0
  6
CONTINUOUS
 62
     7
  0
POLYLINE
  5
98
  8
0
  6
CONTINUOUS
 62
     7
 66
     1
 10
0.0
 20
0.0
 30
0.0
  0
VERTEX
  5
48F
  8
0
  6
CONTINUOUS
 62
     7
 10
159.0844619462
 20
270.4098554743
 30
0.0
  0
VERTEX
  5
490
  8
0
  6
CONTINUOUS
 62
     7
 10
157.8570890615
 20
270.3691455019
 30
0.0
  0
VERTEX
  5
491
  8
0
  6
CONTINUOUS
 62
     7
 10
156.6836255977
 20
270.1181980264
 30
0.0
  0
VERTEX
  5
492
  8
0
  6
CONTINUOUS
 62
     7
 10
155.5978733489
 20
269.659516443
 30
0.0
  0
VERTEX
  5
493
  8
0
  6
CONTINUOUS
 62
     7
 10
154.628549833
 20
269.0074893129
 30
0.0
  0
VERTEX
  5
494
  8
0
  6
CONTINUOUS
 62
     7
 10
153.8068729827
 20
268.1811185968
 30
0.0
  0
VERTEX
  5
495
  8
0
  6
CONTINUOUS
 62
     7
 10
153.1450677106
 20
267.2013970506
 30
0.0
  0
VERTEX
  5
496
  8
0
  6
CONTINUOUS
 62
     7
 10
152.6587832162
 20
266.0891147745
 30
0.0
  0
VERTEX
  5
497
  8
0
  6
CONTINUOUS
 62
     7
 10
152.3560422847
 20
264.8771973741
 30
0.0
  0
VERTEX
  5
498
  8
0
  6
CONTINUOUS
 62
     7
 10
152.2470149586
 20
263.7618514192
 30
0.0
  0
VERTEX
  5
499
  8
0
  6
CONTINUOUS
 62
     7
 10
152.2817495653
 20
262.6179667604
 30
0.0
  0
SEQEND
  5
863
  8
0
  6
CONTINUOUS
 62
     7
  0
POLYLINE
  5
99
  8
0
  6
CONTINUOUS
 62
     7
 66
     1
 10
0.0
 20
0.0
 30
0.0
  0
VERTEX
  5
49A
  8
0
  6
CONTINUOUS
 62
     7
 10
215.5297446439
 20
270.4098554743
 30
0.0
  0
VERTEX
  5
49B
  8
0
  6
CONTINUOUS
 62
     7
 10
212.3462367246
 20
270.2511163843
 30
0.0
  0
VERTEX
  5
49C
  8
0
  6
CONTINUOUS
 62
     7
 10
209.1076421926
 20
270.1114984644
 30
0.0
  0
VERTEX
  5
49D
  8
0
  6
CONTINUOUS
 62
     7
 10
205.8211970517
 20
269.9913116586
 30
0.0
  0
VERTEX
  5
49E
  8
0
  6
CONTINUOUS
 62
     7
 10
202.1772253702
 20
269.8823662889
 30
0.0
  0
VERTEX
  5
49F
  8
0
  6
CONTINUOUS
 62
     7
 10
198.4940755555
 20
269.7973223818
 30
0.0
  0
VERTEX
  5
4A0
  8
0
  6
CONTINUOUS
 62
     7
 10
194.7815287301
 20
269.7364183557
 30
0.0
  0
VERTEX
  5
4A1
  8
0
  6
CONTINUOUS
 62
     7
 10
191.0492170045
 20
269.6998091829
 30
0.0
  0
VERTEX
  5
4A2
  8
0
  6
CONTINUOUS
 62
     7
 10
187.3070824334
 20
269.6876021517
 30
0.0
  0
VERTEX
  5
4A3
  8
0
  6
CONTINUOUS
 62
     7
 10
183.5649478624
 20
269.6998091829
 30
0.0
  0
VERTEX
  5
4A4
  8
0
  6
CONTINUOUS
 62
     7
 10
179.8326301763
 20
269.7364183557
 30
0.0
  0
VERTEX
  5
4A5
  8
0
  6
CONTINUOUS
 62
     7
 10
176.1200863311
 20
269.7973223818
 30
0.0
  0
VERTEX
  5
4A6
  8
0
  6
CONTINUOUS
 62
     7
 10
172.4369335363
 20
269.8823662889
 30
0.0
  0
VERTEX
  5
4A7
  8
0
  6
CONTINUOUS
 62
     7
 10
168.7929648349
 20
269.9913116586
 30
0.0
  0
VERTEX
  5
4A8
  8
0
  6
CONTINUOUS
 62
     7
 10
165.5065345952
 20
270.1114984644
 30
0.0
  0
VERTEX
  5
4A9
  8
0
  6
CONTINUOUS
 62
     7
 10
162.2679549644
 20
270.2511163843
 30
0.0
  0
VERTEX
  5
4AA
  8
0
  6
CONTINUOUS
 62
     7
 10
159.0844619462
 20
270.4098554743
 30
0.0
  0
SEQEND
  5
862
  8
0
  6
CONTINUOUS
 62
     7
  0
POLYLINE
  5
9A
  8
0
  6
CONTINUOUS
 62
     7
 66
     1
 10
0.0
 20
0.0
 30
0.0
  0
VERTEX
  5
4AB
  8
0
  6
CONTINUOUS
 62
     7
 10
221.5623724649
 20
247.9133578432
 30
0.0
  0
VERTEX
  5
4AC
  8
0
  6
CONTINUOUS
 62
     7
 10
221.310906429
 20
246.4184495104
 30
0.0
  0
VERTEX
  5
4AD
  8
0
  6
CONTINUOUS
 62
     7
 10
220.8460378835
 20
244.9768873346
 30
0.0
  0
VERTEX
  5
4AE
  8
0
  6
CONTINUOUS
 62
     7
 10
220.1747882554
 20
243.6313601625
 30
0.0
  0
VERTEX
  5
4AF
  8
0
  6
CONTINUOUS
 62
     7
 10
219.3148482034
 20
242.4194189203
 30
0.0
  0
VERTEX
  5
4B0
  8
0
  6
CONTINUOUS
 62
     7
 10
218.2845997999
 20
241.3791628969
 30
0.0
  0
VERTEX
  5
4B1
  8
0
  6
CONTINUOUS
 62
     7
 10
217.1114015767
 20
240.5375691545
 30
0.0
  0
VERTEX
  5
4B2
  8
0
  6
CONTINUOUS
 62
     7
 10
215.8273863981
 20
239.923367132
 30
0.0
  0
VERTEX
  5
4B3
  8
0
  6
CONTINUOUS
 62
     7
 10
214.4653070161
 20
239.5475956094
 30
0.0
  0
VERTEX
  5
4B4
  8
0
  6
CONTINUOUS
 62
     7
 10
213.4413111398
 20
239.4312473428
 30
0.0
  0
SEQEND
  5
861
  8
0
  6
CONTINUOUS
 62
     7
  0
POLYLINE
  5
9B
  8
0
  6
CONTINUOUS
 62
     7
 66
     1
 10
0.0
 20
0.0
 30
0.0
  0
VERTEX
  5
4B5
  8
0
  6
CONTINUOUS
 62
     7
 10
161.1728507469
 20
239.4312473428
 30
0.0
  0
VERTEX
  5
4B6
  8
0
  6
CONTINUOUS
 62
     7
 10
159.7725409458
 20
239.6260710848
 30
0.0
  0
VERTEX
  5
4B7
  8
0
  6
CONTINUOUS
 62
     7
 10
158.4239113519
 20
240.068337549
 30
0.0
  0
VERTEX
  5
4B8
  8
0
  6
CONTINUOUS
 62
     7
 10
157.1646559427
 20
240.7501908434
 30
0.0
  0
VERTEX
  5
4B9
  8
0
  6
CONTINUOUS
 62
     7
 10
156.0270804355
 20
241.6489692819
 30
0.0
  0
VERTEX
  5
4BA
  8
0
  6
CONTINUOUS
 62
     7
 10
155.0456720779
 20
242.7372547281
 30
0.0
  0
VERTEX
  5
4BB
  8
0
  6
CONTINUOUS
 62
     7
 10
154.2375374029
 20
243.9838381899
 30
0.0
  0
VERTEX
  5
4BC
  8
0
  6
CONTINUOUS
 62
     7
 10
153.6228138397
 20
245.3575702799
 30
0.0
  0
VERTEX
  5
4BD
  8
0
  6
CONTINUOUS
 62
     7
 10
153.2141286323
 20
246.8148203981
 30
0.0
  0
VERTEX
  5
4BE
  8
0
  6
CONTINUOUS
 62
     7
 10
153.0517894218
 20
247.9133578432
 30
0.0
  0
SEQEND
  5
860
  8
0
  6
CONTINUOUS
 62
     7
  0
POLYLINE
  5
9C
  8
0
  6
CONTINUOUS
 62
     7
 66
     1
 10
0.0
 20
0.0
 30
0.0
  0
VERTEX
  5
4BF
  8
0
  6
CONTINUOUS
 62
     7
 10
221.5623724649
 20
247.9133578432
 30
0.0
  0
VERTEX
  5
4C0
  8
0
  6
CONTINUOUS
 62
     7
 10
221.9020891378
 20
251.5357109201
 30
0.0
  0
VERTEX
  5
4C1
  8
0
  6
CONTINUOUS
 62
     7
 10
222.2419488618
 20
255.1540943277
 30
0.0
  0
VERTEX
  5
4C2
  8
0
  6
CONTINUOUS
 62
     7
 10
222.581373472
 20
258.757600416
 30
0.0
  0
VERTEX
  5
4C3
  8
0
  6
CONTINUOUS
 62
     7
 10
222.9196536729
 20
262.3304816377
 30
0.0
  0
SEQEND
  5
85F
  8
0
  6
CONTINUOUS
 62
     7
  0
POLYLINE
  5
9D
  8
0
  6
CONTINUOUS
 62
     7
 66
     1
 10
0.0
 20
0.0
 30
0.0
  0
VERTEX
  5
4C4
  8
0
  6
CONTINUOUS
 62
     7
 10
151.6945022533
 20
262.3305174005
 30
0.0
  0
VERTEX
  5
4C5
  8
0
  6
CONTINUOUS
 62
     7
 10
152.0327824542
 20
258.7576361788
 30
0.0
  0
VERTEX
  5
4C6
  8
0
  6
CONTINUOUS
 62
     7
 10
152.3722100446
 20
255.1541181696
 30
0.0
  0
VERTEX
  5
4C7
  8
0
  6
CONTINUOUS
 62
     7
 10
152.7120697687
 20
251.535722841
 30
0.0
  0
VERTEX
  5
4C8
  8
0
  6
CONTINUOUS
 62
     7
 10
153.0517894218
 20
247.9133578432
 30
0.0
  0
SEQEND
  5
85E
  8
0
  6
CONTINUOUS
 62
     7
  0
POLYLINE
  5
9E
  8
0
  6
CONTINUOUS
 62
     7
 66
     1
 10
0.0
 20
0.0
 30
0.0
  0
VERTEX
  5
4C9
  8
0
  6
CONTINUOUS
 62
     7
 10
219.2269432733
 20
269.5505949152
 30
0.0
  0
VERTEX
  5
4CA
  8
0
  6
CONTINUOUS
 62
     7
 10
219.6207094381
 20
269.382998575
 30
0.0
  0
VERTEX
  5
4CB
  8
0
  6
CONTINUOUS
 62
     7
 10
220.5876815507
 20
268.7285872591
 30
0.0
  0
VERTEX
  5
4CC
  8
0
  6
CONTINUOUS
 62
     7
 10
221.4070308397
 20
267.89986812
 30
0.0
  0
VERTEX
  5
4CD
  8
0
  6
CONTINUOUS
 62
     7
 10
222.0663416574
 20
266.9180127275
 30
0.0
  0
VERTEX
  5
4CE
  8
0
  6
CONTINUOUS
 62
     7
 10
222.5499916265
 20
265.8039184702
 30
0.0
  0
VERTEX
  5
4CF
  8
0
  6
CONTINUOUS
 62
     7
 10
222.8500294874
 20
264.5905586374
 30
0.0
  0
VERTEX
  5
4D0
  8
0
  6
CONTINUOUS
 62
     7
 10
222.9566741178
 20
263.4746047151
 30
0.0
  0
VERTEX
  5
4D1
  8
0
  6
CONTINUOUS
 62
     7
 10
222.9196536729
 20
262.3304816377
 30
0.0
  0
SEQEND
  5
85D
  8
0
  6
CONTINUOUS
 62
     7
  0
POLYLINE
  5
9F
  8
0
  6
CONTINUOUS
 62
     7
 66
     1
 10
0.0
 20
0.0
 30
0.0
  0
VERTEX
  5
4D2
  8
0
  6
CONTINUOUS
 62
     7
 10
151.6945022533
 20
262.3305174005
 30
0.0
  0
VERTEX
  5
4D3
  8
0
  6
CONTINUOUS
 62
     7
 10
151.6644674728
 20
263.6423321855
 30
0.0
  0
VERTEX
  5
4D4
  8
0
  6
CONTINUOUS
 62
     7
 10
151.8235850522
 20
264.9125071657
 30
0.0
  0
VERTEX
  5
4D5
  8
0
  6
CONTINUOUS
 62
     7
 10
152.1729695985
 20
266.1053272379
 30
0.0
  0
VERTEX
  5
4D6
  8
0
  6
CONTINUOUS
 62
     7
 10
152.7049380729
 20
267.1905609262
 30
0.0
  0
VERTEX
  5
4D7
  8
0
  6
CONTINUOUS
 62
     7
 10
153.4126299808
 20
268.1387754572
 30
0.0
  0
VERTEX
  5
4D8
  8
0
  6
CONTINUOUS
 62
     7
 10
154.2772996614
 20
268.9259620798
 30
0.0
  0
VERTEX
  5
4D9
  8
0
  6
CONTINUOUS
 62
     7
 10
155.2760648916
 20
269.5272418153
 30
0.0
  0
VERTEX
  5
4DA
  8
0
  6
CONTINUOUS
 62
     7
 10
155.3792971561
 20
269.565055002
 30
0.0
  0
SEQEND
  5
85C
  8
0
  6
CONTINUOUS
 62
     7
  0
POLYLINE
  5
A0
  8
0
  6
CONTINUOUS
 62
     7
 66
     1
 10
0.0
 20
0.0
 30
0.0
  0
VERTEX
  5
4DB
  8
0
  6
CONTINUOUS
 62
     7
 10
161.1728507469
 20
239.4312473428
 30
0.0
  0
VERTEX
  5
4DC
  8
0
  6
CONTINUOUS
 62
     7
 10
164.0904325435
 20
239.3009992731
 30
0.0
  0
VERTEX
  5
4DD
  8
0
  6
CONTINUOUS
 62
     7
 10
167.0515465925
 20
239.1862722528
 30
0.0
  0
VERTEX
  5
4DE
  8
0
  6
CONTINUOUS
 62
     7
 10
170.0506288001
 20
239.0872689378
 30
0.0
  0
VERTEX
  5
4DF
  8
0
  6
CONTINUOUS
 62
     7
 10
174.3087905834
 20
238.9752956522
 30
0.0
  0
VERTEX
  5
4E0
  8
0
  6
CONTINUOUS
 62
     7
 10
178.6148417184
 20
238.8950201166
 30
0.0
  0
VERTEX
  5
4E1
  8
0
  6
CONTINUOUS
 62
     7
 10
182.9529392907
 20
238.8467403543
 30
0.0
  0
VERTEX
  5
4E2
  8
0
  6
CONTINUOUS
 62
     7
 10
187.3070824334
 20
238.8306232584
 30
0.0
  0
VERTEX
  5
4E3
  8
0
  6
CONTINUOUS
 62
     7
 10
191.6612196157
 20
238.8467403543
 30
0.0
  0
VERTEX
  5
4E4
  8
0
  6
CONTINUOUS
 62
     7
 10
195.999317188
 20
238.8950201166
 30
0.0
  0
VERTEX
  5
4E5
  8
0
  6
CONTINUOUS
 62
     7
 10
200.3053713033
 20
238.9752956522
 30
0.0
  0
VERTEX
  5
4E6
  8
0
  6
CONTINUOUS
 62
     7
 10
204.5635330865
 20
239.0872689378
 30
0.0
  0
VERTEX
  5
4E7
  8
0
  6
CONTINUOUS
 62
     7
 10
207.562612314
 20
239.1862722528
 30
0.0
  0
VERTEX
  5
4E8
  8
0
  6
CONTINUOUS
 62
     7
 10
210.5237293432
 20
239.3009992731
 30
0.0
  0
VERTEX
  5
4E9
  8
0
  6
CONTINUOUS
 62
     7
 10
213.4413111398
 20
239.4312473428
 30
0.0
  0
SEQEND
  5
85B
  8
0
  6
CONTINUOUS
 62
     7
  0
LINE
  5
A1
  8
0
  6
CONTINUOUS
 62
     7
 10
49.3070829103
 20
177.4898739946
 30
0.0
 11
49.3070829103
 21
178.4898730409
 31
0.0
  0
LINE
  5
A2
  8
0
  6
CONTINUOUS
 62
     7
 10
49.3070829103
 20
178.4898730409
 30
0.0
 11
85.3070813606
 21
178.4898730409
 31
0.0
  0
LINE
  5
A3
  8
0
  6
CONTINUOUS
 62
     7
 10
85.3070813606
 20
178.4898730409
 30
0.0
 11
85.3070813606
 21
177.4898739946
 31
0.0
  0
ARC
  5
A4
  8
0
  6
CONTINUOUS
 62
     7
 10
52.3070800493
 20
171.0898714197
 30
0.0
 40
3.000000000000028
 50
180.0
 51
270.0
  0
LINE
  5
A5
  8
0
  6
CONTINUOUS
 62
     7
 10
85.3070813606
 20
171.0898729456
 30
0.0
 11
85.3070813606
 21
177.4898739946
 31
0.0
  0
ARC
  5
A6
  8
0
  6
CONTINUOUS
 62
     7
 10
82.3070800493
 20
171.0898714197
 30
0.0
 40
3.000000000000028
 50
270.0
 51
0.0
  0
LINE
  5
A7
  8
0
  6
CONTINUOUS
 62
     7
 10
82.3070812414
 20
168.0898698461
 30
0.0
 11
52.3070800493
 21
168.0898698461
 31
0.0
  0
LINE
  5
A8
  8
0
  6
CONTINUOUS
 62
     7
 10
49.3070829103
 20
171.0898729456
 30
0.0
 11
49.3070829103
 21
177.4898739946
 31
0.0
  0
LINE
  5
A9
  8
0
  6
CONTINUOUS
 62
     7
 10
64.3070805261
 20
188.2111581457
 30
0.0
 11
64.3070805261
 21
188.5195764196
 31
0.0
  0
LINE
  5
AA
  8
0
  6
CONTINUOUS
 62
     7
 10
70.3070807645
 20
188.5120304716
 30
0.0
 11
70.3070807645
 21
188.2111581457
 31
0.0
  0
LINE
  5
AB
  8
0
  6
CONTINUOUS
 62
     7
 10
64.3070805261
 20
178.4898730409
 30
0.0
 11
64.3070805261
 21
188.2111581457
 31
0.0
  0
LINE
  5
AC
  8
0
  6
CONTINUOUS
 62
     7
 10
70.3070807645
 20
188.2111581457
 30
0.0
 11
70.3070807645
 21
178.4898730409
 31
0.0
  0
LINE
  5
AD
  8
0
  6
CONTINUOUS
 62
     7
 10
70.3070807645
 20
233.5915418756
 30
0.0
 11
70.3070807645
 21
193.7814923418
 31
0.0
  0
LINE
  5
AE
  8
0
  6
CONTINUOUS
 62
     7
 10
64.3070805261
 20
193.772897352
 30
0.0
 11
64.3070805261
 21
233.5915418756
 31
0.0
  0
LINE
  5
AF
  8
0
  6
CONTINUOUS
 62
     7
 10
64.3070805261
 20
233.5915418756
 30
0.0
 11
64.3070805261
 21
235.1377698076
 31
0.0
  0
LINE
  5
B0
  8
0
  6
CONTINUOUS
 62
     7
 10
70.3070807645
 20
235.1377698076
 30
0.0
 11
70.3070807645
 21
233.5915418756
 31
0.0
  0
LINE
  5
B1
  8
0
  6
CONTINUOUS
 62
     7
 10
70.3070807645
 20
238.8417335642
 30
0.0
 11
70.3070807645
 21
235.1377698076
 31
0.0
  0
LINE
  5
B2
  8
0
  6
CONTINUOUS
 62
     7
 10
64.3070805261
 20
235.1377698076
 30
0.0
 11
64.3070805261
 21
238.8417335642
 31
0.0
  0
LINE
  5
B3
  8
0
  6
CONTINUOUS
 62
     7
 10
169.307078738
 20
177.4898739946
 30
0.0
 11
169.307078738
 21
178.4898730409
 31
0.0
  0
LINE
  5
B4
  8
0
  6
CONTINUOUS
 62
     7
 10
169.307078738
 20
178.4898730409
 30
0.0
 11
205.3070771882
 21
178.4898730409
 31
0.0
  0
LINE
  5
B5
  8
0
  6
CONTINUOUS
 62
     7
 10
205.3070771882
 20
178.4898730409
 30
0.0
 11
205.3070771882
 21
177.4898739946
 31
0.0
  0
LINE
  5
B6
  8
0
  6
CONTINUOUS
 62
     7
 10
169.307078738
 20
171.0898729456
 30
0.0
 11
169.307078738
 21
177.4898739946
 31
0.0
  0
LINE
  5
B7
  8
0
  6
CONTINUOUS
 62
     7
 10
205.3070771882
 20
171.0898729456
 30
0.0
 11
205.3070771882
 21
177.4898739946
 31
0.0
  0
LINE
  5
B8
  8
0
  6
CONTINUOUS
 62
     7
 10
202.3070800493
 20
168.0898698461
 30
0.0
 11
172.3070788572
 21
168.0898698461
 31
0.0
  0
ARC
  5
B9
  8
0
  6
CONTINUOUS
 62
     7
 10
172.3070800493
 20
171.0898714197
 30
0.0
 40
3.000000000000028
 50
180.0
 51
270.0
  0
ARC
  5
BA
  8
0
  6
CONTINUOUS
 62
     7
 10
202.3070800493
 20
171.0898714197
 30
0.0
 40
3.000000000000028
 50
270.0
 51
0.0
  0
LINE
  5
BB
  8
0
  6
CONTINUOUS
 62
     7
 10
184.307079334
 20
188.2111581457
 30
0.0
 11
184.307079334
 21
188.5195764196
 31
0.0
  0
LINE
  5
BC
  8
0
  6
CONTINUOUS
 62
     7
 10
190.3070795724
 20
188.5120304716
 30
0.0
 11
190.3070795724
 21
188.2111581457
 31
0.0
  0
LINE
  5
BD
  8
0
  6
CONTINUOUS
 62
     7
 10
184.307079334
 20
178.4898730409
 30
0.0
 11
184.307079334
 21
188.2111581457
 31
0.0
  0
LINE
  5
BE
  8
0
  6
CONTINUOUS
 62
     7
 10
190.3070795724
 20
188.2111581457
 30
0.0
 11
190.3070795724
 21
178.4898730409
 31
0.0
  0
LINE
  5
BF
  8
0
  6
CONTINUOUS
 62
     7
 10
190.3070795724
 20
233.5915418756
 30
0.0
 11
190.3070795724
 21
193.7814923418
 31
0.0
  0
LINE
  5
C0
  8
0
  6
CONTINUOUS
 62
     7
 10
184.307079334
 20
193.772897352
 30
0.0
 11
184.307079334
 21
233.5915418756
 31
0.0
  0
LINE
  5
C1
  8
0
  6
CONTINUOUS
 62
     7
 10
184.307079334
 20
233.5915418756
 30
0.0
 11
184.307079334
 21
235.1377698076
 31
0.0
  0
LINE
  5
C2
  8
0
  6
CONTINUOUS
 62
     7
 10
190.3070795724
 20
235.1377698076
 30
0.0
 11
190.3070795724
 21
233.5915418756
 31
0.0
  0
LINE
  5
C3
  8
0
  6
CONTINUOUS
 62
     7
 10
184.307079334
 20
235.1377698076
 30
0.0
 11
184.307079334
 21
238.8417335642
 31
0.0
  0
LINE
  5
C4
  8
0
  6
CONTINUOUS
 62
     7
 10
190.3070795724
 20
238.8417335642
 30
0.0
 11
190.3070795724
 21
235.1377698076
 31
0.0
  0
POLYLINE
  5
C5
  8
0
  6
CONTINUOUS
 62
     7
 66
     1
 10
0.0
 20
0.0
 30
0.0
  0
VERTEX
  5
4EA
  8
0
  6
CONTINUOUS
 62
     7
 10
224.9071526716
 20
194.2205699575
 30
0.0
  0
VERTEX
  5
4EB
  8
0
  6
CONTINUOUS
 62
     7
 10
224.8192775438
 20
193.9664813173
 30
0.0
  0
VERTEX
  5
4EC
  8
0
  6
CONTINUOUS
 62
     7
 10
224.5539653489
 20
193.6114700926
 30
0.0
  0
VERTEX
  5
4ED
  8
0
  6
CONTINUOUS
 62
     7
 10
224.144964237
 20
193.1797238481
 30
0.0
  0
VERTEX
  5
4EE
  8
0
  6
CONTINUOUS
 62
     7
 10
223.5865462015
 20
192.677787174
 30
0.0
  0
VERTEX
  5
4EF
  8
0
  6
CONTINUOUS
 62
     7
 10
222.850589771
 20
192.1223076475
 30
0.0
  0
VERTEX
  5
4F0
  8
0
  6
CONTINUOUS
 62
     7
 10
221.9485092351
 20
191.5741058481
 30
0.0
  0
VERTEX
  5
4F1
  8
0
  6
CONTINUOUS
 62
     7
 10
221.0821318815
 20
191.1662789476
 30
0.0
  0
VERTEX
  5
4F2
  8
0
  6
CONTINUOUS
 62
     7
 10
220.0984525869
 20
190.8287974489
 30
0.0
  0
VERTEX
  5
4F3
  8
0
  6
CONTINUOUS
 62
     7
 10
219.473390598
 20
190.678528179
 30
0.0
  0
VERTEX
  5
4F4
  8
0
  6
CONTINUOUS
 62
     7
 10
218.819581289
 20
190.5720742834
 30
0.0
  0
SEQEND
  5
85A
  8
0
  6
CONTINUOUS
 62
     7
  0
POLYLINE
  5
C6
  8
0
  6
CONTINUOUS
 62
     7
 66
     1
 10
0.0
 20
0.0
 30
0.0
  0
VERTEX
  5
4F5
  8
0
  6
CONTINUOUS
 62
     7
 10
224.9071526716
 20
194.2205699575
 30
0.0
  0
VERTEX
  5
4F6
  8
0
  6
CONTINUOUS
 62
     7
 10
224.9071467111
 20
194.275358547
 30
0.0
  0
VERTEX
  5
4F7
  8
0
  6
CONTINUOUS
 62
     7
 10
224.9069321344
 20
194.5680531156
 30
0.0
  0
VERTEX
  5
4F8
  8
0
  6
CONTINUOUS
 62
     7
 10
224.9064552972
 20
194.6907611978
 30
0.0
  0
VERTEX
  5
4F9
  8
0
  6
CONTINUOUS
 62
     7
 10
224.9061095903
 20
194.7043927801
 30
0.0
  0
VERTEX
  5
4FA
  8
0
  6
CONTINUOUS
 62
     7
 10
224.9063539693
 20
194.6915360582
 30
0.0
  0
SEQEND
  5
859
  8
0
  6
CONTINUOUS
 62
     7
  0
POLYLINE
  5
C7
  8
0
  6
CONTINUOUS
 62
     7
 66
     1
 10
0.0
 20
0.0
 30
0.0
  0
VERTEX
  5
4FB
  8
0
  6
CONTINUOUS
 62
     7
 10
224.907081146
 20
194.9879678381
 30
0.0
  0
VERTEX
  5
4FC
  8
0
  6
CONTINUOUS
 62
     7
 10
224.8923707197
 20
194.9402066362
 30
0.0
  0
VERTEX
  5
4FD
  8
0
  6
CONTINUOUS
 62
     7
 10
224.907081146
 20
194.8134096754
 30
0.0
  0
SEQEND
  5
858
  8
0
  6
CONTINUOUS
 62
     7
  0
POLYLINE
  5
C8
  8
0
  6
CONTINUOUS
 62
     7
 66
     1
 10
0.0
 20
0.0
 30
0.0
  0
VERTEX
  5
4FE
  8
0
  6
CONTINUOUS
 62
     7
 10
149.7070762703
 20
194.8134096754
 30
0.0
  0
VERTEX
  5
4FF
  8
0
  6
CONTINUOUS
 62
     7
 10
149.7217896769
 20
194.9402066362
 30
0.0
  0
VERTEX
  5
500
  8
0
  6
CONTINUOUS
 62
     7
 10
149.7070807407
 20
194.9879678381
 30
0.0
  0
SEQEND
  5
857
  8
0
  6
CONTINUOUS
 62
     7
  0
POLYLINE
  5
C9
  8
0
  6
CONTINUOUS
 62
     7
 66
     1
 10
0.0
 20
0.0
 30
0.0
  0
VERTEX
  5
501
  8
0
  6
CONTINUOUS
 62
     7
 10
149.7070092151
 20
194.2207487715
 30
0.0
  0
VERTEX
  5
502
  8
0
  6
CONTINUOUS
 62
     7
 10
149.7070092151
 20
194.2254456175
 30
0.0
  0
VERTEX
  5
503
  8
0
  6
CONTINUOUS
 62
     7
 10
149.7071790883
 20
194.5439430368
 30
0.0
  0
VERTEX
  5
504
  8
0
  6
CONTINUOUS
 62
     7
 10
149.7076440046
 20
194.6831854475
 30
0.0
  0
VERTEX
  5
505
  8
0
  6
CONTINUOUS
 62
     7
 10
149.7080299446
 20
194.7065504682
 30
0.0
  0
VERTEX
  5
506
  8
0
  6
CONTINUOUS
 62
     7
 10
149.7079777906
 20
194.6891399515
 30
0.0
  0
SEQEND
  5
856
  8
0
  6
CONTINUOUS
 62
     7
  0
POLYLINE
  5
CA
  8
0
  6
CONTINUOUS
 62
     7
 66
     1
 10
0.0
 20
0.0
 30
0.0
  0
VERTEX
  5
507
  8
0
  6
CONTINUOUS
 62
     7
 10
155.7945805976
 20
190.5720742834
 30
0.0
  0
VERTEX
  5
508
  8
0
  6
CONTINUOUS
 62
     7
 10
154.7805327365
 20
190.7592388284
 30
0.0
  0
VERTEX
  5
509
  8
0
  6
CONTINUOUS
 62
     7
 10
153.7952262351
 20
191.0634192121
 30
0.0
  0
VERTEX
  5
50A
  8
0
  6
CONTINUOUS
 62
     7
 10
152.9263872096
 20
191.439810623
 30
0.0
  0
VERTEX
  5
50B
  8
0
  6
CONTINUOUS
 62
     7
 10
152.1331164429
 20
191.8813797128
 30
0.0
  0
VERTEX
  5
50C
  8
0
  6
CONTINUOUS
 62
     7
 10
151.3756442258
 20
192.4017461431
 30
0.0
  0
VERTEX
  5
50D
  8
0
  6
CONTINUOUS
 62
     7
 10
150.7343504021
 20
192.9313036096
 30
0.0
  0
VERTEX
  5
50E
  8
0
  6
CONTINUOUS
 62
     7
 10
150.1881140659
 20
193.4683116567
 30
0.0
  0
VERTEX
  5
50F
  8
0
  6
CONTINUOUS
 62
     7
 10
149.9799716661
 20
193.7069328916
 30
0.0
  0
VERTEX
  5
510
  8
0
  6
CONTINUOUS
 62
     7
 10
149.8278576324
 20
193.9129623068
 30
0.0
  0
VERTEX
  5
511
  8
0
  6
CONTINUOUS
 62
     7
 10
149.7070092151
 20
194.2207487715
 30
0.0
  0
SEQEND
  5
855
  8
0
  6
CONTINUOUS
 62
     7
  0
POLYLINE
  5
CB
  8
0
  6
CONTINUOUS
 62
     7
 66
     1
 10
0.0
 20
0.0
 30
0.0
  0
VERTEX
  5
512
  8
0
  6
CONTINUOUS
 62
     7
 10
218.819581289
 20
190.5720742834
 30
0.0
  0
VERTEX
  5
513
  8
0
  6
CONTINUOUS
 62
     7
 10
211.7302525232
 20
189.7711607111
 30
0.0
  0
VERTEX
  5
514
  8
0
  6
CONTINUOUS
 62
     7
 10
204.6131837556
 20
189.1437204969
 30
0.0
  0
VERTEX
  5
515
  8
0
  6
CONTINUOUS
 62
     7
 10
197.4402773568
 20
188.7171538961
 30
0.0
  0
VERTEX
  5
516
  8
0
  6
CONTINUOUS
 62
     7
 10
190.2533519456
 20
188.5099383486
 30
0.0
  0
VERTEX
  5
517
  8
0
  6
CONTINUOUS
 62
     7
 10
185.1903188417
 20
188.5007413519
 30
0.0
  0
VERTEX
  5
518
  8
0
  6
CONTINUOUS
 62
     7
 10
180.1287937353
 20
188.6044117105
 30
0.0
  0
VERTEX
  5
519
  8
0
  6
CONTINUOUS
 62
     7
 10
175.0581252763
 20
188.8203474176
 30
0.0
  0
VERTEX
  5
51A
  8
0
  6
CONTINUOUS
 62
     7
 10
169.9958491514
 20
189.1441019666
 30
0.0
  0
VERTEX
  5
51B
  8
0
  6
CONTINUOUS
 62
     7
 10
162.8849673459
 20
189.7706540716
 30
0.0
  0
VERTEX
  5
51C
  8
0
  6
CONTINUOUS
 62
     7
 10
155.7945805976
 20
190.5720742834
 30
0.0
  0
SEQEND
  5
854
  8
0
  6
CONTINUOUS
 62
     7
  0
POLYLINE
  5
CC
  8
0
  6
CONTINUOUS
 62
     7
 66
     1
 10
0.0
 20
0.0
 30
0.0
  0
VERTEX
  5
51D
  8
0
  6
CONTINUOUS
 62
     7
 10
155.9744793365
 20
195.9046455515
 30
0.0
  0
VERTEX
  5
51E
  8
0
  6
CONTINUOUS
 62
     7
 10
154.9680072257
 20
196.1222919119
 30
0.0
  0
VERTEX
  5
51F
  8
0
  6
CONTINUOUS
 62
     7
 10
154.0434110353
 20
196.3121029031
 30
0.0
  0
VERTEX
  5
520
  8
0
  6
CONTINUOUS
 62
     7
 10
153.2759207675
 20
196.4500757349
 30
0.0
  0
VERTEX
  5
521
  8
0
  6
CONTINUOUS
 62
     7
 10
152.6404398868
 20
196.5339990747
 30
0.0
  0
VERTEX
  5
522
  8
0
  6
CONTINUOUS
 62
     7
 10
152.338709254
 20
196.554753412
 30
0.0
  0
VERTEX
  5
523
  8
0
  6
CONTINUOUS
 62
     7
 10
152.1007183382
 20
196.553328861
 30
0.0
  0
SEQEND
  5
853
  8
0
  6
CONTINUOUS
 62
     7
  0
ARC
  5
CD
  8
0
  6
CONTINUOUS
 62
     7
 10
187.1909147756
 20
335.1376981343
 30
0.0
 40
142.6895538329842
 50
257.3631010656
 51
260.3830639281
  0
ARC
  5
CE
  8
0
  6
CONTINUOUS
 62
     7
 10
186.7051476491
 20
338.768282605
 30
0.0
 40
146.3893210295829
 50
279.6013645076
 51
282.6002782923
  0
POLYLINE
  5
CF
  8
0
  6
CONTINUOUS
 62
     7
 66
     1
 10
0.0
 20
0.0
 30
0.0
  0
VERTEX
  5
524
  8
0
  6
CONTINUOUS
 62
     7
 10
222.5134420583
 20
196.553328861
 30
0.0
  0
VERTEX
  5
525
  8
0
  6
CONTINUOUS
 62
     7
 10
222.0943558404
 20
196.5444179666
 30
0.0
  0
VERTEX
  5
526
  8
0
  6
CONTINUOUS
 62
     7
 10
221.4847254941
 20
196.472701658
 30
0.0
  0
VERTEX
  5
527
  8
0
  6
CONTINUOUS
 62
     7
 10
220.7334804723
 20
196.3434430254
 30
0.0
  0
VERTEX
  5
528
  8
0
  6
CONTINUOUS
 62
     7
 10
219.8161053846
 20
196.1582513941
 30
0.0
  0
VERTEX
  5
529
  8
0
  6
CONTINUOUS
 62
     7
 10
218.6396825502
 20
195.9046455515
 30
0.0
  0
SEQEND
  5
852
  8
0
  6
CONTINUOUS
 62
     7
  0
POLYLINE
  5
D0
  8
0
  6
CONTINUOUS
 62
     7
 66
     1
 10
0.0
 20
0.0
 30
0.0
  0
VERTEX
  5
52A
  8
0
  6
CONTINUOUS
 62
     7
 10
222.5134241769
 20
196.5534063471
 30
0.0
  0
VERTEX
  5
52B
  8
0
  6
CONTINUOUS
 62
     7
 10
223.4304893205
 20
196.4985939157
 30
0.0
  0
VERTEX
  5
52C
  8
0
  6
CONTINUOUS
 62
     7
 10
224.0316617677
 20
196.4440556658
 30
0.0
  0
VERTEX
  5
52D
  8
0
  6
CONTINUOUS
 62
     7
 10
224.3891883085
 20
196.3883253229
 30
0.0
  0
VERTEX
  5
52E
  8
0
  6
CONTINUOUS
 62
     7
 10
224.6039438436
 20
196.3317128313
 30
0.0
  0
VERTEX
  5
52F
  8
0
  6
CONTINUOUS
 62
     7
 10
224.6856916139
 20
196.273282398
 30
0.0
  0
VERTEX
  5
530
  8
0
  6
CONTINUOUS
 62
     7
 10
224.6825266073
 20
196.215728153
 30
0.0
  0
VERTEX
  5
531
  8
0
  6
CONTINUOUS
 62
     7
 10
224.6554243753
 20
196.1628767145
 30
0.0
  0
VERTEX
  5
532
  8
0
  6
CONTINUOUS
 62
     7
 10
224.6532666871
 20
196.1160155428
 30
0.0
  0
VERTEX
  5
533
  8
0
  6
CONTINUOUS
 62
     7
 10
224.7002053449
 20
196.0077198637
 30
0.0
  0
VERTEX
  5
534
  8
0
  6
CONTINUOUS
 62
     7
 10
224.7094381044
 20
195.9661635053
 30
0.0
  0
SEQEND
  5
851
  8
0
  6
CONTINUOUS
 62
     7
  0
ARC
  5
D1
  8
0
  6
CONTINUOUS
 62
     7
 10
219.8590747039
 20
195.1369486398
 30
0.0
 40
4.949505315867706
 50
3.5875281046
 51
8.4264629008
  0
POLYLINE
  5
D2
  8
0
  6
CONTINUOUS
 62
     7
 66
     1
 10
0.0
 20
0.0
 30
0.0
  0
VERTEX
  5
535
  8
0
  6
CONTINUOUS
 62
     7
 10
218.7102425287
 20
192.0688243997
 30
0.0
  0
VERTEX
  5
536
  8
0
  6
CONTINUOUS
 62
     7
 10
219.7339403818
 20
192.2477515829
 30
0.0
  0
VERTEX
  5
537
  8
0
  6
CONTINUOUS
 62
     7
 10
220.7299161146
 20
192.5385328424
 30
0.0
  0
VERTEX
  5
538
  8
0
  6
CONTINUOUS
 62
     7
 10
221.6101694295
 20
192.8974779737
 30
0.0
  0
VERTEX
  5
539
  8
0
  6
CONTINUOUS
 62
     7
 10
222.4148023317
 20
193.3162840498
 30
0.0
  0
VERTEX
  5
53A
  8
0
  6
CONTINUOUS
 62
     7
 10
223.174523134
 20
193.7999876631
 30
0.0
  0
VERTEX
  5
53B
  8
0
  6
CONTINUOUS
 62
     7
 10
223.8159227559
 20
194.2865642202
 30
0.0
  0
VERTEX
  5
53C
  8
0
  6
CONTINUOUS
 62
     7
 10
224.3436443994
 20
194.7598608625
 30
0.0
  0
VERTEX
  5
53D
  8
0
  6
CONTINUOUS
 62
     7
 10
224.6868777463
 20
195.1529892576
 30
0.0
  0
VERTEX
  5
53E
  8
0
  6
CONTINUOUS
 62
     7
 10
224.7749555299
 20
195.3136535776
 30
0.0
  0
VERTEX
  5
53F
  8
0
  6
CONTINUOUS
 62
     7
 10
224.7988808343
 20
195.4466494215
 30
0.0
  0
SEQEND
  5
850
  8
0
  6
CONTINUOUS
 62
     7
  0
POLYLINE
  5
D3
  8
0
  6
CONTINUOUS
 62
     7
 66
     1
 10
0.0
 20
0.0
 30
0.0
  0
VERTEX
  5
540
  8
0
  6
CONTINUOUS
 62
     7
 10
218.7102425287
 20
192.0688243997
 30
0.0
  0
VERTEX
  5
541
  8
0
  6
CONTINUOUS
 62
     7
 10
213.3594203184
 20
191.4822312486
 30
0.0
  0
VERTEX
  5
542
  8
0
  6
CONTINUOUS
 62
     7
 10
207.9932618329
 20
190.9842284811
 30
0.0
  0
VERTEX
  5
543
  8
0
  6
CONTINUOUS
 62
     7
 10
202.601008434
 20
190.5870767725
 30
0.0
  0
VERTEX
  5
544
  8
0
  6
CONTINUOUS
 62
     7
 10
197.1979129503
 20
190.3020950449
 30
0.0
  0
VERTEX
  5
545
  8
0
  6
CONTINUOUS
 62
     7
 10
191.2964213083
 20
190.1284309519
 30
0.0
  0
VERTEX
  5
546
  8
0
  6
CONTINUOUS
 62
     7
 10
185.3912759015
 20
190.1020976198
 30
0.0
  0
VERTEX
  5
547
  8
0
  6
CONTINUOUS
 62
     7
 10
179.4661092946
 20
190.2253719461
 30
0.0
  0
VERTEX
  5
548
  8
0
  6
CONTINUOUS
 62
     7
 10
173.5480654428
 20
190.4941412103
 30
0.0
  0
VERTEX
  5
549
  8
0
  6
CONTINUOUS
 62
     7
 10
169.126780648
 20
190.786156286
 30
0.0
  0
VERTEX
  5
54A
  8
0
  6
CONTINUOUS
 62
     7
 10
164.7138375232
 20
191.1500545633
 30
0.0
  0
VERTEX
  5
54B
  8
0
  6
CONTINUOUS
 62
     7
 10
160.3035944888
 20
191.5802749288
 30
0.0
  0
VERTEX
  5
54C
  8
0
  6
CONTINUOUS
 62
     7
 10
155.9039163778
 20
192.0688243997
 30
0.0
  0
SEQEND
  5
84F
  8
0
  6
CONTINUOUS
 62
     7
  0
POLYLINE
  5
D4
  8
0
  6
CONTINUOUS
 62
     7
 66
     1
 10
0.0
 20
0.0
 30
0.0
  0
VERTEX
  5
54D
  8
0
  6
CONTINUOUS
 62
     7
 10
149.815276582
 20
195.4466494215
 30
0.0
  0
VERTEX
  5
54E
  8
0
  6
CONTINUOUS
 62
     7
 10
149.8896184752
 20
195.2119918955
 30
0.0
  0
VERTEX
  5
54F
  8
0
  6
CONTINUOUS
 62
     7
 10
150.1468616912
 20
194.8865862978
 30
0.0
  0
VERTEX
  5
550
  8
0
  6
CONTINUOUS
 62
     7
 10
150.5566138217
 20
194.4929572237
 30
0.0
  0
VERTEX
  5
551
  8
0
  6
CONTINUOUS
 62
     7
 10
151.1243748853
 20
194.0291377199
 30
0.0
  0
VERTEX
  5
552
  8
0
  6
CONTINUOUS
 62
     7
 10
151.8570992539
 20
193.5228975904
 30
0.0
  0
VERTEX
  5
553
  8
0
  6
CONTINUOUS
 62
     7
 10
152.753292341
 20
193.0182965887
 30
0.0
  0
VERTEX
  5
554
  8
0
  6
CONTINUOUS
 62
     7
 10
153.6334085653
 20
192.6307531488
 30
0.0
  0
VERTEX
  5
555
  8
0
  6
CONTINUOUS
 62
     7
 10
154.6311426351
 20
192.3094304693
 30
0.0
  0
VERTEX
  5
556
  8
0
  6
CONTINUOUS
 62
     7
 10
155.2539515684
 20
192.1686621797
 30
0.0
  0
VERTEX
  5
557
  8
0
  6
CONTINUOUS
 62
     7
 10
155.9039163778
 20
192.0688243997
 30
0.0
  0
SEQEND
  5
84E
  8
0
  6
CONTINUOUS
 62
     7
  0
POLYLINE
  5
D5
  8
0
  6
CONTINUOUS
 62
     7
 66
     1
 10
0.0
 20
0.0
 30
0.0
  0
VERTEX
  5
558
  8
0
  6
CONTINUOUS
 62
     7
 10
149.815276582
 20
195.4466553819
 30
0.0
  0
VERTEX
  5
559
  8
0
  6
CONTINUOUS
 62
     7
 10
149.8435947487
 20
195.7429917944
 30
0.0
  0
VERTEX
  5
55A
  8
0
  6
CONTINUOUS
 62
     7
 10
149.859421272
 20
195.8676668298
 30
0.0
  0
SEQEND
  5
84D
  8
0
  6
CONTINUOUS
 62
     7
  0
POLYLINE
  5
D6
  8
0
  6
CONTINUOUS
 62
     7
 66
     1
 10
0.0
 20
0.0
 30
0.0
  0
VERTEX
  5
55B
  8
0
  6
CONTINUOUS
 62
     7
 10
149.9047908375
 20
195.9656568659
 30
0.0
  0
VERTEX
  5
55C
  8
0
  6
CONTINUOUS
 62
     7
 10
149.9149012754
 20
196.0103007448
 30
0.0
  0
VERTEX
  5
55D
  8
0
  6
CONTINUOUS
 62
     7
 10
149.9608922193
 20
196.1160155428
 30
0.0
  0
VERTEX
  5
55E
  8
0
  6
CONTINUOUS
 62
     7
 10
149.9587345311
 20
196.1628767145
 30
0.0
  0
VERTEX
  5
55F
  8
0
  6
CONTINUOUS
 62
     7
 10
149.9316337893
 20
196.215728153
 30
0.0
  0
VERTEX
  5
560
  8
0
  6
CONTINUOUS
 62
     7
 10
149.9284687826
 20
196.273282398
 30
0.0
  0
VERTEX
  5
561
  8
0
  6
CONTINUOUS
 62
     7
 10
150.0102150628
 20
196.3317128313
 30
0.0
  0
VERTEX
  5
562
  8
0
  6
CONTINUOUS
 62
     7
 10
150.2249735782
 20
196.3883253229
 30
0.0
  0
VERTEX
  5
563
  8
0
  6
CONTINUOUS
 62
     7
 10
150.5824956486
 20
196.4440556658
 30
0.0
  0
VERTEX
  5
564
  8
0
  6
CONTINUOUS
 62
     7
 10
151.1836695859
 20
196.4985939157
 30
0.0
  0
VERTEX
  5
565
  8
0
  6
CONTINUOUS
 62
     7
 10
152.1007362196
 20
196.5534063471
 30
0.0
  0
SEQEND
  5
84C
  8
0
  6
CONTINUOUS
 62
     7
  0
LINE
  5
D7
  8
0
  6
CONTINUOUS
 62
     7
 10
224.907081146
 20
194.9884565962
 30
0.0
 11
224.907081146
 21
195.2941568983
 31
0.0
  0
LINE
  5
D8
  8
0
  6
CONTINUOUS
 62
     7
 10
149.7070807407
 20
194.8134096754
 30
0.0
 11
149.7070807407
 21
194.6389468801
 31
0.0
  0
LINE
  5
D9
  8
0
  6
CONTINUOUS
 62
     7
 10
149.7070807407
 20
195.283964504
 30
0.0
 11
149.7070807407
 21
194.9884565962
 31
0.0
  0
POLYLINE
  5
DA
  8
0
  6
CONTINUOUS
 62
     7
 66
     1
 10
0.0
 20
0.0
 30
0.0
  0
VERTEX
  5
566
  8
0
  6
CONTINUOUS
 62
     7
 10
104.9071508834
 20
194.2205699575
 30
0.0
  0
VERTEX
  5
567
  8
0
  6
CONTINUOUS
 62
     7
 10
104.8192772457
 20
193.9664813173
 30
0.0
  0
VERTEX
  5
568
  8
0
  6
CONTINUOUS
 62
     7
 10
104.5539635608
 20
193.6114700926
 30
0.0
  0
VERTEX
  5
569
  8
0
  6
CONTINUOUS
 62
     7
 10
104.1449639389
 20
193.1797238481
 30
0.0
  0
VERTEX
  5
56A
  8
0
  6
CONTINUOUS
 62
     7
 10
103.5865488837
 20
192.677787174
 30
0.0
  0
VERTEX
  5
56B
  8
0
  6
CONTINUOUS
 62
     7
 10
102.8505879829
 20
192.1223076475
 30
0.0
  0
VERTEX
  5
56C
  8
0
  6
CONTINUOUS
 62
     7
 10
101.9485104272
 20
191.5741058481
 30
0.0
  0
VERTEX
  5
56D
  8
0
  6
CONTINUOUS
 62
     7
 10
101.0821300933
 20
191.1662789476
 30
0.0
  0
VERTEX
  5
56E
  8
0
  6
CONTINUOUS
 62
     7
 10
100.0984567592
 20
190.8287974489
 30
0.0
  0
VERTEX
  5
56F
  8
0
  6
CONTINUOUS
 62
     7
 10
99.4733888099
 20
190.678528179
 30
0.0
  0
VERTEX
  5
570
  8
0
  6
CONTINUOUS
 62
     7
 10
98.8195795009
 20
190.5720742834
 30
0.0
  0
SEQEND
  5
84B
  8
0
  6
CONTINUOUS
 62
     7
  0
POLYLINE
  5
DB
  8
0
  6
CONTINUOUS
 62
     7
 66
     1
 10
0.0
 20
0.0
 30
0.0
  0
VERTEX
  5
571
  8
0
  6
CONTINUOUS
 62
     7
 10
104.9071508834
 20
194.2205699575
 30
0.0
  0
VERTEX
  5
572
  8
0
  6
CONTINUOUS
 62
     7
 10
104.9071493933
 20
194.275358547
 30
0.0
  0
VERTEX
  5
573
  8
0
  6
CONTINUOUS
 62
     7
 10
104.9069348166
 20
194.5680531156
 30
0.0
  0
VERTEX
  5
574
  8
0
  6
CONTINUOUS
 62
     7
 10
104.9064579794
 20
194.6907611978
 30
0.0
  0
VERTEX
  5
575
  8
0
  6
CONTINUOUS
 62
     7
 10
104.9061078021
 20
194.7043927801
 30
0.0
  0
VERTEX
  5
576
  8
0
  6
CONTINUOUS
 62
     7
 10
104.9063536713
 20
194.6915360582
 30
0.0
  0
SEQEND
  5
84A
  8
0
  6
CONTINUOUS
 62
     7
  0
POLYLINE
  5
DC
  8
0
  6
CONTINUOUS
 62
     7
 66
     1
 10
0.0
 20
0.0
 30
0.0
  0
VERTEX
  5
577
  8
0
  6
CONTINUOUS
 62
     7
 10
104.9070793578
 20
194.9879678381
 30
0.0
  0
VERTEX
  5
578
  8
0
  6
CONTINUOUS
 62
     7
 10
104.8923704216
 20
194.9402066362
 30
0.0
  0
VERTEX
  5
579
  8
0
  6
CONTINUOUS
 62
     7
 10
104.9070838282
 20
194.8134096754
 30
0.0
  0
SEQEND
  5
849
  8
0
  6
CONTINUOUS
 62
     7
  0
POLYLINE
  5
DD
  8
0
  6
CONTINUOUS
 62
     7
 66
     1
 10
0.0
 20
0.0
 30
0.0
  0
VERTEX
  5
57A
  8
0
  6
CONTINUOUS
 62
     7
 10
29.7070789525
 20
194.8134096754
 30
0.0
  0
VERTEX
  5
57B
  8
0
  6
CONTINUOUS
 62
     7
 10
29.7217893789
 20
194.9402066362
 30
0.0
  0
VERTEX
  5
57C
  8
0
  6
CONTINUOUS
 62
     7
 10
29.7070789525
 20
194.9879678381
 30
0.0
  0
SEQEND
  5
848
  8
0
  6
CONTINUOUS
 62
     7
  0
POLYLINE
  5
DE
  8
0
  6
CONTINUOUS
 62
     7
 66
     1
 10
0.0
 20
0.0
 30
0.0
  0
VERTEX
  5
57D
  8
0
  6
CONTINUOUS
 62
     7
 10
29.707007427
 20
194.2207487715
 30
0.0
  0
VERTEX
  5
57E
  8
0
  6
CONTINUOUS
 62
     7
 10
29.707007427
 20
194.2254456175
 30
0.0
  0
VERTEX
  5
57F
  8
0
  6
CONTINUOUS
 62
     7
 10
29.7071802804
 20
194.5439430368
 30
0.0
  0
VERTEX
  5
580
  8
0
  6
CONTINUOUS
 62
     7
 10
29.7076451967
 20
194.6831854475
 30
0.0
  0
VERTEX
  5
581
  8
0
  6
CONTINUOUS
 62
     7
 10
29.7080326269
 20
194.7065504682
 30
0.0
  0
VERTEX
  5
582
  8
0
  6
CONTINUOUS
 62
     7
 10
29.7079789827
 20
194.6891399515
 30
0.0
  0
SEQEND
  5
847
  8
0
  6
CONTINUOUS
 62
     7
  0
POLYLINE
  5
DF
  8
0
  6
CONTINUOUS
 62
     7
 66
     1
 10
0.0
 20
0.0
 30
0.0
  0
VERTEX
  5
583
  8
0
  6
CONTINUOUS
 62
     7
 10
35.7945788095
 20
190.5720742834
 30
0.0
  0
VERTEX
  5
584
  8
0
  6
CONTINUOUS
 62
     7
 10
34.7805309484
 20
190.7592388284
 30
0.0
  0
VERTEX
  5
585
  8
0
  6
CONTINUOUS
 62
     7
 10
33.795224447
 20
191.0634192121
 30
0.0
  0
VERTEX
  5
586
  8
0
  6
CONTINUOUS
 62
     7
 10
32.9263854215
 20
191.439810623
 30
0.0
  0
VERTEX
  5
587
  8
0
  6
CONTINUOUS
 62
     7
 10
32.1331131646
 20
191.8813797128
 30
0.0
  0
VERTEX
  5
588
  8
0
  6
CONTINUOUS
 62
     7
 10
31.3756454179
 20
192.4017461431
 30
0.0
  0
VERTEX
  5
589
  8
0
  6
CONTINUOUS
 62
     7
 10
30.7343530843
 20
192.9313036096
 30
0.0
  0
VERTEX
  5
58A
  8
0
  6
CONTINUOUS
 62
     7
 10
30.1881122777
 20
193.4683116567
 30
0.0
  0
VERTEX
  5
58B
  8
0
  6
CONTINUOUS
 62
     7
 10
29.9799728582
 20
193.7069328916
 30
0.0
  0
VERTEX
  5
58C
  8
0
  6
CONTINUOUS
 62
     7
 10
29.8278558442
 20
193.9129623068
 30
0.0
  0
VERTEX
  5
58D
  8
0
  6
CONTINUOUS
 62
     7
 10
29.707007427
 20
194.2207487715
 30
0.0
  0
SEQEND
  5
846
  8
0
  6
CONTINUOUS
 62
     7
  0
POLYLINE
  5
E0
  8
0
  6
CONTINUOUS
 62
     7
 66
     1
 10
0.0
 20
0.0
 30
0.0
  0
VERTEX
  5
58E
  8
0
  6
CONTINUOUS
 62
     7
 10
98.8195795009
 20
190.5720742834
 30
0.0
  0
VERTEX
  5
58F
  8
0
  6
CONTINUOUS
 62
     7
 10
91.730250735
 20
189.7711607111
 30
0.0
  0
VERTEX
  5
590
  8
0
  6
CONTINUOUS
 62
     7
 10
84.6131849477
 20
189.1437204969
 30
0.0
  0
VERTEX
  5
591
  8
0
  6
CONTINUOUS
 62
     7
 10
77.4402785489
 20
188.7171538961
 30
0.0
  0
VERTEX
  5
592
  8
0
  6
CONTINUOUS
 62
     7
 10
70.2533531377
 20
188.5099383486
 30
0.0
  0
VERTEX
  5
593
  8
0
  6
CONTINUOUS
 62
     7
 10
65.1903200338
 20
188.5007413519
 30
0.0
  0
VERTEX
  5
594
  8
0
  6
CONTINUOUS
 62
     7
 10
60.1287889669
 20
188.6044117105
 30
0.0
  0
VERTEX
  5
595
  8
0
  6
CONTINUOUS
 62
     7
 10
55.0581264684
 20
188.8203474176
 30
0.0
  0
VERTEX
  5
596
  8
0
  6
CONTINUOUS
 62
     7
 10
49.9958503435
 20
189.1441019666
 30
0.0
  0
VERTEX
  5
597
  8
0
  6
CONTINUOUS
 62
     7
 10
42.884968538
 20
189.7706540716
 30
0.0
  0
VERTEX
  5
598
  8
0
  6
CONTINUOUS
 62
     7
 10
35.7945788095
 20
190.5720742834
 30
0.0
  0
SEQEND
  5
845
  8
0
  6
CONTINUOUS
 62
     7
  0
POLYLINE
  5
E1
  8
0
  6
CONTINUOUS
 62
     7
 66
     1
 10
0.0
 20
0.0
 30
0.0
  0
VERTEX
  5
599
  8
0
  6
CONTINUOUS
 62
     7
 10
35.9744775483
 20
195.9046455515
 30
0.0
  0
VERTEX
  5
59A
  8
0
  6
CONTINUOUS
 62
     7
 10
34.9680054376
 20
196.1222919119
 30
0.0
  0
VERTEX
  5
59B
  8
0
  6
CONTINUOUS
 62
     7
 10
34.0434122274
 20
196.3121029031
 30
0.0
  0
VERTEX
  5
59C
  8
0
  6
CONTINUOUS
 62
     7
 10
33.2759189794
 20
196.4500757349
 30
0.0
  0
VERTEX
  5
59D
  8
0
  6
CONTINUOUS
 62
     7
 10
32.6404380987
 20
196.5339990747
 30
0.0
  0
VERTEX
  5
59E
  8
0
  6
CONTINUOUS
 62
     7
 10
32.3387074659
 20
196.554753412
 30
0.0
  0
VERTEX
  5
59F
  8
0
  6
CONTINUOUS
 62
     7
 10
32.1007180402
 20
196.553328861
 30
0.0
  0
SEQEND
  5
844
  8
0
  6
CONTINUOUS
 62
     7
  0
ARC
  5
E2
  8
0
  6
CONTINUOUS
 62
     7
 10
67.1911318502
 20
335.1388109195
 30
0.0
 40
142.69068754316
 50
257.3631130655
 51
260.3830519281
  0
ARC
  5
E3
  8
0
  6
CONTINUOUS
 62
     7
 10
66.7053389653
 20
338.7672984183
 30
0.0
 40
146.388318421027
 50
279.6013542355
 51
282.6002885644
  0
POLYLINE
  5
E4
  8
0
  6
CONTINUOUS
 62
     7
 66
     1
 10
0.0
 20
0.0
 30
0.0
  0
VERTEX
  5
5A0
  8
0
  6
CONTINUOUS
 62
     7
 10
102.5134417603
 20
196.553328861
 30
0.0
  0
VERTEX
  5
5A1
  8
0
  6
CONTINUOUS
 62
     7
 10
102.0943540523
 20
196.5444179666
 30
0.0
  0
VERTEX
  5
5A2
  8
0
  6
CONTINUOUS
 62
     7
 10
101.484723706
 20
196.472701658
 30
0.0
  0
VERTEX
  5
5A3
  8
0
  6
CONTINUOUS
 62
     7
 10
100.7334786842
 20
196.3434430254
 30
0.0
  0
VERTEX
  5
5A4
  8
0
  6
CONTINUOUS
 62
     7
 10
99.8161035964
 20
196.1582513941
 30
0.0
  0
VERTEX
  5
5A5
  8
0
  6
CONTINUOUS
 62
     7
 10
98.639680762
 20
195.9046455515
 30
0.0
  0
SEQEND
  5
843
  8
0
  6
CONTINUOUS
 62
     7
  0
POLYLINE
  5
E5
  8
0
  6
CONTINUOUS
 62
     7
 66
     1
 10
0.0
 20
0.0
 30
0.0
  0
VERTEX
  5
5A6
  8
0
  6
CONTINUOUS
 62
     7
 10
102.5134238789
 20
196.5534063471
 30
0.0
  0
VERTEX
  5
5A7
  8
0
  6
CONTINUOUS
 62
     7
 10
103.4304905126
 20
196.4985939157
 30
0.0
  0
VERTEX
  5
5A8
  8
0
  6
CONTINUOUS
 62
     7
 10
104.0316644499
 20
196.4440556658
 30
0.0
  0
VERTEX
  5
5A9
  8
0
  6
CONTINUOUS
 62
     7
 10
104.3891865203
 20
196.3883253229
 30
0.0
  0
VERTEX
  5
5AA
  8
0
  6
CONTINUOUS
 62
     7
 10
104.6039450357
 20
196.3317128313
 30
0.0
  0
VERTEX
  5
5AB
  8
0
  6
CONTINUOUS
 62
     7
 10
104.6856913159
 20
196.273282398
 30
0.0
  0
VERTEX
  5
5AC
  8
0
  6
CONTINUOUS
 62
     7
 10
104.6825263092
 20
196.215728153
 30
0.0
  0
VERTEX
  5
5AD
  8
0
  6
CONTINUOUS
 62
     7
 10
104.6554255674
 20
196.1628767145
 30
0.0
  0
VERTEX
  5
5AE
  8
0
  6
CONTINUOUS
 62
     7
 10
104.6532678792
 20
196.1160155428
 30
0.0
  0
VERTEX
  5
5AF
  8
0
  6
CONTINUOUS
 62
     7
 10
104.7002050469
 20
196.0077198637
 30
0.0
  0
VERTEX
  5
5B0
  8
0
  6
CONTINUOUS
 62
     7
 10
104.7094392965
 20
195.9661635053
 30
0.0
  0
SEQEND
  5
842
  8
0
  6
CONTINUOUS
 62
     7
  0
ARC
  5
E6
  8
0
  6
CONTINUOUS
 62
     7
 10
99.8630533873
 20
195.1373144032
 30
0.0
 40
4.945514220578879
 50
3.5861812415
 51
8.4290288726
  0
POLYLINE
  5
E7
  8
0
  6
CONTINUOUS
 62
     7
 66
     1
 10
0.0
 20
0.0
 30
0.0
  0
VERTEX
  5
5B1
  8
0
  6
CONTINUOUS
 62
     7
 10
98.7102437208
 20
192.0688243997
 30
0.0
  0
VERTEX
  5
5B2
  8
0
  6
CONTINUOUS
 62
     7
 10
99.7339385936
 20
192.2477515829
 30
0.0
  0
VERTEX
  5
5B3
  8
0
  6
CONTINUOUS
 62
     7
 10
100.7299173066
 20
192.5385328424
 30
0.0
  0
VERTEX
  5
5B4
  8
0
  6
CONTINUOUS
 62
     7
 10
101.6101706216
 20
192.8974779737
 30
0.0
  0
VERTEX
  5
5B5
  8
0
  6
CONTINUOUS
 62
     7
 10
102.4148005435
 20
193.3162840498
 30
0.0
  0
VERTEX
  5
5B6
  8
0
  6
CONTINUOUS
 62
     7
 10
103.1745198557
 20
193.7999876631
 30
0.0
  0
VERTEX
  5
5B7
  8
0
  6
CONTINUOUS
 62
     7
 10
103.815923948
 20
194.2865642202
 30
0.0
  0
VERTEX
  5
5B8
  8
0
  6
CONTINUOUS
 62
     7
 10
104.3436426113
 20
194.7598608625
 30
0.0
  0
VERTEX
  5
5B9
  8
0
  6
CONTINUOUS
 62
     7
 10
104.6868759582
 20
195.1529892576
 30
0.0
  0
VERTEX
  5
5BA
  8
0
  6
CONTINUOUS
 62
     7
 10
104.774956722
 20
195.3136535776
 30
0.0
  0
VERTEX
  5
5BB
  8
0
  6
CONTINUOUS
 62
     7
 10
104.7988835165
 20
195.4466494215
 30
0.0
  0
SEQEND
  5
841
  8
0
  6
CONTINUOUS
 62
     7
  0
POLYLINE
  5
E8
  8
0
  6
CONTINUOUS
 62
     7
 66
     1
 10
0.0
 20
0.0
 30
0.0
  0
VERTEX
  5
5BC
  8
0
  6
CONTINUOUS
 62
     7
 10
98.7102437208
 20
192.0688243997
 30
0.0
  0
VERTEX
  5
5BD
  8
0
  6
CONTINUOUS
 62
     7
 10
93.3594185302
 20
191.4822312486
 30
0.0
  0
VERTEX
  5
5BE
  8
0
  6
CONTINUOUS
 62
     7
 10
87.9932600448
 20
190.9842284811
 30
0.0
  0
VERTEX
  5
5BF
  8
0
  6
CONTINUOUS
 62
     7
 10
82.6010066459
 20
190.5870767725
 30
0.0
  0
VERTEX
  5
5C0
  8
0
  6
CONTINUOUS
 62
     7
 10
77.1979141424
 20
190.3020950449
 30
0.0
  0
VERTEX
  5
5C1
  8
0
  6
CONTINUOUS
 62
     7
 10
71.2964225004
 20
190.1284309519
 30
0.0
  0
VERTEX
  5
5C2
  8
0
  6
CONTINUOUS
 62
     7
 10
65.3912770936
 20
190.1020976198
 30
0.0
  0
VERTEX
  5
5C3
  8
0
  6
CONTINUOUS
 62
     7
 10
59.4661104867
 20
190.2253719461
 30
0.0
  0
VERTEX
  5
5C4
  8
0
  6
CONTINUOUS
 62
     7
 10
53.5480666349
 20
190.4941412103
 30
0.0
  0
VERTEX
  5
5C5
  8
0
  6
CONTINUOUS
 62
     7
 10
49.1267788598
 20
190.786156286
 30
0.0
  0
VERTEX
  5
5C6
  8
0
  6
CONTINUOUS
 62
     7
 10
44.7138357351
 20
191.1500545633
 30
0.0
  0
VERTEX
  5
5C7
  8
0
  6
CONTINUOUS
 62
     7
 10
40.3035927007
 20
191.5802749288
 30
0.0
  0
VERTEX
  5
5C8
  8
0
  6
CONTINUOUS
 62
     7
 10
35.9039175699
 20
192.0688243997
 30
0.0
  0
SEQEND
  5
840
  8
0
  6
CONTINUOUS
 62
     7
  0
POLYLINE
  5
E9
  8
0
  6
CONTINUOUS
 62
     7
 66
     1
 10
0.0
 20
0.0
 30
0.0
  0
VERTEX
  5
5C9
  8
0
  6
CONTINUOUS
 62
     7
 10
29.8152792642
 20
195.4466494215
 30
0.0
  0
VERTEX
  5
5CA
  8
0
  6
CONTINUOUS
 62
     7
 10
29.8896181772
 20
195.2119918955
 30
0.0
  0
VERTEX
  5
5CB
  8
0
  6
CONTINUOUS
 62
     7
 10
30.1468599031
 20
194.8865862978
 30
0.0
  0
VERTEX
  5
5CC
  8
0
  6
CONTINUOUS
 62
     7
 10
30.5566120336
 20
194.4929572237
 30
0.0
  0
VERTEX
  5
5CD
  8
0
  6
CONTINUOUS
 62
     7
 10
31.1243760774
 20
194.0291377199
 30
0.0
  0
VERTEX
  5
5CE
  8
0
  6
CONTINUOUS
 62
     7
 10
31.8571019361
 20
193.5228975904
 30
0.0
  0
VERTEX
  5
5CF
  8
0
  6
CONTINUOUS
 62
     7
 10
32.7532935331
 20
193.0182965887
 30
0.0
  0
VERTEX
  5
5D0
  8
0
  6
CONTINUOUS
 62
     7
 10
33.6334097574
 20
192.6307531488
 30
0.0
  0
VERTEX
  5
5D1
  8
0
  6
CONTINUOUS
 62
     7
 10
34.6311438272
 20
192.3094304693
 30
0.0
  0
VERTEX
  5
5D2
  8
0
  6
CONTINUOUS
 62
     7
 10
35.2539527604
 20
192.1686621797
 30
0.0
  0
VERTEX
  5
5D3
  8
0
  6
CONTINUOUS
 62
     7
 10
35.9039175699
 20
192.0688243997
 30
0.0
  0
SEQEND
  5
83F
  8
0
  6
CONTINUOUS
 62
     7
  0
POLYLINE
  5
EA
  8
0
  6
CONTINUOUS
 62
     7
 66
     1
 10
0.0
 20
0.0
 30
0.0
  0
VERTEX
  5
5D4
  8
0
  6
CONTINUOUS
 62
     7
 10
29.8152792642
 20
195.4466553819
 30
0.0
  0
VERTEX
  5
5D5
  8
0
  6
CONTINUOUS
 62
     7
 10
29.8435974309
 20
195.7429917944
 30
0.0
  0
VERTEX
  5
5D6
  8
0
  6
CONTINUOUS
 62
     7
 10
29.8594224641
 20
195.8676668298
 30
0.0
  0
SEQEND
  5
83E
  8
0
  6
CONTINUOUS
 62
     7
  0
POLYLINE
  5
EB
  8
0
  6
CONTINUOUS
 62
     7
 66
     1
 10
0.0
 20
0.0
 30
0.0
  0
VERTEX
  5
5D7
  8
0
  6
CONTINUOUS
 62
     7
 10
29.9047935197
 20
195.9656568659
 30
0.0
  0
VERTEX
  5
5D8
  8
0
  6
CONTINUOUS
 62
     7
 10
29.9149024675
 20
196.0103007448
 30
0.0
  0
VERTEX
  5
5D9
  8
0
  6
CONTINUOUS
 62
     7
 10
29.9608934114
 20
196.1160155428
 30
0.0
  0
VERTEX
  5
5DA
  8
0
  6
CONTINUOUS
 62
     7
 10
29.9587357232
 20
196.1628767145
 30
0.0
  0
VERTEX
  5
5DB
  8
0
  6
CONTINUOUS
 62
     7
 10
29.9316334913
 20
196.215728153
 30
0.0
  0
VERTEX
  5
5DC
  8
0
  6
CONTINUOUS
 62
     7
 10
29.9284684846
 20
196.273282398
 30
0.0
  0
VERTEX
  5
5DD
  8
0
  6
CONTINUOUS
 62
     7
 10
30.0102162549
 20
196.3317128313
 30
0.0
  0
VERTEX
  5
5DE
  8
0
  6
CONTINUOUS
 62
     7
 10
30.2249717901
 20
196.3883253229
 30
0.0
  0
VERTEX
  5
5DF
  8
0
  6
CONTINUOUS
 62
     7
 10
30.5824983308
 20
196.4440556658
 30
0.0
  0
VERTEX
  5
5E0
  8
0
  6
CONTINUOUS
 62
     7
 10
31.183670778
 20
196.4985939157
 30
0.0
  0
VERTEX
  5
5E1
  8
0
  6
CONTINUOUS
 62
     7
 10
32.1007359216
 20
196.5534063471
 30
0.0
  0
SEQEND
  5
83D
  8
0
  6
CONTINUOUS
 62
     7
  0
LINE
  5
EC
  8
0
  6
CONTINUOUS
 62
     7
 10
104.9070793578
 20
194.9884565962
 30
0.0
 11
104.9070793578
 21
195.2941568983
 31
0.0
  0
LINE
  5
ED
  8
0
  6
CONTINUOUS
 62
     7
 10
29.7070789525
 20
194.8134096754
 30
0.0
 11
29.7070789525
 21
194.6389468801
 31
0.0
  0
LINE
  5
EE
  8
0
  6
CONTINUOUS
 62
     7
 10
29.7070789525
 20
195.283964504
 30
0.0
 11
29.7070789525
 21
194.9884565962
 31
0.0
  0
LINE
  5
EF
  8
0
  6
CONTINUOUS
 62
     7
 10
29.60708024
 20
193.192658056
 30
0.0
 11
29.60708024
 21
191.941502918
 31
0.0
  0
ARC
  5
F0
  8
0
  6
CONTINUOUS
 62
     7
 10
30.6070800493
 20
193.1926573526
 30
0.0
 40
1.0
 50
138.1768700679
 51
180.0
  0
LINE
  5
F1
  8
0
  6
CONTINUOUS
 62
     7
 10
30.4070818612
 20
191.941502918
 30
0.0
 11
30.4070818612
 21
193.2530435217
 31
0.0
  0
LINE
  5
F2
  8
0
  6
CONTINUOUS
 62
     7
 10
29.60708024
 20
189.9767967355
 30
0.0
 11
29.60708024
 21
191.941502918
 31
0.0
  0
LINE
  5
F3
  8
0
  6
CONTINUOUS
 62
     7
 10
30.4070818612
 20
191.941502918
 30
0.0
 11
30.4070818612
 21
189.9767967355
 31
0.0
  0
LINE
  5
F4
  8
0
  6
CONTINUOUS
 62
     7
 10
29.60708024
 20
184.1545435083
 30
0.0
 11
29.60708024
 21
189.9767967355
 31
0.0
  0
LINE
  5
F5
  8
0
  6
CONTINUOUS
 62
     7
 10
30.4070818612
 20
189.9767967355
 30
0.0
 11
30.4070818612
 21
184.1545435083
 31
0.0
  0
LINE
  5
F6
  8
0
  6
CONTINUOUS
 62
     7
 10
29.60708024
 20
184.1545435083
 30
0.0
 11
29.60708024
 21
183.8899525297
 31
0.0
  0
LINE
  5
F7
  8
0
  6
CONTINUOUS
 62
     7
 10
30.4070818612
 20
183.8899525297
 30
0.0
 11
30.4070818612
 21
184.1545435083
 31
0.0
  0
LINE
  5
F8
  8
0
  6
CONTINUOUS
 62
     7
 10
29.60708024
 20
181.9975825441
 30
0.0
 11
29.60708024
 21
183.8899525297
 31
0.0
  0
LINE
  5
F9
  8
0
  6
CONTINUOUS
 62
     7
 10
30.4070818612
 20
183.8899525297
 30
0.0
 11
30.4070818612
 21
181.9975825441
 31
0.0
  0
LINE
  5
FA
  8
0
  6
CONTINUOUS
 62
     7
 10
29.60708024
 20
178.5856100214
 30
0.0
 11
29.60708024
 21
181.9975825441
 31
0.0
  0
LINE
  5
FB
  8
0
  6
CONTINUOUS
 62
     7
 10
30.4070818612
 20
181.9975825441
 30
0.0
 11
30.4070818612
 21
178.5856100214
 31
0.0
  0
LINE
  5
FC
  8
0
  6
CONTINUOUS
 62
     7
 10
29.60708024
 20
176.6898723734
 30
0.0
 11
29.60708024
 21
178.5856100214
 31
0.0
  0
LINE
  5
FD
  8
0
  6
CONTINUOUS
 62
     7
 10
30.4070818612
 20
178.5856100214
 30
0.0
 11
30.4070818612
 21
176.6898723734
 31
0.0
  0
LINE
  5
FE
  8
0
  6
CONTINUOUS
 62
     7
 10
30.4070818612
 20
174.6898742807
 30
0.0
 11
29.60708024
 21
174.6898742807
 31
0.0
  0
LINE
  5
FF
  8
0
  6
CONTINUOUS
 62
     7
 10
29.60708024
 20
174.6898742807
 30
0.0
 11
29.60708024
 21
176.6898723734
 31
0.0
  0
LINE
  5
100
  8
0
  6
CONTINUOUS
 62
     7
 10
30.4070818612
 20
176.6898723734
 30
0.0
 11
30.4070818612
 21
174.6898742807
 31
0.0
  0
LINE
  5
101
  8
0
  6
CONTINUOUS
 62
     7
 10
24.8070824334
 20
177.4898739946
 30
0.0
 11
24.8070824334
 21
170.0898738992
 31
0.0
  0
LINE
  5
102
  8
0
  6
CONTINUOUS
 62
     7
 10
34.8070788572
 20
177.4898739946
 30
0.0
 11
34.8070788572
 21
170.0898738992
 31
0.0
  0
ARC
  5
103
  8
0
  6
CONTINUOUS
 62
     7
 10
32.8070800493
 20
170.0898714197
 30
0.0
 40
2.000000000000028
 50
270.0
 51
0.0
  0
LINE
  5
104
  8
0
  6
CONTINUOUS
 62
     7
 10
32.8070807645
 20
168.0898698461
 30
0.0
 11
26.8070805261
 21
168.0898698461
 31
0.0
  0
ARC
  5
105
  8
0
  6
CONTINUOUS
 62
     7
 10
26.8070800493
 20
170.0898714197
 30
0.0
 40
2.000000000000028
 50
180.0
 51
270.0
  0
LINE
  5
106
  8
0
  6
CONTINUOUS
 62
     7
 10
29.60708024
 20
178.4898730409
 30
0.0
 11
24.8070824334
 21
178.4898730409
 31
0.0
  0
LINE
  5
107
  8
0
  6
CONTINUOUS
 62
     7
 10
24.8070824334
 20
178.4898730409
 30
0.0
 11
24.8070824334
 21
177.4898739946
 31
0.0
  0
LINE
  5
108
  8
0
  6
CONTINUOUS
 62
     7
 10
34.8070788572
 20
178.4898730409
 30
0.0
 11
30.4070818612
 21
178.4898730409
 31
0.0
  0
LINE
  5
109
  8
0
  6
CONTINUOUS
 62
     7
 10
34.8070788572
 20
178.4898730409
 30
0.0
 11
34.8070788572
 21
177.4898739946
 31
0.0
  0
LINE
  5
10A
  8
0
  6
CONTINUOUS
 62
     7
 10
150.4070806691
 20
191.941502918
 30
0.0
 11
150.4070806691
 21
189.9767967355
 31
0.0
  0
LINE
  5
10B
  8
0
  6
CONTINUOUS
 62
     7
 10
149.607080538
 20
189.9767967355
 30
0.0
 11
149.607080538
 21
191.941502918
 31
0.0
  0
LINE
  5
10C
  8
0
  6
CONTINUOUS
 62
     7
 10
150.4070806691
 20
191.941502918
 30
0.0
 11
150.4070806691
 21
193.2530435217
 31
0.0
  0
ARC
  5
10D
  8
0
  6
CONTINUOUS
 62
     7
 10
150.6070800493
 20
193.1926573526
 30
0.0
 40
1.0
 50
138.1768700679
 51
180.0
  0
LINE
  5
10E
  8
0
  6
CONTINUOUS
 62
     7
 10
149.607080538
 20
193.192658056
 30
0.0
 11
149.607080538
 21
191.941502918
 31
0.0
  0
LINE
  5
10F
  8
0
  6
CONTINUOUS
 62
     7
 10
150.4070806691
 20
189.9767967355
 30
0.0
 11
150.4070806691
 21
184.1545435083
 31
0.0
  0
LINE
  5
110
  8
0
  6
CONTINUOUS
 62
     7
 10
149.607080538
 20
184.1545435083
 30
0.0
 11
149.607080538
 21
189.9767967355
 31
0.0
  0
LINE
  5
111
  8
0
  6
CONTINUOUS
 62
     7
 10
150.4070806691
 20
183.8899525297
 30
0.0
 11
150.4070806691
 21
184.1545435083
 31
0.0
  0
LINE
  5
112
  8
0
  6
CONTINUOUS
 62
     7
 10
149.607080538
 20
184.1545435083
 30
0.0
 11
149.607080538
 21
183.8899525297
 31
0.0
  0
LINE
  5
113
  8
0
  6
CONTINUOUS
 62
     7
 10
150.4070806691
 20
183.8899525297
 30
0.0
 11
150.4070806691
 21
181.9975825441
 31
0.0
  0
LINE
  5
114
  8
0
  6
CONTINUOUS
 62
     7
 10
149.607080538
 20
181.9975825441
 30
0.0
 11
149.607080538
 21
183.8899525297
 31
0.0
  0
LINE
  5
115
  8
0
  6
CONTINUOUS
 62
     7
 10
150.4070806691
 20
181.9975825441
 30
0.0
 11
150.4070806691
 21
178.5856100214
 31
0.0
  0
LINE
  5
116
  8
0
  6
CONTINUOUS
 62
     7
 10
149.607080538
 20
178.5856100214
 30
0.0
 11
149.607080538
 21
181.9975825441
 31
0.0
  0
LINE
  5
117
  8
0
  6
CONTINUOUS
 62
     7
 10
150.4070806691
 20
178.5856100214
 30
0.0
 11
150.4070806691
 21
176.6898723734
 31
0.0
  0
LINE
  5
118
  8
0
  6
CONTINUOUS
 62
     7
 10
149.607080538
 20
176.6898723734
 30
0.0
 11
149.607080538
 21
178.5856100214
 31
0.0
  0
LINE
  5
119
  8
0
  6
CONTINUOUS
 62
     7
 10
150.4070806691
 20
174.6898742807
 30
0.0
 11
149.607080538
 21
174.6898742807
 31
0.0
  0
LINE
  5
11A
  8
0
  6
CONTINUOUS
 62
     7
 10
150.4070806691
 20
176.6898723734
 30
0.0
 11
150.4070806691
 21
174.6898742807
 31
0.0
  0
LINE
  5
11B
  8
0
  6
CONTINUOUS
 62
     7
 10
149.607080538
 20
174.6898742807
 30
0.0
 11
149.607080538
 21
176.6898723734
 31
0.0
  0
LINE
  5
11C
  8
0
  6
CONTINUOUS
 62
     7
 10
144.8070797512
 20
177.4898739946
 30
0.0
 11
144.8070797512
 21
170.0898738992
 31
0.0
  0
LINE
  5
11D
  8
0
  6
CONTINUOUS
 62
     7
 10
154.8070806453
 20
177.4898739946
 30
0.0
 11
154.8070806453
 21
170.0898738992
 31
0.0
  0
ARC
  5
11E
  8
0
  6
CONTINUOUS
 62
     7
 10
152.8070800493
 20
170.0898714197
 30
0.0
 40
2.000000000000028
 50
270.0
 51
0.0
  0
LINE
  5
11F
  8
0
  6
CONTINUOUS
 62
     7
 10
152.8070795724
 20
168.0898698461
 30
0.0
 11
146.807079334
 21
168.0898698461
 31
0.0
  0
ARC
  5
120
  8
0
  6
CONTINUOUS
 62
     7
 10
146.8070800493
 20
170.0898714197
 30
0.0
 40
2.000000000000028
 50
180.0
 51
270.0
  0
LINE
  5
121
  8
0
  6
CONTINUOUS
 62
     7
 10
149.607080538
 20
178.4898730409
 30
0.0
 11
144.8070797512
 21
178.4898730409
 31
0.0
  0
LINE
  5
122
  8
0
  6
CONTINUOUS
 62
     7
 10
144.8070797512
 20
178.4898730409
 30
0.0
 11
144.8070797512
 21
177.4898739946
 31
0.0
  0
LINE
  5
123
  8
0
  6
CONTINUOUS
 62
     7
 10
154.8070806453
 20
178.4898730409
 30
0.0
 11
150.4070806691
 21
178.4898730409
 31
0.0
  0
LINE
  5
124
  8
0
  6
CONTINUOUS
 62
     7
 10
154.8070806453
 20
178.4898730409
 30
0.0
 11
154.8070806453
 21
177.4898739946
 31
0.0
  0
LINE
  5
125
  8
0
  6
CONTINUOUS
 62
     7
 10
105.0070795605
 20
189.9767967355
 30
0.0
 11
105.0070795605
 21
191.941502918
 31
0.0
  0
LINE
  5
126
  8
0
  6
CONTINUOUS
 62
     7
 10
104.2070794294
 20
191.941502918
 30
0.0
 11
104.2070794294
 21
189.9767967355
 31
0.0
  0
LINE
  5
127
  8
0
  6
CONTINUOUS
 62
     7
 10
105.0070795605
 20
193.192658056
 30
0.0
 11
105.0070795605
 21
191.941502918
 31
0.0
  0
ARC
  5
128
  8
0
  6
CONTINUOUS
 62
     7
 10
104.0070800493
 20
193.1926573526
 30
0.0
 40
1.0
 50
0.0
 51
42.187202839
  0
LINE
  5
129
  8
0
  6
CONTINUOUS
 62
     7
 10
104.2070794294
 20
191.941502918
 30
0.0
 11
104.2070794294
 21
193.2452949178
 31
0.0
  0
LINE
  5
12A
  8
0
  6
CONTINUOUS
 62
     7
 10
105.0070795605
 20
184.1545435083
 30
0.0
 11
105.0070795605
 21
189.9767967355
 31
0.0
  0
LINE
  5
12B
  8
0
  6
CONTINUOUS
 62
     7
 10
104.2070794294
 20
189.9767967355
 30
0.0
 11
104.2070794294
 21
184.1545435083
 31
0.0
  0
LINE
  5
12C
  8
0
  6
CONTINUOUS
 62
     7
 10
105.0070795605
 20
184.1545435083
 30
0.0
 11
105.0070795605
 21
183.8899525297
 31
0.0
  0
LINE
  5
12D
  8
0
  6
CONTINUOUS
 62
     7
 10
104.2070794294
 20
183.8899525297
 30
0.0
 11
104.2070794294
 21
184.1545435083
 31
0.0
  0
LINE
  5
12E
  8
0
  6
CONTINUOUS
 62
     7
 10
105.0070795605
 20
181.9975825441
 30
0.0
 11
105.0070795605
 21
183.8899525297
 31
0.0
  0
LINE
  5
12F
  8
0
  6
CONTINUOUS
 62
     7
 10
104.2070794294
 20
183.8899525297
 30
0.0
 11
104.2070794294
 21
181.9975825441
 31
0.0
  0
LINE
  5
130
  8
0
  6
CONTINUOUS
 62
     7
 10
105.0070795605
 20
178.5856100214
 30
0.0
 11
105.0070795605
 21
181.9975825441
 31
0.0
  0
LINE
  5
131
  8
0
  6
CONTINUOUS
 62
     7
 10
104.2070794294
 20
181.9975825441
 30
0.0
 11
104.2070794294
 21
178.5856100214
 31
0.0
  0
LINE
  5
132
  8
0
  6
CONTINUOUS
 62
     7
 10
104.2070794294
 20
174.6898742807
 30
0.0
 11
105.0070795605
 21
174.6898742807
 31
0.0
  0
LINE
  5
133
  8
0
  6
CONTINUOUS
 62
     7
 10
105.0070795605
 20
174.6898742807
 30
0.0
 11
105.0070795605
 21
176.6898723734
 31
0.0
  0
LINE
  5
134
  8
0
  6
CONTINUOUS
 62
     7
 10
104.2070794294
 20
176.6898723734
 30
0.0
 11
104.2070794294
 21
174.6898742807
 31
0.0
  0
LINE
  5
135
  8
0
  6
CONTINUOUS
 62
     7
 10
105.0070795605
 20
176.6898723734
 30
0.0
 11
105.0070795605
 21
178.5856100214
 31
0.0
  0
LINE
  5
136
  8
0
  6
CONTINUOUS
 62
     7
 10
104.2070794294
 20
178.5856100214
 30
0.0
 11
104.2070794294
 21
176.6898723734
 31
0.0
  0
LINE
  5
137
  8
0
  6
CONTINUOUS
 62
     7
 10
99.8070794532
 20
177.4898739946
 30
0.0
 11
99.8070794532
 21
170.0898738992
 31
0.0
  0
LINE
  5
138
  8
0
  6
CONTINUOUS
 62
     7
 10
109.8070803473
 20
177.4898739946
 30
0.0
 11
109.8070803473
 21
170.0898738992
 31
0.0
  0
LINE
  5
139
  8
0
  6
CONTINUOUS
 62
     7
 10
101.8070805261
 20
168.0898698461
 30
0.0
 11
107.8070807645
 21
168.0898698461
 31
0.0
  0
ARC
  5
13A
  8
0
  6
CONTINUOUS
 62
     7
 10
101.8070800493
 20
170.0898714197
 30
0.0
 40
2.000000000000028
 50
180.0
 51
270.0
  0
ARC
  5
13B
  8
0
  6
CONTINUOUS
 62
     7
 10
107.8070800493
 20
170.0898714197
 30
0.0
 40
2.000000000000028
 50
270.0
 51
0.0
  0
LINE
  5
13C
  8
0
  6
CONTINUOUS
 62
     7
 10
99.8070794532
 20
178.4898730409
 30
0.0
 11
104.2070794294
 21
178.4898730409
 31
0.0
  0
LINE
  5
13D
  8
0
  6
CONTINUOUS
 62
     7
 10
99.8070794532
 20
178.4898730409
 30
0.0
 11
99.8070794532
 21
177.4898739946
 31
0.0
  0
LINE
  5
13E
  8
0
  6
CONTINUOUS
 62
     7
 10
105.0070795605
 20
178.4898730409
 30
0.0
 11
109.8070803473
 21
178.4898730409
 31
0.0
  0
LINE
  5
13F
  8
0
  6
CONTINUOUS
 62
     7
 10
109.8070803473
 20
178.4898730409
 30
0.0
 11
109.8070803473
 21
177.4898739946
 31
0.0
  0
ARC
  5
140
  8
0
  6
CONTINUOUS
 62
     7
 10
224.0070800493
 20
193.1926573526
 30
0.0
 40
1.0
 50
0.0
 51
42.187202839
  0
LINE
  5
141
  8
0
  6
CONTINUOUS
 62
     7
 10
225.0070798585
 20
193.192658056
 30
0.0
 11
225.0070798585
 21
191.941502918
 31
0.0
  0
LINE
  5
142
  8
0
  6
CONTINUOUS
 62
     7
 10
224.2070782373
 20
191.941502918
 30
0.0
 11
224.2070782373
 21
193.2452949178
 31
0.0
  0
LINE
  5
143
  8
0
  6
CONTINUOUS
 62
     7
 10
225.0070798585
 20
189.9767967355
 30
0.0
 11
225.0070798585
 21
191.941502918
 31
0.0
  0
LINE
  5
144
  8
0
  6
CONTINUOUS
 62
     7
 10
224.2070782373
 20
191.941502918
 30
0.0
 11
224.2070782373
 21
189.9767967355
 31
0.0
  0
LINE
  5
145
  8
0
  6
CONTINUOUS
 62
     7
 10
225.0070798585
 20
184.1545435083
 30
0.0
 11
225.0070798585
 21
189.9767967355
 31
0.0
  0
LINE
  5
146
  8
0
  6
CONTINUOUS
 62
     7
 10
224.2070782373
 20
189.9767967355
 30
0.0
 11
224.2070782373
 21
184.1545435083
 31
0.0
  0
LINE
  5
147
  8
0
  6
CONTINUOUS
 62
     7
 10
225.0070798585
 20
184.1545435083
 30
0.0
 11
225.0070798585
 21
183.8899525297
 31
0.0
  0
LINE
  5
148
  8
0
  6
CONTINUOUS
 62
     7
 10
224.2070782373
 20
183.8899525297
 30
0.0
 11
224.2070782373
 21
184.1545435083
 31
0.0
  0
LINE
  5
149
  8
0
  6
CONTINUOUS
 62
     7
 10
225.0070798585
 20
181.9975825441
 30
0.0
 11
225.0070798585
 21
183.8899525297
 31
0.0
  0
LINE
  5
14A
  8
0
  6
CONTINUOUS
 62
     7
 10
224.2070782373
 20
183.8899525297
 30
0.0
 11
224.2070782373
 21
181.9975825441
 31
0.0
  0
LINE
  5
14B
  8
0
  6
CONTINUOUS
 62
     7
 10
225.0070798585
 20
178.5856100214
 30
0.0
 11
225.0070798585
 21
181.9975825441
 31
0.0
  0
LINE
  5
14C
  8
0
  6
CONTINUOUS
 62
     7
 10
224.2070782373
 20
181.9975825441
 30
0.0
 11
224.2070782373
 21
178.5856100214
 31
0.0
  0
LINE
  5
14D
  8
0
  6
CONTINUOUS
 62
     7
 10
225.0070798585
 20
176.6898723734
 30
0.0
 11
225.0070798585
 21
178.5856100214
 31
0.0
  0
LINE
  5
14E
  8
0
  6
CONTINUOUS
 62
     7
 10
224.2070782373
 20
178.5856100214
 30
0.0
 11
224.2070782373
 21
176.6898723734
 31
0.0
  0
LINE
  5
14F
  8
0
  6
CONTINUOUS
 62
     7
 10
224.2070782373
 20
174.6898742807
 30
0.0
 11
225.0070798585
 21
174.6898742807
 31
0.0
  0
LINE
  5
150
  8
0
  6
CONTINUOUS
 62
     7
 10
225.0070798585
 20
174.6898742807
 30
0.0
 11
225.0070798585
 21
176.6898723734
 31
0.0
  0
LINE
  5
151
  8
0
  6
CONTINUOUS
 62
     7
 10
224.2070782373
 20
176.6898723734
 30
0.0
 11
224.2070782373
 21
174.6898742807
 31
0.0
  0
LINE
  5
152
  8
0
  6
CONTINUOUS
 62
     7
 10
219.8070812414
 20
177.4898739946
 30
0.0
 11
219.8070812414
 21
170.0898738992
 31
0.0
  0
LINE
  5
153
  8
0
  6
CONTINUOUS
 62
     7
 10
229.8070776651
 20
177.4898739946
 30
0.0
 11
229.8070776651
 21
170.0898738992
 31
0.0
  0
LINE
  5
154
  8
0
  6
CONTINUOUS
 62
     7
 10
221.807079334
 20
168.0898698461
 30
0.0
 11
227.8070795724
 21
168.0898698461
 31
0.0
  0
ARC
  5
155
  8
0
  6
CONTINUOUS
 62
     7
 10
227.8070800493
 20
170.0898714197
 30
0.0
 40
2.000000000000028
 50
270.0
 51
0.0
  0
ARC
  5
156
  8
0
  6
CONTINUOUS
 62
     7
 10
221.8070800493
 20
170.0898714197
 30
0.0
 40
2.000000000000028
 50
180.0
 51
270.0
  0
LINE
  5
157
  8
0
  6
CONTINUOUS
 62
     7
 10
225.0070798585
 20
178.4898730409
 30
0.0
 11
229.8070776651
 21
178.4898730409
 31
0.0
  0
LINE
  5
158
  8
0
  6
CONTINUOUS
 62
     7
 10
229.8070776651
 20
178.4898730409
 30
0.0
 11
229.8070776651
 21
177.4898739946
 31
0.0
  0
LINE
  5
159
  8
0
  6
CONTINUOUS
 62
     7
 10
219.8070812414
 20
178.4898730409
 30
0.0
 11
224.2070782373
 21
178.4898730409
 31
0.0
  0
LINE
  5
15A
  8
0
  6
CONTINUOUS
 62
     7
 10
219.8070812414
 20
178.4898730409
 30
0.0
 11
219.8070812414
 21
177.4898739946
 31
0.0
  0
POLYLINE
  5
15B
  8
0
  6
CONTINUOUS
 62
     7
 66
     1
 10
0.0
 20
0.0
 30
0.0
  0
VERTEX
  5
5E2
  8
0
  6
CONTINUOUS
 62
     7
 10
304.0419321118
 20
269.4289418352
 30
0.0
  0
VERTEX
  5
5E3
  8
0
  6
CONTINUOUS
 62
     7
 10
304.6272094903
 20
266.7894455087
 30
0.0
  0
VERTEX
  5
5E4
  8
0
  6
CONTINUOUS
 62
     7
 10
305.1865722594
 20
264.3276783121
 30
0.0
  0
VERTEX
  5
5E5
  8
0
  6
CONTINUOUS
 62
     7
 10
305.7251419482
 20
262.0446416033
 30
0.0
  0
VERTEX
  5
5E6
  8
0
  6
CONTINUOUS
 62
     7
 10
306.2170844135
 20
259.9353524339
 30
0.0
  0
VERTEX
  5
5E7
  8
0
  6
CONTINUOUS
 62
     7
 10
306.6272805987
 20
258.0132099283
 30
0.0
  0
VERTEX
  5
5E8
  8
0
  6
CONTINUOUS
 62
     7
 10
306.9395508227
 20
256.3126536501
 30
0.0
  0
VERTEX
  5
5E9
  8
0
  6
CONTINUOUS
 62
     7
 10
307.071281558
 20
255.4942580354
 30
0.0
  0
SEQEND
  5
83C
  8
0
  6
CONTINUOUS
 62
     7
  0
ARC
  5
15C
  8
0
  6
CONTINUOUS
 62
     7
 10
93.7404388407
 20
218.8205761133
 30
0.0
 40
216.3961531960966
 50
5.3056924443
 51
8.16556371
  0
LINE
  5
15D
  8
0
  6
CONTINUOUS
 62
     7
 10
305.2137236652
 20
269.6876021517
 30
0.0
 11
304.0419321118
 21
269.4289418352
 31
0.0
  0
LINE
  5
15E
  8
0
  6
CONTINUOUS
 62
     7
 10
309.2094461975
 20
238.8306232584
 30
0.0
 11
310.4035291431
 21
238.949653734
 31
0.0
  0
POLYLINE
  5
15F
  8
0
  6
CONTINUOUS
 62
     7
 66
     1
 10
0.0
 20
0.0
 30
0.0
  0
VERTEX
  5
5EA
  8
0
  6
CONTINUOUS
 62
     7
 10
389.2849023996
 20
192.3181744707
 30
0.0
  0
VERTEX
  5
5EB
  8
0
  6
CONTINUOUS
 62
     7
 10
391.0689171014
 20
192.4144002092
 30
0.0
  0
VERTEX
  5
5EC
  8
0
  6
CONTINUOUS
 62
     7
 10
393.4900100885
 20
192.558738817
 30
0.0
  0
VERTEX
  5
5ED
  8
0
  6
CONTINUOUS
 62
     7
 10
394.6816976724
 20
192.5486417902
 30
0.0
  0
VERTEX
  5
5EE
  8
0
  6
CONTINUOUS
 62
     7
 10
395.8315070329
 20
192.399087776
 30
0.0
  0
VERTEX
  5
5EF
  8
0
  6
CONTINUOUS
 62
     7
 10
396.9224031625
 20
192.0614453447
 30
0.0
  0
VERTEX
  5
5F0
  8
0
  6
CONTINUOUS
 62
     7
 10
397.9593690095
 20
191.5526660574
 30
0.0
  0
VERTEX
  5
5F1
  8
0
  6
CONTINUOUS
 62
     7
 10
399.2767449079
 20
190.6672450197
 30
0.0
  0
VERTEX
  5
5F2
  8
0
  6
CONTINUOUS
 62
     7
 10
400.5429919419
 20
189.619568218
 30
0.0
  0
VERTEX
  5
5F3
  8
0
  6
CONTINUOUS
 62
     7
 10
401.7836745439
 20
188.4907575739
 30
0.0
  0
SEQEND
  5
83B
  8
0
  6
CONTINUOUS
 62
     7
  0
LINE
  5
160
  8
0
  6
CONTINUOUS
 62
     7
 10
401.7839129624
 20
188.5044249189
 30
0.0
 11
401.8119509874
 21
190.1104422701
 31
0.0
  0
LINE
  5
161
  8
0
  6
CONTINUOUS
 62
     7
 10
389.2849023996
 20
194.1926571024
 30
0.0
 11
328.1503706781
 21
194.1926571024
 31
0.0
  0
LINE
  5
162
  8
0
  6
CONTINUOUS
 62
     7
 10
317.7849001793
 20
168.8898714674
 30
0.0
 11
317.7849001793
 21
176.8898697984
 31
0.0
  0
LINE
  5
163
  8
0
  6
CONTINUOUS
 62
     7
 10
318.7849003432
 20
177.8898688448
 30
0.0
 11
326.7849001644
 21
177.8898688448
 31
0.0
  0
ARC
  5
164
  8
0
  6
CONTINUOUS
 62
     7
 10
318.7849002538
 20
168.8898714197
 30
0.0
 40
1.0
 50
180.0
 51
270.0
  0
LINE
  5
165
  8
0
  6
CONTINUOUS
 62
     7
 10
326.7849001644
 20
167.889872421
 30
0.0
 11
318.7849003432
 21
167.889872421
 31
0.0
  0
ARC
  5
166
  8
0
  6
CONTINUOUS
 62
     7
 10
318.7849002538
 20
176.8898714197
 30
0.0
 40
1.0
 50
90.0
 51
180.0
  0
ARC
  5
167
  8
0
  6
CONTINUOUS
 62
     7
 10
326.7849002538
 20
176.8898714197
 30
0.0
 40
1.0
 50
0.0
 51
90.0
  0
LINE
  5
168
  8
0
  6
CONTINUOUS
 62
     7
 10
327.7849003283
 20
176.8898697984
 30
0.0
 11
327.7849003283
 21
168.8898714674
 31
0.0
  0
ARC
  5
169
  8
0
  6
CONTINUOUS
 62
     7
 10
326.7849002538
 20
168.8898714197
 30
0.0
 40
1.0
 50
270.0
 51
0.0
  0
LINE
  5
16A
  8
0
  6
CONTINUOUS
 62
     7
 10
310.784900522
 20
102.6898714197
 30
0.0
 11
310.784900522
 21
103.8898714301
 31
0.0
  0
LINE
  5
16B
  8
0
  6
CONTINUOUS
 62
     7
 10
310.784900522
 20
103.8898714301
 30
0.0
 11
314.7849004326
 21
103.8898714301
 31
0.0
  0
LINE
  5
16C
  8
0
  6
CONTINUOUS
 62
     7
 10
314.7849004326
 20
102.6898714197
 30
0.0
 11
310.784900522
 21
102.6898714197
 31
0.0
  0
LINE
  5
16D
  8
0
  6
CONTINUOUS
 62
     7
 10
314.7849004326
 20
103.8898714301
 30
0.0
 11
316.7849003879
 21
103.8898714301
 31
0.0
  0
LINE
  5
16E
  8
0
  6
CONTINUOUS
 62
     7
 10
314.7849004326
 20
102.6898714197
 30
0.0
 11
316.7849003879
 21
102.6898714197
 31
0.0
  0
LINE
  5
16F
  8
0
  6
CONTINUOUS
 62
     7
 10
344.153321868
 20
103.8898714301
 30
0.0
 11
316.7849003879
 21
103.8898714301
 31
0.0
  0
LINE
  5
170
  8
0
  6
CONTINUOUS
 62
     7
 10
316.7849003879
 20
102.6898714197
 30
0.0
 11
344.153321868
 21
102.6898714197
 31
0.0
  0
LINE
  5
171
  8
0
  6
CONTINUOUS
 62
     7
 10
346.7848997173
 20
103.8898714301
 30
0.0
 11
346.7848997173
 21
102.6898714197
 31
0.0
  0
LINE
  5
172
  8
0
  6
CONTINUOUS
 62
     7
 10
344.153321868
 20
103.8898714301
 30
0.0
 11
346.7848997173
 21
103.8898714301
 31
0.0
  0
LINE
  5
173
  8
0
  6
CONTINUOUS
 62
     7
 10
346.7848997173
 20
102.6898714197
 30
0.0
 11
344.153321868
 21
102.6898714197
 31
0.0
  0
LINE
  5
174
  8
0
  6
CONTINUOUS
 62
     7
 10
317.7849001793
 20
103.8898714301
 30
0.0
 11
317.7849001793
 21
168.0898698461
 31
0.0
  0
LINE
  5
175
  8
0
  6
CONTINUOUS
 62
     7
 10
327.7849003283
 20
168.0898698461
 30
0.0
 11
327.7849003283
 21
103.8898714301
 31
0.0
  0
POLYLINE
  5
176
  8
0
  6
CONTINUOUS
 62
     7
 66
     1
 10
0.0
 20
0.0
 30
0.0
  0
VERTEX
  5
5F4
  8
0
  6
CONTINUOUS
 62
     7
 10
314.1011479852
 20
239.4312473428
 30
0.0
  0
VERTEX
  5
5F5
  8
0
  6
CONTINUOUS
 62
     7
 10
314.6487008391
 20
239.6260710848
 30
0.0
  0
VERTEX
  5
5F6
  8
0
  6
CONTINUOUS
 62
     7
 10
315.181626713
 20
240.068337549
 30
0.0
  0
VERTEX
  5
5F7
  8
0
  6
CONTINUOUS
 62
     7
 10
315.6806040166
 20
240.7501908434
 30
0.0
  0
VERTEX
  5
5F8
  8
0
  6
CONTINUOUS
 62
     7
 10
316.125298625
 20
241.6489692819
 30
0.0
  0
VERTEX
  5
5F9
  8
0
  6
CONTINUOUS
 62
     7
 10
316.4934131858
 20
242.7372547281
 30
0.0
  0
VERTEX
  5
5FA
  8
0
  6
CONTINUOUS
 62
     7
 10
316.7691554484
 20
243.9838381899
 30
0.0
  0
VERTEX
  5
5FB
  8
0
  6
CONTINUOUS
 62
     7
 10
316.9353540597
 20
245.3575702799
 30
0.0
  0
VERTEX
  5
5FC
  8
0
  6
CONTINUOUS
 62
     7
 10
316.9810108451
 20
246.8148203981
 30
0.0
  0
VERTEX
  5
5FD
  8
0
  6
CONTINUOUS
 62
     7
 10
316.932554504
 20
247.9133578432
 30
0.0
  0
SEQEND
  5
83A
  8
0
  6
CONTINUOUS
 62
     7
  0
POLYLINE
  5
177
  8
0
  6
CONTINUOUS
 62
     7
 66
     1
 10
0.0
 20
0.0
 30
0.0
  0
VERTEX
  5
5FE
  8
0
  6
CONTINUOUS
 62
     7
 10
314.1011479852
 20
239.4312473428
 30
0.0
  0
VERTEX
  5
5FF
  8
0
  6
CONTINUOUS
 62
     7
 10
313.040387219
 20
239.3009992731
 30
0.0
  0
VERTEX
  5
600
  8
0
  6
CONTINUOUS
 62
     7
 10
312.1059748886
 20
239.1862722528
 30
0.0
  0
VERTEX
  5
601
  8
0
  6
CONTINUOUS
 62
     7
 10
311.2996350584
 20
239.0872689378
 30
0.0
  0
VERTEX
  5
602
  8
0
  6
CONTINUOUS
 62
     7
 10
310.3877368925
 20
238.9752956522
 30
0.0
  0
VERTEX
  5
603
  8
0
  6
CONTINUOUS
 62
     7
 10
309.7339029966
 20
238.8950201166
 30
0.0
  0
VERTEX
  5
604
  8
0
  6
CONTINUOUS
 62
     7
 10
309.3407179771
 20
238.8467403543
 30
0.0
  0
VERTEX
  5
605
  8
0
  6
CONTINUOUS
 62
     7
 10
309.2094461975
 20
238.8306232584
 30
0.0
  0
SEQEND
  5
839
  8
0
  6
CONTINUOUS
 62
     7
  0
POLYLINE
  5
178
  8
0
  6
CONTINUOUS
 62
     7
 66
     1
 10
0.0
 20
0.0
 30
0.0
  0
VERTEX
  5
606
  8
0
  6
CONTINUOUS
 62
     7
 10
304.0419321118
 20
269.4289418352
 30
0.0
  0
VERTEX
  5
607
  8
0
  6
CONTINUOUS
 62
     7
 10
304.1389491019
 20
269.4408508432
 30
0.0
  0
VERTEX
  5
608
  8
0
  6
CONTINUOUS
 62
     7
 10
304.4295888004
 20
269.4765301836
 30
0.0
  0
VERTEX
  5
609
  8
0
  6
CONTINUOUS
 62
     7
 10
304.9132044969
 20
269.5359202516
 30
0.0
  0
VERTEX
  5
60A
  8
0
  6
CONTINUOUS
 62
     7
 10
305.5885251222
 20
269.6188303125
 30
0.0
  0
VERTEX
  5
60B
  8
0
  6
CONTINUOUS
 62
     7
 10
306.4536492882
 20
269.7250577104
 30
0.0
  0
VERTEX
  5
60C
  8
0
  6
CONTINUOUS
 62
     7
 10
307.4240263162
 20
269.8442073953
 30
0.0
  0
VERTEX
  5
60D
  8
0
  6
CONTINUOUS
 62
     7
 10
308.5535745678
 20
269.9828954828
 30
0.0
  0
VERTEX
  5
60E
  8
0
  6
CONTINUOUS
 62
     7
 10
309.8397921381
 20
270.1408239496
 30
0.0
  0
SEQEND
  5
838
  8
0
  6
CONTINUOUS
 62
     7
  0
POLYLINE
  5
179
  8
0
  6
CONTINUOUS
 62
     7
 66
     1
 10
0.0
 20
0.0
 30
0.0
  0
VERTEX
  5
60F
  8
0
  6
CONTINUOUS
 62
     7
 10
315.2979526279
 20
262.3305174005
 30
0.0
  0
VERTEX
  5
610
  8
0
  6
CONTINUOUS
 62
     7
 10
314.9953718839
 20
263.6423321855
 30
0.0
  0
VERTEX
  5
611
  8
0
  6
CONTINUOUS
 62
     7
 10
314.5774166641
 20
264.9125071657
 30
0.0
  0
VERTEX
  5
612
  8
0
  6
CONTINUOUS
 62
     7
 10
314.0595469234
 20
266.1053272379
 30
0.0
  0
VERTEX
  5
613
  8
0
  6
CONTINUOUS
 62
     7
 10
313.4659412859
 20
267.1905609262
 30
0.0
  0
VERTEX
  5
614
  8
0
  6
CONTINUOUS
 62
     7
 10
312.8204922733
 20
268.1387754572
 30
0.0
  0
VERTEX
  5
615
  8
0
  6
CONTINUOUS
 62
     7
 10
312.1502998827
 20
268.9259620798
 30
0.0
  0
VERTEX
  5
616
  8
0
  6
CONTINUOUS
 62
     7
 10
311.4831920323
 20
269.5272418153
 30
0.0
  0
VERTEX
  5
617
  8
0
  6
CONTINUOUS
 62
     7
 10
310.8398589847
 20
269.9327441347
 30
0.0
  0
VERTEX
  5
618
  8
0
  6
CONTINUOUS
 62
     7
 10
310.3172484396
 20
270.1160045755
 30
0.0
  0
VERTEX
  5
619
  8
0
  6
CONTINUOUS
 62
     7
 10
309.8397921381
 20
270.1408239496
 30
0.0
  0
SEQEND
  5
837
  8
0
  6
CONTINUOUS
 62
     7
  0
POLYLINE
  5
17A
  8
0
  6
CONTINUOUS
 62
     7
 66
     1
 10
0.0
 20
0.0
 30
0.0
  0
VERTEX
  5
61A
  8
0
  6
CONTINUOUS
 62
     7
 10
315.2979526279
 20
262.3305174005
 30
0.0
  0
VERTEX
  5
61B
  8
0
  6
CONTINUOUS
 62
     7
 10
315.8710579929
 20
258.7576361788
 30
0.0
  0
VERTEX
  5
61C
  8
0
  6
CONTINUOUS
 62
     7
 10
316.2953156588
 20
255.1541181696
 30
0.0
  0
VERTEX
  5
61D
  8
0
  6
CONTINUOUS
 62
     7
 10
316.6355628131
 20
251.535722841
 30
0.0
  0
VERTEX
  5
61E
  8
0
  6
CONTINUOUS
 62
     7
 10
316.932554504
 20
247.9133578432
 30
0.0
  0
SEQEND
  5
836
  8
0
  6
CONTINUOUS
 62
     7
  0
POLYLINE
  5
17B
  8
0
  6
CONTINUOUS
 62
     7
 66
     1
 10
0.0
 20
0.0
 30
0.0
  0
VERTEX
  5
61F
  8
0
  6
CONTINUOUS
 62
     7
 10
310.8503799496
 20
270.4098554743
 30
0.0
  0
VERTEX
  5
620
  8
0
  6
CONTINUOUS
 62
     7
 10
311.4029477892
 20
270.3691455019
 30
0.0
  0
VERTEX
  5
621
  8
0
  6
CONTINUOUS
 62
     7
 10
312.0138842223
 20
270.1181980264
 30
0.0
  0
VERTEX
  5
622
  8
0
  6
CONTINUOUS
 62
     7
 10
312.6659918187
 20
269.659516443
 30
0.0
  0
VERTEX
  5
623
  8
0
  6
CONTINUOUS
 62
     7
 10
313.3366051672
 20
269.0074893129
 30
0.0
  0
VERTEX
  5
624
  8
0
  6
CONTINUOUS
 62
     7
 10
313.9985758422
 20
268.1811185968
 30
0.0
  0
VERTEX
  5
625
  8
0
  6
CONTINUOUS
 62
     7
 10
314.6298426745
 20
267.2013970506
 30
0.0
  0
VERTEX
  5
626
  8
0
  6
CONTINUOUS
 62
     7
 10
315.2054000256
 20
266.0891147745
 30
0.0
  0
VERTEX
  5
627
  8
0
  6
CONTINUOUS
 62
     7
 10
315.6998600421
 20
264.8771973741
 30
0.0
  0
VERTEX
  5
628
  8
0
  6
CONTINUOUS
 62
     7
 10
316.0470421968
 20
263.7618514192
 30
0.0
  0
VERTEX
  5
629
  8
0
  6
CONTINUOUS
 62
     7
 10
316.3053195534
 20
262.6179667604
 30
0.0
  0
SEQEND
  5
835
  8
0
  6
CONTINUOUS
 62
     7
  0
POLYLINE
  5
17C
  8
0
  6
CONTINUOUS
 62
     7
 66
     1
 10
0.0
 20
0.0
 30
0.0
  0
VERTEX
  5
62A
  8
0
  6
CONTINUOUS
 62
     7
 10
316.3053195534
 20
262.6179667604
 30
0.0
  0
VERTEX
  5
62B
  8
0
  6
CONTINUOUS
 62
     7
 10
316.89394038
 20
258.9899631632
 30
0.0
  0
VERTEX
  5
62C
  8
0
  6
CONTINUOUS
 62
     7
 10
317.3292412964
 20
255.3375693453
 30
0.0
  0
VERTEX
  5
62D
  8
0
  6
CONTINUOUS
 62
     7
 10
317.675857207
 20
251.6923519266
 30
0.0
  0
VERTEX
  5
62E
  8
0
  6
CONTINUOUS
 62
     7
 10
317.9795331863
 20
248.0443450105
 30
0.0
  0
SEQEND
  5
834
  8
0
  6
CONTINUOUS
 62
     7
  0
POLYLINE
  5
17D
  8
0
  6
CONTINUOUS
 62
     7
 66
     1
 10
0.0
 20
0.0
 30
0.0
  0
VERTEX
  5
62F
  8
0
  6
CONTINUOUS
 62
     7
 10
315.1596199331
 20
239.5403119219
 30
0.0
  0
VERTEX
  5
630
  8
0
  6
CONTINUOUS
 62
     7
 10
314.1384053586
 20
239.4134851587
 30
0.0
  0
VERTEX
  5
631
  8
0
  6
CONTINUOUS
 62
     7
 10
313.2374781726
 20
239.3015953195
 30
0.0
  0
VERTEX
  5
632
  8
0
  6
CONTINUOUS
 62
     7
 10
312.4584812281
 20
239.2048569811
 30
0.0
  0
VERTEX
  5
633
  8
0
  6
CONTINUOUS
 62
     7
 10
311.5619588254
 20
239.0935155046
 30
0.0
  0
VERTEX
  5
634
  8
0
  6
CONTINUOUS
 62
     7
 10
310.9191450832
 20
239.0136810434
 30
0.0
  0
VERTEX
  5
635
  8
0
  6
CONTINUOUS
 62
     7
 10
310.5325895903
 20
238.9656754625
 30
0.0
  0
VERTEX
  5
636
  8
0
  6
CONTINUOUS
 62
     7
 10
310.4035291431
 20
238.949653734
 30
0.0
  0
SEQEND
  5
833
  8
0
  6
CONTINUOUS
 62
     7
  0
POLYLINE
  5
17E
  8
0
  6
CONTINUOUS
 62
     7
 66
     1
 10
0.0
 20
0.0
 30
0.0
  0
VERTEX
  5
637
  8
0
  6
CONTINUOUS
 62
     7
 10
317.9795335589
 20
248.0443450105
 30
0.0
  0
VERTEX
  5
638
  8
0
  6
CONTINUOUS
 62
     7
 10
318.0296137539
 20
246.5489359987
 30
0.0
  0
VERTEX
  5
639
  8
0
  6
CONTINUOUS
 62
     7
 10
317.9532084224
 20
245.1062413347
 30
0.0
  0
VERTEX
  5
63A
  8
0
  6
CONTINUOUS
 62
     7
 10
317.756703457
 20
243.758973707
 30
0.0
  0
VERTEX
  5
63B
  8
0
  6
CONTINUOUS
 62
     7
 10
317.4552544562
 20
242.5447555673
 30
0.0
  0
VERTEX
  5
63C
  8
0
  6
CONTINUOUS
 62
     7
 10
317.064722961
 20
241.5017815721
 30
0.0
  0
VERTEX
  5
63D
  8
0
  6
CONTINUOUS
 62
     7
 10
316.6054524092
 20
240.6571003092
 30
0.0
  0
VERTEX
  5
63E
  8
0
  6
CONTINUOUS
 62
     7
 10
316.0988922773
 20
240.0395842684
 30
0.0
  0
VERTEX
  5
63F
  8
0
  6
CONTINUOUS
 62
     7
 10
315.5643093941
 20
239.6602722299
 30
0.0
  0
VERTEX
  5
640
  8
0
  6
CONTINUOUS
 62
     7
 10
315.1596199331
 20
239.5403119219
 30
0.0
  0
SEQEND
  5
832
  8
0
  6
CONTINUOUS
 62
     7
  0
LINE
  5
17F
  8
0
  6
CONTINUOUS
 62
     7
 10
310.8504008112
 20
270.4098554743
 30
0.0
 11
310.0023816881
 21
270.3012081278
 31
0.0
  0
POLYLINE
  5
180
  8
0
  6
CONTINUOUS
 62
     7
 66
     1
 10
0.0
 20
0.0
 30
0.0
  0
VERTEX
  5
641
  8
0
  6
CONTINUOUS
 62
     7
 10
305.2137236652
 20
269.6876021517
 30
0.0
  0
VERTEX
  5
642
  8
0
  6
CONTINUOUS
 62
     7
 10
305.3090687451
 20
269.6998091829
 30
0.0
  0
VERTEX
  5
643
  8
0
  6
CONTINUOUS
 62
     7
 10
305.5946927128
 20
269.7364183557
 30
0.0
  0
VERTEX
  5
644
  8
0
  6
CONTINUOUS
 62
     7
 10
306.069951838
 20
269.7973223818
 30
0.0
  0
VERTEX
  5
645
  8
0
  6
CONTINUOUS
 62
     7
 10
306.7336152849
 20
269.8823662889
 30
0.0
  0
VERTEX
  5
646
  8
0
  6
CONTINUOUS
 62
     7
 10
307.5837920961
 20
269.9913116586
 30
0.0
  0
VERTEX
  5
647
  8
0
  6
CONTINUOUS
 62
     7
 10
308.5217114148
 20
270.1114984644
 30
0.0
  0
VERTEX
  5
648
  8
0
  6
CONTINUOUS
 62
     7
 10
309.6113692579
 20
270.2511163843
 30
0.0
  0
VERTEX
  5
649
  8
0
  6
CONTINUOUS
 62
     7
 10
310.8503799496
 20
270.4098554743
 30
0.0
  0
SEQEND
  5
831
  8
0
  6
CONTINUOUS
 62
     7
  0
LINE
  5
181
  8
0
  6
CONTINUOUS
 62
     7
 10
311.8170898018
 20
250.0319095743
 30
0.0
 11
311.0858741758
 21
255.9871884477
 31
0.0
  0
LINE
  5
182
  8
0
  6
CONTINUOUS
 62
     7
 10
311.8170898018
 20
250.0319095743
 30
0.0
 11
310.09454388
 21
249.8204084528
 31
0.0
  0
LINE
  5
183
  8
0
  6
CONTINUOUS
 62
     7
 10
311.0858741758
 20
255.9871884477
 30
0.0
 11
309.3633289991
 21
255.7756873262
 31
0.0
  0
LINE
  5
184
  8
0
  6
CONTINUOUS
 62
     7
 10
312.3834702728
 20
250.1014443529
 30
0.0
 11
312.2268948314
 21
251.3766499651
 31
0.0
  0
LINE
  5
185
  8
0
  6
CONTINUOUS
 62
     7
 10
312.3834702728
 20
250.1014443529
 30
0.0
 11
311.8170898018
 21
250.0319095743
 31
0.0
  0
LINE
  5
186
  8
0
  6
CONTINUOUS
 62
     7
 10
311.5450594185
 20
256.0435625208
 30
0.0
 11
311.0858741758
 21
255.9871884477
 31
0.0
  0
POLYLINE
  5
187
  8
0
  6
CONTINUOUS
 62
     7
 66
     1
 10
0.0
 20
0.0
 30
0.0
  0
VERTEX
  5
64A
  8
0
  6
CONTINUOUS
 62
     7
 10
310.09454388
 20
249.8204084528
 30
0.0
  0
VERTEX
  5
64B
  8
0
  6
CONTINUOUS
 62
     7
 10
310.0625197945
 20
249.8164745462
 30
0.0
  0
VERTEX
  5
64C
  8
0
  6
CONTINUOUS
 62
     7
 10
310.0228439627
 20
249.8115988863
 30
0.0
  0
VERTEX
  5
64D
  8
0
  6
CONTINUOUS
 62
     7
 10
309.9758486805
 20
249.8058291567
 30
0.0
  0
VERTEX
  5
64E
  8
0
  6
CONTINUOUS
 62
     7
 10
309.9219303188
 20
249.7992130411
 30
0.0
  0
VERTEX
  5
64F
  8
0
  6
CONTINUOUS
 62
     7
 10
309.8615403829
 20
249.7917982233
 30
0.0
  0
VERTEX
  5
650
  8
0
  6
CONTINUOUS
 62
     7
 10
309.795184022
 20
249.7836443079
 30
0.0
  0
VERTEX
  5
651
  8
0
  6
CONTINUOUS
 62
     7
 10
309.7234200297
 20
249.7748347414
 30
0.0
  0
VERTEX
  5
652
  8
0
  6
CONTINUOUS
 62
     7
 10
309.6468504129
 20
249.7654291284
 30
0.0
  0
SEQEND
  5
830
  8
0
  6
CONTINUOUS
 62
     7
  0
POLYLINE
  5
188
  8
0
  6
CONTINUOUS
 62
     7
 66
     1
 10
0.0
 20
0.0
 30
0.0
  0
VERTEX
  5
653
  8
0
  6
CONTINUOUS
 62
     7
 10
308.9156340418
 20
255.7207080019
 30
0.0
  0
VERTEX
  5
654
  8
0
  6
CONTINUOUS
 62
     7
 10
308.9922036586
 20
255.7301136148
 30
0.0
  0
VERTEX
  5
655
  8
0
  6
CONTINUOUS
 62
     7
 10
309.0639676509
 20
255.7389231813
 30
0.0
  0
VERTEX
  5
656
  8
0
  6
CONTINUOUS
 62
     7
 10
309.1303240118
 20
255.7470770967
 30
0.0
  0
VERTEX
  5
657
  8
0
  6
CONTINUOUS
 62
     7
 10
309.1907139478
 20
255.7544919145
 30
0.0
  0
VERTEX
  5
658
  8
0
  6
CONTINUOUS
 62
     7
 10
309.2446323094
 20
255.7611080301
 30
0.0
  0
VERTEX
  5
659
  8
0
  6
CONTINUOUS
 62
     7
 10
309.2916275916
 20
255.7668777597
 30
0.0
  0
VERTEX
  5
65A
  8
0
  6
CONTINUOUS
 62
     7
 10
309.3313034234
 20
255.7717534197
 30
0.0
  0
VERTEX
  5
65B
  8
0
  6
CONTINUOUS
 62
     7
 10
309.3633289991
 20
255.7756873262
 30
0.0
  0
SEQEND
  5
82F
  8
0
  6
CONTINUOUS
 62
     7
  0
LINE
  5
189
  8
0
  6
CONTINUOUS
 62
     7
 10
309.6468504129
 20
249.7654291284
 30
0.0
 11
305.3156595287
 21
249.2336364877
 31
0.0
  0
LINE
  5
18A
  8
0
  6
CONTINUOUS
 62
     7
 10
308.9156340418
 20
255.7207080019
 30
0.0
 11
304.5844446478
 21
255.1889034403
 31
0.0
  0
LINE
  5
18B
  8
0
  6
CONTINUOUS
 62
     7
 10
304.819386786
 20
249.1726966989
 30
0.0
 11
304.0881704149
 21
255.1279755724
 31
0.0
  0
POLYLINE
  5
18C
  8
0
  6
CONTINUOUS
 62
     7
 66
     1
 10
0.0
 20
0.0
 30
0.0
  0
VERTEX
  5
65C
  8
0
  6
CONTINUOUS
 62
     7
 10
305.3156595287
 20
249.2336364877
 30
0.0
  0
VERTEX
  5
65D
  8
0
  6
CONTINUOUS
 62
     7
 10
305.2077095566
 20
249.2203804147
 30
0.0
  0
VERTEX
  5
65E
  8
0
  6
CONTINUOUS
 62
     7
 10
305.11009652
 20
249.2083879602
 30
0.0
  0
VERTEX
  5
65F
  8
0
  6
CONTINUOUS
 62
     7
 10
305.0244938192
 20
249.1978856218
 30
0.0
  0
VERTEX
  5
660
  8
0
  6
CONTINUOUS
 62
     7
 10
304.9523632584
 20
249.1890283716
 30
0.0
  0
VERTEX
  5
661
  8
0
  6
CONTINUOUS
 62
     7
 10
304.8949401436
 20
249.1819711817
 30
0.0
  0
VERTEX
  5
662
  8
0
  6
CONTINUOUS
 62
     7
 10
304.8532079516
 20
249.1768451822
 30
0.0
  0
VERTEX
  5
663
  8
0
  6
CONTINUOUS
 62
     7
 10
304.8278789578
 20
249.1737338197
 30
0.0
  0
VERTEX
  5
664
  8
0
  6
CONTINUOUS
 62
     7
 10
304.819386786
 20
249.1726966989
 30
0.0
  0
SEQEND
  5
82E
  8
0
  6
CONTINUOUS
 62
     7
  0
POLYLINE
  5
18D
  8
0
  6
CONTINUOUS
 62
     7
 66
     1
 10
0.0
 20
0.0
 30
0.0
  0
VERTEX
  5
665
  8
0
  6
CONTINUOUS
 62
     7
 10
304.0881704149
 20
255.1279755724
 30
0.0
  0
VERTEX
  5
666
  8
0
  6
CONTINUOUS
 62
     7
 10
304.0966625867
 20
255.1290126932
 30
0.0
  0
VERTEX
  5
667
  8
0
  6
CONTINUOUS
 62
     7
 10
304.1219915805
 20
255.1321240556
 30
0.0
  0
VERTEX
  5
668
  8
0
  6
CONTINUOUS
 62
     7
 10
304.1637237725
 20
255.1372500551
 30
0.0
  0
VERTEX
  5
669
  8
0
  6
CONTINUOUS
 62
     7
 10
304.2211468873
 20
255.144307245
 30
0.0
  0
VERTEX
  5
66A
  8
0
  6
CONTINUOUS
 62
     7
 10
304.2932774482
 20
255.1531525743
 30
0.0
  0
VERTEX
  5
66B
  8
0
  6
CONTINUOUS
 62
     7
 10
304.378881639
 20
255.1636668337
 30
0.0
  0
VERTEX
  5
66C
  8
0
  6
CONTINUOUS
 62
     7
 10
304.4764931855
 20
255.1756592882
 30
0.0
  0
VERTEX
  5
66D
  8
0
  6
CONTINUOUS
 62
     7
 10
304.5844446478
 20
255.1889034403
 30
0.0
  0
SEQEND
  5
82D
  8
0
  6
CONTINUOUS
 62
     7
  0
LINE
  5
18E
  8
0
  6
CONTINUOUS
 62
     7
 10
312.184900379
 20
168.0898698461
 30
0.0
 11
317.1849000809
 21
168.0898698461
 31
0.0
  0
LINE
  5
18F
  8
0
  6
CONTINUOUS
 62
     7
 10
303.4896846471
 20
255.0544830454
 30
0.0
 11
299.5194997249
 21
254.5670124185
 31
0.0
  0
LINE
  5
190
  8
0
  6
CONTINUOUS
 62
     7
 10
300.9724195657
 20
234.5284196031
 30
0.0
 11
298.5269527493
 21
254.4451447618
 31
0.0
  0
POLYLINE
  5
191
  8
0
  6
CONTINUOUS
 62
     7
 66
     1
 10
0.0
 20
0.0
 30
0.0
  0
VERTEX
  5
66E
  8
0
  6
CONTINUOUS
 62
     7
 10
298.5269527493
 20
254.4451447618
 30
0.0
  0
VERTEX
  5
66F
  8
0
  6
CONTINUOUS
 62
     7
 10
298.5460247455
 20
254.4474812639
 30
0.0
  0
VERTEX
  5
670
  8
0
  6
CONTINUOUS
 62
     7
 10
298.6025061069
 20
254.4544192445
 30
0.0
  0
VERTEX
  5
671
  8
0
  6
CONTINUOUS
 62
     7
 10
298.6942272244
 20
254.4656845224
 30
0.0
  0
VERTEX
  5
672
  8
0
  6
CONTINUOUS
 62
     7
 10
298.8176639733
 20
254.4808360231
 30
0.0
  0
VERTEX
  5
673
  8
0
  6
CONTINUOUS
 62
     7
 10
298.968070334
 20
254.4993015421
 30
0.0
  0
VERTEX
  5
674
  8
0
  6
CONTINUOUS
 62
     7
 10
299.139669126
 20
254.5203777445
 30
0.0
  0
VERTEX
  5
675
  8
0
  6
CONTINUOUS
 62
     7
 10
299.3258636055
 20
254.5432301653
 30
0.0
  0
VERTEX
  5
676
  8
0
  6
CONTINUOUS
 62
     7
 10
299.5194997249
 20
254.5670124185
 30
0.0
  0
SEQEND
  5
82C
  8
0
  6
CONTINUOUS
 62
     7
  0
LINE
  5
192
  8
0
  6
CONTINUOUS
 62
     7
 10
310.8260813711
 20
191.3604768408
 30
0.0
 11
301.3359408436
 21
232.4667903078
 31
0.0
  0
ARC
  5
193
  8
0
  6
CONTINUOUS
 62
     7
 10
320.8233420973
 20
236.9658091107
 30
0.0
 40
20.00000000000004
 50
187.0
 51
193.0
  0
LINE
  5
194
  8
0
  6
CONTINUOUS
 62
     7
 10
305.2134465037
 20
249.2210837496
 30
0.0
 11
306.9276954589
 21
235.2596374643
 31
0.0
  0
POLYLINE
  5
195
  8
0
  6
CONTINUOUS
 62
     7
 66
     1
 10
0.0
 20
0.0
 30
0.0
  0
VERTEX
  5
677
  8
0
  6
CONTINUOUS
 62
     7
 10
303.4896846471
 20
255.0544830454
 30
0.0
  0
VERTEX
  5
678
  8
0
  6
CONTINUOUS
 62
     7
 10
303.5698975978
 20
255.0643416536
 30
0.0
  0
VERTEX
  5
679
  8
0
  6
CONTINUOUS
 62
     7
 10
303.6495860276
 20
255.0741168153
 30
0.0
  0
VERTEX
  5
67A
  8
0
  6
CONTINUOUS
 62
     7
 10
303.7282298861
 20
255.0837727678
 30
0.0
  0
VERTEX
  5
67B
  8
0
  6
CONTINUOUS
 62
     7
 10
303.8053106127
 20
255.0932379854
 30
0.0
  0
VERTEX
  5
67C
  8
0
  6
CONTINUOUS
 62
     7
 10
303.8803290186
 20
255.1024528635
 30
0.0
  0
VERTEX
  5
67D
  8
0
  6
CONTINUOUS
 62
     7
 10
303.9527903853
 20
255.1113458765
 30
0.0
  0
VERTEX
  5
67E
  8
0
  6
CONTINUOUS
 62
     7
 10
304.0222223458
 20
255.1198812616
 30
0.0
  0
VERTEX
  5
67F
  8
0
  6
CONTINUOUS
 62
     7
 10
304.0881704149
 20
255.1279755724
 30
0.0
  0
SEQEND
  5
82B
  8
0
  6
CONTINUOUS
 62
     7
  0
LINE
  5
196
  8
0
  6
CONTINUOUS
 62
     7
 10
307.1821610985
 20
233.816489805
 30
0.0
 11
316.672301626
 21
192.7101822984
 31
0.0
  0
ARC
  5
197
  8
0
  6
CONTINUOUS
 62
     7
 10
320.8233420973
 20
236.9658091107
 30
0.0
 40
14.00000000000004
 50
187.0
 51
193.0
  0
ARC
  5
198
  8
0
  6
CONTINUOUS
 62
     7
 10
297.1849002538
 20
188.2111592537
 30
0.0
 40
14.00000000000004
 50
0.0
 51
13.0
  0
LINE
  5
199
  8
0
  6
CONTINUOUS
 62
     7
 10
311.1849005876
 20
168.0898698461
 30
0.0
 11
311.1849005876
 21
188.2111581457
 31
0.0
  0
LINE
  5
19A
  8
0
  6
CONTINUOUS
 62
     7
 10
312.184900379
 20
168.0898698461
 30
0.0
 11
311.1849005876
 21
168.0898698461
 31
0.0
  0
ARC
  5
19B
  8
0
  6
CONTINUOUS
 62
     7
 10
297.1849002538
 20
188.2111592537
 30
0.0
 40
20.00000000000002
 50
0.0
 51
13.0
  0
LINE
  5
19C
  8
0
  6
CONTINUOUS
 62
     7
 10
317.1849000809
 20
188.2111581457
 30
0.0
 11
317.1849000809
 21
186.4273520601
 31
0.0
  0
LINE
  5
19D
  8
0
  6
CONTINUOUS
 62
     7
 10
334.2406246421
 20
194.7584780348
 30
0.0
 11
333.0283570645
 21
194.1926571024
 31
0.0
  0
POLYLINE
  5
19E
  8
0
  6
CONTINUOUS
 62
     7
 66
     1
 10
0.0
 20
0.0
 30
0.0
  0
VERTEX
  5
680
  8
0
  6
CONTINUOUS
 62
     7
 10
338.8733159361
 20
195.389768709
 30
0.0
  0
VERTEX
  5
681
  8
0
  6
CONTINUOUS
 62
     7
 10
337.7408366261
 20
195.3817459238
 30
0.0
  0
VERTEX
  5
682
  8
0
  6
CONTINUOUS
 62
     7
 10
336.6621579585
 20
195.3114958894
 30
0.0
  0
VERTEX
  5
683
  8
0
  6
CONTINUOUS
 62
     7
 10
335.7283275185
 20
195.1836200845
 30
0.0
  0
VERTEX
  5
684
  8
0
  6
CONTINUOUS
 62
     7
 10
334.9145333824
 20
194.9988456857
 30
0.0
  0
VERTEX
  5
685
  8
0
  6
CONTINUOUS
 62
     7
 10
334.2406246421
 20
194.7584780348
 30
0.0
  0
SEQEND
  5
82A
  8
0
  6
CONTINUOUS
 62
     7
  0
POLYLINE
  5
19F
  8
0
  6
CONTINUOUS
 62
     7
 66
     1
 10
0.0
 20
0.0
 30
0.0
  0
VERTEX
  5
686
  8
0
  6
CONTINUOUS
 62
     7
 10
341.8940391002
 20
195.3370185983
 30
0.0
  0
VERTEX
  5
687
  8
0
  6
CONTINUOUS
 62
     7
 10
340.383675283
 20
195.3634055746
 30
0.0
  0
VERTEX
  5
688
  8
0
  6
CONTINUOUS
 62
     7
 10
338.8733159361
 20
195.389768709
 30
0.0
  0
SEQEND
  5
829
  8
0
  6
CONTINUOUS
 62
     7
  0
POLYLINE
  5
1A0
  8
0
  6
CONTINUOUS
 62
     7
 66
     1
 10
0.0
 20
0.0
 30
0.0
  0
VERTEX
  5
689
  8
0
  6
CONTINUOUS
 62
     7
 10
346.8932773528
 20
195.2497514379
 30
0.0
  0
VERTEX
  5
68A
  8
0
  6
CONTINUOUS
 62
     7
 10
344.390135592
 20
195.28647982
 30
0.0
  0
VERTEX
  5
68B
  8
0
  6
CONTINUOUS
 62
     7
 10
341.8996717391
 20
195.3368695867
 30
0.0
  0
SEQEND
  5
828
  8
0
  6
CONTINUOUS
 62
     7
  0
LINE
  5
1A1
  8
0
  6
CONTINUOUS
 62
     7
 10
346.9193975983
 20
195.2492984426
 30
0.0
 11
346.8932773528
 21
195.2497514379
 31
0.0
  0
POLYLINE
  5
1A2
  8
0
  6
CONTINUOUS
 62
     7
 66
     1
 10
0.0
 20
0.0
 30
0.0
  0
VERTEX
  5
68C
  8
0
  6
CONTINUOUS
 62
     7
 10
351.9265975413
 20
195.1618822706
 30
0.0
  0
VERTEX
  5
68D
  8
0
  6
CONTINUOUS
 62
     7
 10
349.4228507934
 20
195.2058704984
 30
0.0
  0
VERTEX
  5
68E
  8
0
  6
CONTINUOUS
 62
     7
 10
346.9194303808
 20
195.2492984426
 30
0.0
  0
SEQEND
  5
827
  8
0
  6
CONTINUOUS
 62
     7
  0
LINE
  5
1A3
  8
0
  6
CONTINUOUS
 62
     7
 10
353.7773038802
 20
195.1223465097
 30
0.0
 11
351.9266124425
 21
195.1618047846
 31
0.0
  0
LINE
  5
1A4
  8
0
  6
CONTINUOUS
 62
     7
 10
361.890995091
 20
194.9879678381
 30
0.0
 11
353.7773038802
 21
195.1223465097
 31
0.0
  0
POLYLINE
  5
1A5
  8
0
  6
CONTINUOUS
 62
     7
 66
     1
 10
0.0
 20
0.0
 30
0.0
  0
VERTEX
  5
68F
  8
0
  6
CONTINUOUS
 62
     7
 10
371.8908961473
 20
194.8134096754
 30
0.0
  0
VERTEX
  5
690
  8
0
  6
CONTINUOUS
 62
     7
 10
365.0628711639
 20
194.9402066362
 30
0.0
  0
VERTEX
  5
691
  8
0
  6
CONTINUOUS
 62
     7
 10
361.8910070119
 20
194.9879678381
 30
0.0
  0
SEQEND
  5
826
  8
0
  6
CONTINUOUS
 62
     7
  0
POLYLINE
  5
1A6
  8
0
  6
CONTINUOUS
 62
     7
 66
     1
 10
0.0
 20
0.0
 30
0.0
  0
VERTEX
  5
692
  8
0
  6
CONTINUOUS
 62
     7
 10
381.8887408433
 20
194.6389289987
 30
0.0
  0
VERTEX
  5
693
  8
0
  6
CONTINUOUS
 62
     7
 10
376.8902059255
 20
194.683769573
 30
0.0
  0
VERTEX
  5
694
  8
0
  6
CONTINUOUS
 62
     7
 10
371.8908961473
 20
194.8134096754
 30
0.0
  0
SEQEND
  5
825
  8
0
  6
CONTINUOUS
 62
     7
  0
POLYLINE
  5
1A7
  8
0
  6
CONTINUOUS
 62
     7
 66
     1
 10
0.0
 20
0.0
 30
0.0
  0
VERTEX
  5
695
  8
0
  6
CONTINUOUS
 62
     7
 10
393.5444231687
 20
194.2207487715
 30
0.0
  0
VERTEX
  5
696
  8
0
  6
CONTINUOUS
 62
     7
 10
393.5190971551
 20
194.2254456175
 30
0.0
  0
VERTEX
  5
697
  8
0
  6
CONTINUOUS
 62
     7
 10
391.1060865579
 20
194.5439430368
 30
0.0
  0
VERTEX
  5
698
  8
0
  6
CONTINUOUS
 62
     7
 10
388.7176211534
 20
194.6831854475
 30
0.0
  0
VERTEX
  5
699
  8
0
  6
CONTINUOUS
 62
     7
 10
386.351704186
 20
194.7065504682
 30
0.0
  0
VERTEX
  5
69A
  8
0
  6
CONTINUOUS
 62
     7
 10
383.996879643
 20
194.6718724859
 30
0.0
  0
VERTEX
  5
69B
  8
0
  6
CONTINUOUS
 62
     7
 10
381.8887408433
 20
194.6389468801
 30
0.0
  0
SEQEND
  5
824
  8
0
  6
CONTINUOUS
 62
     7
  0
ARC
  5
1A8
  8
0
  6
CONTINUOUS
 62
     7
 10
391.3087620965
 20
181.9333623279
 30
0.0
 40
12.48911710425742
 50
43.7647639822
 51
79.6879731616
  0
POLYLINE
  5
1A9
  8
0
  6
CONTINUOUS
 62
     7
 66
     1
 10
0.0
 20
0.0
 30
0.0
  0
VERTEX
  5
69C
  8
0
  6
CONTINUOUS
 62
     7
 10
401.7745609937
 20
188.5045858515
 30
0.0
  0
VERTEX
  5
69D
  8
0
  6
CONTINUOUS
 62
     7
 10
401.7771239934
 20
188.5007413519
 30
0.0
  0
VERTEX
  5
69E
  8
0
  6
CONTINUOUS
 62
     7
 10
401.7084177194
 20
188.6044117105
 30
0.0
  0
VERTEX
  5
69F
  8
0
  6
CONTINUOUS
 62
     7
 10
401.5644546208
 20
188.8203474176
 30
0.0
  0
VERTEX
  5
6A0
  8
0
  6
CONTINUOUS
 62
     7
 10
401.3455982862
 20
189.1441019666
 30
0.0
  0
VERTEX
  5
6A1
  8
0
  6
CONTINUOUS
 62
     7
 10
400.9108241258
 20
189.7706540716
 30
0.0
  0
VERTEX
  5
6A2
  8
0
  6
CONTINUOUS
 62
     7
 10
400.3282244859
 20
190.5720742834
 30
0.0
  0
SEQEND
  5
823
  8
0
  6
CONTINUOUS
 62
     7
  0
POLYLINE
  5
1AA
  8
0
  6
CONTINUOUS
 62
     7
 66
     1
 10
0.0
 20
0.0
 30
0.0
  0
VERTEX
  5
6A3
  8
0
  6
CONTINUOUS
 62
     7
 10
393.4781547246
 20
195.4466494215
 30
0.0
  0
VERTEX
  5
6A4
  8
0
  6
CONTINUOUS
 62
     7
 10
394.6262593923
 20
195.2074202192
 30
0.0
  0
VERTEX
  5
6A5
  8
0
  6
CONTINUOUS
 62
     7
 10
395.7282360253
 20
194.8865862978
 30
0.0
  0
VERTEX
  5
6A6
  8
0
  6
CONTINUOUS
 62
     7
 10
396.7487271485
 20
194.486609329
 30
0.0
  0
VERTEX
  5
6A7
  8
0
  6
CONTINUOUS
 62
     7
 10
397.6715024171
 20
194.0291377199
 30
0.0
  0
VERTEX
  5
6A8
  8
0
  6
CONTINUOUS
 62
     7
 10
398.5291596112
 20
193.5163172376
 30
0.0
  0
VERTEX
  5
6A9
  8
0
  6
CONTINUOUS
 62
     7
 10
399.2490227876
 20
193.0182965887
 30
0.0
  0
VERTEX
  5
6AA
  8
0
  6
CONTINUOUS
 62
     7
 10
399.7554059682
 20
192.6261635912
 30
0.0
  0
VERTEX
  5
6AB
  8
0
  6
CONTINUOUS
 62
     7
 10
400.1253481565
 20
192.3094304693
 30
0.0
  0
VERTEX
  5
6AC
  8
0
  6
CONTINUOUS
 62
     7
 10
400.2741809545
 20
192.1679946077
 30
0.0
  0
VERTEX
  5
6AD
  8
0
  6
CONTINUOUS
 62
     7
 10
400.364708489
 20
192.0688243997
 30
0.0
  0
SEQEND
  5
822
  8
0
  6
CONTINUOUS
 62
     7
  0
POLYLINE
  5
1AB
  8
0
  6
CONTINUOUS
 62
     7
 66
     1
 10
0.0
 20
0.0
 30
0.0
  0
VERTEX
  5
6AE
  8
0
  6
CONTINUOUS
 62
     7
 10
334.0734157322
 20
195.9046455515
 30
0.0
  0
VERTEX
  5
6AF
  8
0
  6
CONTINUOUS
 62
     7
 10
334.6568341909
 20
196.1222919119
 30
0.0
  0
VERTEX
  5
6B0
  8
0
  6
CONTINUOUS
 62
     7
 10
335.4266102967
 20
196.3121029031
 30
0.0
  0
VERTEX
  5
6B1
  8
0
  6
CONTINUOUS
 62
     7
 10
336.316838449
 20
196.4500757349
 30
0.0
  0
VERTEX
  5
6B2
  8
0
  6
CONTINUOUS
 62
     7
 10
337.3515616713
 20
196.5339990747
 30
0.0
  0
VERTEX
  5
6B3
  8
0
  6
CONTINUOUS
 62
     7
 10
338.0231763778
 20
196.554753412
 30
0.0
  0
VERTEX
  5
6B4
  8
0
  6
CONTINUOUS
 62
     7
 10
338.7282888947
 20
196.553328861
 30
0.0
  0
SEQEND
  5
821
  8
0
  6
CONTINUOUS
 62
     7
  0
ARC
  5
1AC
  8
0
  6
CONTINUOUS
 62
     7
 10
380.5628375668
 20
96.2640731428
 30
0.0
 40
109.952307899612
 50
115.0124018468
 51
117.0454636396
  0
POLYLINE
  5
1AD
  8
0
  6
CONTINUOUS
 62
     7
 66
     1
 10
0.0
 20
0.0
 30
0.0
  0
VERTEX
  5
6B5
  8
0
  6
CONTINUOUS
 62
     7
 10
401.8004890142
 20
190.1106389654
 30
0.0
  0
VERTEX
  5
6B6
  8
0
  6
CONTINUOUS
 62
     7
 10
401.806300467
 20
190.1020976198
 30
0.0
  0
VERTEX
  5
6B7
  8
0
  6
CONTINUOUS
 62
     7
 10
401.7217691598
 20
190.2253719461
 30
0.0
  0
VERTEX
  5
6B8
  8
0
  6
CONTINUOUS
 62
     7
 10
401.5347715078
 20
190.4941412103
 30
0.0
  0
VERTEX
  5
6B9
  8
0
  6
CONTINUOUS
 62
     7
 10
401.3279553113
 20
190.786156286
 30
0.0
  0
VERTEX
  5
6BA
  8
0
  6
CONTINUOUS
 62
     7
 10
401.0641034303
 20
191.1500545633
 30
0.0
  0
VERTEX
  5
6BB
  8
0
  6
CONTINUOUS
 62
     7
 10
400.7428403554
 20
191.5802749288
 30
0.0
  0
VERTEX
  5
6BC
  8
0
  6
CONTINUOUS
 62
     7
 10
400.364708489
 20
192.0688243997
 30
0.0
  0
SEQEND
  5
820
  8
0
  6
CONTINUOUS
 62
     7
  0
POLYLINE
  5
1AE
  8
0
  6
CONTINUOUS
 62
     7
 66
     1
 10
0.0
 20
0.0
 30
0.0
  0
VERTEX
  5
6BD
  8
0
  6
CONTINUOUS
 62
     7
 10
393.4781547246
 20
195.4466553819
 30
0.0
  0
VERTEX
  5
6BE
  8
0
  6
CONTINUOUS
 62
     7
 10
391.0811300931
 20
195.7429917944
 30
0.0
  0
VERTEX
  5
6BF
  8
0
  6
CONTINUOUS
 62
     7
 10
388.7414391694
 20
195.8732756269
 30
0.0
  0
VERTEX
  5
6C0
  8
0
  6
CONTINUOUS
 62
     7
 10
386.4470358548
 20
195.8965214384
 30
0.0
  0
VERTEX
  5
6C1
  8
0
  6
CONTINUOUS
 62
     7
 10
384.189164227
 20
195.8646210325
 30
0.0
  0
VERTEX
  5
6C2
  8
0
  6
CONTINUOUS
 62
     7
 10
381.9586332498
 20
195.8282741201
 30
0.0
  0
VERTEX
  5
6C3
  8
0
  6
CONTINUOUS
 62
     7
 10
379.7311957536
 20
195.826873411
 30
0.0
  0
VERTEX
  5
6C4
  8
0
  6
CONTINUOUS
 62
     7
 10
377.4902935681
 20
195.8587261331
 30
0.0
  0
VERTEX
  5
6C5
  8
0
  6
CONTINUOUS
 62
     7
 10
371.2842341123
 20
196.0103007448
 30
0.0
  0
VERTEX
  5
6C6
  8
0
  6
CONTINUOUS
 62
     7
 10
365.0802936015
 20
196.1160155428
 30
0.0
  0
VERTEX
  5
6C7
  8
0
  6
CONTINUOUS
 62
     7
 10
361.7827768979
 20
196.1628767145
 30
0.0
  0
VERTEX
  5
6C8
  8
0
  6
CONTINUOUS
 62
     7
 10
358.48250944
 20
196.215728153
 30
0.0
  0
VERTEX
  5
6C9
  8
0
  6
CONTINUOUS
 62
     7
 10
355.1816876588
 20
196.273282398
 30
0.0
  0
VERTEX
  5
6CA
  8
0
  6
CONTINUOUS
 62
     7
 10
351.8834974227
 20
196.3317128313
 30
0.0
  0
VERTEX
  5
6CB
  8
0
  6
CONTINUOUS
 62
     7
 10
348.5883142409
 20
196.3883253229
 30
0.0
  0
VERTEX
  5
6CC
  8
0
  6
CONTINUOUS
 62
     7
 10
345.2961738763
 20
196.4440556658
 30
0.0
  0
VERTEX
  5
6CD
  8
0
  6
CONTINUOUS
 62
     7
 10
342.019898778
 20
196.4985939157
 30
0.0
  0
VERTEX
  5
6CE
  8
0
  6
CONTINUOUS
 62
     7
 10
338.7282948551
 20
196.5534063471
 30
0.0
  0
SEQEND
  5
81F
  8
0
  6
CONTINUOUS
 62
     7
  0
POLYLINE
  5
1AF
  8
0
  6
CONTINUOUS
 62
     7
 66
     1
 10
0.0
 20
0.0
 30
0.0
  0
VERTEX
  5
6CF
  8
0
  6
CONTINUOUS
 62
     7
 10
371.8908961473
 20
194.8134096754
 30
0.0
  0
VERTEX
  5
6D0
  8
0
  6
CONTINUOUS
 62
     7
 10
374.2967005429
 20
194.7720738542
 30
0.0
  0
VERTEX
  5
6D1
  8
0
  6
CONTINUOUS
 62
     7
 10
378.0921693502
 20
194.6807714594
 30
0.0
  0
VERTEX
  5
6D2
  8
0
  6
CONTINUOUS
 62
     7
 10
381.8887408433
 20
194.6389468801
 30
0.0
  0
SEQEND
  5
81E
  8
0
  6
CONTINUOUS
 62
     7
  0
POLYLINE
  5
1B0
  8
0
  6
CONTINUOUS
 62
     7
 66
     1
 10
0.0
 20
0.0
 30
0.0
  0
VERTEX
  5
6D3
  8
0
  6
CONTINUOUS
 62
     7
 10
353.7794675288
 20
195.246210922
 30
0.0
  0
VERTEX
  5
6D4
  8
0
  6
CONTINUOUS
 62
     7
 10
356.1878528056
 20
195.3039797437
 30
0.0
  0
VERTEX
  5
6D5
  8
0
  6
CONTINUOUS
 62
     7
 10
359.0455587564
 20
195.1753827226
 30
0.0
  0
VERTEX
  5
6D6
  8
0
  6
CONTINUOUS
 62
     7
 10
361.8910248933
 20
194.9884565962
 30
0.0
  0
SEQEND
  5
81D
  8
0
  6
CONTINUOUS
 62
     7
  0
LINE
  5
1B1
  8
0
  6
CONTINUOUS
 62
     7
 10
351.9266124425
 20
195.1618584287
 30
0.0
 11
353.7794675288
 21
195.246210922
 31
0.0
  0
POLYLINE
  5
1B2
  8
0
  6
CONTINUOUS
 62
     7
 66
     1
 10
0.0
 20
0.0
 30
0.0
  0
VERTEX
  5
6D7
  8
0
  6
CONTINUOUS
 62
     7
 10
341.8996717391
 20
195.3369172704
 30
0.0
  0
VERTEX
  5
6D8
  8
0
  6
CONTINUOUS
 62
     7
 10
343.0794324336
 20
195.4200776708
 30
0.0
  0
VERTEX
  5
6D9
  8
0
  6
CONTINUOUS
 62
     7
 10
344.2739318667
 20
195.4135151994
 30
0.0
  0
VERTEX
  5
6DA
  8
0
  6
CONTINUOUS
 62
     7
 10
345.5945755897
 20
195.3405650747
 30
0.0
  0
VERTEX
  5
6DB
  8
0
  6
CONTINUOUS
 62
     7
 10
346.9194005785
 20
195.2493699682
 30
0.0
  0
SEQEND
  5
81C
  8
0
  6
CONTINUOUS
 62
     7
  0
LINE
  5
1B3
  8
0
  6
CONTINUOUS
 62
     7
 10
317.7849001793
 20
168.0898698461
 30
0.0
 11
317.1849000809
 21
168.0898698461
 31
0.0
  0
LINE
  5
1B4
  8
0
  6
CONTINUOUS
 62
     7
 10
317.1849000809
 20
168.0898698461
 30
0.0
 11
317.1849000809
 21
170.0898738992
 31
0.0
  0
LINE
  5
1B5
  8
0
  6
CONTINUOUS
 62
     7
 10
317.7849001793
 20
168.8898714674
 30
0.0
 11
317.7849001793
 21
168.0898698461
 31
0.0
  0
ARC
  5
1B6
  8
0
  6
CONTINUOUS
 62
     7
 10
318.1849002538
 20
177.4898714197
 30
0.0
 40
1.000000000000057
 50
90.0
 51
180.0
  0
LINE
  5
1B7
  8
0
  6
CONTINUOUS
 62
     7
 10
318.1849002448
 20
178.4898730409
 30
0.0
 11
327.3849002627
 21
178.4898730409
 31
0.0
  0
ARC
  5
1B8
  8
0
  6
CONTINUOUS
 62
     7
 10
327.3849002538
 20
177.4898714197
 30
0.0
 40
1.0
 50
0.0
 51
90.0
  0
LINE
  5
1B9
  8
0
  6
CONTINUOUS
 62
     7
 10
328.3849004266
 20
177.4898739946
 30
0.0
 11
328.3849004266
 21
170.0898738992
 31
0.0
  0
LINE
  5
1BA
  8
0
  6
CONTINUOUS
 62
     7
 10
327.7849003283
 20
177.4898739946
 30
0.0
 11
327.7849003283
 21
176.8898697984
 31
0.0
  0
ARC
  5
1BB
  8
0
  6
CONTINUOUS
 62
     7
 10
327.3849002538
 20
177.4898714197
 30
0.0
 40
0.4000000000000341
 50
0.0
 51
90.0
  0
LINE
  5
1BC
  8
0
  6
CONTINUOUS
 62
     7
 10
318.1849002448
 20
177.8898688448
 30
0.0
 11
318.7849003432
 21
177.8898688448
 31
0.0
  0
LINE
  5
1BD
  8
0
  6
CONTINUOUS
 62
     7
 10
326.7849001644
 20
177.8898688448
 30
0.0
 11
327.3849002627
 21
177.8898688448
 31
0.0
  0
LINE
  5
1BE
  8
0
  6
CONTINUOUS
 62
     7
 10
317.7849001793
 20
176.8898697984
 30
0.0
 11
317.7849001793
 21
177.4898739946
 31
0.0
  0
LINE
  5
1BF
  8
0
  6
CONTINUOUS
 62
     7
 10
317.1849000809
 20
170.0898738992
 30
0.0
 11
317.1849000809
 21
177.4898739946
 31
0.0
  0
ARC
  5
1C0
  8
0
  6
CONTINUOUS
 62
     7
 10
318.1849002538
 20
177.4898714197
 30
0.0
 40
0.4000000000000341
 50
90.0
 51
180.0
  0
LINE
  5
1C1
  8
0
  6
CONTINUOUS
 62
     7
 10
328.3849004266
 20
168.0898698461
 30
0.0
 11
327.7849003283
 21
168.0898698461
 31
0.0
  0
LINE
  5
1C2
  8
0
  6
CONTINUOUS
 62
     7
 10
327.7849003283
 20
168.0898698461
 30
0.0
 11
327.7849003283
 21
168.8898714674
 31
0.0
  0
LINE
  5
1C3
  8
0
  6
CONTINUOUS
 62
     7
 10
328.3849004266
 20
170.0898738992
 30
0.0
 11
328.3849004266
 21
168.0898698461
 31
0.0
  0
ARC
  5
1C4
  8
0
  6
CONTINUOUS
 62
     7
 10
387.2849002538
 20
191.9415015379
 30
0.0
 40
2.0
 50
280.7804509646
 51
0.0
  0
ARC
  5
1C5
  8
0
  6
CONTINUOUS
 62
     7
 10
312.8405316966
 20
582.9172501338
 30
0.0
 40
400.0000000000002
 50
274.5077079787
 51
280.7804509646
  0
ARC
  5
1C6
  8
0
  6
CONTINUOUS
 62
     7
 10
331.702902076
 20
343.65962542
 30
0.0
 40
160.0000000000002
 50
273.0746772222
 51
274.5077079787
  0
ARC
  5
1C7
  8
0
  6
CONTINUOUS
 62
     7
 10
340.9821876057
 20
170.9086634544
 30
0.0
 40
12.99999999999997
 50
93.0746772222
 51
121.4611845106
  0
ARC
  5
1C8
  8
0
  6
CONTINUOUS
 62
     7
 10
336.2849002538
 20
178.5856089103
 30
0.0
 40
4.000000000000001
 50
121.4611845106
 51
180.0
  0
LINE
  5
1C9
  8
0
  6
CONTINUOUS
 62
     7
 10
332.2849001346
 20
176.6898723734
 30
0.0
 11
332.2849001346
 21
178.5856100214
 31
0.0
  0
ARC
  5
1CA
  8
0
  6
CONTINUOUS
 62
     7
 10
330.2849002538
 20
176.6898714197
 30
0.0
 40
2.000000000000028
 50
270.0
 51
0.0
  0
LINE
  5
1CB
  8
0
  6
CONTINUOUS
 62
     7
 10
328.3849004266
 20
174.6898742807
 30
0.0
 11
330.2849005518
 21
174.6898742807
 31
0.0
  0
LINE
  5
1CC
  8
0
  6
CONTINUOUS
 62
     7
 10
316.1849002895
 20
174.6898742807
 30
0.0
 11
317.1849000809
 21
174.6898742807
 31
0.0
  0
ARC
  5
1CD
  8
0
  6
CONTINUOUS
 62
     7
 10
316.1849002538
 20
176.6898714197
 30
0.0
 40
2.000000000000028
 50
180.0
 51
270.0
  0
ARC
  5
1CE
  8
0
  6
CONTINUOUS
 62
     7
 10
332.4150752907
 20
173.4642578788
 30
0.0
 40
19.99999999999991
 50
102.5040575207
 51
148.4862321611
  0
LINE
  5
1CF
  8
0
  6
CONTINUOUS
 62
     7
 10
328.0849001912
 20
192.9898711336
 30
0.0
 11
328.0849001912
 21
193.192658056
 31
0.0
  0
LINE
  5
1D0
  8
0
  6
CONTINUOUS
 62
     7
 10
389.2849023996
 20
193.192658056
 30
0.0
 11
389.2849023996
 21
191.941502918
 31
0.0
  0
LINE
  5
1D1
  8
0
  6
CONTINUOUS
 62
     7
 10
314.1848999617
 20
179.7367008817
 30
0.0
 11
314.1848999617
 21
176.6898723734
 31
0.0
  0
ARC
  5
1D2
  8
0
  6
CONTINUOUS
 62
     7
 10
322.1849002538
 20
179.7366990873
 30
0.0
 40
8.000000000000057
 50
148.4862321611
 51
180.0
  0
LINE
  5
1D3
  8
0
  6
CONTINUOUS
 62
     7
 10
328.0849001912
 20
194.1847296846
 30
0.0
 11
328.1417194364
 21
194.1847296846
 31
0.0
  0
LINE
  5
1D4
  8
0
  6
CONTINUOUS
 62
     7
 10
328.1417194364
 20
194.1847296846
 30
0.0
 11
328.1503706781
 21
194.1866191519
 31
0.0
  0
LINE
  5
1D5
  8
0
  6
CONTINUOUS
 62
     7
 10
389.2849023996
 20
194.1926571024
 30
0.0
 11
389.2849023996
 21
193.192658056
 31
0.0
  0
LINE
  5
1D6
  8
0
  6
CONTINUOUS
 62
     7
 10
328.0849001912
 20
193.192658056
 30
0.0
 11
328.0849001912
 21
194.1847296846
 31
0.0
  0
LINE
  5
1D7
  8
0
  6
CONTINUOUS
 62
     7
 10
31.9155323694
 20
39.8768298043
 30
0.0
 11
32.5221824834
 21
38.823248045
 31
0.0
  0
LINE
  5
1D8
  8
0
  6
CONTINUOUS
 62
     7
 10
102.0920354316
 20
38.8232953562
 30
0.0
 11
102.6986855457
 21
39.8768670572
 31
0.0
  0
LINE
  5
1D9
  8
0
  6
CONTINUOUS
 62
     7
 10
151.9155296872
 20
39.8768298043
 30
0.0
 11
152.5221842716
 21
38.823248045
 31
0.0
  0
LINE
  5
1DA
  8
0
  6
CONTINUOUS
 62
     7
 10
222.0920372197
 20
38.8232953562
 30
0.0
 11
222.6986873338
 21
39.8768670572
 31
0.0
  0
ARC
  5
1DB
  8
0
  6
CONTINUOUS
 62
     7
 10
217.7337637807
 20
-36.7451355304
 30
0.0
 40
8.13007004907129
 50
287.2567479278
 51
289.6913094466
  0
ARC
  5
1DC
  8
0
  6
CONTINUOUS
 62
     7
 10
156.9896709649
 20
-36.3803207756
 30
0.0
 40
8.510739561470366
 50
250.4724682313
 51
252.7375622255
  0
ARC
  5
1DD
  8
0
  6
CONTINUOUS
 62
     7
 10
97.7337771988
 20
-36.7452467125
 30
0.0
 40
8.129960244976001
 50
287.2568980878
 51
289.6914725677
  0
ARC
  5
1DE
  8
0
  6
CONTINUOUS
 62
     7
 10
36.9903905338
 20
-36.3780807476
 30
0.0
 40
8.513091866201053
 50
250.4729318557
 51
252.737418923
  0
LINE
  5
1DF
  8
0
  6
CONTINUOUS
 62
     7
 10
23.7070787141
 20
36.7819539918
 30
0.0
 11
23.7070787141
 21
37.3819540901
 31
0.0
  0
ARC
  5
1E0
  8
0
  6
CONTINUOUS
 62
     7
 10
24.1070800493
 20
37.3819540812
 30
0.0
 40
0.4000000000000057
 50
90.0
 51
180.0
  0
LINE
  5
1E1
  8
0
  6
CONTINUOUS
 62
     7
 10
230.9070813844
 20
37.3819540901
 30
0.0
 11
230.9070813844
 21
36.7819539918
 31
0.0
  0
ARC
  5
1E2
  8
0
  6
CONTINUOUS
 62
     7
 10
230.5070800493
 20
37.3819540812
 30
0.0
 40
0.4000000000000341
 50
0.0
 51
90.0
  0
LINE
  5
1E3
  8
0
  6
CONTINUOUS
 62
     7
 10
24.1070854852
 20
37.7819541557
 30
0.0
 11
24.8070824334
 21
37.7819541557
 31
0.0
  0
LINE
  5
1E4
  8
0
  6
CONTINUOUS
 62
     7
 10
34.9055636117
 20
37.7819541557
 30
0.0
 11
49.3070829103
 21
37.7819541557
 31
0.0
  0
LINE
  5
1E5
  8
0
  6
CONTINUOUS
 62
     7
 10
85.3070813606
 20
37.7819541557
 30
0.0
 11
99.7060734222
 21
37.7819541557
 31
0.0
  0
LINE
  5
1E6
  8
0
  6
CONTINUOUS
 62
     7
 10
109.8070803473
 20
37.7819541557
 30
0.0
 11
144.8070797512
 21
37.7819541557
 31
0.0
  0
LINE
  5
1E7
  8
0
  6
CONTINUOUS
 62
     7
 10
154.9055653999
 20
37.7819541557
 30
0.0
 11
169.307078738
 21
37.7819541557
 31
0.0
  0
LINE
  5
1E8
  8
0
  6
CONTINUOUS
 62
     7
 10
205.3070771882
 20
37.7819541557
 30
0.0
 11
219.7060752103
 21
37.7819541557
 31
0.0
  0
LINE
  5
1E9
  8
0
  6
CONTINUOUS
 62
     7
 10
229.8070776651
 20
37.7819541557
 30
0.0
 11
230.5070746133
 21
37.7819541557
 31
0.0
  0
LINE
  5
1EA
  8
0
  6
CONTINUOUS
 62
     7
 10
23.7070787141
 20
28.7819541706
 30
0.0
 11
23.7070787141
 21
36.7819539918
 31
0.0
  0
LINE
  5
1EB
  8
0
  6
CONTINUOUS
 62
     7
 10
230.9070813844
 20
36.7819539918
 30
0.0
 11
230.9070813844
 21
28.7819541706
 31
0.0
  0
LINE
  5
1EC
  8
0
  6
CONTINUOUS
 62
     7
 10
230.5070746133
 20
27.7819540067
 30
0.0
 11
229.8070776651
 21
27.7819540067
 31
0.0
  0
LINE
  5
1ED
  8
0
  6
CONTINUOUS
 62
     7
 10
219.8070812414
 20
27.7819540067
 30
0.0
 11
205.3070771882
 21
27.7819540067
 31
0.0
  0
LINE
  5
1EE
  8
0
  6
CONTINUOUS
 62
     7
 10
169.307078738
 20
27.7819540067
 30
0.0
 11
154.8070806453
 21
27.7819540067
 31
0.0
  0
LINE
  5
1EF
  8
0
  6
CONTINUOUS
 62
     7
 10
144.8070797512
 20
27.7819540067
 30
0.0
 11
109.8070803473
 21
27.7819540067
 31
0.0
  0
LINE
  5
1F0
  8
0
  6
CONTINUOUS
 62
     7
 10
99.8070794532
 20
27.7819540067
 30
0.0
 11
85.3070813606
 21
27.7819540067
 31
0.0
  0
LINE
  5
1F1
  8
0
  6
CONTINUOUS
 62
     7
 10
49.3070829103
 20
27.7819540067
 30
0.0
 11
34.8070788572
 21
27.7819540067
 31
0.0
  0
LINE
  5
1F2
  8
0
  6
CONTINUOUS
 62
     7
 10
24.8070824334
 20
27.7819540067
 30
0.0
 11
24.1070854852
 21
27.7819540067
 31
0.0
  0
ARC
  5
1F3
  8
0
  6
CONTINUOUS
 62
     7
 10
24.1070800493
 20
28.1819540812
 30
0.0
 40
0.4000000000000021
 50
180.0
 51
270.0
  0
LINE
  5
1F4
  8
0
  6
CONTINUOUS
 62
     7
 10
23.7070787141
 20
28.1819540723
 30
0.0
 11
23.7070787141
 21
28.7819541706
 31
0.0
  0
LINE
  5
1F5
  8
0
  6
CONTINUOUS
 62
     7
 10
230.9070813844
 20
28.7819541706
 30
0.0
 11
230.9070813844
 21
28.1819540723
 31
0.0
  0
ARC
  5
1F6
  8
0
  6
CONTINUOUS
 62
     7
 10
230.5070800493
 20
28.1819540812
 30
0.0
 40
0.4000000000000341
 50
270.0
 51
0.0
  0
LINE
  5
1F7
  8
0
  6
CONTINUOUS
 62
     7
 10
214.3070805261
 20
38.7819539471
 30
0.0
 11
214.3070805261
 21
39.847182454
 31
0.0
  0
LINE
  5
1F8
  8
0
  6
CONTINUOUS
 62
     7
 10
214.3070805261
 20
38.7819539471
 30
0.0
 11
214.3008279989
 21
37.7819541557
 31
0.0
  0
POLYLINE
  5
1F9
  8
0
  6
CONTINUOUS
 62
     7
 66
     1
 10
0.0
 20
0.0
 30
0.0
  0
VERTEX
  5
6DC
  8
0
  6
CONTINUOUS
 62
     7
 10
213.5472226331
 20
27.7819540067
 30
0.0
  0
VERTEX
  5
6DD
  8
0
  6
CONTINUOUS
 62
     7
 10
213.301669378
 20
26.1385895027
 30
0.0
  0
VERTEX
  5
6DE
  8
0
  6
CONTINUOUS
 62
     7
 10
212.9155326078
 20
23.9255971922
 30
0.0
  0
SEQEND
  5
81B
  8
0
  6
CONTINUOUS
 62
     7
  0
LINE
  5
1FA
  8
0
  6
CONTINUOUS
 62
     7
 10
190.3080809305
 20
38.381954254
 30
0.0
 11
190.3070795724
 21
38.7819539471
 31
0.0
  0
LINE
  5
1FB
  8
0
  6
CONTINUOUS
 62
     7
 10
194.3726229856
 20
44.781953813
 30
0.0
 11
194.3070817182
 21
44.781953813
 31
0.0
  0
ARC
  5
1FC
  8
0
  6
CONTINUOUS
 62
     7
 10
210.3070800493
 20
40.7819540812
 30
0.0
 40
1.499999999999986
 50
141.2936122605
 51
0.5532366202
  0
CIRCLE
  5
1FD
  8
0
  6
CONTINUOUS
 62
     7
 10
194.3070800493
 20
40.7819540812
 30
0.0
 40
1.5
  0
ARC
  5
1FE
  8
0
  6
CONTINUOUS
 62
     7
 10
194.3070800493
 20
40.7819540812
 30
0.0
 40
4.0
 50
90.0
 51
180.0
  0
POLYLINE
  5
1FF
  8
0
  6
CONTINUOUS
 62
     7
 66
     1
 10
0.0
 20
0.0
 30
0.0
  0
VERTEX
  5
6DF
  8
0
  6
CONTINUOUS
 62
     7
 10
41.6984665582
 20
23.9264473034
 30
0.0
  0
VERTEX
  5
6E0
  8
0
  6
CONTINUOUS
 62
     7
 10
41.3124907205
 20
26.1385895027
 30
0.0
  0
VERTEX
  5
6E1
  8
0
  6
CONTINUOUS
 62
     7
 10
41.0669374654
 20
27.7819540067
 30
0.0
  0
SEQEND
  5
81A
  8
0
  6
CONTINUOUS
 62
     7
  0
LINE
  5
200
  8
0
  6
CONTINUOUS
 62
     7
 10
40.3133320997
 20
37.7819541557
 30
0.0
 11
40.3070795724
 21
38.7819539471
 31
0.0
  0
LINE
  5
201
  8
0
  6
CONTINUOUS
 62
     7
 10
40.3070795724
 20
39.8467361642
 30
0.0
 11
40.3070795724
 21
38.7819539471
 31
0.0
  0
LINE
  5
202
  8
0
  6
CONTINUOUS
 62
     7
 10
64.3070805261
 20
38.7819539471
 30
0.0
 11
64.3060791681
 21
38.381954254
 31
0.0
  0
ARC
  5
203
  8
0
  6
CONTINUOUS
 62
     7
 10
44.3070800493
 20
40.7819540812
 30
0.0
 40
1.500000000000007
 50
270.0
 51
38.8386719473
  0
ARC
  5
204
  8
0
  6
CONTINUOUS
 62
     7
 10
44.3070800493
 20
40.7819540812
 30
0.0
 40
1.500000000000007
 50
179.2809376961
 51
270.0
  0
CIRCLE
  5
205
  8
0
  6
CONTINUOUS
 62
     7
 10
60.3070800493
 20
40.7819540812
 30
0.0
 40
1.500000000000014
  0
ARC
  5
206
  8
0
  6
CONTINUOUS
 62
     7
 10
60.3070800493
 20
40.7819540812
 30
0.0
 40
4.0
 50
0.0
 51
90.0
  0
LINE
  5
207
  8
0
  6
CONTINUOUS
 62
     7
 10
60.3070783803
 20
44.781953813
 30
0.0
 11
60.2415371129
 21
44.781953813
 31
0.0
  0
POLYLINE
  5
208
  8
0
  6
CONTINUOUS
 62
     7
 66
     1
 10
0.0
 20
0.0
 30
0.0
  0
VERTEX
  5
6E2
  8
0
  6
CONTINUOUS
 62
     7
 10
102.3324060628
 20
39.2614230229
 30
0.0
  0
VERTEX
  5
6E3
  8
0
  6
CONTINUOUS
 62
     7
 10
102.3598137686
 20
39.5659833862
 30
0.0
  0
VERTEX
  5
6E4
  8
0
  6
CONTINUOUS
 62
     7
 10
102.1979767272
 20
39.9855993403
 30
0.0
  0
VERTEX
  5
6E5
  8
0
  6
CONTINUOUS
 62
     7
 10
101.8458384464
 20
40.5047282292
 30
0.0
  0
VERTEX
  5
6E6
  8
0
  6
CONTINUOUS
 62
     7
 10
101.3111281583
 20
41.0991050018
 30
0.0
  0
VERTEX
  5
6E7
  8
0
  6
CONTINUOUS
 62
     7
 10
100.600786824
 20
41.7447074963
 30
0.0
  0
VERTEX
  5
6E8
  8
0
  6
CONTINUOUS
 62
     7
 10
99.7335899064
 20
42.4143925024
 30
0.0
  0
VERTEX
  5
6E9
  8
0
  6
CONTINUOUS
 62
     7
 10
98.7326818893
 20
43.0801495625
 30
0.0
  0
VERTEX
  5
6EA
  8
0
  6
CONTINUOUS
 62
     7
 10
97.6236421058
 20
43.7214255048
 30
0.0
  0
VERTEX
  5
6EB
  8
0
  6
CONTINUOUS
 62
     7
 10
96.5952533672
 20
44.2417360557
 30
0.0
  0
VERTEX
  5
6EC
  8
0
  6
CONTINUOUS
 62
     7
 10
95.529745836
 20
44.7164535238
 30
0.0
  0
SEQEND
  5
819
  8
0
  6
CONTINUOUS
 62
     7
  0
ARC
  5
209
  8
0
  6
CONTINUOUS
 62
     7
 10
97.8354135205
 20
41.4906124048
 30
0.0
 40
5.019185912710499
 50
308.9518845672
 51
333.6320764555
  0
POLYLINE
  5
20A
  8
0
  6
CONTINUOUS
 62
     7
 66
     1
 10
0.0
 20
0.0
 30
0.0
  0
VERTEX
  5
6ED
  8
0
  6
CONTINUOUS
 62
     7
 10
92.8669977376
 20
40.4072344018
 30
0.0
  0
VERTEX
  5
6EE
  8
0
  6
CONTINUOUS
 62
     7
 10
94.2683059165
 20
39.8624330474
 30
0.0
  0
VERTEX
  5
6EF
  8
0
  6
CONTINUOUS
 62
     7
 10
95.617674608
 20
39.3317132903
 30
0.0
  0
VERTEX
  5
6F0
  8
0
  6
CONTINUOUS
 62
     7
 10
96.8774038741
 20
38.8344015641
 30
0.0
  0
VERTEX
  5
6F1
  8
0
  6
CONTINUOUS
 62
     7
 10
98.0151850173
 20
38.3909132047
 30
0.0
  0
VERTEX
  5
6F2
  8
0
  6
CONTINUOUS
 62
     7
 10
98.996453304
 20
38.0236651464
 30
0.0
  0
VERTEX
  5
6F3
  8
0
  6
CONTINUOUS
 62
     7
 10
99.8042988965
 20
37.7484965785
 30
0.0
  0
VERTEX
  5
6F4
  8
0
  6
CONTINUOUS
 62
     7
 10
100.4186707923
 20
37.5826552225
 30
0.0
  0
VERTEX
  5
6F5
  8
0
  6
CONTINUOUS
 62
     7
 10
100.8269357869
 20
37.5372189744
 30
0.0
  0
VERTEX
  5
6F6
  8
0
  6
CONTINUOUS
 62
     7
 10
100.9908127973
 20
37.5873207761
 30
0.0
  0
SEQEND
  5
818
  8
0
  6
CONTINUOUS
 62
     7
  0
ARC
  5
20B
  8
0
  6
CONTINUOUS
 62
     7
 10
67.3070806453
 20
-25.8854378975
 30
0.0
 40
71.0494740469845
 50
68.915269925
 51
111.084730075
  0
POLYLINE
  5
20C
  8
0
  6
CONTINUOUS
 62
     7
 66
     1
 10
0.0
 20
0.0
 30
0.0
  0
VERTEX
  5
6F7
  8
0
  6
CONTINUOUS
 62
     7
 10
33.6233484933
 20
37.5873207761
 30
0.0
  0
VERTEX
  5
6F8
  8
0
  6
CONTINUOUS
 62
     7
 10
33.8714587877
 20
37.537240581
 30
0.0
  0
VERTEX
  5
6F9
  8
0
  6
CONTINUOUS
 62
     7
 10
34.3331384847
 20
37.6136459125
 30
0.0
  0
VERTEX
  5
6FA
  8
0
  6
CONTINUOUS
 62
     7
 10
35.0014674852
 20
37.810150878
 30
0.0
  0
VERTEX
  5
6FB
  8
0
  6
CONTINUOUS
 62
     7
 10
35.8588803003
 20
38.1115998788
 30
0.0
  0
VERTEX
  5
6FC
  8
0
  6
CONTINUOUS
 62
     7
 10
36.8870961854
 20
38.502131374
 30
0.0
  0
VERTEX
  5
6FD
  8
0
  6
CONTINUOUS
 62
     7
 10
38.058875818
 20
38.9614019258
 30
0.0
  0
VERTEX
  5
6FE
  8
0
  6
CONTINUOUS
 62
     7
 10
39.3420624921
 20
39.4679620577
 30
0.0
  0
VERTEX
  5
6FF
  8
0
  6
CONTINUOUS
 62
     7
 10
40.7040405462
 20
40.0025449408
 30
0.0
  0
VERTEX
  5
700
  8
0
  6
CONTINUOUS
 62
     7
 10
41.747163553
 20
40.4072344018
 30
0.0
  0
SEQEND
  5
817
  8
0
  6
CONTINUOUS
 62
     7
  0
ARC
  5
20D
  8
0
  6
CONTINUOUS
 62
     7
 10
36.7782667931
 20
41.4900941918
 30
0.0
 40
5.018480537436186
 50
206.3638881184
 51
231.0486664117
  0
POLYLINE
  5
20E
  8
0
  6
CONTINUOUS
 62
     7
 66
     1
 10
0.0
 20
0.0
 30
0.0
  0
VERTEX
  5
701
  8
0
  6
CONTINUOUS
 62
     7
 10
39.0844631383
 20
44.7164743854
 30
0.0
  0
VERTEX
  5
702
  8
0
  6
CONTINUOUS
 62
     7
 10
37.8570902536
 20
44.1639065458
 30
0.0
  0
VERTEX
  5
703
  8
0
  6
CONTINUOUS
 62
     7
 10
36.6836238096
 20
43.5529701127
 30
0.0
  0
VERTEX
  5
704
  8
0
  6
CONTINUOUS
 62
     7
 10
35.5978775213
 20
42.9008625163
 30
0.0
  0
VERTEX
  5
705
  8
0
  6
CONTINUOUS
 62
     7
 10
34.6285510251
 20
42.2302491678
 30
0.0
  0
VERTEX
  5
706
  8
0
  6
CONTINUOUS
 62
     7
 10
33.8068711946
 20
41.5682784928
 30
0.0
  0
VERTEX
  5
707
  8
0
  6
CONTINUOUS
 62
     7
 10
33.1450689027
 20
40.9370116605
 30
0.0
  0
VERTEX
  5
708
  8
0
  6
CONTINUOUS
 62
     7
 10
32.6587844083
 20
40.3614543094
 30
0.0
  0
VERTEX
  5
709
  8
0
  6
CONTINUOUS
 62
     7
 10
32.356046457
 20
39.8669942929
 30
0.0
  0
VERTEX
  5
70A
  8
0
  6
CONTINUOUS
 62
     7
 10
32.2470116803
 20
39.5198121382
 30
0.0
  0
VERTEX
  5
70B
  8
0
  6
CONTINUOUS
 62
     7
 10
32.2817492673
 20
39.2615347816
 30
0.0
  0
SEQEND
  5
816
  8
0
  6
CONTINUOUS
 62
     7
  0
ARC
  5
20F
  8
0
  6
CONTINUOUS
 62
     7
 10
67.307079418
 20
-23.1130651387
 30
0.0
 40
73.46674418894796
 50
67.4086667073
 51
112.5912909408
  0
POLYLINE
  5
210
  8
0
  6
CONTINUOUS
 62
     7
 66
     1
 10
0.0
 20
0.0
 30
0.0
  0
VERTEX
  5
70C
  8
0
  6
CONTINUOUS
 62
     7
 10
31.6945004651
 20
40.2689017071
 30
0.0
  0
VERTEX
  5
70D
  8
0
  6
CONTINUOUS
 62
     7
 10
31.6644656846
 20
40.5714824511
 30
0.0
  0
VERTEX
  5
70E
  8
0
  6
CONTINUOUS
 62
     7
 10
31.8235862443
 20
40.9894376708
 30
0.0
  0
VERTEX
  5
70F
  8
0
  6
CONTINUOUS
 62
     7
 10
32.1729707906
 20
41.5073074116
 30
0.0
  0
VERTEX
  5
710
  8
0
  6
CONTINUOUS
 62
     7
 10
32.7049362848
 20
42.1009130491
 30
0.0
  0
VERTEX
  5
711
  8
0
  6
CONTINUOUS
 62
     7
 10
33.4126281926
 20
42.7463620616
 30
0.0
  0
VERTEX
  5
712
  8
0
  6
CONTINUOUS
 62
     7
 10
34.2773008535
 20
43.4165544523
 30
0.0
  0
VERTEX
  5
713
  8
0
  6
CONTINUOUS
 62
     7
 10
35.2760660837
 20
44.0836623026
 30
0.0
  0
VERTEX
  5
714
  8
0
  6
CONTINUOUS
 62
     7
 10
36.3832521627
 20
44.7269953503
 30
0.0
  0
VERTEX
  5
715
  8
0
  6
CONTINUOUS
 62
     7
 10
37.4102461526
 20
45.2496058954
 30
0.0
  0
VERTEX
  5
716
  8
0
  6
CONTINUOUS
 62
     7
 10
38.4746420572
 20
45.7270621969
 30
0.0
  0
SEQEND
  5
815
  8
0
  6
CONTINUOUS
 62
     7
  0
POLYLINE
  5
211
  8
0
  6
CONTINUOUS
 62
     7
 66
     1
 10
0.0
 20
0.0
 30
0.0
  0
VERTEX
  5
717
  8
0
  6
CONTINUOUS
 62
     7
 10
96.1395669172
 20
45.7270428254
 30
0.0
  0
VERTEX
  5
718
  8
0
  6
CONTINUOUS
 62
     7
 10
97.3654675672
 20
45.1714291884
 30
0.0
  0
VERTEX
  5
719
  8
0
  6
CONTINUOUS
 62
     7
 10
98.5371041486
 20
44.5580564155
 30
0.0
  0
VERTEX
  5
71A
  8
0
  6
CONTINUOUS
 62
     7
 10
99.6207106302
 20
43.9042180492
 30
0.0
  0
VERTEX
  5
71B
  8
0
  6
CONTINUOUS
 62
     7
 10
100.5876797626
 20
43.2325757755
 30
0.0
  0
VERTEX
  5
71C
  8
0
  6
CONTINUOUS
 62
     7
 10
101.4070290515
 20
42.5701163424
 30
0.0
  0
VERTEX
  5
71D
  8
0
  6
CONTINUOUS
 62
     7
 10
102.0663428495
 20
41.9389873458
 30
0.0
  0
VERTEX
  5
71E
  8
0
  6
CONTINUOUS
 62
     7
 10
102.5499943087
 20
41.3641564263
 30
0.0
  0
VERTEX
  5
71F
  8
0
  6
CONTINUOUS
 62
     7
 10
102.8500321696
 20
40.8709354414
 30
0.0
  0
VERTEX
  5
720
  8
0
  6
CONTINUOUS
 62
     7
 10
102.9566753099
 20
40.5252873613
 30
0.0
  0
VERTEX
  5
721
  8
0
  6
CONTINUOUS
 62
     7
 10
102.9196518848
 20
40.2687899484
 30
0.0
  0
SEQEND
  5
814
  8
0
  6
CONTINUOUS
 62
     7
  0
ARC
  5
212
  8
0
  6
CONTINUOUS
 62
     7
 10
67.3070813802
 20
-23.0576107153
 30
0.0
 40
74.58311326932247
 50
67.2580150351
 51
112.7419464699
  0
POLYLINE
  5
213
  8
0
  6
CONTINUOUS
 62
     7
 66
     1
 10
0.0
 20
0.0
 30
0.0
  0
VERTEX
  5
722
  8
0
  6
CONTINUOUS
 62
     7
 10
222.3324048707
 20
39.2614230229
 30
0.0
  0
VERTEX
  5
723
  8
0
  6
CONTINUOUS
 62
     7
 10
222.3598110864
 20
39.5659833862
 30
0.0
  0
VERTEX
  5
724
  8
0
  6
CONTINUOUS
 62
     7
 10
222.1979725549
 20
39.9855993403
 30
0.0
  0
VERTEX
  5
725
  8
0
  6
CONTINUOUS
 62
     7
 10
221.845834274
 20
40.5047282292
 30
0.0
  0
VERTEX
  5
726
  8
0
  6
CONTINUOUS
 62
     7
 10
221.3111269662
 20
41.0991050018
 30
0.0
  0
VERTEX
  5
727
  8
0
  6
CONTINUOUS
 62
     7
 10
220.6007886121
 20
41.7447074963
 30
0.0
  0
VERTEX
  5
728
  8
0
  6
CONTINUOUS
 62
     7
 10
219.7335887143
 20
42.4143925024
 30
0.0
  0
VERTEX
  5
729
  8
0
  6
CONTINUOUS
 62
     7
 10
218.732677717
 20
43.0801495625
 30
0.0
  0
VERTEX
  5
72A
  8
0
  6
CONTINUOUS
 62
     7
 10
217.6236438939
 20
43.7214255048
 30
0.0
  0
VERTEX
  5
72B
  8
0
  6
CONTINUOUS
 62
     7
 10
216.5952551553
 20
44.2417360557
 30
0.0
  0
VERTEX
  5
72C
  8
0
  6
CONTINUOUS
 62
     7
 10
215.5297446439
 20
44.7164535238
 30
0.0
  0
SEQEND
  5
813
  8
0
  6
CONTINUOUS
 62
     7
  0
ARC
  5
214
  8
0
  6
CONTINUOUS
 62
     7
 10
217.8355076836
 20
41.4905359889
 30
0.0
 40
5.019066539358608
 50
308.9515864466
 51
333.6323745761
  0
POLYLINE
  5
215
  8
0
  6
CONTINUOUS
 62
     7
 66
     1
 10
0.0
 20
0.0
 30
0.0
  0
VERTEX
  5
72D
  8
0
  6
CONTINUOUS
 62
     7
 10
212.8669965455
 20
40.4072344018
 30
0.0
  0
VERTEX
  5
72E
  8
0
  6
CONTINUOUS
 62
     7
 10
214.2683077047
 20
39.8624330474
 30
0.0
  0
VERTEX
  5
72F
  8
0
  6
CONTINUOUS
 62
     7
 10
215.6176734159
 20
39.3317132903
 30
0.0
  0
VERTEX
  5
730
  8
0
  6
CONTINUOUS
 62
     7
 10
216.8774056623
 20
38.8344015641
 30
0.0
  0
VERTEX
  5
731
  8
0
  6
CONTINUOUS
 62
     7
 10
218.0151868055
 20
38.3909132047
 30
0.0
  0
VERTEX
  5
732
  8
0
  6
CONTINUOUS
 62
     7
 10
218.9964521119
 20
38.0236651464
 30
0.0
  0
VERTEX
  5
733
  8
0
  6
CONTINUOUS
 62
     7
 10
219.8042977044
 20
37.7484965785
 30
0.0
  0
VERTEX
  5
734
  8
0
  6
CONTINUOUS
 62
     7
 10
220.4186725805
 20
37.5826552225
 30
0.0
  0
VERTEX
  5
735
  8
0
  6
CONTINUOUS
 62
     7
 10
220.8269345949
 20
37.5372189744
 30
0.0
  0
VERTEX
  5
736
  8
0
  6
CONTINUOUS
 62
     7
 10
220.9908116052
 20
37.5873207761
 30
0.0
  0
SEQEND
  5
812
  8
0
  6
CONTINUOUS
 62
     7
  0
ARC
  5
216
  8
0
  6
CONTINUOUS
 62
     7
 10
187.3070794532
 20
-25.8854378975
 30
0.0
 40
71.04947404698453
 50
68.915269925
 51
111.084730075
  0
POLYLINE
  5
217
  8
0
  6
CONTINUOUS
 62
     7
 66
     1
 10
0.0
 20
0.0
 30
0.0
  0
VERTEX
  5
737
  8
0
  6
CONTINUOUS
 62
     7
 10
153.6233473012
 20
37.5873207761
 30
0.0
  0
VERTEX
  5
738
  8
0
  6
CONTINUOUS
 62
     7
 10
153.8714575956
 20
37.537240581
 30
0.0
  0
VERTEX
  5
739
  8
0
  6
CONTINUOUS
 62
     7
 10
154.3331372926
 20
37.6136459125
 30
0.0
  0
VERTEX
  5
73A
  8
0
  6
CONTINUOUS
 62
     7
 10
155.0014662931
 20
37.810150878
 30
0.0
  0
VERTEX
  5
73B
  8
0
  6
CONTINUOUS
 62
     7
 10
155.8588791082
 20
38.1115998788
 30
0.0
  0
VERTEX
  5
73C
  8
0
  6
CONTINUOUS
 62
     7
 10
156.8870949933
 20
38.502131374
 30
0.0
  0
VERTEX
  5
73D
  8
0
  6
CONTINUOUS
 62
     7
 10
158.0588746259
 20
38.9614019258
 30
0.0
  0
VERTEX
  5
73E
  8
0
  6
CONTINUOUS
 62
     7
 10
159.3420613
 20
39.4679620577
 30
0.0
  0
VERTEX
  5
73F
  8
0
  6
CONTINUOUS
 62
     7
 10
160.7040393541
 20
40.0025449408
 30
0.0
  0
VERTEX
  5
740
  8
0
  6
CONTINUOUS
 62
     7
 10
161.7471623609
 20
40.4072344018
 30
0.0
  0
SEQEND
  5
811
  8
0
  6
CONTINUOUS
 62
     7
  0
ARC
  5
218
  8
0
  6
CONTINUOUS
 62
     7
 10
156.7783120036
 20
41.4901273735
 30
0.0
 40
5.018535513636712
 50
206.3639998462
 51
231.048492575
  0
POLYLINE
  5
219
  8
0
  6
CONTINUOUS
 62
     7
 66
     1
 10
0.0
 20
0.0
 30
0.0
  0
VERTEX
  5
741
  8
0
  6
CONTINUOUS
 62
     7
 10
159.0844619462
 20
44.7164743854
 30
0.0
  0
VERTEX
  5
742
  8
0
  6
CONTINUOUS
 62
     7
 10
157.8570890615
 20
44.1639065458
 30
0.0
  0
VERTEX
  5
743
  8
0
  6
CONTINUOUS
 62
     7
 10
156.6836255977
 20
43.5529701127
 30
0.0
  0
VERTEX
  5
744
  8
0
  6
CONTINUOUS
 62
     7
 10
155.5978733489
 20
42.9008625163
 30
0.0
  0
VERTEX
  5
745
  8
0
  6
CONTINUOUS
 62
     7
 10
154.628549833
 20
42.2302491678
 30
0.0
  0
VERTEX
  5
746
  8
0
  6
CONTINUOUS
 62
     7
 10
153.8068729827
 20
41.5682784928
 30
0.0
  0
VERTEX
  5
747
  8
0
  6
CONTINUOUS
 62
     7
 10
153.1450677106
 20
40.9370116605
 30
0.0
  0
VERTEX
  5
748
  8
0
  6
CONTINUOUS
 62
     7
 10
152.6587832162
 20
40.3614543094
 30
0.0
  0
VERTEX
  5
749
  8
0
  6
CONTINUOUS
 62
     7
 10
152.3560422847
 20
39.8669942929
 30
0.0
  0
VERTEX
  5
74A
  8
0
  6
CONTINUOUS
 62
     7
 10
152.2470149586
 20
39.5198121382
 30
0.0
  0
VERTEX
  5
74B
  8
0
  6
CONTINUOUS
 62
     7
 10
152.2817495653
 20
39.2615347816
 30
0.0
  0
SEQEND
  5
810
  8
0
  6
CONTINUOUS
 62
     7
  0
ARC
  5
21A
  8
0
  6
CONTINUOUS
 62
     7
 10
187.3070782259
 20
-23.1130651387
 30
0.0
 40
73.46674418894754
 50
67.4086667073
 51
112.5912909408
  0
POLYLINE
  5
21B
  8
0
  6
CONTINUOUS
 62
     7
 66
     1
 10
0.0
 20
0.0
 30
0.0
  0
VERTEX
  5
74C
  8
0
  6
CONTINUOUS
 62
     7
 10
151.6945022533
 20
40.2689017071
 30
0.0
  0
VERTEX
  5
74D
  8
0
  6
CONTINUOUS
 62
     7
 10
151.6644674728
 20
40.5714824511
 30
0.0
  0
VERTEX
  5
74E
  8
0
  6
CONTINUOUS
 62
     7
 10
151.8235850522
 20
40.9894376708
 30
0.0
  0
VERTEX
  5
74F
  8
0
  6
CONTINUOUS
 62
     7
 10
152.1729695985
 20
41.5073074116
 30
0.0
  0
VERTEX
  5
750
  8
0
  6
CONTINUOUS
 62
     7
 10
152.7049380729
 20
42.1009130491
 30
0.0
  0
VERTEX
  5
751
  8
0
  6
CONTINUOUS
 62
     7
 10
153.4126299808
 20
42.7463620616
 30
0.0
  0
VERTEX
  5
752
  8
0
  6
CONTINUOUS
 62
     7
 10
154.2772996614
 20
43.4165544523
 30
0.0
  0
VERTEX
  5
753
  8
0
  6
CONTINUOUS
 62
     7
 10
155.2760648916
 20
44.0836623026
 30
0.0
  0
VERTEX
  5
754
  8
0
  6
CONTINUOUS
 62
     7
 10
156.3832509706
 20
44.7269953503
 30
0.0
  0
VERTEX
  5
755
  8
0
  6
CONTINUOUS
 62
     7
 10
157.4102449605
 20
45.2496058954
 30
0.0
  0
VERTEX
  5
756
  8
0
  6
CONTINUOUS
 62
     7
 10
158.4746408651
 20
45.7270621969
 30
0.0
  0
SEQEND
  5
80F
  8
0
  6
CONTINUOUS
 62
     7
  0
POLYLINE
  5
21C
  8
0
  6
CONTINUOUS
 62
     7
 66
     1
 10
0.0
 20
0.0
 30
0.0
  0
VERTEX
  5
757
  8
0
  6
CONTINUOUS
 62
     7
 10
216.1395657251
 20
45.7270428254
 30
0.0
  0
VERTEX
  5
758
  8
0
  6
CONTINUOUS
 62
     7
 10
217.3654663751
 20
45.1714291884
 30
0.0
  0
VERTEX
  5
759
  8
0
  6
CONTINUOUS
 62
     7
 10
218.5371029565
 20
44.5580564155
 30
0.0
  0
VERTEX
  5
75A
  8
0
  6
CONTINUOUS
 62
     7
 10
219.6207094381
 20
43.9042180492
 30
0.0
  0
VERTEX
  5
75B
  8
0
  6
CONTINUOUS
 62
     7
 10
220.5876815507
 20
43.2325757755
 30
0.0
  0
VERTEX
  5
75C
  8
0
  6
CONTINUOUS
 62
     7
 10
221.4070308397
 20
42.5701163424
 30
0.0
  0
VERTEX
  5
75D
  8
0
  6
CONTINUOUS
 62
     7
 10
222.0663416574
 20
41.9389873458
 30
0.0
  0
VERTEX
  5
75E
  8
0
  6
CONTINUOUS
 62
     7
 10
222.5499916265
 20
41.3641564263
 30
0.0
  0
VERTEX
  5
75F
  8
0
  6
CONTINUOUS
 62
     7
 10
222.8500294874
 20
40.8709354414
 30
0.0
  0
VERTEX
  5
760
  8
0
  6
CONTINUOUS
 62
     7
 10
222.9566741178
 20
40.5252873613
 30
0.0
  0
VERTEX
  5
761
  8
0
  6
CONTINUOUS
 62
     7
 10
222.9196536729
 20
40.2687899484
 30
0.0
  0
SEQEND
  5
80E
  8
0
  6
CONTINUOUS
 62
     7
  0
ARC
  5
21D
  8
0
  6
CONTINUOUS
 62
     7
 10
187.3070801881
 20
-23.0576107153
 30
0.0
 40
74.58311326932275
 50
67.2580150351
 51
112.7419464699
  0
ARC
  5
21E
  8
0
  6
CONTINUOUS
 62
     7
 10
82.878381008
 20
49.8818341672
 30
0.0
 40
1.001322846789102
 50
30.2902315368
 51
90.0802155235
  0
LINE
  5
21F
  8
0
  6
CONTINUOUS
 62
     7
 10
51.7371821592
 20
50.8831560327
 30
0.0
 11
57.7274847219
 21
50.8831560327
 31
0.0
  0
LINE
  5
220
  8
0
  6
CONTINUOUS
 62
     7
 10
76.8866706083
 20
50.8831560327
 30
0.0
 11
82.8769791314
 21
50.8831560327
 31
0.0
  0
ARC
  5
221
  8
0
  6
CONTINUOUS
 62
     7
 10
51.735778434
 20
49.8818373932
 30
0.0
 40
1.001319623372166
 50
89.9196784375
 51
149.7098745023
  0
LINE
  5
222
  8
0
  6
CONTINUOUS
 62
     7
 10
50.3882217595
 20
49.5566561533
 30
0.0
 11
50.8711564729
 21
50.3868817998
 31
0.0
  0
LINE
  5
223
  8
0
  6
CONTINUOUS
 62
     7
 10
49.5864618013
 20
49.3693694188
 30
0.0
 11
50.5247461984
 21
50.9824096872
 31
0.0
  0
ARC
  5
224
  8
0
  6
CONTINUOUS
 62
     7
 10
51.3893718568
 20
50.4773588285
 30
0.0
 40
1.001326070261709
 50
89.9198905166
 51
149.7096624231
  0
LINE
  5
225
  8
0
  6
CONTINUOUS
 62
     7
 10
51.3907718847
 20
51.47868392
 30
0.0
 11
64.5093250463
 21
51.47868392
 31
0.0
  0
ARC
  5
226
  8
0
  6
CONTINUOUS
 62
     7
 10
65.2948386962
 20
52.0775450469
 30
0.0
 40
0.9877582414571631
 50
180.0217730305
 51
217.3212292825
  0
LINE
  5
227
  8
0
  6
CONTINUOUS
 62
     7
 10
64.3070805261
 20
52.0771696879
 30
0.0
 11
64.3070805261
 21
56.0473546101
 31
0.0
  0
ARC
  5
228
  8
0
  6
CONTINUOUS
 62
     7
 10
65.3033671327
 20
56.043614877
 30
0.0
 40
0.9962936254518714
 50
89.7865010734
 51
179.7849314505
  0
LINE
  5
229
  8
0
  6
CONTINUOUS
 62
     7
 10
69.3070817182
 20
57.0399015857
 30
0.0
 11
65.3070795724
 21
57.0399015857
 31
0.0
  0
ARC
  5
22A
  8
0
  6
CONTINUOUS
 62
     7
 10
69.3107916888
 20
56.0436123894
 30
0.0
 40
0.9962961039020347
 50
0.215211078
 51
90.213356398
  0
LINE
  5
22B
  8
0
  6
CONTINUOUS
 62
     7
 10
70.3070807645
 20
52.0771696879
 30
0.0
 11
70.3070807645
 21
56.0473546101
 31
0.0
  0
ARC
  5
22C
  8
0
  6
CONTINUOUS
 62
     7
 10
69.3192753621
 20
52.077561008
 30
0.0
 40
0.9878054799481457
 50
322.6796954679
 51
359.9773022191
  0
LINE
  5
22D
  8
0
  6
CONTINUOUS
 62
     7
 10
70.1048362443
 20
51.47868392
 30
0.0
 11
83.223389406
 21
51.47868392
 31
0.0
  0
ARC
  5
22E
  8
0
  6
CONTINUOUS
 62
     7
 10
83.2247912825
 20
50.4773620546
 30
0.0
 40
1.001322846788982
 50
30.2902315368
 51
90.0802155235
  0
LINE
  5
22F
  8
0
  6
CONTINUOUS
 62
     7
 10
84.0894150922
 20
50.9824096872
 30
0.0
 11
85.0276994893
 21
49.3693694188
 31
0.0
  0
LINE
  5
230
  8
0
  6
CONTINUOUS
 62
     7
 10
83.7430048177
 20
50.3868817998
 30
0.0
 11
84.2259365508
 21
49.5566561533
 31
0.0
  0
ARC
  5
231
  8
0
  6
CONTINUOUS
 62
     7
 10
82.8783841096
 20
49.1506216921
 30
0.0
 40
1.001318955186645
 50
30.2902021812
 51
90.080393308
  0
ARC
  5
232
  8
0
  6
CONTINUOUS
 62
     7
 10
51.7357753324
 20
49.1506249182
 30
0.0
 40
1.001315731752515
 50
89.9195006515
 51
149.7099038593
  0
LINE
  5
233
  8
0
  6
CONTINUOUS
 62
     7
 10
51.7371821592
 20
50.1519396616
 30
0.0
 11
53.1557190606
 21
50.1519396616
 31
0.0
  0
LINE
  5
234
  8
0
  6
CONTINUOUS
 62
     7
 10
81.4584392497
 20
50.1519396616
 30
0.0
 11
82.8769791314
 21
50.1519396616
 31
0.0
  0
LINE
  5
235
  8
0
  6
CONTINUOUS
 62
     7
 10
70.3070807645
 20
52.0771696879
 30
0.0
 11
70.3070807645
 21
51.47868392
 31
0.0
  0
LINE
  5
236
  8
0
  6
CONTINUOUS
 62
     7
 10
64.3070805261
 20
51.47868392
 30
0.0
 11
64.3070805261
 21
52.0771696879
 31
0.0
  0
LINE
  5
237
  8
0
  6
CONTINUOUS
 62
     7
 10
70.3070807645
 20
45.0728907896
 30
0.0
 11
70.3070807645
 21
39.8689225031
 31
0.0
  0
LINE
  5
238
  8
0
  6
CONTINUOUS
 62
     7
 10
64.3070805261
 20
39.8689225031
 30
0.0
 11
64.3070805261
 21
45.0728907896
 31
0.0
  0
ARC
  5
239
  8
0
  6
CONTINUOUS
 62
     7
 10
65.3070800493
 20
39.3819540812
 30
0.0
 40
1.0
 50
180.0
 51
270.0
  0
LINE
  5
23A
  8
0
  6
CONTINUOUS
 62
     7
 10
64.3070805261
 20
39.3819540454
 30
0.0
 11
64.3070805261
 21
39.8689225031
 31
0.0
  0
ARC
  5
23B
  8
0
  6
CONTINUOUS
 62
     7
 10
69.3070800493
 20
39.3819540812
 30
0.0
 40
1.000000000000014
 50
270.0
 51
0.0
  0
LINE
  5
23C
  8
0
  6
CONTINUOUS
 62
     7
 10
70.3070807645
 20
39.8689225031
 30
0.0
 11
70.3070807645
 21
39.3819540454
 31
0.0
  0
LINE
  5
23D
  8
0
  6
CONTINUOUS
 62
     7
 10
69.3070817182
 20
38.381954254
 30
0.0
 11
65.3070795724
 21
38.381954254
 31
0.0
  0
LINE
  5
23E
  8
0
  6
CONTINUOUS
 62
     7
 10
49.3070829103
 20
37.3819540901
 30
0.0
 11
49.3070829103
 21
38.381954254
 31
0.0
  0
LINE
  5
23F
  8
0
  6
CONTINUOUS
 62
     7
 10
49.3070829103
 20
38.381954254
 30
0.0
 11
64.3070805261
 21
38.381954254
 31
0.0
  0
LINE
  5
240
  8
0
  6
CONTINUOUS
 62
     7
 10
49.3070829103
 20
28.1819540723
 30
0.0
 11
49.3070829103
 21
37.3819540901
 31
0.0
  0
LINE
  5
241
  8
0
  6
CONTINUOUS
 62
     7
 10
85.3070813606
 20
28.1819540723
 30
0.0
 11
85.3070813606
 21
37.3819540901
 31
0.0
  0
LINE
  5
242
  8
0
  6
CONTINUOUS
 62
     7
 10
64.3070805261
 20
37.3819540901
 30
0.0
 11
64.3070805261
 21
39.3819540454
 31
0.0
  0
LINE
  5
243
  8
0
  6
CONTINUOUS
 62
     7
 10
70.3070807645
 20
39.3819540454
 30
0.0
 11
70.3070807645
 21
37.3819540901
 31
0.0
  0
LINE
  5
244
  8
0
  6
CONTINUOUS
 62
     7
 10
70.3070807645
 20
38.381954254
 30
0.0
 11
85.3070813606
 21
38.381954254
 31
0.0
  0
LINE
  5
245
  8
0
  6
CONTINUOUS
 62
     7
 10
85.3070813606
 20
38.381954254
 30
0.0
 11
85.3070813606
 21
37.3819540901
 31
0.0
  0
LINE
  5
246
  8
0
  6
CONTINUOUS
 62
     7
 10
85.3070813606
 20
27.1819539083
 30
0.0
 11
81.2809097955
 21
27.1819539083
 31
0.0
  0
LINE
  5
247
  8
0
  6
CONTINUOUS
 62
     7
 10
53.3341574857
 20
27.1819539083
 30
0.0
 11
49.3070829103
 21
27.1819539083
 31
0.0
  0
LINE
  5
248
  8
0
  6
CONTINUOUS
 62
     7
 10
49.3070829103
 20
27.1819539083
 30
0.0
 11
49.3070829103
 21
28.1819540723
 31
0.0
  0
LINE
  5
249
  8
0
  6
CONTINUOUS
 62
     7
 10
85.3070813606
 20
28.1819540723
 30
0.0
 11
85.3070813606
 21
27.1819539083
 31
0.0
  0
ARC
  5
24A
  8
0
  6
CONTINUOUS
 62
     7
 10
202.8783816646
 20
49.8818373932
 30
0.0
 40
1.001319623372255
 50
30.2901254977
 51
90.0803215625
  0
LINE
  5
24B
  8
0
  6
CONTINUOUS
 62
     7
 10
171.7371809671
 20
50.8831560327
 30
0.0
 11
177.7274894903
 21
50.8831560327
 31
0.0
  0
LINE
  5
24C
  8
0
  6
CONTINUOUS
 62
     7
 10
196.8866753766
 20
50.8831560327
 30
0.0
 11
202.8769779394
 21
50.8831560327
 31
0.0
  0
ARC
  5
24D
  8
0
  6
CONTINUOUS
 62
     7
 10
171.7357790905
 20
49.8818341672
 30
0.0
 40
1.00132284678918
 50
89.9197844765
 51
149.7097684632
  0
LINE
  5
24E
  8
0
  6
CONTINUOUS
 62
     7
 10
170.3882235477
 20
49.5566561533
 30
0.0
 11
170.8711552808
 21
50.3868817998
 31
0.0
  0
LINE
  5
24F
  8
0
  6
CONTINUOUS
 62
     7
 10
169.5864606092
 20
49.3693694188
 30
0.0
 11
170.5247450063
 21
50.9824096872
 31
0.0
  0
ARC
  5
250
  8
0
  6
CONTINUOUS
 62
     7
 10
171.389368816
 20
50.4773620546
 30
0.0
 40
1.001322846788904
 50
89.9197844765
 51
149.7097684632
  0
LINE
  5
251
  8
0
  6
CONTINUOUS
 62
     7
 10
171.3907706926
 20
51.47868392
 30
0.0
 11
184.5093238542
 21
51.47868392
 31
0.0
  0
ARC
  5
252
  8
0
  6
CONTINUOUS
 62
     7
 10
185.2948847364
 20
52.077561008
 30
0.0
 40
0.9878054799485386
 50
180.0226977809
 51
217.3203045321
  0
LINE
  5
253
  8
0
  6
CONTINUOUS
 62
     7
 10
184.307079334
 20
52.0771696879
 30
0.0
 11
184.307079334
 21
56.0473546101
 31
0.0
  0
ARC
  5
254
  8
0
  6
CONTINUOUS
 62
     7
 10
185.3033684097
 20
56.0436123894
 30
0.0
 40
0.9962961039020561
 50
89.786643602
 51
179.7847889219
  0
LINE
  5
255
  8
0
  6
CONTINUOUS
 62
     7
 10
189.3070805261
 20
57.0399015857
 30
0.0
 11
185.3070783803
 21
57.0399015857
 31
0.0
  0
ARC
  5
256
  8
0
  6
CONTINUOUS
 62
     7
 10
189.3107929658
 20
56.043614877
 30
0.0
 40
0.9962936254518715
 50
0.2150685495
 51
90.2134989266
  0
LINE
  5
257
  8
0
  6
CONTINUOUS
 62
     7
 10
190.3070795724
 20
52.0771696879
 30
0.0
 11
190.3070795724
 21
56.0473546101
 31
0.0
  0
ARC
  5
258
  8
0
  6
CONTINUOUS
 62
     7
 10
189.3193214023
 20
52.0775450469
 30
0.0
 40
0.9877582414571856
 50
322.6787707175
 51
359.9782269696
  0
LINE
  5
259
  8
0
  6
CONTINUOUS
 62
     7
 10
190.1048350522
 20
51.47868392
 30
0.0
 11
203.2233882139
 21
51.47868392
 31
0.0
  0
ARC
  5
25A
  8
0
  6
CONTINUOUS
 62
     7
 10
203.2247882417
 20
50.4773588285
 30
0.0
 40
1.001326070261602
 50
30.2903375769
 51
90.0801094834
  0
LINE
  5
25B
  8
0
  6
CONTINUOUS
 62
     7
 10
204.0894139001
 20
50.9824096872
 30
0.0
 11
205.0276982972
 21
49.3693694188
 31
0.0
  0
LINE
  5
25C
  8
0
  6
CONTINUOUS
 62
     7
 10
203.7430036256
 20
50.3868817998
 30
0.0
 11
204.225938339
 21
49.5566561533
 31
0.0
  0
ARC
  5
25D
  8
0
  6
CONTINUOUS
 62
     7
 10
202.8783847661
 20
49.1506249182
 30
0.0
 40
1.001315731752644
 50
30.2900961407
 51
90.0804993485
  0
ARC
  5
25E
  8
0
  6
CONTINUOUS
 62
     7
 10
171.735775989
 20
49.1506216921
 30
0.0
 40
1.001318955186699
 50
89.919606692
 51
149.7097978188
  0
LINE
  5
25F
  8
0
  6
CONTINUOUS
 62
     7
 10
171.7371809671
 20
50.1519396616
 30
0.0
 11
173.1557208488
 21
50.1519396616
 31
0.0
  0
LINE
  5
260
  8
0
  6
CONTINUOUS
 62
     7
 10
201.4584410379
 20
50.1519396616
 30
0.0
 11
202.8769779394
 21
50.1519396616
 31
0.0
  0
LINE
  5
261
  8
0
  6
CONTINUOUS
 62
     7
 10
190.3070795724
 20
52.0771696879
 30
0.0
 11
190.3070795724
 21
51.47868392
 31
0.0
  0
LINE
  5
262
  8
0
  6
CONTINUOUS
 62
     7
 10
184.307079334
 20
51.47868392
 30
0.0
 11
184.307079334
 21
52.0771696879
 31
0.0
  0
LINE
  5
263
  8
0
  6
CONTINUOUS
 62
     7
 10
184.307079334
 20
39.8689225031
 30
0.0
 11
184.307079334
 21
45.0728907896
 31
0.0
  0
LINE
  5
264
  8
0
  6
CONTINUOUS
 62
     7
 10
190.3070795724
 20
45.0728907896
 30
0.0
 11
190.3070795724
 21
39.8689225031
 31
0.0
  0
LINE
  5
265
  8
0
  6
CONTINUOUS
 62
     7
 10
189.3070805261
 20
38.381954254
 30
0.0
 11
185.3070783803
 21
38.381954254
 31
0.0
  0
ARC
  5
266
  8
0
  6
CONTINUOUS
 62
     7
 10
189.3070800493
 20
39.3819540812
 30
0.0
 40
1.0
 50
270.0
 51
0.0
  0
LINE
  5
267
  8
0
  6
CONTINUOUS
 62
     7
 10
190.3070795724
 20
39.8689225031
 30
0.0
 11
190.3070795724
 21
39.3819540454
 31
0.0
  0
ARC
  5
268
  8
0
  6
CONTINUOUS
 62
     7
 10
185.3070800493
 20
39.3819540812
 30
0.0
 40
1.0
 50
180.0
 51
270.0
  0
LINE
  5
269
  8
0
  6
CONTINUOUS
 62
     7
 10
184.307079334
 20
39.3819540454
 30
0.0
 11
184.307079334
 21
39.8689225031
 31
0.0
  0
LINE
  5
26A
  8
0
  6
CONTINUOUS
 62
     7
 10
190.3070795724
 20
38.381954254
 30
0.0
 11
205.3070771882
 21
38.381954254
 31
0.0
  0
LINE
  5
26B
  8
0
  6
CONTINUOUS
 62
     7
 10
205.3070771882
 20
38.381954254
 30
0.0
 11
205.3070771882
 21
37.3819540901
 31
0.0
  0
LINE
  5
26C
  8
0
  6
CONTINUOUS
 62
     7
 10
205.3070771882
 20
28.1819540723
 30
0.0
 11
205.3070771882
 21
37.3819540901
 31
0.0
  0
LINE
  5
26D
  8
0
  6
CONTINUOUS
 62
     7
 10
169.307078738
 20
28.1819540723
 30
0.0
 11
169.307078738
 21
37.3819540901
 31
0.0
  0
LINE
  5
26E
  8
0
  6
CONTINUOUS
 62
     7
 10
190.3070795724
 20
39.3819540454
 30
0.0
 11
190.3070795724
 21
37.3819540901
 31
0.0
  0
LINE
  5
26F
  8
0
  6
CONTINUOUS
 62
     7
 10
184.307079334
 20
37.3819540901
 30
0.0
 11
184.307079334
 21
39.3819540454
 31
0.0
  0
LINE
  5
270
  8
0
  6
CONTINUOUS
 62
     7
 10
169.307078738
 20
38.381954254
 30
0.0
 11
184.307079334
 21
38.381954254
 31
0.0
  0
LINE
  5
271
  8
0
  6
CONTINUOUS
 62
     7
 10
169.307078738
 20
37.3819540901
 30
0.0
 11
169.307078738
 21
38.381954254
 31
0.0
  0
LINE
  5
272
  8
0
  6
CONTINUOUS
 62
     7
 10
205.3070771882
 20
27.1819539083
 30
0.0
 11
201.2809086034
 21
27.1819539083
 31
0.0
  0
LINE
  5
273
  8
0
  6
CONTINUOUS
 62
     7
 10
173.3341562936
 20
27.1819539083
 30
0.0
 11
169.307078738
 21
27.1819539083
 31
0.0
  0
LINE
  5
274
  8
0
  6
CONTINUOUS
 62
     7
 10
205.3070771882
 20
28.1819540723
 30
0.0
 11
205.3070771882
 21
27.1819539083
 31
0.0
  0
LINE
  5
275
  8
0
  6
CONTINUOUS
 62
     7
 10
169.307078738
 20
27.1819539083
 30
0.0
 11
169.307078738
 21
28.1819540723
 31
0.0
  0
ARC
  5
276
  8
0
  6
CONTINUOUS
 62
     7
 10
187.3070809433
 20
-44.7945451275
 30
0.0
 40
73.3397013341412
 50
64.3650302506
 51
115.6349697494
  0
ARC
  5
277
  8
0
  6
CONTINUOUS
 62
     7
 10
187.3070809433
 20
-44.806825059
 30
0.0
 40
73.33114539593404
 50
64.7052198057
 51
115.2947801943
  0
ARC
  5
278
  8
0
  6
CONTINUOUS
 62
     7
 10
159.1848561913
 20
14.8824814853
 30
0.0
 40
7.349236256921673
 50
115.9018834053
 51
164.5640175698
  0
ARC
  5
279
  8
0
  6
CONTINUOUS
 62
     7
 10
215.4453627417
 20
14.8958463375
 30
0.0
 40
7.330204822447472
 50
15.3686942198
 51
64.1653831319
  0
POLYLINE
  5
27A
  8
0
  6
CONTINUOUS
 62
     7
 66
     1
 10
0.0
 20
0.0
 30
0.0
  0
VERTEX
  5
762
  8
0
  6
CONTINUOUS
 62
     7
 10
222.5134241769
 20
16.8385594798
 30
0.0
  0
VERTEX
  5
763
  8
0
  6
CONTINUOUS
 62
     7
 10
223.4304893205
 20
13.546955557
 30
0.0
  0
VERTEX
  5
764
  8
0
  6
CONTINUOUS
 62
     7
 10
224.0316617677
 20
10.2706804587
 30
0.0
  0
VERTEX
  5
765
  8
0
  6
CONTINUOUS
 62
     7
 10
224.3891883085
 20
6.978540094
 30
0.0
  0
VERTEX
  5
766
  8
0
  6
CONTINUOUS
 62
     7
 10
224.6039438436
 20
3.6833569123
 30
0.0
  0
VERTEX
  5
767
  8
0
  6
CONTINUOUS
 62
     7
 10
224.6856916139
 20
0.3851666762
 30
0.0
  0
VERTEX
  5
768
  8
0
  6
CONTINUOUS
 62
     7
 10
224.6825266073
 20
-2.915655105
 30
0.0
  0
VERTEX
  5
769
  8
0
  6
CONTINUOUS
 62
     7
 10
224.6554243753
 20
-6.2159225629
 30
0.0
  0
VERTEX
  5
76A
  8
0
  6
CONTINUOUS
 62
     7
 10
224.6532666871
 20
-9.5134392665
 30
0.0
  0
VERTEX
  5
76B
  8
0
  6
CONTINUOUS
 62
     7
 10
224.7002053449
 20
-15.833587973
 30
0.0
  0
VERTEX
  5
76C
  8
0
  6
CONTINUOUS
 62
     7
 10
224.7342932412
 20
-22.1543178247
 30
0.0
  0
VERTEX
  5
76D
  8
0
  6
CONTINUOUS
 62
     7
 10
224.7432995031
 20
-28.4075483965
 30
0.0
  0
VERTEX
  5
76E
  8
0
  6
CONTINUOUS
 62
     7
 10
224.7451114843
 20
-30.252270429
 30
0.0
  0
VERTEX
  5
76F
  8
0
  6
CONTINUOUS
 62
     7
 10
224.7496056745
 20
-32.1197971986
 30
0.0
  0
VERTEX
  5
770
  8
0
  6
CONTINUOUS
 62
     7
 10
224.7587967107
 20
-34.0151593374
 30
0.0
  0
VERTEX
  5
771
  8
0
  6
CONTINUOUS
 62
     7
 10
224.7747886369
 20
-35.9427258657
 30
0.0
  0
VERTEX
  5
772
  8
0
  6
CONTINUOUS
 62
     7
 10
224.7988808343
 20
-37.9113003896
 30
0.0
  0
SEQEND
  5
80D
  8
0
  6
CONTINUOUS
 62
     7
  0
ARC
  5
27B
  8
0
  6
CONTINUOUS
 62
     7
 10
218.0787490564
 20
-38.1046652956
 30
0.0
 40
6.72291314089355
 50
275.3898256084
 51
1.6481725824
  0
ARC
  5
27C
  8
0
  6
CONTINUOUS
 62
     7
 10
187.3070794532
 20
295.1330855476
 30
0.0
 40
341.3783859847009
 50
264.7219388452
 51
275.2780611548
  0
ARC
  5
27D
  8
0
  6
CONTINUOUS
 62
     7
 10
156.5254266409
 20
-38.1134903411
 30
0.0
 40
6.713195557275381
 50
178.274088261
 51
264.6879274649
  0
POLYLINE
  5
27E
  8
0
  6
CONTINUOUS
 62
     7
 66
     1
 10
0.0
 20
0.0
 30
0.0
  0
VERTEX
  5
773
  8
0
  6
CONTINUOUS
 62
     7
 10
149.815276582
 20
-37.9113003896
 30
0.0
  0
VERTEX
  5
774
  8
0
  6
CONTINUOUS
 62
     7
 10
149.8435947487
 20
-35.5142757581
 30
0.0
  0
VERTEX
  5
775
  8
0
  6
CONTINUOUS
 62
     7
 10
149.8601335475
 20
-33.1745848344
 30
0.0
  0
VERTEX
  5
776
  8
0
  6
CONTINUOUS
 62
     7
 10
149.8679298351
 20
-30.8801815199
 30
0.0
  0
VERTEX
  5
777
  8
0
  6
CONTINUOUS
 62
     7
 10
149.8707223127
 20
-28.622309892
 30
0.0
  0
VERTEX
  5
778
  8
0
  6
CONTINUOUS
 62
     7
 10
149.8721245119
 20
-26.3917789148
 30
0.0
  0
VERTEX
  5
779
  8
0
  6
CONTINUOUS
 62
     7
 10
149.8750347087
 20
-24.1643414186
 30
0.0
  0
VERTEX
  5
77A
  8
0
  6
CONTINUOUS
 62
     7
 10
149.8805764506
 20
-21.9234392332
 30
0.0
  0
VERTEX
  5
77B
  8
0
  6
CONTINUOUS
 62
     7
 10
149.9149012754
 20
-15.7173797773
 30
0.0
  0
VERTEX
  5
77C
  8
0
  6
CONTINUOUS
 62
     7
 10
149.9608922193
 20
-9.5134392665
 30
0.0
  0
VERTEX
  5
77D
  8
0
  6
CONTINUOUS
 62
     7
 10
149.9587345311
 20
-6.2159225629
 30
0.0
  0
VERTEX
  5
77E
  8
0
  6
CONTINUOUS
 62
     7
 10
149.9316337893
 20
-2.915655105
 30
0.0
  0
VERTEX
  5
77F
  8
0
  6
CONTINUOUS
 62
     7
 10
149.9284687826
 20
0.3851666762
 30
0.0
  0
VERTEX
  5
780
  8
0
  6
CONTINUOUS
 62
     7
 10
150.0102150628
 20
3.6833569123
 30
0.0
  0
VERTEX
  5
781
  8
0
  6
CONTINUOUS
 62
     7
 10
150.2249735782
 20
6.978540094
 30
0.0
  0
VERTEX
  5
782
  8
0
  6
CONTINUOUS
 62
     7
 10
150.5824956486
 20
10.2706804587
 30
0.0
  0
VERTEX
  5
783
  8
0
  6
CONTINUOUS
 62
     7
 10
151.1836695859
 20
13.546955557
 30
0.0
  0
VERTEX
  5
784
  8
0
  6
CONTINUOUS
 62
     7
 10
152.1007362196
 20
16.8385594798
 30
0.0
  0
SEQEND
  5
80C
  8
0
  6
CONTINUOUS
 62
     7
  0
ARC
  5
27F
  8
0
  6
CONTINUOUS
 62
     7
 10
215.7808579151
 20
14.7197879534
 30
0.0
 40
7.365063780396342
 50
15.5445901336
 51
63.7661300822
  0
ARC
  5
280
  8
0
  6
CONTINUOUS
 62
     7
 10
158.8154427697
 20
14.7345908399
 30
0.0
 40
7.343896451029548
 50
116.1599239314
 51
164.5293340052
  0
POLYLINE
  5
281
  8
0
  6
CONTINUOUS
 62
     7
 66
     1
 10
0.0
 20
0.0
 30
0.0
  0
VERTEX
  5
785
  8
0
  6
CONTINUOUS
 62
     7
 10
222.876523752
 20
16.6935383989
 30
0.0
  0
VERTEX
  5
786
  8
0
  6
CONTINUOUS
 62
     7
 10
223.3104396055
 20
15.1803835942
 30
0.0
  0
VERTEX
  5
787
  8
0
  6
CONTINUOUS
 62
     7
 10
223.7084138582
 20
13.6672258092
 30
0.0
  0
SEQEND
  5
80B
  8
0
  6
CONTINUOUS
 62
     7
  0
ARC
  5
282
  8
0
  6
CONTINUOUS
 62
     7
 10
165.0657817435
 20
1.7252607677
 30
0.0
 40
59.84602014344426
 50
6.6420820492
 51
11.5103020782
  0
POLYLINE
  5
283
  8
0
  6
CONTINUOUS
 62
     7
 66
     1
 10
0.0
 20
0.0
 30
0.0
  0
VERTEX
  5
788
  8
0
  6
CONTINUOUS
 62
     7
 10
224.50983407
 20
8.6474239541
 30
0.0
  0
VERTEX
  5
789
  8
0
  6
CONTINUOUS
 62
     7
 10
224.7340965459
 20
6.1440035416
 30
0.0
  0
VERTEX
  5
78A
  8
0
  6
CONTINUOUS
 62
     7
 10
224.8786020467
 20
3.6402567936
 30
0.0
  0
SEQEND
  5
80A
  8
0
  6
CONTINUOUS
 62
     7
  0
LINE
  5
284
  8
0
  6
CONTINUOUS
 62
     7
 10
224.907081146
 20
1.7873868061
 30
0.0
 11
224.8782563398
 21
3.6402418925
 31
0.0
  0
LINE
  5
285
  8
0
  6
CONTINUOUS
 62
     7
 10
224.907081146
 20
-6.3241705583
 30
0.0
 11
224.907081146
 21
1.7873868061
 31
0.0
  0
POLYLINE
  5
286
  8
0
  6
CONTINUOUS
 62
     7
 66
     1
 10
0.0
 20
0.0
 30
0.0
  0
VERTEX
  5
78B
  8
0
  6
CONTINUOUS
 62
     7
 10
224.907081146
 20
-6.3241526769
 30
0.0
  0
VERTEX
  5
78C
  8
0
  6
CONTINUOUS
 62
     7
 10
224.8923707197
 20
-9.4960168289
 30
0.0
  0
VERTEX
  5
78D
  8
0
  6
CONTINUOUS
 62
     7
 10
224.907081146
 20
-16.3240418123
 30
0.0
  0
SEQEND
  5
809
  8
0
  6
CONTINUOUS
 62
     7
  0
POLYLINE
  5
287
  8
0
  6
CONTINUOUS
 62
     7
 66
     1
 10
0.0
 20
0.0
 30
0.0
  0
VERTEX
  5
78E
  8
0
  6
CONTINUOUS
 62
     7
 10
224.9071526716
 20
-37.9785165475
 30
0.0
  0
VERTEX
  5
78F
  8
0
  6
CONTINUOUS
 62
     7
 10
224.9071467111
 20
-37.6705751108
 30
0.0
  0
VERTEX
  5
790
  8
0
  6
CONTINUOUS
 62
     7
 10
224.9069321344
 20
-35.2587268041
 30
0.0
  0
VERTEX
  5
791
  8
0
  6
CONTINUOUS
 62
     7
 10
224.9064552972
 20
-32.8741714643
 30
0.0
  0
VERTEX
  5
792
  8
0
  6
CONTINUOUS
 62
     7
 10
224.9061095903
 20
-30.5108234571
 30
0.0
  0
VERTEX
  5
793
  8
0
  6
CONTINUOUS
 62
     7
 10
224.9074268529
 20
-25.8019730733
 30
0.0
  0
VERTEX
  5
794
  8
0
  6
CONTINUOUS
 62
     7
 10
224.9109018037
 20
-21.0680708574
 30
0.0
  0
VERTEX
  5
795
  8
0
  6
CONTINUOUS
 62
     7
 10
224.907081146
 20
-16.3240418123
 30
0.0
  0
SEQEND
  5
808
  8
0
  6
CONTINUOUS
 62
     7
  0
LINE
  5
288
  8
0
  6
CONTINUOUS
 62
     7
 10
149.7070807407
 20
-16.3240418123
 30
0.0
 11
149.7070807407
 21
-26.3218865083
 31
0.0
  0
POLYLINE
  5
289
  8
0
  6
CONTINUOUS
 62
     7
 66
     1
 10
0.0
 20
0.0
 30
0.0
  0
VERTEX
  5
796
  8
0
  6
CONTINUOUS
 62
     7
 10
149.7070762703
 20
-16.3240418123
 30
0.0
  0
VERTEX
  5
797
  8
0
  6
CONTINUOUS
 62
     7
 10
149.7217896769
 20
-9.4960168289
 30
0.0
  0
VERTEX
  5
798
  8
0
  6
CONTINUOUS
 62
     7
 10
149.7070807407
 20
-6.3241526769
 30
0.0
  0
SEQEND
  5
807
  8
0
  6
CONTINUOUS
 62
     7
  0
LINE
  5
28A
  8
0
  6
CONTINUOUS
 62
     7
 10
149.7070807407
 20
1.7873868061
 30
0.0
 11
149.7070807407
 21
-6.3241705583
 31
0.0
  0
LINE
  5
28B
  8
0
  6
CONTINUOUS
 62
     7
 10
149.7359025667
 20
3.6402418925
 30
0.0
 11
149.7070807407
 21
1.7873868061
 31
0.0
  0
POLYLINE
  5
28C
  8
0
  6
CONTINUOUS
 62
     7
 66
     1
 10
0.0
 20
0.0
 30
0.0
  0
VERTEX
  5
799
  8
0
  6
CONTINUOUS
 62
     7
 10
149.7355553696
 20
3.6402567936
 30
0.0
  0
VERTEX
  5
79A
  8
0
  6
CONTINUOUS
 62
     7
 10
149.8800608704
 20
6.1440035416
 30
0.0
  0
VERTEX
  5
79B
  8
0
  6
CONTINUOUS
 62
     7
 10
150.1043263266
 20
8.6474239541
 30
0.0
  0
SEQEND
  5
806
  8
0
  6
CONTINUOUS
 62
     7
  0
ARC
  5
28D
  8
0
  6
CONTINUOUS
 62
     7
 10
209.505967786
 20
1.7320358142
 30
0.0
 40
59.80311031510255
 50
168.4879503506
 51
173.359665522
  0
POLYLINE
  5
28E
  8
0
  6
CONTINUOUS
 62
     7
 66
     1
 10
0.0
 20
0.0
 30
0.0
  0
VERTEX
  5
79C
  8
0
  6
CONTINUOUS
 62
     7
 10
150.9070801923
 20
13.6728152348
 30
0.0
  0
VERTEX
  5
79D
  8
0
  6
CONTINUOUS
 62
     7
 10
151.3045060823
 20
15.183179052
 30
0.0
  0
VERTEX
  5
79E
  8
0
  6
CONTINUOUS
 62
     7
 10
151.7376366446
 20
16.6935383989
 30
0.0
  0
SEQEND
  5
805
  8
0
  6
CONTINUOUS
 62
     7
  0
POLYLINE
  5
28F
  8
0
  6
CONTINUOUS
 62
     7
 66
     1
 10
0.0
 20
0.0
 30
0.0
  0
VERTEX
  5
79F
  8
0
  6
CONTINUOUS
 62
     7
 10
149.7070092151
 20
-37.9775688337
 30
0.0
  0
VERTEX
  5
7A0
  8
0
  6
CONTINUOUS
 62
     7
 10
149.7070092151
 20
-37.9522428201
 30
0.0
  0
VERTEX
  5
7A1
  8
0
  6
CONTINUOUS
 62
     7
 10
149.7071790883
 20
-35.5392322229
 30
0.0
  0
VERTEX
  5
7A2
  8
0
  6
CONTINUOUS
 62
     7
 10
149.7076440046
 20
-33.1507668184
 30
0.0
  0
VERTEX
  5
7A3
  8
0
  6
CONTINUOUS
 62
     7
 10
149.7080299446
 20
-30.784849851
 30
0.0
  0
VERTEX
  5
7A4
  8
0
  6
CONTINUOUS
 62
     7
 10
149.7079256365
 20
-28.430025308
 30
0.0
  0
VERTEX
  5
7A5
  8
0
  6
CONTINUOUS
 62
     7
 10
149.7070807407
 20
-26.3218865083
 30
0.0
  0
SEQEND
  5
804
  8
0
  6
CONTINUOUS
 62
     7
  0
ARC
  5
290
  8
0
  6
CONTINUOUS
 62
     7
 10
218.2626585955
 20
-38.1151526427
 30
0.0
 40
6.645898806713841
 50
292.5444656896
 51
1.178053328
  0
ARC
  5
291
  8
0
  6
CONTINUOUS
 62
     7
 10
156.3545379175
 20
-38.1111751475
 30
0.0
 40
6.648871219741885
 50
178.84858754
 51
250.6417888062
  0
LINE
  5
292
  8
0
  6
CONTINUOUS
 62
     7
 10
224.5070803354
 20
8.6735769822
 30
0.0
 11
224.5101201722
 21
8.6474567367
 31
0.0
  0
POLYLINE
  5
293
  8
0
  6
CONTINUOUS
 62
     7
 66
     1
 10
0.0
 20
0.0
 30
0.0
  0
VERTEX
  5
7A6
  8
0
  6
CONTINUOUS
 62
     7
 10
223.7082290838
 20
13.6671825959
 30
0.0
  0
VERTEX
  5
7A7
  8
0
  6
CONTINUOUS
 62
     7
 10
224.1604137609
 20
11.1813172413
 30
0.0
  0
VERTEX
  5
7A8
  8
0
  6
CONTINUOUS
 62
     7
 10
224.5070803354
 20
8.6735769822
 30
0.0
  0
SEQEND
  5
803
  8
0
  6
CONTINUOUS
 62
     7
  0
POLYLINE
  5
294
  8
0
  6
CONTINUOUS
 62
     7
 66
     1
 10
0.0
 20
0.0
 30
0.0
  0
VERTEX
  5
7A9
  8
0
  6
CONTINUOUS
 62
     7
 10
150.1070800612
 20
8.6735769822
 30
0.0
  0
VERTEX
  5
7AA
  8
0
  6
CONTINUOUS
 62
     7
 10
150.4530105183
 20
11.176718743
 30
0.0
  0
VERTEX
  5
7AB
  8
0
  6
CONTINUOUS
 62
     7
 10
150.9059313128
 20
13.6671825959
 30
0.0
  0
SEQEND
  5
802
  8
0
  6
CONTINUOUS
 62
     7
  0
LINE
  5
295
  8
0
  6
CONTINUOUS
 62
     7
 10
150.1040402243
 20
8.6474567367
 30
0.0
 11
150.1070800612
 21
8.6735769822
 31
0.0
  0
LINE
  5
296
  8
0
  6
CONTINUOUS
 62
     7
 10
224.8782563398
 20
3.6402418925
 30
0.0
 11
224.907081146
 21
1.7895504547
 31
0.0
  0
LINE
  5
297
  8
0
  6
CONTINUOUS
 62
     7
 10
149.7070807407
 20
1.7895504547
 30
0.0
 11
149.7359025667
 21
3.6402418925
 31
0.0
  0
ARC
  5
298
  8
0
  6
CONTINUOUS
 62
     7
 10
39.1848428623
 20
14.8824933572
 30
0.0
 40
7.349220536149714
 50
115.9018429008
 51
164.5640797475
  0
ARC
  5
299
  8
0
  6
CONTINUOUS
 62
     7
 10
67.3070791552
 20
-44.8068208834
 30
0.0
 40
73.33114162064592
 50
64.7052184116
 51
115.2947815884
  0
ARC
  5
29A
  8
0
  6
CONTINUOUS
 62
     7
 10
95.4453535041
 20
14.8958378755
 30
0.0
 40
7.330215684938203
 50
15.3687394777
 51
64.1653595472
  0
POLYLINE
  5
29B
  8
0
  6
CONTINUOUS
 62
     7
 66
     1
 10
0.0
 20
0.0
 30
0.0
  0
VERTEX
  5
7AC
  8
0
  6
CONTINUOUS
 62
     7
 10
102.5134238789
 20
16.8385594798
 30
0.0
  0
VERTEX
  5
7AD
  8
0
  6
CONTINUOUS
 62
     7
 10
103.4304905126
 20
13.546955557
 30
0.0
  0
VERTEX
  5
7AE
  8
0
  6
CONTINUOUS
 62
     7
 10
104.0316644499
 20
10.2706804587
 30
0.0
  0
VERTEX
  5
7AF
  8
0
  6
CONTINUOUS
 62
     7
 10
104.3891865203
 20
6.978540094
 30
0.0
  0
VERTEX
  5
7B0
  8
0
  6
CONTINUOUS
 62
     7
 10
104.6039450357
 20
3.6833569123
 30
0.0
  0
VERTEX
  5
7B1
  8
0
  6
CONTINUOUS
 62
     7
 10
104.6856913159
 20
0.3851666762
 30
0.0
  0
VERTEX
  5
7B2
  8
0
  6
CONTINUOUS
 62
     7
 10
104.6825263092
 20
-2.915655105
 30
0.0
  0
VERTEX
  5
7B3
  8
0
  6
CONTINUOUS
 62
     7
 10
104.6554255674
 20
-6.2159225629
 30
0.0
  0
VERTEX
  5
7B4
  8
0
  6
CONTINUOUS
 62
     7
 10
104.6532678792
 20
-9.5134392665
 30
0.0
  0
VERTEX
  5
7B5
  8
0
  6
CONTINUOUS
 62
     7
 10
104.7002050469
 20
-15.833587973
 30
0.0
  0
VERTEX
  5
7B6
  8
0
  6
CONTINUOUS
 62
     7
 10
104.7342944333
 20
-22.1543178247
 30
0.0
  0
VERTEX
  5
7B7
  8
0
  6
CONTINUOUS
 62
     7
 10
104.7432977149
 20
-28.4075483965
 30
0.0
  0
VERTEX
  5
7B8
  8
0
  6
CONTINUOUS
 62
     7
 10
104.7451141665
 20
-30.252270429
 30
0.0
  0
VERTEX
  5
7B9
  8
0
  6
CONTINUOUS
 62
     7
 10
104.7496038864
 20
-32.1197971986
 30
0.0
  0
VERTEX
  5
7BA
  8
0
  6
CONTINUOUS
 62
     7
 10
104.7587993929
 20
-34.0151593374
 30
0.0
  0
VERTEX
  5
7BB
  8
0
  6
CONTINUOUS
 62
     7
 10
104.7747883389
 20
-35.9427258657
 30
0.0
  0
VERTEX
  5
7BC
  8
0
  6
CONTINUOUS
 62
     7
 10
104.7988835165
 20
-37.9113003896
 30
0.0
  0
SEQEND
  5
801
  8
0
  6
CONTINUOUS
 62
     7
  0
ARC
  5
29C
  8
0
  6
CONTINUOUS
 62
     7
 10
98.0787390183
 20
-38.1046539125
 30
0.0
 40
6.722925528500794
 50
275.3899117811
 51
1.648072493
  0
ARC
  5
29D
  8
0
  6
CONTINUOUS
 62
     7
 10
67.3070806453
 20
295.1330805503
 30
0.0
 40
341.3783810085711
 50
264.7219387681
 51
275.2780612319
  0
ARC
  5
29E
  8
0
  6
CONTINUOUS
 62
     7
 10
36.5254221367
 20
-38.1134968294
 30
0.0
 40
6.713188569510088
 50
178.2740310627
 51
264.6879707465
  0
POLYLINE
  5
29F
  8
0
  6
CONTINUOUS
 62
     7
 66
     1
 10
0.0
 20
0.0
 30
0.0
  0
VERTEX
  5
7BD
  8
0
  6
CONTINUOUS
 62
     7
 10
29.8152792642
 20
-37.9113003896
 30
0.0
  0
VERTEX
  5
7BE
  8
0
  6
CONTINUOUS
 62
     7
 10
29.8435974309
 20
-35.5142757581
 30
0.0
  0
VERTEX
  5
7BF
  8
0
  6
CONTINUOUS
 62
     7
 10
29.8601317594
 20
-33.1745848344
 30
0.0
  0
VERTEX
  5
7C0
  8
0
  6
CONTINUOUS
 62
     7
 10
29.8679280469
 20
-30.8801815199
 30
0.0
  0
VERTEX
  5
7C1
  8
0
  6
CONTINUOUS
 62
     7
 10
29.8707235048
 20
-28.622309892
 30
0.0
  0
VERTEX
  5
7C2
  8
0
  6
CONTINUOUS
 62
     7
 10
29.8721242139
 20
-26.3917789148
 30
0.0
  0
VERTEX
  5
7C3
  8
0
  6
CONTINUOUS
 62
     7
 10
29.8750329206
 20
-24.1643414186
 30
0.0
  0
VERTEX
  5
7C4
  8
0
  6
CONTINUOUS
 62
     7
 10
29.8805761525
 20
-21.9234392332
 30
0.0
  0
VERTEX
  5
7C5
  8
0
  6
CONTINUOUS
 62
     7
 10
29.9149024675
 20
-15.7173797773
 30
0.0
  0
VERTEX
  5
7C6
  8
0
  6
CONTINUOUS
 62
     7
 10
29.9608934114
 20
-9.5134392665
 30
0.0
  0
VERTEX
  5
7C7
  8
0
  6
CONTINUOUS
 62
     7
 10
29.9587357232
 20
-6.2159225629
 30
0.0
  0
VERTEX
  5
7C8
  8
0
  6
CONTINUOUS
 62
     7
 10
29.9316334913
 20
-2.915655105
 30
0.0
  0
VERTEX
  5
7C9
  8
0
  6
CONTINUOUS
 62
     7
 10
29.9284684846
 20
0.3851666762
 30
0.0
  0
VERTEX
  5
7CA
  8
0
  6
CONTINUOUS
 62
     7
 10
30.0102162549
 20
3.6833569123
 30
0.0
  0
VERTEX
  5
7CB
  8
0
  6
CONTINUOUS
 62
     7
 10
30.2249717901
 20
6.978540094
 30
0.0
  0
VERTEX
  5
7CC
  8
0
  6
CONTINUOUS
 62
     7
 10
30.5824983308
 20
10.2706804587
 30
0.0
  0
VERTEX
  5
7CD
  8
0
  6
CONTINUOUS
 62
     7
 10
31.183670778
 20
13.546955557
 30
0.0
  0
VERTEX
  5
7CE
  8
0
  6
CONTINUOUS
 62
     7
 10
32.1007359216
 20
16.8385594798
 30
0.0
  0
SEQEND
  5
800
  8
0
  6
CONTINUOUS
 62
     7
  0
ARC
  5
2A0
  8
0
  6
CONTINUOUS
 62
     7
 10
67.3070791552
 20
-44.7945411614
 30
0.0
 40
73.33969775843525
 50
64.3650289101
 51
115.6349710899
  0
ARC
  5
2A1
  8
0
  6
CONTINUOUS
 62
     7
 10
95.7808727066
 20
14.7197994139
 30
0.0
 40
7.365046171547637
 50
15.544535697
 51
63.7662063664
  0
ARC
  5
2A2
  8
0
  6
CONTINUOUS
 62
     7
 10
38.8154464201
 20
14.7345886085
 30
0.0
 40
7.343900851565546
 50
116.1599543402
 51
164.5293254441
  0
POLYLINE
  5
2A3
  8
0
  6
CONTINUOUS
 62
     7
 66
     1
 10
0.0
 20
0.0
 30
0.0
  0
VERTEX
  5
7CF
  8
0
  6
CONTINUOUS
 62
     7
 10
102.8765234539
 20
16.6935383989
 30
0.0
  0
VERTEX
  5
7D0
  8
0
  6
CONTINUOUS
 62
     7
 10
103.3104407976
 20
15.1803835942
 30
0.0
  0
VERTEX
  5
7D1
  8
0
  6
CONTINUOUS
 62
     7
 10
103.7084135601
 20
13.6672258092
 30
0.0
  0
SEQEND
  5
7FF
  8
0
  6
CONTINUOUS
 62
     7
  0
ARC
  5
2A4
  8
0
  6
CONTINUOUS
 62
     7
 10
45.0639414368
 20
1.7249668302
 30
0.0
 40
59.84788180095804
 50
6.6421578114
 51
11.510226316
  0
POLYLINE
  5
2A5
  8
0
  6
CONTINUOUS
 62
     7
 66
     1
 10
0.0
 20
0.0
 30
0.0
  0
VERTEX
  5
7D2
  8
0
  6
CONTINUOUS
 62
     7
 10
104.5098337719
 20
8.6474239541
 30
0.0
  0
VERTEX
  5
7D3
  8
0
  6
CONTINUOUS
 62
     7
 10
104.7340992281
 20
6.1440035416
 30
0.0
  0
VERTEX
  5
7D4
  8
0
  6
CONTINUOUS
 62
     7
 10
104.8786047289
 20
3.6402567936
 30
0.0
  0
SEQEND
  5
7FE
  8
0
  6
CONTINUOUS
 62
     7
  0
LINE
  5
2A6
  8
0
  6
CONTINUOUS
 62
     7
 10
104.9070793578
 20
1.7873868061
 30
0.0
 11
104.8782575319
 21
3.6402418925
 31
0.0
  0
LINE
  5
2A7
  8
0
  6
CONTINUOUS
 62
     7
 10
104.9070793578
 20
-6.3241705583
 30
0.0
 11
104.9070793578
 21
1.7873868061
 31
0.0
  0
POLYLINE
  5
2A8
  8
0
  6
CONTINUOUS
 62
     7
 66
     1
 10
0.0
 20
0.0
 30
0.0
  0
VERTEX
  5
7D5
  8
0
  6
CONTINUOUS
 62
     7
 10
104.9070793578
 20
-6.3241526769
 30
0.0
  0
VERTEX
  5
7D6
  8
0
  6
CONTINUOUS
 62
     7
 10
104.8923704216
 20
-9.4960168289
 30
0.0
  0
VERTEX
  5
7D7
  8
0
  6
CONTINUOUS
 62
     7
 10
104.9070838282
 20
-16.3240418123
 30
0.0
  0
SEQEND
  5
7FD
  8
0
  6
CONTINUOUS
 62
     7
  0
POLYLINE
  5
2A9
  8
0
  6
CONTINUOUS
 62
     7
 66
     1
 10
0.0
 20
0.0
 30
0.0
  0
VERTEX
  5
7D8
  8
0
  6
CONTINUOUS
 62
     7
 10
104.9071508834
 20
-37.9785165475
 30
0.0
  0
VERTEX
  5
7D9
  8
0
  6
CONTINUOUS
 62
     7
 10
104.9071493933
 20
-37.6705751108
 30
0.0
  0
VERTEX
  5
7DA
  8
0
  6
CONTINUOUS
 62
     7
 10
104.9069348166
 20
-35.2587268041
 30
0.0
  0
VERTEX
  5
7DB
  8
0
  6
CONTINUOUS
 62
     7
 10
104.9064579794
 20
-32.8741714643
 30
0.0
  0
VERTEX
  5
7DC
  8
0
  6
CONTINUOUS
 62
     7
 10
104.9061078021
 20
-30.5108234571
 30
0.0
  0
VERTEX
  5
7DD
  8
0
  6
CONTINUOUS
 62
     7
 10
104.9074265549
 20
-25.8019730733
 30
0.0
  0
VERTEX
  5
7DE
  8
0
  6
CONTINUOUS
 62
     7
 10
104.9109015057
 20
-21.0680708574
 30
0.0
  0
VERTEX
  5
7DF
  8
0
  6
CONTINUOUS
 62
     7
 10
104.9070793578
 20
-16.3240418123
 30
0.0
  0
SEQEND
  5
7FC
  8
0
  6
CONTINUOUS
 62
     7
  0
LINE
  5
2AA
  8
0
  6
CONTINUOUS
 62
     7
 10
29.7070789525
 20
-16.3240418123
 30
0.0
 11
29.7070789525
 21
-26.3218865083
 31
0.0
  0
POLYLINE
  5
2AB
  8
0
  6
CONTINUOUS
 62
     7
 66
     1
 10
0.0
 20
0.0
 30
0.0
  0
VERTEX
  5
7E0
  8
0
  6
CONTINUOUS
 62
     7
 10
29.7070789525
 20
-16.3240418123
 30
0.0
  0
VERTEX
  5
7E1
  8
0
  6
CONTINUOUS
 62
     7
 10
29.7217893789
 20
-9.4960168289
 30
0.0
  0
VERTEX
  5
7E2
  8
0
  6
CONTINUOUS
 62
     7
 10
29.7070789525
 20
-6.3241526769
 30
0.0
  0
SEQEND
  5
7FB
  8
0
  6
CONTINUOUS
 62
     7
  0
LINE
  5
2AC
  8
0
  6
CONTINUOUS
 62
     7
 10
29.7070789525
 20
1.7873868061
 30
0.0
 11
29.7070789525
 21
-6.3241705583
 31
0.0
  0
LINE
  5
2AD
  8
0
  6
CONTINUOUS
 62
     7
 10
29.7359037587
 20
3.6402418925
 30
0.0
 11
29.7070789525
 21
1.7873868061
 31
0.0
  0
POLYLINE
  5
2AE
  8
0
  6
CONTINUOUS
 62
     7
 66
     1
 10
0.0
 20
0.0
 30
0.0
  0
VERTEX
  5
7E3
  8
0
  6
CONTINUOUS
 62
     7
 10
29.7355580518
 20
3.6402567936
 30
0.0
  0
VERTEX
  5
7E4
  8
0
  6
CONTINUOUS
 62
     7
 10
29.8800635526
 20
6.1440035416
 30
0.0
  0
VERTEX
  5
7E5
  8
0
  6
CONTINUOUS
 62
     7
 10
30.1043260286
 20
8.6474239541
 30
0.0
  0
SEQEND
  5
7FA
  8
0
  6
CONTINUOUS
 62
     7
  0
ARC
  5
2AF
  8
0
  6
CONTINUOUS
 62
     7
 10
89.507094098
 20
1.7318558406
 30
0.0
 40
59.80425017893852
 50
168.4879968058
 51
173.3596190667
  0
POLYLINE
  5
2B0
  8
0
  6
CONTINUOUS
 62
     7
 66
     1
 10
0.0
 20
0.0
 30
0.0
  0
VERTEX
  5
7E6
  8
0
  6
CONTINUOUS
 62
     7
 10
30.9070813844
 20
13.6728152348
 30
0.0
  0
VERTEX
  5
7E7
  8
0
  6
CONTINUOUS
 62
     7
 10
31.3045072744
 20
15.183179052
 30
0.0
  0
VERTEX
  5
7E8
  8
0
  6
CONTINUOUS
 62
     7
 10
31.7376363466
 20
16.6935383989
 30
0.0
  0
SEQEND
  5
7F9
  8
0
  6
CONTINUOUS
 62
     7
  0
POLYLINE
  5
2B1
  8
0
  6
CONTINUOUS
 62
     7
 66
     1
 10
0.0
 20
0.0
 30
0.0
  0
VERTEX
  5
7E9
  8
0
  6
CONTINUOUS
 62
     7
 10
29.707007427
 20
-37.9775688337
 30
0.0
  0
VERTEX
  5
7EA
  8
0
  6
CONTINUOUS
 62
     7
 10
29.707007427
 20
-37.9522428201
 30
0.0
  0
VERTEX
  5
7EB
  8
0
  6
CONTINUOUS
 62
     7
 10
29.7071802804
 20
-35.5392322229
 30
0.0
  0
VERTEX
  5
7EC
  8
0
  6
CONTINUOUS
 62
     7
 10
29.7076451967
 20
-33.1507668184
 30
0.0
  0
VERTEX
  5
7ED
  8
0
  6
CONTINUOUS
 62
     7
 10
29.7080326269
 20
-30.784849851
 30
0.0
  0
VERTEX
  5
7EE
  8
0
  6
CONTINUOUS
 62
     7
 10
29.7079253385
 20
-28.430025308
 30
0.0
  0
VERTEX
  5
7EF
  8
0
  6
CONTINUOUS
 62
     7
 10
29.7070789525
 20
-26.3218865083
 30
0.0
  0
SEQEND
  5
7F8
  8
0
  6
CONTINUOUS
 62
     7
  0
ARC
  5
2B2
  8
0
  6
CONTINUOUS
 62
     7
 10
98.2626673396
 20
-38.1151595187
 30
0.0
 40
6.645888418137666
 50
292.5444045557
 51
1.1781144618
  0
ARC
  5
2B3
  8
0
  6
CONTINUOUS
 62
     7
 10
36.3545418222
 20
-38.1111701737
 30
0.0
 40
6.648876811488253
 50
178.848631378
 51
250.6417809594
  0
LINE
  5
2B4
  8
0
  6
CONTINUOUS
 62
     7
 10
104.5070800373
 20
8.6735769822
 30
0.0
 11
104.5101198742
 21
8.6474567367
 31
0.0
  0
POLYLINE
  5
2B5
  8
0
  6
CONTINUOUS
 62
     7
 66
     1
 10
0.0
 20
0.0
 30
0.0
  0
VERTEX
  5
7F0
  8
0
  6
CONTINUOUS
 62
     7
 10
103.7082287857
 20
13.6671825959
 30
0.0
  0
VERTEX
  5
7F1
  8
0
  6
CONTINUOUS
 62
     7
 10
104.160414953
 20
11.1813172413
 30
0.0
  0
VERTEX
  5
7F2
  8
0
  6
CONTINUOUS
 62
     7
 10
104.5070800373
 20
8.6735769822
 30
0.0
  0
SEQEND
  5
7F7
  8
0
  6
CONTINUOUS
 62
     7
  0
POLYLINE
  5
2B6
  8
0
  6
CONTINUOUS
 62
     7
 66
     1
 10
0.0
 20
0.0
 30
0.0
  0
VERTEX
  5
7F3
  8
0
  6
CONTINUOUS
 62
     7
 10
30.1070797632
 20
8.6735769822
 30
0.0
  0
VERTEX
  5
7F4
  8
0
  6
CONTINUOUS
 62
     7
 10
30.45300724
 20
11.176718743
 30
0.0
  0
VERTEX
  5
7F5
  8
0
  6
CONTINUOUS
 62
     7
 10
30.9059310148
 20
13.6671825959
 30
0.0
  0
SEQEND
  5
7F6
  8
0
  6
CONTINUOUS
 62
     7
  0
LINE
  5
2B7
  8
0
  6
CONTINUOUS
 62
     7
 10
30.1040399263
 20
8.6474567367
 30
0.0
 11
30.1070797632
 21
8.6735769822
 31
0.0
  0
LINE
  5
2B8
  8
0
  6
CONTINUOUS
 62
     7
 10
104.8782575319
 20
3.6402418925
 30
0.0
 11
104.9070793578
 21
1.7895504547
 31
0.0
  0
LINE
  5
2B9
  8
0
  6
CONTINUOUS
 62
     7
 10
29.7070789525
 20
1.7895504547
 30
0.0
 11
29.7359037587
 21
3.6402418925
 31
0.0
  0
LINE
  5
2BA
  8
0
  6
CONTINUOUS
 62
     7
 10
30.4814028928
 20
27.4819541438
 30
0.0
 11
30.4814028928
 21
27.4251348986
 31
0.0
  0
LINE
  5
2BB
  8
0
  6
CONTINUOUS
 62
     7
 10
30.4814028928
 20
27.4251348986
 30
0.0
 11
30.7029235551
 21
27.4098969711
 31
0.0
  0
LINE
  5
2BC
  8
0
  6
CONTINUOUS
 62
     7
 10
29.7036576459
 20
-33.7180480646
 30
0.0
 11
29.60708024
 21
-33.7180480646
 31
0.0
  0
LINE
  5
2BD
  8
0
  6
CONTINUOUS
 62
     7
 10
29.60708024
 20
-33.7180480646
 30
0.0
 11
29.60708024
 21
27.4819541438
 31
0.0
  0
LINE
  5
2BE
  8
0
  6
CONTINUOUS
 62
     7
 10
29.60708024
 20
27.4819541438
 30
0.0
 11
30.4814028928
 21
27.4819541438
 31
0.0
  0
ARC
  5
2BF
  8
0
  6
CONTINUOUS
 62
     7
 10
31.2710393542
 20
25.3703702751
 30
0.0
 40
1.996145972237514
 50
359.8798642969
 51
86.0293776011
  0
LINE
  5
2C0
  8
0
  6
CONTINUOUS
 62
     7
 10
33.2671809385
 20
25.366184832
 30
0.0
 11
33.2671809385
 21
20.9636635794
 31
0.0
  0
ARC
  5
2C1
  8
0
  6
CONTINUOUS
 62
     7
 10
34.4689735142
 20
20.9628802272
 30
0.0
 40
1.20179283104725
 50
179.9626534821
 51
232.2494355137
  0
LINE
  5
2C2
  8
0
  6
CONTINUOUS
 62
     7
 10
31.4092624376
 20
27.3617248697
 30
0.0
 11
30.7029235551
 21
27.4098969711
 31
0.0
  0
LINE
  5
2C3
  8
0
  6
CONTINUOUS
 62
     7
 10
29.60708024
 20
27.4819541438
 30
0.0
 11
29.60708024
 21
40.2020707442
 31
0.0
  0
LINE
  5
2C4
  8
0
  6
CONTINUOUS
 62
     7
 10
30.4070818612
 20
40.2020707442
 30
0.0
 11
30.4070818612
 21
27.4819541438
 31
0.0
  0
LINE
  5
2C5
  8
0
  6
CONTINUOUS
 62
     7
 10
29.60708024
 20
41.3819543733
 30
0.0
 11
30.4070818612
 21
41.3819543733
 31
0.0
  0
LINE
  5
2C6
  8
0
  6
CONTINUOUS
 62
     7
 10
29.60708024
 20
40.2020707442
 30
0.0
 11
29.60708024
 21
41.3819543733
 31
0.0
  0
LINE
  5
2C7
  8
0
  6
CONTINUOUS
 62
     7
 10
30.4070818612
 20
41.3819543733
 30
0.0
 11
30.4070818612
 21
40.2020707442
 31
0.0
  0
LINE
  5
2C8
  8
0
  6
CONTINUOUS
 62
     7
 10
34.8070788572
 20
37.7541791363
 30
0.0
 11
34.8070788572
 21
37.3819540901
 31
0.0
  0
LINE
  5
2C9
  8
0
  6
CONTINUOUS
 62
     7
 10
32.841824312
 20
38.381954254
 30
0.0
 11
30.4070818612
 21
38.381954254
 31
0.0
  0
LINE
  5
2CA
  8
0
  6
CONTINUOUS
 62
     7
 10
29.60708024
 20
38.381954254
 30
0.0
 11
24.8070824334
 21
38.381954254
 31
0.0
  0
LINE
  5
2CB
  8
0
  6
CONTINUOUS
 62
     7
 10
24.8070824334
 20
38.381954254
 30
0.0
 11
24.8070824334
 21
37.3819540901
 31
0.0
  0
LINE
  5
2CC
  8
0
  6
CONTINUOUS
 62
     7
 10
24.8070824334
 20
37.3819540901
 30
0.0
 11
24.8070824334
 21
28.1819540723
 31
0.0
  0
LINE
  5
2CD
  8
0
  6
CONTINUOUS
 62
     7
 10
34.8070788572
 20
37.3819540901
 30
0.0
 11
34.8070788572
 21
28.1819540723
 31
0.0
  0
LINE
  5
2CE
  8
0
  6
CONTINUOUS
 62
     7
 10
34.8070788572
 20
27.1819539083
 30
0.0
 11
32.1109700391
 21
27.1819539083
 31
0.0
  0
LINE
  5
2CF
  8
0
  6
CONTINUOUS
 62
     7
 10
34.8070788572
 20
28.1819540723
 30
0.0
 11
34.8070788572
 21
27.1819539083
 31
0.0
  0
LINE
  5
2D0
  8
0
  6
CONTINUOUS
 62
     7
 10
29.60708024
 20
27.1819539083
 30
0.0
 11
24.8070824334
 21
27.1819539083
 31
0.0
  0
LINE
  5
2D1
  8
0
  6
CONTINUOUS
 62
     7
 10
24.8070824334
 20
28.1819540723
 30
0.0
 11
24.8070824334
 21
27.1819539083
 31
0.0
  0
LINE
  5
2D2
  8
0
  6
CONTINUOUS
 62
     7
 10
150.481404681
 20
27.4819541438
 30
0.0
 11
150.481404681
 21
27.4251348986
 31
0.0
  0
LINE
  5
2D3
  8
0
  6
CONTINUOUS
 62
     7
 10
149.7036579439
 20
-33.7180480646
 30
0.0
 11
149.607080538
 21
-33.7180480646
 31
0.0
  0
LINE
  5
2D4
  8
0
  6
CONTINUOUS
 62
     7
 10
149.607080538
 20
-33.7180480646
 30
0.0
 11
149.607080538
 21
27.4819541438
 31
0.0
  0
LINE
  5
2D5
  8
0
  6
CONTINUOUS
 62
     7
 10
149.607080538
 20
27.4819541438
 30
0.0
 11
150.481404681
 21
27.4819541438
 31
0.0
  0
LINE
  5
2D6
  8
0
  6
CONTINUOUS
 62
     7
 10
150.481404681
 20
27.4251348986
 30
0.0
 11
150.7029253433
 21
27.4098969711
 31
0.0
  0
ARC
  5
2D7
  8
0
  6
CONTINUOUS
 62
     7
 10
151.2710402512
 20
25.3703691357
 30
0.0
 40
1.996146860999684
 50
359.879897053
 51
86.0294823533
  0
LINE
  5
2D8
  8
0
  6
CONTINUOUS
 62
     7
 10
153.2671827266
 20
25.366184832
 30
0.0
 11
153.2671827266
 21
20.9636635794
 31
0.0
  0
ARC
  5
2D9
  8
0
  6
CONTINUOUS
 62
     7
 10
154.4689753024
 20
20.9628802272
 30
0.0
 40
1.201792831047123
 50
179.9626534821
 51
232.2494355137
  0
LINE
  5
2DA
  8
0
  6
CONTINUOUS
 62
     7
 10
151.4092597554
 20
27.3617248697
 30
0.0
 11
150.7029253433
 21
27.4098969711
 31
0.0
  0
LINE
  5
2DB
  8
0
  6
CONTINUOUS
 62
     7
 10
149.607080538
 20
27.4819541438
 30
0.0
 11
149.607080538
 21
40.2020707442
 31
0.0
  0
LINE
  5
2DC
  8
0
  6
CONTINUOUS
 62
     7
 10
150.4070806691
 20
40.2020707442
 30
0.0
 11
150.4070806691
 21
27.4819541438
 31
0.0
  0
LINE
  5
2DD
  8
0
  6
CONTINUOUS
 62
     7
 10
149.607080538
 20
41.3819543733
 30
0.0
 11
150.4070806691
 21
41.3819543733
 31
0.0
  0
LINE
  5
2DE
  8
0
  6
CONTINUOUS
 62
     7
 10
149.607080538
 20
40.2020707442
 30
0.0
 11
149.607080538
 21
41.3819543733
 31
0.0
  0
LINE
  5
2DF
  8
0
  6
CONTINUOUS
 62
     7
 10
150.4070806691
 20
41.3819543733
 30
0.0
 11
150.4070806691
 21
40.2020707442
 31
0.0
  0
LINE
  5
2E0
  8
0
  6
CONTINUOUS
 62
     7
 10
149.607080538
 20
38.381954254
 30
0.0
 11
144.8070797512
 21
38.381954254
 31
0.0
  0
LINE
  5
2E1
  8
0
  6
CONTINUOUS
 62
     7
 10
144.8070797512
 20
38.381954254
 30
0.0
 11
144.8070797512
 21
37.3819540901
 31
0.0
  0
LINE
  5
2E2
  8
0
  6
CONTINUOUS
 62
     7
 10
154.8070806453
 20
37.7541791363
 30
0.0
 11
154.8070806453
 21
37.3819540901
 31
0.0
  0
LINE
  5
2E3
  8
0
  6
CONTINUOUS
 62
     7
 10
152.8418231199
 20
38.381954254
 30
0.0
 11
150.4070806691
 21
38.381954254
 31
0.0
  0
LINE
  5
2E4
  8
0
  6
CONTINUOUS
 62
     7
 10
154.8070806453
 20
37.3819540901
 30
0.0
 11
154.8070806453
 21
28.1819540723
 31
0.0
  0
LINE
  5
2E5
  8
0
  6
CONTINUOUS
 62
     7
 10
144.8070797512
 20
37.3819540901
 30
0.0
 11
144.8070797512
 21
28.1819540723
 31
0.0
  0
LINE
  5
2E6
  8
0
  6
CONTINUOUS
 62
     7
 10
149.607080538
 20
27.1819539083
 30
0.0
 11
144.8070797512
 21
27.1819539083
 31
0.0
  0
LINE
  5
2E7
  8
0
  6
CONTINUOUS
 62
     7
 10
144.8070797512
 20
28.1819540723
 30
0.0
 11
144.8070797512
 21
27.1819539083
 31
0.0
  0
LINE
  5
2E8
  8
0
  6
CONTINUOUS
 62
     7
 10
154.8070806453
 20
27.1819539083
 30
0.0
 11
152.1109703371
 21
27.1819539083
 31
0.0
  0
LINE
  5
2E9
  8
0
  6
CONTINUOUS
 62
     7
 10
154.8070806453
 20
28.1819540723
 30
0.0
 11
154.8070806453
 21
27.1819539083
 31
0.0
  0
LINE
  5
2EA
  8
0
  6
CONTINUOUS
 62
     7
 10
105.0070795605
 20
-33.7180480646
 30
0.0
 11
105.0070795605
 21
27.4819541438
 31
0.0
  0
LINE
  5
2EB
  8
0
  6
CONTINUOUS
 62
     7
 10
104.9105021546
 20
-33.7180480646
 30
0.0
 11
105.0070795605
 21
-33.7180480646
 31
0.0
  0
LINE
  5
2EC
  8
0
  6
CONTINUOUS
 62
     7
 10
104.1327554176
 20
27.4251348986
 30
0.0
 11
103.9112347553
 21
27.4098969711
 31
0.0
  0
LINE
  5
2ED
  8
0
  6
CONTINUOUS
 62
     7
 10
104.1327554176
 20
27.4819541438
 30
0.0
 11
104.1327554176
 21
27.4251348986
 31
0.0
  0
LINE
  5
2EE
  8
0
  6
CONTINUOUS
 62
     7
 10
105.0070795605
 20
27.4819541438
 30
0.0
 11
104.1327554176
 21
27.4819541438
 31
0.0
  0
ARC
  5
2EF
  8
0
  6
CONTINUOUS
 62
     7
 10
100.1451428219
 20
20.9628908259
 30
0.0
 40
1.20183479848942
 50
308.2419419619
 51
0.0368399334
  0
LINE
  5
2F0
  8
0
  6
CONTINUOUS
 62
     7
 10
101.3469773719
 20
25.366184832
 30
0.0
 11
101.3469773719
 21
20.9636635794
 31
0.0
  0
ARC
  5
2F1
  8
0
  6
CONTINUOUS
 62
     7
 10
103.3431198474
 20
25.3703691357
 30
0.0
 40
1.996146860999659
 50
93.9705176467
 51
180.120102947
  0
LINE
  5
2F2
  8
0
  6
CONTINUOUS
 62
     7
 10
103.2049003432
 20
27.3617248697
 30
0.0
 11
103.9112347553
 21
27.4098969711
 31
0.0
  0
LINE
  5
2F3
  8
0
  6
CONTINUOUS
 62
     7
 10
105.0070795605
 20
27.4819541438
 30
0.0
 11
105.0070795605
 21
40.2020707442
 31
0.0
  0
LINE
  5
2F4
  8
0
  6
CONTINUOUS
 62
     7
 10
104.2070794294
 20
40.2020707442
 30
0.0
 11
104.2070794294
 21
27.4819541438
 31
0.0
  0
LINE
  5
2F5
  8
0
  6
CONTINUOUS
 62
     7
 10
105.0070795605
 20
41.3819543733
 30
0.0
 11
104.2070794294
 21
41.3819543733
 31
0.0
  0
LINE
  5
2F6
  8
0
  6
CONTINUOUS
 62
     7
 10
105.0070795605
 20
40.2020707442
 30
0.0
 11
105.0070795605
 21
41.3819543733
 31
0.0
  0
LINE
  5
2F7
  8
0
  6
CONTINUOUS
 62
     7
 10
104.2070794294
 20
41.3819543733
 30
0.0
 11
104.2070794294
 21
40.2020707442
 31
0.0
  0
LINE
  5
2F8
  8
0
  6
CONTINUOUS
 62
     7
 10
105.0070795605
 20
38.381954254
 30
0.0
 11
109.8070803473
 21
38.381954254
 31
0.0
  0
LINE
  5
2F9
  8
0
  6
CONTINUOUS
 62
     7
 10
109.8070803473
 20
38.381954254
 30
0.0
 11
109.8070803473
 21
37.3819540901
 31
0.0
  0
LINE
  5
2FA
  8
0
  6
CONTINUOUS
 62
     7
 10
99.8070794532
 20
37.7483475669
 30
0.0
 11
99.8070794532
 21
37.3819540901
 31
0.0
  0
LINE
  5
2FB
  8
0
  6
CONTINUOUS
 62
     7
 10
101.7723459194
 20
38.381954254
 30
0.0
 11
104.2070794294
 21
38.381954254
 31
0.0
  0
LINE
  5
2FC
  8
0
  6
CONTINUOUS
 62
     7
 10
99.8070794532
 20
37.3819540901
 30
0.0
 11
99.8070794532
 21
28.1819540723
 31
0.0
  0
LINE
  5
2FD
  8
0
  6
CONTINUOUS
 62
     7
 10
109.8070803473
 20
37.3819540901
 30
0.0
 11
109.8070803473
 21
28.1819540723
 31
0.0
  0
LINE
  5
2FE
  8
0
  6
CONTINUOUS
 62
     7
 10
105.0070795605
 20
27.1819539083
 30
0.0
 11
109.8070803473
 21
27.1819539083
 31
0.0
  0
LINE
  5
2FF
  8
0
  6
CONTINUOUS
 62
     7
 10
109.8070803473
 20
28.1819540723
 30
0.0
 11
109.8070803473
 21
27.1819539083
 31
0.0
  0
LINE
  5
300
  8
0
  6
CONTINUOUS
 62
     7
 10
99.8070794532
 20
27.1819539083
 30
0.0
 11
102.5031897614
 21
27.1819539083
 31
0.0
  0
LINE
  5
301
  8
0
  6
CONTINUOUS
 62
     7
 10
99.8070794532
 20
28.1819540723
 30
0.0
 11
99.8070794532
 21
27.1819539083
 31
0.0
  0
LINE
  5
302
  8
0
  6
CONTINUOUS
 62
     7
 10
225.0070798585
 20
-33.7180480646
 30
0.0
 11
225.0070798585
 21
27.4819541438
 31
0.0
  0
LINE
  5
303
  8
0
  6
CONTINUOUS
 62
     7
 10
224.9105024526
 20
-33.7180480646
 30
0.0
 11
225.0070798585
 21
-33.7180480646
 31
0.0
  0
LINE
  5
304
  8
0
  6
CONTINUOUS
 62
     7
 10
224.1327572057
 20
27.4251348986
 30
0.0
 11
223.9112365434
 21
27.4098969711
 31
0.0
  0
LINE
  5
305
  8
0
  6
CONTINUOUS
 62
     7
 10
224.1327572057
 20
27.4819541438
 30
0.0
 11
224.1327572057
 21
27.4251348986
 31
0.0
  0
LINE
  5
306
  8
0
  6
CONTINUOUS
 62
     7
 10
225.0070798585
 20
27.4819541438
 30
0.0
 11
224.1327572057
 21
27.4819541438
 31
0.0
  0
ARC
  5
307
  8
0
  6
CONTINUOUS
 62
     7
 10
220.14514461
 20
20.9628908259
 30
0.0
 40
1.201834798489581
 50
308.241941962
 51
0.0368399334
  0
LINE
  5
308
  8
0
  6
CONTINUOUS
 62
     7
 10
221.3469791601
 20
25.366184832
 30
0.0
 11
221.3469791601
 21
20.9636635794
 31
0.0
  0
ARC
  5
309
  8
0
  6
CONTINUOUS
 62
     7
 10
223.3431207443
 20
25.3703702751
 30
0.0
 40
1.996145972237536
 50
93.9706223989
 51
180.1201357031
  0
LINE
  5
30A
  8
0
  6
CONTINUOUS
 62
     7
 10
223.204897661
 20
27.3617248697
 30
0.0
 11
223.9112365434
 21
27.4098969711
 31
0.0
  0
LINE
  5
30B
  8
0
  6
CONTINUOUS
 62
     7
 10
225.0070798585
 20
27.4819541438
 30
0.0
 11
225.0070798585
 21
40.2020707442
 31
0.0
  0
LINE
  5
30C
  8
0
  6
CONTINUOUS
 62
     7
 10
224.2070782373
 20
40.2020707442
 30
0.0
 11
224.2070782373
 21
27.4819541438
 31
0.0
  0
LINE
  5
30D
  8
0
  6
CONTINUOUS
 62
     7
 10
225.0070798585
 20
41.3819543733
 30
0.0
 11
224.2070782373
 21
41.3819543733
 31
0.0
  0
LINE
  5
30E
  8
0
  6
CONTINUOUS
 62
     7
 10
225.0070798585
 20
40.2020707442
 30
0.0
 11
225.0070798585
 21
41.3819543733
 31
0.0
  0
LINE
  5
30F
  8
0
  6
CONTINUOUS
 62
     7
 10
224.2070782373
 20
41.3819543733
 30
0.0
 11
224.2070782373
 21
40.2020707442
 31
0.0
  0
LINE
  5
310
  8
0
  6
CONTINUOUS
 62
     7
 10
225.0070798585
 20
38.381954254
 30
0.0
 11
229.8070776651
 21
38.381954254
 31
0.0
  0
LINE
  5
311
  8
0
  6
CONTINUOUS
 62
     7
 10
229.8070776651
 20
38.381954254
 30
0.0
 11
229.8070776651
 21
37.3819540901
 31
0.0
  0
LINE
  5
312
  8
0
  6
CONTINUOUS
 62
     7
 10
219.8070812414
 20
37.7483475669
 30
0.0
 11
219.8070812414
 21
37.3819540901
 31
0.0
  0
LINE
  5
313
  8
0
  6
CONTINUOUS
 62
     7
 10
221.7723477075
 20
38.381954254
 30
0.0
 11
224.2070782373
 21
38.381954254
 31
0.0
  0
LINE
  5
314
  8
0
  6
CONTINUOUS
 62
     7
 10
219.8070812414
 20
37.3819540901
 30
0.0
 11
219.8070812414
 21
28.1819540723
 31
0.0
  0
LINE
  5
315
  8
0
  6
CONTINUOUS
 62
     7
 10
229.8070776651
 20
37.3819540901
 30
0.0
 11
229.8070776651
 21
28.1819540723
 31
0.0
  0
LINE
  5
316
  8
0
  6
CONTINUOUS
 62
     7
 10
219.8070812414
 20
27.1819539083
 30
0.0
 11
222.5031900594
 21
27.1819539083
 31
0.0
  0
LINE
  5
317
  8
0
  6
CONTINUOUS
 62
     7
 10
219.8070812414
 20
28.1819540723
 30
0.0
 11
219.8070812414
 21
27.1819539083
 31
0.0
  0
LINE
  5
318
  8
0
  6
CONTINUOUS
 62
     7
 10
225.0070798585
 20
27.1819539083
 30
0.0
 11
229.8070776651
 21
27.1819539083
 31
0.0
  0
LINE
  5
319
  8
0
  6
CONTINUOUS
 62
     7
 10
229.8070776651
 20
28.1819540723
 30
0.0
 11
229.8070776651
 21
27.1819539083
 31
0.0
  0
ENDSEC
  0
EOF
