  0
SECTION
  2
HEADER
  9
$ACADVER
  1
AC1009
  9
$DWGCODEPAGE
  3
ansi_1252
  9
$INSBASE
 10
0.0
 20
0.0
 30
0.0
  9
$EXTMIN
 10
0.0
 20
0.0
 30
0.0
  9
$EXTMAX
 10
420.0
 20
297.0
 30
0.0
  9
$LIMMIN
 10
0.0
 20
0.0
  9
$LIMMAX
 10
420.0
 20
297.0
  9
$ORTHOMODE
 70
     0
  9
$REGENMODE
 70
     1
  9
$FILLMODE
 70
     1
  9
$QTEXTMODE
 70
     0
  9
$MIRRTEXT
 70
     1
  9
$DRAGMODE
 70
     2
  9
$LTSCALE
 40
1.0
  9
$OSMODE
 70
    37
  9
$ATTMODE
 70
     1
  9
$TEXTSIZE
 40
3.5
  9
$TRACEWID
 40
1.0
  9
$TEXTSTYLE
  7
STANDARD
  9
$CLAYER
  8
0
  9
$CELTYPE
  6
BYLAYER
  9
$CECOLOR
 62
   256
  9
$DIMSCALE
 40
1.0
  9
$DIMASZ
 40
4.0
  9
$DIMEXO
 40
0.0
  9
$DIMDLI
 40
3.75
  9
$DIMRND
 40
0.0
  9
$DIMDLE
 40
0.0
  9
$DIMEXE
 40
2.0
  9
$DIMTP
 40
0.0
  9
$DIMTM
 40
0.0
  9
$DIMTXT
 40
3.5
  9
$DIMCEN
 40
2.5
  9
$DIMTSZ
 40
0.0
  9
$DIMTOL
 70
     0
  9
$DIMLIM
 70
     0
  9
$DIMTIH
 70
     1
  9
$DIMTOH
 70
     1
  9
$DIMSE1
 70
     0
  9
$DIMSE2
 70
     0
  9
$DIMTAD
 70
     1
  9
$DIMZIN
 70
     0
  9
$DIMBLK
  1

  9
$DIMASO
 70
     1
  9
$DIMSHO
 70
     1
  9
$DIMPOST
  1

  9
$DIMAPOST
  1

  9
$DIMALT
 70
     0
  9
$DIMALTD
 70
     3
  9
$DIMALTF
 40
0.0393700787
  9
$DIMLFAC
 40
5.0
  9
$DIMTOFL
 70
     1
  9
$DIMTVP
 40
0.0
  9
$DIMTIX
 70
     0
  9
$DIMSOXD
 70
     0
  9
$DIMSAH
 70
     0
  9
$DIMBLK1
  1

  9
$DIMBLK2
  1

  9
$DIMSTYLE
  2
ISO-25
  9
$DIMCLRD
 70
     0
  9
$DIMCLRE
 70
     0
  9
$DIMCLRT
 70
     0
  9
$DIMTFAC
 40
1.0
  9
$DIMGAP
 40
1.524
  9
$LUNITS
 70
     2
  9
$LUPREC
 70
     2
  9
$SKETCHINC
 40
1.0
  9
$FILLETRAD
 40
10.0
  9
$AUNITS
 70
     0
  9
$AUPREC
 70
     2
  9
$MENU
  1
.
  9
$ELEVATION
 40
0.0
  9
$PELEVATION
 40
0.0
  9
$THICKNESS
 40
0.0
  9
$LIMCHECK
 70
     0
  9
$CHAMFERA
 40
10.0
  9
$CHAMFERB
 40
10.0
  9
$SKPOLY
 70
     0
  9
$TDCREATE
 40
2457802.659099676
  9
$TDUPDATE
 40
2457802.659099873
  9
$TDINDWG
 40
0.0000000116
  9
$TDUSRTIMER
 40
0.0000000116
  9
$USRTIMER
 70
     1
  9
$ANGBASE
 50
0.0
  9
$ANGDIR
 70
     0
  9
$PDMODE
 70
     0
  9
$PDSIZE
 40
-1.0
  9
$PLINEWID
 40
0.0
  9
$COORDS
 70
     1
  9
$SPLFRAME
 70
     0
  9
$SPLINETYPE
 70
     6
  9
$SPLINESEGS
 70
     8
  9
$ATTDIA
 70
     0
  9
$ATTREQ
 70
     1
  9
$HANDLING
 70
     1
  9
$HANDSEED
  5
388
  9
$SURFTAB1
 70
     6
  9
$SURFTAB2
 70
     6
  9
$SURFTYPE
 70
     6
  9
$SURFU
 70
     6
  9
$SURFV
 70
     6
  9
$UCSNAME
  2

  9
$UCSORG
 10
0.0
 20
0.0
 30
0.0
  9
$UCSXDIR
 10
1.0
 20
0.0
 30
0.0
  9
$UCSYDIR
 10
0.0
 20
1.0
 30
0.0
  9
$PUCSNAME
  2

  9
$PUCSORG
 10
0.0
 20
0.0
 30
0.0
  9
$PUCSXDIR
 10
1.0
 20
0.0
 30
0.0
  9
$PUCSYDIR
 10
0.0
 20
1.0
 30
0.0
  9
$USERI1
 70
     0
  9
$USERI2
 70
     0
  9
$USERI3
 70
     0
  9
$USERI4
 70
     0
  9
$USERI5
 70
     0
  9
$USERR1
 40
0.0
  9
$USERR2
 40
0.0
  9
$USERR3
 40
0.0
  9
$USERR4
 40
0.0
  9
$USERR5
 40
0.0
  9
$WORLDVIEW
 70
     1
  9
$SHADEDGE
 70
     3
  9
$SHADEDIF
 70
    70
  9
$TILEMODE
 70
     1
  9
$MAXACTVP
 70
    64
  9
$PLIMCHECK
 70
     0
  9
$PEXTMIN
 10
1.0000000000E+20
 20
1.0000000000E+20
 30
1.0000000000E+20
  9
$PEXTMAX
 10
-1.0000000000E+20
 20
-1.0000000000E+20
 30
-1.0000000000E+20
  9
$PLIMMIN
 10
0.0
 20
0.0
  9
$PLIMMAX
 10
420.0
 20
297.0
  9
$UNITMODE
 70
     0
  9
$VISRETAIN
 70
     1
  9
$PLINEGEN
 70
     0
  9
$PSLTSCALE
 70
     1
  0
ENDSEC
  0
SECTION
  2
TABLES
  0
TABLE
  2
VPORT
 70
     1
  0
VPORT
  2
*ACTIVE
 70
     0
 10
0.0
 20
0.0
 11
1.0
 21
1.0
 12
210.0
 22
148.5
 13
0.0
 23
0.0
 14
10.0
 24
10.0
 15
10.0
 25
10.0
 16
0.0
 26
0.0
 36
1.0
 17
0.0
 27
0.0
 37
0.0
 40
297.0
 41
1.4141414141
 42
50.0
 43
0.0
 44
0.0
 50
0.0
 51
0.0
 71
     0
 72
  2000
 73
     1
 74
     3
 75
     0
 76
     0
 77
     0
 78
     0
  0
ENDTAB
  0
TABLE
  2
LTYPE
 70
     6
  0
LTYPE
  2
CONTINUOUS
 70
     0
  3
Solid line
 72
    65
 73
     0
 40
0.0
  0
LTYPE
  2
HIDDEN
 70
     0
  3
Hidden __ __ __ __ __ __ __ __ __ __ __ __ __ __
 72
    65
 73
     2
 40
1.905
 49
1.27
 49
-0.635
  0
LTYPE
  2
PHANTOM
 70
     0
  3
Phantom ______  __  __  ______  __  __  ______
 72
    65
 73
     6
 40
12.7
 49
6.35
 49
-1.27
 49
1.27
 49
-1.27
 49
1.27
 49
-1.27
  0
LTYPE
  2
CENTER
 70
     0
  3
Center ____ _ ____ _ ____ _ ____ _ ____ _ ____
 72
    65
 73
     4
 40
10.16
 49
6.35
 49
-1.27
 49
1.27
 49
-1.27
  0
LTYPE
  2
CENTERX2
 70
     0
  3
Center (2x) ________  __  ________  __  _____
 72
    65
 73
     4
 40
20.32
 49
12.7
 49
-2.54
 49
2.54
 49
-2.54
  0
LTYPE
  2
DOT2
 70
     0
  3
Dot (.5x) ........................................
 72
    65
 73
     2
 40
0.635
 49
0.0
 49
-0.635
  0
ENDTAB
  0
TABLE
  2
LAYER
 70
     2
  0
LAYER
  2
0
 70
     0
 62
     7
  6
CONTINUOUS
  0
LAYER
  2
FORMAT
 70
     0
 62
     7
  6
CONTINUOUS
  0
ENDTAB
  0
TABLE
  2
STYLE
 70
     1
  0
STYLE
  2
STANDARD
 70
     0
 40
0.0
 41
1.0
 50
0.0
 71
     0
 42
3.5
  3
txt
  4

  0
ENDTAB
  0
TABLE
  2
VIEW
 70
     0
  0
ENDTAB
  0
TABLE
  2
UCS
 70
     0
  0
ENDTAB
  0
TABLE
  2
APPID
 70
     1
  0
APPID
  2
ACAD
 70
     0
  0
ENDTAB
  0
TABLE
  2
DIMSTYLE
 70
     1
  0
DIMSTYLE
  2
ISO-25
 70
     0
  3

  4

  5

  6

  7

 40
1.0
 41
2.5
 42
0.625
 43
3.75
 44
1.25
 45
0.0
 46
0.0
 47
0.0
 48
0.0
140
2.5
141
2.5
142
0.0
143
0.0393700787
144
1.0
145
0.0
146
1.0
147
0.625
 71
     0
 72
     0
 73
     0
 74
     0
 75
     0
 76
     0
 77
     1
 78
     8
170
     0
171
     3
172
     1
173
     0
174
     0
175
     0
176
     0
177
     0
178
     0
  0
ENDTAB
  0
ENDSEC
  0
SECTION
  2
BLOCKS
  0
BLOCK
  8
0
  2
$MODEL_SPACE
 70
     0
 10
0.0
 20
0.0
 30
0.0
  3
$MODEL_SPACE
  1

  0
ENDBLK
  5
21
  8
0
  0
BLOCK
 67
     1
  8
0
  2
$PAPER_SPACE
 70
     0
 10
0.0
 20
0.0
 30
0.0
  3
$PAPER_SPACE
  1

  0
ENDBLK
  5
1D
 67
     1
  8
0
  0
ENDSEC
  0
SECTION
  2
ENTITIES
  0
POLYLINE
  5
45
  8
0
  6
CONTINUOUS
 62
     7
 66
     1
 10
0.0
 20
0.0
 30
0.0
  0
VERTEX
  5
1D5
  8
0
  6
CONTINUOUS
 62
     7
 10
149.9576731132
 20
242.9260533695
 30
0.0
  0
VERTEX
  5
1D6
  8
0
  6
CONTINUOUS
 62
     7
 10
148.6828132079
 20
242.7558403854
 30
0.0
  0
VERTEX
  5
1D7
  8
0
  6
CONTINUOUS
 62
     7
 10
147.5899709867
 20
242.6147740726
 30
0.0
  0
VERTEX
  5
1D8
  8
0
  6
CONTINUOUS
 62
     7
 10
146.6794444726
 20
242.5006430988
 30
0.0
  0
VERTEX
  5
1D9
  8
0
  6
CONTINUOUS
 62
     7
 10
145.9514691041
 20
242.4116116409
 30
0.0
  0
VERTEX
  5
1DA
  8
0
  6
CONTINUOUS
 62
     7
 10
145.3530772136
 20
242.3398953323
 30
0.0
  0
VERTEX
  5
1DB
  8
0
  6
CONTINUOUS
 62
     7
 10
144.9320300029
 20
242.2903042679
 30
0.0
  0
VERTEX
  5
1DC
  8
0
  6
CONTINUOUS
 62
     7
 10
144.4958491729
 20
242.2400754337
 30
0.0
  0
VERTEX
  5
1DD
  8
0
  6
CONTINUOUS
 62
     7
 10
144.0265013383
 20
242.1872716789
 30
0.0
  0
VERTEX
  5
1DE
  8
0
  6
CONTINUOUS
 62
     7
 10
143.5239686177
 20
242.1320896988
 30
0.0
  0
VERTEX
  5
1DF
  8
0
  6
CONTINUOUS
 62
     7
 10
142.9882331298
 20
242.0747202282
 30
0.0
  0
VERTEX
  5
1E0
  8
0
  6
CONTINUOUS
 62
     7
 10
141.5939284967
 20
241.9321041946
 30
0.0
  0
VERTEX
  5
1E1
  8
0
  6
CONTINUOUS
 62
     7
 10
140.0147600577
 20
241.781608427
 30
0.0
  0
VERTEX
  5
1E2
  8
0
  6
CONTINUOUS
 62
     7
 10
138.6951996491
 20
241.6644853001
 30
0.0
  0
VERTEX
  5
1E3
  8
0
  6
CONTINUOUS
 62
     7
 10
137.3684911535
 20
241.5553074722
 30
0.0
  0
VERTEX
  5
1E4
  8
0
  6
CONTINUOUS
 62
     7
 10
136.1349268363
 20
241.462640131
 30
0.0
  0
VERTEX
  5
1E5
  8
0
  6
CONTINUOUS
 62
     7
 10
134.9946795509
 20
241.385362709
 30
0.0
  0
VERTEX
  5
1E6
  8
0
  6
CONTINUOUS
 62
     7
 10
133.9479042695
 20
241.322533453
 30
0.0
  0
VERTEX
  5
1E7
  8
0
  6
CONTINUOUS
 62
     7
 10
132.9947485135
 20
241.2734132652
 30
0.0
  0
VERTEX
  5
1E8
  8
0
  6
CONTINUOUS
 62
     7
 10
132.1353508637
 20
241.237465704
 30
0.0
  0
VERTEX
  5
1E9
  8
0
  6
CONTINUOUS
 62
     7
 10
131.3691420959
 20
241.2142020111
 30
0.0
  0
VERTEX
  5
1EA
  8
0
  6
CONTINUOUS
 62
     7
 10
131.0085295246
 20
241.2047546749
 30
0.0
  0
VERTEX
  5
1EB
  8
0
  6
CONTINUOUS
 62
     7
 10
130.6548608945
 20
241.194001997
 30
0.0
  0
VERTEX
  5
1EC
  8
0
  6
CONTINUOUS
 62
     7
 10
130.3081198142
 20
241.1815446262
 30
0.0
  0
VERTEX
  5
1ED
  8
0
  6
CONTINUOUS
 62
     7
 10
129.9683122442
 20
241.1679964905
 30
0.0
  0
VERTEX
  5
1EE
  8
0
  6
CONTINUOUS
 62
     7
 10
129.4126479433
 20
241.1449592953
 30
0.0
  0
VERTEX
  5
1EF
  8
0
  6
CONTINUOUS
 62
     7
 10
128.7974833057
 20
241.1200743561
 30
0.0
  0
VERTEX
  5
1F0
  8
0
  6
CONTINUOUS
 62
     7
 10
128.0646084354
 20
241.0918098335
 30
0.0
  0
VERTEX
  5
1F1
  8
0
  6
CONTINUOUS
 62
     7
 10
127.2139980004
 20
241.0608571415
 30
0.0
  0
VERTEX
  5
1F2
  8
0
  6
CONTINUOUS
 62
     7
 10
126.1965765164
 20
241.026369894
 30
0.0
  0
VERTEX
  5
1F3
  8
0
  6
CONTINUOUS
 62
     7
 10
125.0498844789
 20
240.9907501583
 30
0.0
  0
VERTEX
  5
1F4
  8
0
  6
CONTINUOUS
 62
     7
 10
123.7740805851
 20
240.9550946598
 30
0.0
  0
VERTEX
  5
1F5
  8
0
  6
CONTINUOUS
 62
     7
 10
117.7265262709
 20
240.8404391651
 30
0.0
  0
VERTEX
  5
1F6
  8
0
  6
CONTINUOUS
 62
     7
 10
111.7094745406
 20
240.810934866
 30
0.0
  0
VERTEX
  5
1F7
  8
0
  6
CONTINUOUS
 62
     7
 10
109.3349336193
 20
240.8218782787
 30
0.0
  0
VERTEX
  5
1F8
  8
0
  6
CONTINUOUS
 62
     7
 10
107.0998805122
 20
240.8439081554
 30
0.0
  0
VERTEX
  5
1F9
  8
0
  6
CONTINUOUS
 62
     7
 10
105.0186483667
 20
240.8747356777
 30
0.0
  0
VERTEX
  5
1FA
  8
0
  6
CONTINUOUS
 62
     7
 10
103.0912613974
 20
240.9122925644
 30
0.0
  0
VERTEX
  5
1FB
  8
0
  6
CONTINUOUS
 62
     7
 10
101.3079954789
 20
240.9549277668
 30
0.0
  0
VERTEX
  5
1FC
  8
0
  6
CONTINUOUS
 62
     7
 10
100.3985723959
 20
240.9796517735
 30
0.0
  0
VERTEX
  5
1FD
  8
0
  6
CONTINUOUS
 62
     7
 10
99.4464306639
 20
241.0077672844
 30
0.0
  0
VERTEX
  5
1FE
  8
0
  6
CONTINUOUS
 62
     7
 10
98.4515933798
 20
241.0396617298
 30
0.0
  0
VERTEX
  5
1FF
  8
0
  6
CONTINUOUS
 62
     7
 10
97.4140821503
 20
241.0757642632
 30
0.0
  0
VERTEX
  5
200
  8
0
  6
CONTINUOUS
 62
     7
 10
96.389727156
 20
241.1143523102
 30
0.0
  0
VERTEX
  5
201
  8
0
  6
CONTINUOUS
 62
     7
 10
95.7214056061
 20
241.1411505585
 30
0.0
  0
VERTEX
  5
202
  8
0
  6
CONTINUOUS
 62
     7
 10
95.2407358692
 20
241.1612313633
 30
0.0
  0
VERTEX
  5
203
  8
0
  6
CONTINUOUS
 62
     7
 10
94.9266968773
 20
241.1747079735
 30
0.0
  0
VERTEX
  5
204
  8
0
  6
CONTINUOUS
 62
     7
 10
94.4458155439
 20
241.195515955
 30
0.0
  0
VERTEX
  5
205
  8
0
  6
CONTINUOUS
 62
     7
 10
93.8899038837
 20
241.2185829525
 30
0.0
  0
VERTEX
  5
206
  8
0
  6
CONTINUOUS
 62
     7
 10
93.2590229915
 20
241.2427109127
 30
0.0
  0
VERTEX
  5
207
  8
0
  6
CONTINUOUS
 62
     7
 10
92.5531758473
 20
241.2701171284
 30
0.0
  0
VERTEX
  5
208
  8
0
  6
CONTINUOUS
 62
     7
 10
91.77144603
 20
241.3043361549
 30
0.0
  0
VERTEX
  5
209
  8
0
  6
CONTINUOUS
 62
     7
 10
90.9092946456
 20
241.3491707687
 30
0.0
  0
VERTEX
  5
20A
  8
0
  6
CONTINUOUS
 62
     7
 10
89.9661494897
 20
241.4055209999
 30
0.0
  0
VERTEX
  5
20B
  8
0
  6
CONTINUOUS
 62
     7
 10
88.9421253012
 20
241.4739471321
 30
0.0
  0
VERTEX
  5
20C
  8
0
  6
CONTINUOUS
 62
     7
 10
87.8373442696
 20
241.5551465397
 30
0.0
  0
VERTEX
  5
20D
  8
0
  6
CONTINUOUS
 62
     7
 10
86.6519375251
 20
241.6499358063
 30
0.0
  0
VERTEX
  5
20E
  8
0
  6
CONTINUOUS
 62
     7
 10
84.5879538463
 20
241.8323021774
 30
0.0
  0
VERTEX
  5
20F
  8
0
  6
CONTINUOUS
 62
     7
 10
82.3326929019
 20
242.0549970512
 30
0.0
  0
VERTEX
  5
210
  8
0
  6
CONTINUOUS
 62
     7
 10
79.9868507789
 20
242.3113923912
 30
0.0
  0
VERTEX
  5
211
  8
0
  6
CONTINUOUS
 62
     7
 10
77.570418875
 20
242.6012438183
 30
0.0
  0
VERTEX
  5
212
  8
0
  6
CONTINUOUS
 62
     7
 10
75.0837726996
 20
242.9260533695
 30
0.0
  0
SEQEND
  5
387
  8
0
  6
CONTINUOUS
 62
     7
  0
POLYLINE
  5
46
  8
0
  6
CONTINUOUS
 62
     7
 66
     1
 10
0.0
 20
0.0
 30
0.0
  0
VERTEX
  5
213
  8
0
  6
CONTINUOUS
 62
     7
 10
150.1207871841
 20
242.3422973995
 30
0.0
  0
VERTEX
  5
214
  8
0
  6
CONTINUOUS
 62
     7
 10
150.0385715173
 20
242.7032929306
 30
0.0
  0
VERTEX
  5
215
  8
0
  6
CONTINUOUS
 62
     7
 10
149.904556434
 20
243.292276228
 30
0.0
  0
SEQEND
  5
386
  8
0
  6
CONTINUOUS
 62
     7
  0
POLYLINE
  5
47
  8
0
  6
CONTINUOUS
 62
     7
 66
     1
 10
0.0
 20
0.0
 30
0.0
  0
VERTEX
  5
216
  8
0
  6
CONTINUOUS
 62
     7
 10
75.1368893788
 20
243.292276228
 30
0.0
  0
VERTEX
  5
217
  8
0
  6
CONTINUOUS
 62
     7
 10
75.0042004989
 20
242.7091282253
 30
0.0
  0
VERTEX
  5
218
  8
0
  6
CONTINUOUS
 62
     7
 10
74.9184502767
 20
242.3326056843
 30
0.0
  0
SEQEND
  5
385
  8
0
  6
CONTINUOUS
 62
     7
  0
LINE
  5
48
  8
0
  6
CONTINUOUS
 62
     7
 10
169.8207242892
 20
265.7379966621
 30
0.0
 11
169.8207242892
 21
250.7379990463
 31
0.0
  0
LINE
  5
49
  8
0
  6
CONTINUOUS
 62
     7
 10
175.2207203315
 20
250.7379990463
 30
0.0
 11
175.2207203315
 21
265.7379966621
 31
0.0
  0
LINE
  5
4A
  8
0
  6
CONTINUOUS
 62
     7
 10
175.2207203315
 20
234.137998188
 30
0.0
 11
175.2207203315
 21
250.7379990463
 31
0.0
  0
LINE
  5
4B
  8
0
  6
CONTINUOUS
 62
     7
 10
169.8207242892
 20
250.7379990463
 30
0.0
 11
169.8207242892
 21
234.137998188
 31
0.0
  0
LINE
  5
4C
  8
0
  6
CONTINUOUS
 62
     7
 10
169.8207242892
 20
234.137998188
 30
0.0
 11
169.8207242892
 21
219.1380005722
 31
0.0
  0
LINE
  5
4D
  8
0
  6
CONTINUOUS
 62
     7
 10
175.2207203315
 20
219.1380005722
 30
0.0
 11
175.2207203315
 21
234.137998188
 31
0.0
  0
LINE
  5
4E
  8
0
  6
CONTINUOUS
 62
     7
 10
55.2207215236
 20
234.137998188
 30
0.0
 11
55.2207215236
 21
250.7379990463
 31
0.0
  0
LINE
  5
4F
  8
0
  6
CONTINUOUS
 62
     7
 10
49.8207254813
 20
250.7379990463
 30
0.0
 11
49.8207254813
 21
234.137998188
 31
0.0
  0
LINE
  5
50
  8
0
  6
CONTINUOUS
 62
     7
 10
49.8207254813
 20
265.7379966621
 30
0.0
 11
49.8207254813
 21
250.7379990463
 31
0.0
  0
LINE
  5
51
  8
0
  6
CONTINUOUS
 62
     7
 10
55.2207215236
 20
250.7379990463
 30
0.0
 11
55.2207215236
 21
265.7379966621
 31
0.0
  0
LINE
  5
52
  8
0
  6
CONTINUOUS
 62
     7
 10
49.8207254813
 20
234.137998188
 30
0.0
 11
49.8207254813
 21
219.1380005722
 31
0.0
  0
LINE
  5
53
  8
0
  6
CONTINUOUS
 62
     7
 10
55.2207215236
 20
219.1380005722
 30
0.0
 11
55.2207215236
 21
234.137998188
 31
0.0
  0
LINE
  5
54
  8
0
  6
CONTINUOUS
 62
     7
 10
109.1064384685
 20
149.738
 30
0.0
 11
105.3477919207
 21
149.738
 31
0.0
  0
LINE
  5
55
  8
0
  6
CONTINUOUS
 62
     7
 10
105.3477919207
 20
150.9380000104
 30
0.0
 11
109.1064384685
 21
150.9380000104
 31
0.0
  0
LINE
  5
56
  8
0
  6
CONTINUOUS
 62
     7
 10
119.6936538921
 20
149.738
 30
0.0
 11
115.9350073443
 21
149.738
 31
0.0
  0
LINE
  5
57
  8
0
  6
CONTINUOUS
 62
     7
 10
115.9350073443
 20
150.9380000104
 30
0.0
 11
119.6936538921
 21
150.9380000104
 31
0.0
  0
LINE
  5
58
  8
0
  6
CONTINUOUS
 62
     7
 10
109.1064384685
 20
149.738
 30
0.0
 11
115.9350073443
 21
149.738
 31
0.0
  0
LINE
  5
59
  8
0
  6
CONTINUOUS
 62
     7
 10
109.1064384685
 20
150.9380000104
 30
0.0
 11
115.9350073443
 21
150.9380000104
 31
0.0
  0
LINE
  5
5A
  8
0
  6
CONTINUOUS
 62
     7
 10
100.5207231746
 20
149.738
 30
0.0
 11
100.5207231746
 21
150.9380000104
 31
0.0
  0
LINE
  5
5B
  8
0
  6
CONTINUOUS
 62
     7
 10
100.5207231746
 20
149.738
 30
0.0
 11
105.3477919207
 21
149.738
 31
0.0
  0
LINE
  5
5C
  8
0
  6
CONTINUOUS
 62
     7
 10
105.3477919207
 20
150.9380000104
 30
0.0
 11
100.5207231746
 21
150.9380000104
 31
0.0
  0
LINE
  5
5D
  8
0
  6
CONTINUOUS
 62
     7
 10
124.5207226382
 20
149.738
 30
0.0
 11
124.5207226382
 21
150.9380000104
 31
0.0
  0
LINE
  5
5E
  8
0
  6
CONTINUOUS
 62
     7
 10
119.6936538921
 20
149.738
 30
0.0
 11
124.5207226382
 21
149.738
 31
0.0
  0
LINE
  5
5F
  8
0
  6
CONTINUOUS
 62
     7
 10
124.5207226382
 20
150.9380000104
 30
0.0
 11
119.6936538921
 21
150.9380000104
 31
0.0
  0
LINE
  5
60
  8
0
  6
CONTINUOUS
 62
     7
 10
107.5207228319
 20
150.9380000104
 30
0.0
 11
107.5207228319
 21
214.9380010014
 31
0.0
  0
POLYLINE
  5
61
  8
0
  6
CONTINUOUS
 62
     7
 66
     1
 10
0.0
 20
0.0
 30
0.0
  0
VERTEX
  5
219
  8
0
  6
CONTINUOUS
 62
     7
 10
107.5207228319
 20
214.9380010014
 30
0.0
  0
VERTEX
  5
21A
  8
0
  6
CONTINUOUS
 62
     7
 10
107.5399375067
 20
214.9572175388
 30
0.0
  0
VERTEX
  5
21B
  8
0
  6
CONTINUOUS
 62
     7
 10
107.5968435512
 20
215.0141220932
 30
0.0
  0
VERTEX
  5
21C
  8
0
  6
CONTINUOUS
 62
     7
 10
107.6892534749
 20
215.1065331345
 30
0.0
  0
VERTEX
  5
21D
  8
0
  6
CONTINUOUS
 62
     7
 10
107.8136159585
 20
215.2308922653
 30
0.0
  0
VERTEX
  5
21E
  8
0
  6
CONTINUOUS
 62
     7
 10
107.9651525722
 20
215.3824311142
 30
0.0
  0
VERTEX
  5
21F
  8
0
  6
CONTINUOUS
 62
     7
 10
108.1380395697
 20
215.5553143864
 30
0.0
  0
VERTEX
  5
220
  8
0
  6
CONTINUOUS
 62
     7
 10
108.3256325231
 20
215.7429080849
 30
0.0
  0
VERTEX
  5
221
  8
0
  6
CONTINUOUS
 62
     7
 10
108.5207229958
 20
215.9380000477
 30
0.0
  0
SEQEND
  5
384
  8
0
  6
CONTINUOUS
 62
     7
  0
POLYLINE
  5
62
  8
0
  6
CONTINUOUS
 62
     7
 66
     1
 10
0.0
 20
0.0
 30
0.0
  0
VERTEX
  5
222
  8
0
  6
CONTINUOUS
 62
     7
 10
116.520722817
 20
215.9380000477
 30
0.0
  0
VERTEX
  5
223
  8
0
  6
CONTINUOUS
 62
     7
 10
116.7158132897
 20
215.7429080849
 30
0.0
  0
VERTEX
  5
224
  8
0
  6
CONTINUOUS
 62
     7
 10
116.9034062431
 20
215.5553143864
 30
0.0
  0
VERTEX
  5
225
  8
0
  6
CONTINUOUS
 62
     7
 10
117.0762932406
 20
215.3824311142
 30
0.0
  0
VERTEX
  5
226
  8
0
  6
CONTINUOUS
 62
     7
 10
117.2278298543
 20
215.2308922653
 30
0.0
  0
VERTEX
  5
227
  8
0
  6
CONTINUOUS
 62
     7
 10
117.3521923379
 20
215.1065331345
 30
0.0
  0
VERTEX
  5
228
  8
0
  6
CONTINUOUS
 62
     7
 10
117.4446022616
 20
215.0141220932
 30
0.0
  0
VERTEX
  5
229
  8
0
  6
CONTINUOUS
 62
     7
 10
117.5015083061
 20
214.9572175388
 30
0.0
  0
VERTEX
  5
22A
  8
0
  6
CONTINUOUS
 62
     7
 10
117.5207229809
 20
214.9380010014
 30
0.0
  0
SEQEND
  5
383
  8
0
  6
CONTINUOUS
 62
     7
  0
LINE
  5
63
  8
0
  6
CONTINUOUS
 62
     7
 10
180.9207244323
 20
214.9380010014
 30
0.0
 11
117.5207229809
 21
214.9380010014
 31
0.0
  0
LINE
  5
64
  8
0
  6
CONTINUOUS
 62
     7
 10
181.3207252429
 20
224.5380025749
 30
0.0
 11
181.3207252429
 21
223.9379983788
 31
0.0
  0
ARC
  5
65
  8
0
  6
CONTINUOUS
 62
     7
 10
180.9207229064
 20
224.538
 30
0.0
 40
0.4000000000000057
 50
0.0
 51
90.0
  0
LINE
  5
66
  8
0
  6
CONTINUOUS
 62
     7
 10
43.7207205699
 20
215.9380000477
 30
0.0
 11
43.7207205699
 21
223.9379983788
 31
0.0
  0
LINE
  5
67
  8
0
  6
CONTINUOUS
 62
     7
 10
107.5207228319
 20
214.9380010014
 30
0.0
 11
44.1207213805
 21
214.9380010014
 31
0.0
  0
LINE
  5
68
  8
0
  6
CONTINUOUS
 62
     7
 10
181.3207252429
 20
215.9380000477
 30
0.0
 11
181.3207252429
 21
215.338001812
 31
0.0
  0
ARC
  5
69
  8
0
  6
CONTINUOUS
 62
     7
 10
180.9207229064
 20
215.338
 30
0.0
 40
0.4000000000000057
 50
270.0
 51
0.0
  0
LINE
  5
6A
  8
0
  6
CONTINUOUS
 62
     7
 10
181.3207252429
 20
223.9379983788
 30
0.0
 11
181.3207252429
 21
215.9380000477
 31
0.0
  0
LINE
  5
6B
  8
0
  6
CONTINUOUS
 62
     7
 10
44.1207213805
 20
224.9379974251
 30
0.0
 11
46.5207202838
 21
224.9379974251
 31
0.0
  0
LINE
  5
6C
  8
0
  6
CONTINUOUS
 62
     7
 10
58.5207207606
 20
224.9379974251
 30
0.0
 11
70.0207217143
 21
224.9379974251
 31
0.0
  0
LINE
  5
6D
  8
0
  6
CONTINUOUS
 62
     7
 10
80.0207240985
 20
224.9379974251
 30
0.0
 11
145.0207217143
 21
224.9379974251
 31
0.0
  0
LINE
  5
6E
  8
0
  6
CONTINUOUS
 62
     7
 10
155.0207240985
 20
224.9379974251
 30
0.0
 11
166.5207250522
 21
224.9379974251
 31
0.0
  0
LINE
  5
6F
  8
0
  6
CONTINUOUS
 62
     7
 10
178.520725529
 20
224.9379974251
 30
0.0
 11
180.9207244323
 21
224.9379974251
 31
0.0
  0
LINE
  5
70
  8
0
  6
CONTINUOUS
 62
     7
 10
43.7207205699
 20
223.9379983788
 30
0.0
 11
43.7207205699
 21
224.5380025749
 31
0.0
  0
ARC
  5
71
  8
0
  6
CONTINUOUS
 62
     7
 10
44.1207229064
 20
224.538
 30
0.0
 40
0.3999999999999986
 50
90.0
 51
180.0
  0
LINE
  5
72
  8
0
  6
CONTINUOUS
 62
     7
 10
117.5207229809
 20
214.9380010014
 30
0.0
 11
117.5207229809
 21
150.9380000104
 31
0.0
  0
LINE
  5
73
  8
0
  6
CONTINUOUS
 62
     7
 10
43.7207205699
 20
215.338001812
 30
0.0
 11
43.7207205699
 21
215.9380000477
 31
0.0
  0
ARC
  5
74
  8
0
  6
CONTINUOUS
 62
     7
 10
44.1207229064
 20
215.338
 30
0.0
 40
0.4000000000000057
 50
180.0
 51
270.0
  0
POLYLINE
  5
75
  8
0
  6
CONTINUOUS
 62
     7
 66
     1
 10
0.0
 20
0.0
 30
0.0
  0
VERTEX
  5
22B
  8
0
  6
CONTINUOUS
 62
     7
 10
150.1207931445
 20
241.2686985378
 30
0.0
  0
VERTEX
  5
22C
  8
0
  6
CONTINUOUS
 62
     7
 10
150.032920997
 20
241.0146098976
 30
0.0
  0
VERTEX
  5
22D
  8
0
  6
CONTINUOUS
 62
     7
 10
149.7676058219
 20
240.6595986729
 30
0.0
  0
VERTEX
  5
22E
  8
0
  6
CONTINUOUS
 62
     7
 10
149.3586076901
 20
240.2278524284
 30
0.0
  0
VERTEX
  5
22F
  8
0
  6
CONTINUOUS
 62
     7
 10
148.8001926349
 20
239.7259157543
 30
0.0
  0
VERTEX
  5
230
  8
0
  6
CONTINUOUS
 62
     7
 10
148.064230244
 20
239.1704362278
 30
0.0
  0
VERTEX
  5
231
  8
0
  6
CONTINUOUS
 62
     7
 10
147.1621526883
 20
238.6222344284
 30
0.0
  0
VERTEX
  5
232
  8
0
  6
CONTINUOUS
 62
     7
 10
146.2957723544
 20
238.2144075279
 30
0.0
  0
VERTEX
  5
233
  8
0
  6
CONTINUOUS
 62
     7
 10
145.3120990203
 20
237.8769260292
 30
0.0
  0
VERTEX
  5
234
  8
0
  6
CONTINUOUS
 62
     7
 10
144.687031071
 20
237.7266567593
 30
0.0
  0
VERTEX
  5
235
  8
0
  6
CONTINUOUS
 62
     7
 10
144.0332247422
 20
237.6202028637
 30
0.0
  0
SEQEND
  5
382
  8
0
  6
CONTINUOUS
 62
     7
  0
POLYLINE
  5
76
  8
0
  6
CONTINUOUS
 62
     7
 66
     1
 10
0.0
 20
0.0
 30
0.0
  0
VERTEX
  5
236
  8
0
  6
CONTINUOUS
 62
     7
 10
150.1207931445
 20
241.2686985378
 30
0.0
  0
VERTEX
  5
237
  8
0
  6
CONTINUOUS
 62
     7
 10
150.1207931445
 20
241.3234871273
 30
0.0
  0
VERTEX
  5
238
  8
0
  6
CONTINUOUS
 62
     7
 10
150.1205785678
 20
241.6161816959
 30
0.0
  0
VERTEX
  5
239
  8
0
  6
CONTINUOUS
 62
     7
 10
150.1201017306
 20
241.7388897781
 30
0.0
  0
VERTEX
  5
23A
  8
0
  6
CONTINUOUS
 62
     7
 10
150.1197500632
 20
241.7525213604
 30
0.0
  0
VERTEX
  5
23B
  8
0
  6
CONTINUOUS
 62
     7
 10
150.1199974225
 20
241.7396646385
 30
0.0
  0
SEQEND
  5
381
  8
0
  6
CONTINUOUS
 62
     7
  0
POLYLINE
  5
77
  8
0
  6
CONTINUOUS
 62
     7
 66
     1
 10
0.0
 20
0.0
 30
0.0
  0
VERTEX
  5
23C
  8
0
  6
CONTINUOUS
 62
     7
 10
150.1207216189
 20
242.0360964184
 30
0.0
  0
VERTEX
  5
23D
  8
0
  6
CONTINUOUS
 62
     7
 10
150.1060141728
 20
241.9883352165
 30
0.0
  0
VERTEX
  5
23E
  8
0
  6
CONTINUOUS
 62
     7
 10
150.1207275794
 20
241.8615382557
 30
0.0
  0
SEQEND
  5
380
  8
0
  6
CONTINUOUS
 62
     7
  0
POLYLINE
  5
78
  8
0
  6
CONTINUOUS
 62
     7
 66
     1
 10
0.0
 20
0.0
 30
0.0
  0
VERTEX
  5
23F
  8
0
  6
CONTINUOUS
 62
     7
 10
74.9207182334
 20
241.8615382557
 30
0.0
  0
VERTEX
  5
240
  8
0
  6
CONTINUOUS
 62
     7
 10
74.93543164
 20
241.9883352165
 30
0.0
  0
VERTEX
  5
241
  8
0
  6
CONTINUOUS
 62
     7
 10
74.9207241939
 20
242.0360964184
 30
0.0
  0
SEQEND
  5
37F
  8
0
  6
CONTINUOUS
 62
     7
  0
POLYLINE
  5
79
  8
0
  6
CONTINUOUS
 62
     7
 66
     1
 10
0.0
 20
0.0
 30
0.0
  0
VERTEX
  5
242
  8
0
  6
CONTINUOUS
 62
     7
 10
74.9206526683
 20
241.2688773518
 30
0.0
  0
VERTEX
  5
243
  8
0
  6
CONTINUOUS
 62
     7
 10
74.9206526683
 20
241.2735741978
 30
0.0
  0
VERTEX
  5
244
  8
0
  6
CONTINUOUS
 62
     7
 10
74.9208225415
 20
241.5920716171
 30
0.0
  0
VERTEX
  5
245
  8
0
  6
CONTINUOUS
 62
     7
 10
74.9212874578
 20
241.7313140278
 30
0.0
  0
VERTEX
  5
246
  8
0
  6
CONTINUOUS
 62
     7
 10
74.9216719077
 20
241.7546790485
 30
0.0
  0
VERTEX
  5
247
  8
0
  6
CONTINUOUS
 62
     7
 10
74.9216212438
 20
241.7372685318
 30
0.0
  0
SEQEND
  5
37E
  8
0
  6
CONTINUOUS
 62
     7
  0
POLYLINE
  5
7A
  8
0
  6
CONTINUOUS
 62
     7
 66
     1
 10
0.0
 20
0.0
 30
0.0
  0
VERTEX
  5
248
  8
0
  6
CONTINUOUS
 62
     7
 10
81.0082210706
 20
237.6202028637
 30
0.0
  0
VERTEX
  5
249
  8
0
  6
CONTINUOUS
 62
     7
 10
79.9941732095
 20
237.8073674088
 30
0.0
  0
VERTEX
  5
24A
  8
0
  6
CONTINUOUS
 62
     7
 10
79.0088667081
 20
238.1115477924
 30
0.0
  0
VERTEX
  5
24B
  8
0
  6
CONTINUOUS
 62
     7
 10
78.1400276826
 20
238.4879392033
 30
0.0
  0
VERTEX
  5
24C
  8
0
  6
CONTINUOUS
 62
     7
 10
77.346758406
 20
238.9295082932
 30
0.0
  0
VERTEX
  5
24D
  8
0
  6
CONTINUOUS
 62
     7
 10
76.589287679
 20
239.4498747234
 30
0.0
  0
VERTEX
  5
24E
  8
0
  6
CONTINUOUS
 62
     7
 10
75.9479923652
 20
239.9794321899
 30
0.0
  0
VERTEX
  5
24F
  8
0
  6
CONTINUOUS
 62
     7
 10
75.4017575191
 20
240.516440237
 30
0.0
  0
VERTEX
  5
250
  8
0
  6
CONTINUOUS
 62
     7
 10
75.1936151193
 20
240.7550614719
 30
0.0
  0
VERTEX
  5
251
  8
0
  6
CONTINUOUS
 62
     7
 10
75.0415010856
 20
240.9610908871
 30
0.0
  0
VERTEX
  5
252
  8
0
  6
CONTINUOUS
 62
     7
 10
74.9206526683
 20
241.2688773518
 30
0.0
  0
SEQEND
  5
37D
  8
0
  6
CONTINUOUS
 62
     7
  0
POLYLINE
  5
7B
  8
0
  6
CONTINUOUS
 62
     7
 66
     1
 10
0.0
 20
0.0
 30
0.0
  0
VERTEX
  5
253
  8
0
  6
CONTINUOUS
 62
     7
 10
144.0332247422
 20
237.6202028637
 30
0.0
  0
VERTEX
  5
254
  8
0
  6
CONTINUOUS
 62
     7
 10
136.9438944862
 20
236.8192892914
 30
0.0
  0
VERTEX
  5
255
  8
0
  6
CONTINUOUS
 62
     7
 10
129.8268286989
 20
236.1918490772
 30
0.0
  0
VERTEX
  5
256
  8
0
  6
CONTINUOUS
 62
     7
 10
122.65392081
 20
235.7652824764
 30
0.0
  0
VERTEX
  5
257
  8
0
  6
CONTINUOUS
 62
     7
 10
115.4669967027
 20
235.5580669289
 30
0.0
  0
VERTEX
  5
258
  8
0
  6
CONTINUOUS
 62
     7
 10
110.4039600597
 20
235.5488699322
 30
0.0
  0
VERTEX
  5
259
  8
0
  6
CONTINUOUS
 62
     7
 10
105.3424334631
 20
235.6525402908
 30
0.0
  0
VERTEX
  5
25A
  8
0
  6
CONTINUOUS
 62
     7
 10
100.2717679844
 20
235.8684759979
 30
0.0
  0
VERTEX
  5
25B
  8
0
  6
CONTINUOUS
 62
     7
 10
95.2094911144
 20
236.192230547
 30
0.0
  0
VERTEX
  5
25C
  8
0
  6
CONTINUOUS
 62
     7
 10
88.0986107991
 20
236.8187826519
 30
0.0
  0
VERTEX
  5
25D
  8
0
  6
CONTINUOUS
 62
     7
 10
81.0082210706
 20
237.6202028637
 30
0.0
  0
SEQEND
  5
37C
  8
0
  6
CONTINUOUS
 62
     7
  0
POLYLINE
  5
7C
  8
0
  6
CONTINUOUS
 62
     7
 66
     1
 10
0.0
 20
0.0
 30
0.0
  0
VERTEX
  5
25E
  8
0
  6
CONTINUOUS
 62
     7
 10
81.1881227897
 20
242.9527741318
 30
0.0
  0
VERTEX
  5
25F
  8
0
  6
CONTINUOUS
 62
     7
 10
80.1816476987
 20
243.1704204922
 30
0.0
  0
VERTEX
  5
260
  8
0
  6
CONTINUOUS
 62
     7
 10
79.2570544885
 20
243.3602314835
 30
0.0
  0
VERTEX
  5
261
  8
0
  6
CONTINUOUS
 62
     7
 10
78.4895642207
 20
243.4982043152
 30
0.0
  0
VERTEX
  5
262
  8
0
  6
CONTINUOUS
 62
     7
 10
77.8540803598
 20
243.582127655
 30
0.0
  0
VERTEX
  5
263
  8
0
  6
CONTINUOUS
 62
     7
 10
77.5523527072
 20
243.6028819923
 30
0.0
  0
VERTEX
  5
264
  8
0
  6
CONTINUOUS
 62
     7
 10
77.3143603013
 20
243.6014574413
 30
0.0
  0
SEQEND
  5
37B
  8
0
  6
CONTINUOUS
 62
     7
  0
ARC
  5
7D
  8
0
  6
CONTINUOUS
 62
     7
 10
112.4043427948
 20
382.1847313623
 30
0.0
 40
142.6884378835816
 50
257.3630892534
 51
260.3830757402
  0
ARC
  5
7E
  8
0
  6
CONTINUOUS
 62
     7
 10
111.9191743243
 20
385.8144428452
 30
0.0
 40
146.3873158463284
 50
279.6013439636
 51
282.6002988363
  0
POLYLINE
  5
7F
  8
0
  6
CONTINUOUS
 62
     7
 66
     1
 10
0.0
 20
0.0
 30
0.0
  0
VERTEX
  5
265
  8
0
  6
CONTINUOUS
 62
     7
 10
147.7270855115
 20
243.6014574413
 30
0.0
  0
VERTEX
  5
266
  8
0
  6
CONTINUOUS
 62
     7
 10
147.3079963134
 20
243.5925465469
 30
0.0
  0
VERTEX
  5
267
  8
0
  6
CONTINUOUS
 62
     7
 10
146.6983659671
 20
243.5208302383
 30
0.0
  0
VERTEX
  5
268
  8
0
  6
CONTINUOUS
 62
     7
 10
145.9471209453
 20
243.3915716057
 30
0.0
  0
VERTEX
  5
269
  8
0
  6
CONTINUOUS
 62
     7
 10
145.0297458575
 20
243.2063799744
 30
0.0
  0
VERTEX
  5
26A
  8
0
  6
CONTINUOUS
 62
     7
 10
143.8533230231
 20
242.9527741318
 30
0.0
  0
SEQEND
  5
37A
  8
0
  6
CONTINUOUS
 62
     7
  0
POLYLINE
  5
80
  8
0
  6
CONTINUOUS
 62
     7
 66
     1
 10
0.0
 20
0.0
 30
0.0
  0
VERTEX
  5
26B
  8
0
  6
CONTINUOUS
 62
     7
 10
147.7270676301
 20
243.6015349274
 30
0.0
  0
VERTEX
  5
26C
  8
0
  6
CONTINUOUS
 62
     7
 10
148.6441327737
 20
243.546722496
 30
0.0
  0
VERTEX
  5
26D
  8
0
  6
CONTINUOUS
 62
     7
 10
149.2453082011
 20
243.4921842461
 30
0.0
  0
VERTEX
  5
26E
  8
0
  6
CONTINUOUS
 62
     7
 10
149.6028287814
 20
243.4364539032
 30
0.0
  0
VERTEX
  5
26F
  8
0
  6
CONTINUOUS
 62
     7
 10
149.8175872968
 20
243.3798414116
 30
0.0
  0
VERTEX
  5
270
  8
0
  6
CONTINUOUS
 62
     7
 10
149.8993350671
 20
243.3214109783
 30
0.0
  0
VERTEX
  5
271
  8
0
  6
CONTINUOUS
 62
     7
 10
149.8961700604
 20
243.2638567333
 30
0.0
  0
VERTEX
  5
272
  8
0
  6
CONTINUOUS
 62
     7
 10
149.8690678285
 20
243.2110052948
 30
0.0
  0
VERTEX
  5
273
  8
0
  6
CONTINUOUS
 62
     7
 10
149.8669101403
 20
243.1641441231
 30
0.0
  0
VERTEX
  5
274
  8
0
  6
CONTINUOUS
 62
     7
 10
149.9138458179
 20
243.055848444
 30
0.0
  0
VERTEX
  5
275
  8
0
  6
CONTINUOUS
 62
     7
 10
149.9230815576
 20
243.0142920856
 30
0.0
  0
SEQEND
  5
379
  8
0
  6
CONTINUOUS
 62
     7
  0
ARC
  5
81
  8
0
  6
CONTINUOUS
 62
     7
 10
145.0757037915
 20
242.185320901
 30
0.0
 40
4.946513259051197
 50
3.5868728639
 51
8.4287436192
  0
POLYLINE
  5
82
  8
0
  6
CONTINUOUS
 62
     7
 66
     1
 10
0.0
 20
0.0
 30
0.0
  0
VERTEX
  5
276
  8
0
  6
CONTINUOUS
 62
     7
 10
143.9238859819
 20
239.11695298
 30
0.0
  0
VERTEX
  5
277
  8
0
  6
CONTINUOUS
 62
     7
 10
144.9475808547
 20
239.2958801632
 30
0.0
  0
VERTEX
  5
278
  8
0
  6
CONTINUOUS
 62
     7
 10
145.943562548
 20
239.5866614227
 30
0.0
  0
VERTEX
  5
279
  8
0
  6
CONTINUOUS
 62
     7
 10
146.8238128827
 20
239.945606554
 30
0.0
  0
VERTEX
  5
27A
  8
0
  6
CONTINUOUS
 62
     7
 10
147.6284428046
 20
240.3644126301
 30
0.0
  0
VERTEX
  5
27B
  8
0
  6
CONTINUOUS
 62
     7
 10
148.3881636069
 20
240.8481162434
 30
0.0
  0
VERTEX
  5
27C
  8
0
  6
CONTINUOUS
 62
     7
 10
149.0295662091
 20
241.3346928005
 30
0.0
  0
VERTEX
  5
27D
  8
0
  6
CONTINUOUS
 62
     7
 10
149.5572848723
 20
241.8079894428
 30
0.0
  0
VERTEX
  5
27E
  8
0
  6
CONTINUOUS
 62
     7
 10
149.9005182193
 20
242.2011178379
 30
0.0
  0
VERTEX
  5
27F
  8
0
  6
CONTINUOUS
 62
     7
 10
149.9885989831
 20
242.3617821579
 30
0.0
  0
VERTEX
  5
280
  8
0
  6
CONTINUOUS
 62
     7
 10
150.0125272677
 20
242.4947780018
 30
0.0
  0
SEQEND
  5
378
  8
0
  6
CONTINUOUS
 62
     7
  0
POLYLINE
  5
83
  8
0
  6
CONTINUOUS
 62
     7
 66
     1
 10
0.0
 20
0.0
 30
0.0
  0
VERTEX
  5
281
  8
0
  6
CONTINUOUS
 62
     7
 10
143.9238859819
 20
239.11695298
 30
0.0
  0
VERTEX
  5
282
  8
0
  6
CONTINUOUS
 62
     7
 10
138.5730607913
 20
238.5303598289
 30
0.0
  0
VERTEX
  5
283
  8
0
  6
CONTINUOUS
 62
     7
 10
133.206903796
 20
238.0323570614
 30
0.0
  0
VERTEX
  5
284
  8
0
  6
CONTINUOUS
 62
     7
 10
127.814648907
 20
237.6352053528
 30
0.0
  0
VERTEX
  5
285
  8
0
  6
CONTINUOUS
 62
     7
 10
122.4115556584
 20
237.3502236252
 30
0.0
  0
VERTEX
  5
286
  8
0
  6
CONTINUOUS
 62
     7
 10
116.510065879
 20
237.1765595322
 30
0.0
  0
VERTEX
  5
287
  8
0
  6
CONTINUOUS
 62
     7
 10
110.6049171196
 20
237.1502262001
 30
0.0
  0
VERTEX
  5
288
  8
0
  6
CONTINUOUS
 62
     7
 10
104.6797542379
 20
237.2735005264
 30
0.0
  0
VERTEX
  5
289
  8
0
  6
CONTINUOUS
 62
     7
 10
98.761708896
 20
237.5422697906
 30
0.0
  0
VERTEX
  5
28A
  8
0
  6
CONTINUOUS
 62
     7
 10
94.3404226111
 20
237.8342848663
 30
0.0
  0
VERTEX
  5
28B
  8
0
  6
CONTINUOUS
 62
     7
 10
89.9274794863
 20
238.1981831436
 30
0.0
  0
VERTEX
  5
28C
  8
0
  6
CONTINUOUS
 62
     7
 10
85.517237942
 20
238.6284035091
 30
0.0
  0
VERTEX
  5
28D
  8
0
  6
CONTINUOUS
 62
     7
 10
81.117559831
 20
239.11695298
 30
0.0
  0
SEQEND
  5
377
  8
0
  6
CONTINUOUS
 62
     7
  0
POLYLINE
  5
84
  8
0
  6
CONTINUOUS
 62
     7
 66
     1
 10
0.0
 20
0.0
 30
0.0
  0
VERTEX
  5
28E
  8
0
  6
CONTINUOUS
 62
     7
 10
75.0289185451
 20
242.4947780018
 30
0.0
  0
VERTEX
  5
28F
  8
0
  6
CONTINUOUS
 62
     7
 10
75.1032604383
 20
242.2601204758
 30
0.0
  0
VERTEX
  5
290
  8
0
  6
CONTINUOUS
 62
     7
 10
75.3605051444
 20
241.9347148781
 30
0.0
  0
VERTEX
  5
291
  8
0
  6
CONTINUOUS
 62
     7
 10
75.7702572749
 20
241.541085804
 30
0.0
  0
VERTEX
  5
292
  8
0
  6
CONTINUOUS
 62
     7
 10
76.3380183385
 20
241.0772663002
 30
0.0
  0
VERTEX
  5
293
  8
0
  6
CONTINUOUS
 62
     7
 10
77.0707441972
 20
240.5710261707
 30
0.0
  0
VERTEX
  5
294
  8
0
  6
CONTINUOUS
 62
     7
 10
77.9669357942
 20
240.066425169
 30
0.0
  0
VERTEX
  5
295
  8
0
  6
CONTINUOUS
 62
     7
 10
78.8470490382
 20
239.6788817291
 30
0.0
  0
VERTEX
  5
296
  8
0
  6
CONTINUOUS
 62
     7
 10
79.8447860883
 20
239.3575590496
 30
0.0
  0
VERTEX
  5
297
  8
0
  6
CONTINUOUS
 62
     7
 10
80.4675950215
 20
239.21679076
 30
0.0
  0
VERTEX
  5
298
  8
0
  6
CONTINUOUS
 62
     7
 10
81.117559831
 20
239.11695298
 30
0.0
  0
SEQEND
  5
376
  8
0
  6
CONTINUOUS
 62
     7
  0
POLYLINE
  5
85
  8
0
  6
CONTINUOUS
 62
     7
 66
     1
 10
0.0
 20
0.0
 30
0.0
  0
VERTEX
  5
299
  8
0
  6
CONTINUOUS
 62
     7
 10
75.0289185451
 20
242.4947839622
 30
0.0
  0
VERTEX
  5
29A
  8
0
  6
CONTINUOUS
 62
     7
 10
75.0572367118
 20
242.7911203747
 30
0.0
  0
VERTEX
  5
29B
  8
0
  6
CONTINUOUS
 62
     7
 10
75.0730647252
 20
242.9157954102
 30
0.0
  0
SEQEND
  5
375
  8
0
  6
CONTINUOUS
 62
     7
  0
POLYLINE
  5
86
  8
0
  6
CONTINUOUS
 62
     7
 66
     1
 10
0.0
 20
0.0
 30
0.0
  0
VERTEX
  5
29C
  8
0
  6
CONTINUOUS
 62
     7
 10
75.1184328006
 20
243.0137854462
 30
0.0
  0
VERTEX
  5
29D
  8
0
  6
CONTINUOUS
 62
     7
 10
75.1285447286
 20
243.0584293251
 30
0.0
  0
VERTEX
  5
29E
  8
0
  6
CONTINUOUS
 62
     7
 10
75.1745356725
 20
243.1641441231
 30
0.0
  0
VERTEX
  5
29F
  8
0
  6
CONTINUOUS
 62
     7
 10
75.1723779843
 20
243.2110052948
 30
0.0
  0
VERTEX
  5
2A0
  8
0
  6
CONTINUOUS
 62
     7
 10
75.1452757524
 20
243.2638567333
 30
0.0
  0
VERTEX
  5
2A1
  8
0
  6
CONTINUOUS
 62
     7
 10
75.1421107457
 20
243.3214109783
 30
0.0
  0
VERTEX
  5
2A2
  8
0
  6
CONTINUOUS
 62
     7
 10
75.223858516
 20
243.3798414116
 30
0.0
  0
VERTEX
  5
2A3
  8
0
  6
CONTINUOUS
 62
     7
 10
75.4386170314
 20
243.4364539032
 30
0.0
  0
VERTEX
  5
2A4
  8
0
  6
CONTINUOUS
 62
     7
 10
75.7961376117
 20
243.4921842461
 30
0.0
  0
VERTEX
  5
2A5
  8
0
  6
CONTINUOUS
 62
     7
 10
76.3973130391
 20
243.546722496
 30
0.0
  0
VERTEX
  5
2A6
  8
0
  6
CONTINUOUS
 62
     7
 10
77.3143781827
 20
243.6015349274
 30
0.0
  0
SEQEND
  5
374
  8
0
  6
CONTINUOUS
 62
     7
  0
LINE
  5
87
  8
0
  6
CONTINUOUS
 62
     7
 10
150.1207216189
 20
242.0365851765
 30
0.0
 11
150.1207216189
 21
242.3422854786
 31
0.0
  0
LINE
  5
88
  8
0
  6
CONTINUOUS
 62
     7
 10
74.9207241939
 20
241.8615382557
 30
0.0
 11
74.9207241939
 21
241.6870754604
 31
0.0
  0
LINE
  5
89
  8
0
  6
CONTINUOUS
 62
     7
 10
74.9207241939
 20
242.3320930843
 30
0.0
 11
74.9207241939
 21
242.0365851765
 31
0.0
  0
LINE
  5
8A
  8
0
  6
CONTINUOUS
 62
     7
 10
75.6207241223
 20
238.9896314983
 30
0.0
 11
75.6207241223
 21
237.0249253159
 31
0.0
  0
LINE
  5
8B
  8
0
  6
CONTINUOUS
 62
     7
 10
74.8207225011
 20
237.0249253159
 30
0.0
 11
74.8207225011
 21
238.9896314983
 31
0.0
  0
LINE
  5
8C
  8
0
  6
CONTINUOUS
 62
     7
 10
75.6207241223
 20
238.9896314983
 30
0.0
 11
75.6207241223
 21
240.301172102
 31
0.0
  0
LINE
  5
8D
  8
0
  6
CONTINUOUS
 62
     7
 10
74.8207225011
 20
240.2407866364
 30
0.0
 11
74.8207225011
 21
238.9896314983
 31
0.0
  0
ARC
  5
8E
  8
0
  6
CONTINUOUS
 62
     7
 10
75.8207229064
 20
240.2407859329
 30
0.0
 40
1.00000000000001
 50
138.1768700679
 51
180.0
  0
LINE
  5
8F
  8
0
  6
CONTINUOUS
 62
     7
 10
75.6207241223
 20
237.0249253159
 30
0.0
 11
75.6207241223
 21
231.2026720886
 31
0.0
  0
LINE
  5
90
  8
0
  6
CONTINUOUS
 62
     7
 10
74.8207225011
 20
231.2026720886
 30
0.0
 11
74.8207225011
 21
237.0249253159
 31
0.0
  0
LINE
  5
91
  8
0
  6
CONTINUOUS
 62
     7
 10
75.6207241223
 20
230.93808111
 30
0.0
 11
75.6207241223
 21
231.2026720886
 31
0.0
  0
LINE
  5
92
  8
0
  6
CONTINUOUS
 62
     7
 10
74.8207225011
 20
231.2026720886
 30
0.0
 11
74.8207225011
 21
230.93808111
 31
0.0
  0
LINE
  5
93
  8
0
  6
CONTINUOUS
 62
     7
 10
75.6207241223
 20
230.93808111
 30
0.0
 11
75.6207241223
 21
229.0457111244
 31
0.0
  0
LINE
  5
94
  8
0
  6
CONTINUOUS
 62
     7
 10
74.8207225011
 20
229.0457111244
 30
0.0
 11
74.8207225011
 21
230.93808111
 31
0.0
  0
LINE
  5
95
  8
0
  6
CONTINUOUS
 62
     7
 10
75.6207241223
 20
229.0457111244
 30
0.0
 11
75.6207241223
 21
225.6337386017
 31
0.0
  0
LINE
  5
96
  8
0
  6
CONTINUOUS
 62
     7
 10
74.8207225011
 20
225.6337386017
 30
0.0
 11
74.8207225011
 21
229.0457111244
 31
0.0
  0
LINE
  5
97
  8
0
  6
CONTINUOUS
 62
     7
 10
75.6207241223
 20
225.6337386017
 30
0.0
 11
75.6207241223
 21
223.7380009537
 31
0.0
  0
LINE
  5
98
  8
0
  6
CONTINUOUS
 62
     7
 10
74.8207225011
 20
223.7380009537
 30
0.0
 11
74.8207225011
 21
225.6337386017
 31
0.0
  0
LINE
  5
99
  8
0
  6
CONTINUOUS
 62
     7
 10
75.6207241223
 20
221.738002861
 30
0.0
 11
74.8207225011
 21
221.738002861
 31
0.0
  0
LINE
  5
9A
  8
0
  6
CONTINUOUS
 62
     7
 10
75.6207241223
 20
223.7380009537
 30
0.0
 11
75.6207241223
 21
221.738002861
 31
0.0
  0
LINE
  5
9B
  8
0
  6
CONTINUOUS
 62
     7
 10
74.8207225011
 20
221.738002861
 30
0.0
 11
74.8207225011
 21
223.7380009537
 31
0.0
  0
LINE
  5
9C
  8
0
  6
CONTINUOUS
 62
     7
 10
70.0207217143
 20
224.5380025749
 30
0.0
 11
70.0207217143
 21
217.1380024796
 31
0.0
  0
LINE
  5
9D
  8
0
  6
CONTINUOUS
 62
     7
 10
80.0207240985
 20
224.5380025749
 30
0.0
 11
80.0207240985
 21
217.1380024796
 31
0.0
  0
LINE
  5
9E
  8
0
  6
CONTINUOUS
 62
     7
 10
78.0207230256
 20
215.1379984264
 30
0.0
 11
72.0207227872
 21
215.1379984264
 31
0.0
  0
ARC
  5
9F
  8
0
  6
CONTINUOUS
 62
     7
 10
78.0207229064
 20
217.138
 30
0.0
 40
2.0
 50
270.0
 51
0.0
  0
ARC
  5
A0
  8
0
  6
CONTINUOUS
 62
     7
 10
72.0207229064
 20
217.138
 30
0.0
 40
2.0
 50
180.0
 51
270.0
  0
LINE
  5
A1
  8
0
  6
CONTINUOUS
 62
     7
 10
74.8207225011
 20
225.5380016212
 30
0.0
 11
70.0207217143
 21
225.5380016212
 31
0.0
  0
LINE
  5
A2
  8
0
  6
CONTINUOUS
 62
     7
 10
70.0207217143
 20
225.5380016212
 30
0.0
 11
70.0207217143
 21
224.5380025749
 31
0.0
  0
LINE
  5
A3
  8
0
  6
CONTINUOUS
 62
     7
 10
80.0207240985
 20
225.5380016212
 30
0.0
 11
75.6207241223
 21
225.5380016212
 31
0.0
  0
LINE
  5
A4
  8
0
  6
CONTINUOUS
 62
     7
 10
80.0207240985
 20
225.5380016212
 30
0.0
 11
80.0207240985
 21
224.5380025749
 31
0.0
  0
LINE
  5
A5
  8
0
  6
CONTINUOUS
 62
     7
 10
150.2207233117
 20
237.0249253159
 30
0.0
 11
150.2207233117
 21
238.9896314983
 31
0.0
  0
LINE
  5
A6
  8
0
  6
CONTINUOUS
 62
     7
 10
149.4207216905
 20
238.9896314983
 30
0.0
 11
149.4207216905
 21
237.0249253159
 31
0.0
  0
LINE
  5
A7
  8
0
  6
CONTINUOUS
 62
     7
 10
150.2207233117
 20
240.2407866364
 30
0.0
 11
150.2207233117
 21
238.9896314983
 31
0.0
  0
LINE
  5
A8
  8
0
  6
CONTINUOUS
 62
     7
 10
149.4207216905
 20
238.9896314983
 30
0.0
 11
149.4207216905
 21
240.2934234982
 31
0.0
  0
ARC
  5
A9
  8
0
  6
CONTINUOUS
 62
     7
 10
149.2207229064
 20
240.2407859329
 30
0.0
 40
1.000000000000009
 50
0.0
 51
42.1872028391
  0
LINE
  5
AA
  8
0
  6
CONTINUOUS
 62
     7
 10
150.2207233117
 20
231.2026720886
 30
0.0
 11
150.2207233117
 21
237.0249253159
 31
0.0
  0
LINE
  5
AB
  8
0
  6
CONTINUOUS
 62
     7
 10
149.4207216905
 20
237.0249253159
 30
0.0
 11
149.4207216905
 21
231.2026720886
 31
0.0
  0
LINE
  5
AC
  8
0
  6
CONTINUOUS
 62
     7
 10
150.2207233117
 20
231.2026720886
 30
0.0
 11
150.2207233117
 21
230.93808111
 31
0.0
  0
LINE
  5
AD
  8
0
  6
CONTINUOUS
 62
     7
 10
149.4207216905
 20
230.93808111
 30
0.0
 11
149.4207216905
 21
231.2026720886
 31
0.0
  0
LINE
  5
AE
  8
0
  6
CONTINUOUS
 62
     7
 10
150.2207233117
 20
229.0457111244
 30
0.0
 11
150.2207233117
 21
230.93808111
 31
0.0
  0
LINE
  5
AF
  8
0
  6
CONTINUOUS
 62
     7
 10
149.4207216905
 20
230.93808111
 30
0.0
 11
149.4207216905
 21
229.0457111244
 31
0.0
  0
LINE
  5
B0
  8
0
  6
CONTINUOUS
 62
     7
 10
150.2207233117
 20
225.6337386017
 30
0.0
 11
150.2207233117
 21
229.0457111244
 31
0.0
  0
LINE
  5
B1
  8
0
  6
CONTINUOUS
 62
     7
 10
149.4207216905
 20
229.0457111244
 30
0.0
 11
149.4207216905
 21
225.6337386017
 31
0.0
  0
LINE
  5
B2
  8
0
  6
CONTINUOUS
 62
     7
 10
150.2207233117
 20
223.7380009537
 30
0.0
 11
150.2207233117
 21
225.6337386017
 31
0.0
  0
LINE
  5
B3
  8
0
  6
CONTINUOUS
 62
     7
 10
149.4207216905
 20
225.6337386017
 30
0.0
 11
149.4207216905
 21
223.7380009537
 31
0.0
  0
LINE
  5
B4
  8
0
  6
CONTINUOUS
 62
     7
 10
149.4207216905
 20
221.738002861
 30
0.0
 11
150.2207233117
 21
221.738002861
 31
0.0
  0
LINE
  5
B5
  8
0
  6
CONTINUOUS
 62
     7
 10
150.2207233117
 20
221.738002861
 30
0.0
 11
150.2207233117
 21
223.7380009537
 31
0.0
  0
LINE
  5
B6
  8
0
  6
CONTINUOUS
 62
     7
 10
149.4207216905
 20
223.7380009537
 30
0.0
 11
149.4207216905
 21
221.738002861
 31
0.0
  0
LINE
  5
B7
  8
0
  6
CONTINUOUS
 62
     7
 10
145.0207217143
 20
224.5380025749
 30
0.0
 11
145.0207217143
 21
217.1380024796
 31
0.0
  0
LINE
  5
B8
  8
0
  6
CONTINUOUS
 62
     7
 10
155.0207240985
 20
224.5380025749
 30
0.0
 11
155.0207240985
 21
217.1380024796
 31
0.0
  0
ARC
  5
B9
  8
0
  6
CONTINUOUS
 62
     7
 10
147.0207229064
 20
217.138
 30
0.0
 40
2.0
 50
180.0
 51
270.0
  0
ARC
  5
BA
  8
0
  6
CONTINUOUS
 62
     7
 10
153.0207229064
 20
217.138
 30
0.0
 40
2.0
 50
270.0
 51
0.0
  0
LINE
  5
BB
  8
0
  6
CONTINUOUS
 62
     7
 10
147.0207227872
 20
215.1379984264
 30
0.0
 11
153.0207230256
 21
215.1379984264
 31
0.0
  0
LINE
  5
BC
  8
0
  6
CONTINUOUS
 62
     7
 10
145.0207217143
 20
225.5380016212
 30
0.0
 11
149.4207216905
 21
225.5380016212
 31
0.0
  0
LINE
  5
BD
  8
0
  6
CONTINUOUS
 62
     7
 10
145.0207217143
 20
225.5380016212
 30
0.0
 11
145.0207217143
 21
224.5380025749
 31
0.0
  0
LINE
  5
BE
  8
0
  6
CONTINUOUS
 62
     7
 10
150.2207233117
 20
225.5380016212
 30
0.0
 11
155.0207240985
 21
225.5380016212
 31
0.0
  0
LINE
  5
BF
  8
0
  6
CONTINUOUS
 62
     7
 10
155.0207240985
 20
225.5380016212
 30
0.0
 11
155.0207240985
 21
224.5380025749
 31
0.0
  0
ARC
  5
C0
  8
0
  6
CONTINUOUS
 62
     7
 10
172.5207229064
 20
265.738
 30
0.0
 40
2.700000000000017
 50
0.0
 51
180.0
  0
ARC
  5
C1
  8
0
  6
CONTINUOUS
 62
     7
 10
172.5207229064
 20
219.138
 30
0.0
 40
2.700000000000017
 50
180.0
 51
0.0
  0
ARC
  5
C2
  8
0
  6
CONTINUOUS
 62
     7
 10
176.5207229064
 20
217.938
 30
0.0
 40
2.0
 50
270.0
 51
0.0
  0
LINE
  5
C3
  8
0
  6
CONTINUOUS
 62
     7
 10
176.5207214759
 20
215.9380000477
 30
0.0
 11
168.5207231448
 21
215.9380000477
 31
0.0
  0
ARC
  5
C4
  8
0
  6
CONTINUOUS
 62
     7
 10
168.5207229064
 20
217.938
 30
0.0
 40
2.0
 50
180.0
 51
270.0
  0
LINE
  5
C5
  8
0
  6
CONTINUOUS
 62
     7
 10
166.5207250522
 20
224.5380025749
 30
0.0
 11
166.5207250522
 21
217.9379981403
 31
0.0
  0
LINE
  5
C6
  8
0
  6
CONTINUOUS
 62
     7
 10
178.520725529
 20
224.5380025749
 30
0.0
 11
178.520725529
 21
217.9379981403
 31
0.0
  0
LINE
  5
C7
  8
0
  6
CONTINUOUS
 62
     7
 10
166.5207250522
 20
224.5380025749
 30
0.0
 11
166.5207250522
 21
225.7379990463
 31
0.0
  0
LINE
  5
C8
  8
0
  6
CONTINUOUS
 62
     7
 10
166.5207250522
 20
225.7379990463
 30
0.0
 11
169.8207242892
 21
225.7379990463
 31
0.0
  0
LINE
  5
C9
  8
0
  6
CONTINUOUS
 62
     7
 10
175.2207203315
 20
225.7379990463
 30
0.0
 11
178.520725529
 21
225.7379990463
 31
0.0
  0
LINE
  5
CA
  8
0
  6
CONTINUOUS
 62
     7
 10
178.520725529
 20
225.7379990463
 30
0.0
 11
178.520725529
 21
224.5380025749
 31
0.0
  0
ARC
  5
CB
  8
0
  6
CONTINUOUS
 62
     7
 10
52.5207229064
 20
265.738
 30
0.0
 40
2.70000000000001
 50
0.0
 51
180.0
  0
ARC
  5
CC
  8
0
  6
CONTINUOUS
 62
     7
 10
52.5207229064
 20
219.138
 30
0.0
 40
2.70000000000001
 50
180.0
 51
0.0
  0
ARC
  5
CD
  8
0
  6
CONTINUOUS
 62
     7
 10
56.5207229064
 20
217.938
 30
0.0
 40
2.000000000000007
 50
270.0
 51
0.0
  0
LINE
  5
CE
  8
0
  6
CONTINUOUS
 62
     7
 10
56.520722668
 20
215.9380000477
 30
0.0
 11
48.5207243369
 21
215.9380000477
 31
0.0
  0
ARC
  5
CF
  8
0
  6
CONTINUOUS
 62
     7
 10
48.5207229064
 20
217.938
 30
0.0
 40
2.0
 50
180.0
 51
270.0
  0
LINE
  5
D0
  8
0
  6
CONTINUOUS
 62
     7
 10
46.5207202838
 20
224.5380025749
 30
0.0
 11
46.5207202838
 21
217.9379981403
 31
0.0
  0
LINE
  5
D1
  8
0
  6
CONTINUOUS
 62
     7
 10
58.5207207606
 20
224.5380025749
 30
0.0
 11
58.5207207606
 21
217.9379981403
 31
0.0
  0
LINE
  5
D2
  8
0
  6
CONTINUOUS
 62
     7
 10
46.5207202838
 20
224.5380025749
 30
0.0
 11
46.5207202838
 21
225.7379990463
 31
0.0
  0
LINE
  5
D3
  8
0
  6
CONTINUOUS
 62
     7
 10
46.5207202838
 20
225.7379990463
 30
0.0
 11
49.8207254813
 21
225.7379990463
 31
0.0
  0
LINE
  5
D4
  8
0
  6
CONTINUOUS
 62
     7
 10
55.2207215236
 20
225.7379990463
 30
0.0
 11
58.5207207606
 21
225.7379990463
 31
0.0
  0
LINE
  5
D5
  8
0
  6
CONTINUOUS
 62
     7
 10
58.5207207606
 20
225.7379990463
 30
0.0
 11
58.5207207606
 21
224.5380025749
 31
0.0
  0
POLYLINE
  5
D6
  8
0
  6
CONTINUOUS
 62
     7
 66
     1
 10
0.0
 20
0.0
 30
0.0
  0
VERTEX
  5
2A7
  8
0
  6
CONTINUOUS
 62
     7
 10
334.180628945
 20
239.366303051
 30
0.0
  0
VERTEX
  5
2A8
  8
0
  6
CONTINUOUS
 62
     7
 10
335.9646436469
 20
239.4625287895
 30
0.0
  0
VERTEX
  5
2A9
  8
0
  6
CONTINUOUS
 62
     7
 10
338.3857366339
 20
239.6068673973
 30
0.0
  0
VERTEX
  5
2AA
  8
0
  6
CONTINUOUS
 62
     7
 10
339.5774242179
 20
239.5967703705
 30
0.0
  0
VERTEX
  5
2AB
  8
0
  6
CONTINUOUS
 62
     7
 10
340.7272335784
 20
239.4472163563
 30
0.0
  0
VERTEX
  5
2AC
  8
0
  6
CONTINUOUS
 62
     7
 10
341.818129708
 20
239.109573925
 30
0.0
  0
VERTEX
  5
2AD
  8
0
  6
CONTINUOUS
 62
     7
 10
342.855095555
 20
238.6007946377
 30
0.0
  0
VERTEX
  5
2AE
  8
0
  6
CONTINUOUS
 62
     7
 10
344.1724714534
 20
237.7153736
 30
0.0
  0
VERTEX
  5
2AF
  8
0
  6
CONTINUOUS
 62
     7
 10
345.4387184874
 20
236.6676967983
 30
0.0
  0
VERTEX
  5
2B0
  8
0
  6
CONTINUOUS
 62
     7
 10
346.6794010894
 20
235.5388861542
 30
0.0
  0
SEQEND
  5
373
  8
0
  6
CONTINUOUS
 62
     7
  0
LINE
  5
D7
  8
0
  6
CONTINUOUS
 62
     7
 10
346.6796395079
 20
235.5525534992
 30
0.0
 11
346.7076775328
 21
237.1585708504
 31
0.0
  0
LINE
  5
D8
  8
0
  6
CONTINUOUS
 62
     7
 10
334.180628945
 20
241.2407856827
 30
0.0
 11
320.5806252257
 21
241.2407856827
 31
0.0
  0
LINE
  5
D9
  8
0
  6
CONTINUOUS
 62
     7
 10
315.1806262032
 20
241.2407856827
 30
0.0
 11
273.0460972236
 21
241.2407856827
 31
0.0
  0
ARC
  5
DA
  8
0
  6
CONTINUOUS
 62
     7
 10
282.8806267993
 20
250.738
 30
0.0
 40
12.30000000000001
 50
90.0
 51
180.0
  0
ARC
  5
DB
  8
0
  6
CONTINUOUS
 62
     7
 10
282.8806267993
 20
250.738
 30
0.0
 40
17.69999999999999
 50
90.0
 51
180.0
  0
LINE
  5
DC
  8
0
  6
CONTINUOUS
 62
     7
 10
270.5806267158
 20
225.7379990463
 30
0.0
 11
270.5806267158
 21
250.7379990463
 31
0.0
  0
LINE
  5
DD
  8
0
  6
CONTINUOUS
 62
     7
 10
265.180626762
 20
250.7379990463
 30
0.0
 11
265.180626762
 21
225.7379990463
 31
0.0
  0
LINE
  5
DE
  8
0
  6
CONTINUOUS
 62
     7
 10
273.8806266979
 20
216.4379995708
 30
0.0
 11
302.8806266085
 21
216.4379995708
 31
0.0
  0
LINE
  5
DF
  8
0
  6
CONTINUOUS
 62
     7
 10
302.8806266085
 20
221.8380015736
 30
0.0
 11
273.8806266979
 21
221.8380015736
 31
0.0
  0
LINE
  5
E0
  8
0
  6
CONTINUOUS
 62
     7
 10
302.8806266085
 20
268.438003624
 30
0.0
 11
282.8806263105
 21
268.438003624
 31
0.0
  0
LINE
  5
E1
  8
0
  6
CONTINUOUS
 62
     7
 10
282.8806263105
 20
263.0380016212
 30
0.0
 11
302.8806266085
 21
263.0380016212
 31
0.0
  0
ARC
  5
E2
  8
0
  6
CONTINUOUS
 62
     7
 10
302.8806267993
 20
250.738
 30
0.0
 40
12.30000000000001
 50
0.0
 51
90.0
  0
ARC
  5
E3
  8
0
  6
CONTINUOUS
 62
     7
 10
302.8806267993
 20
250.738
 30
0.0
 40
17.69999999999999
 50
360.0
 51
90.0
  0
ARC
  5
E4
  8
0
  6
CONTINUOUS
 62
     7
 10
302.8806267993
 20
234.138
 30
0.0
 40
12.30000000000001
 50
270.0
 51
0.0
  0
ARC
  5
E5
  8
0
  6
CONTINUOUS
 62
     7
 10
302.8806267993
 20
234.138
 30
0.0
 40
17.69999999999999
 50
270.0
 51
0.0
  0
LINE
  5
E6
  8
0
  6
CONTINUOUS
 62
     7
 10
320.5806252257
 20
234.137998188
 30
0.0
 11
320.5806252257
 21
250.7379990463
 31
0.0
  0
LINE
  5
E7
  8
0
  6
CONTINUOUS
 62
     7
 10
315.1806262032
 20
250.7379990463
 30
0.0
 11
315.1806262032
 21
234.137998188
 31
0.0
  0
LINE
  5
E8
  8
0
  6
CONTINUOUS
 62
     7
 10
262.6806267248
 20
215.9380000477
 30
0.0
 11
262.6806267248
 21
223.9379983788
 31
0.0
  0
ARC
  5
E9
  8
0
  6
CONTINUOUS
 62
     7
 10
263.6806267993
 20
223.938
 30
0.0
 40
1.0
 50
90.0
 51
180.0
  0
ARC
  5
EA
  8
0
  6
CONTINUOUS
 62
     7
 10
263.6806267993
 20
215.938
 30
0.0
 40
1.0
 50
180.0
 51
270.0
  0
LINE
  5
EB
  8
0
  6
CONTINUOUS
 62
     7
 10
263.6806268887
 20
224.9379974251
 30
0.0
 11
271.6806267099
 21
224.9379974251
 31
0.0
  0
LINE
  5
EC
  8
0
  6
CONTINUOUS
 62
     7
 10
271.6806267099
 20
214.9380010014
 30
0.0
 11
263.6806268887
 21
214.9380010014
 31
0.0
  0
ARC
  5
ED
  8
0
  6
CONTINUOUS
 62
     7
 10
271.6806267993
 20
223.938
 30
0.0
 40
1.0
 50
0.0
 51
90.0
  0
ARC
  5
EE
  8
0
  6
CONTINUOUS
 62
     7
 10
271.6806267993
 20
215.938
 30
0.0
 40
1.0
 50
270.0
 51
0.0
  0
LINE
  5
EF
  8
0
  6
CONTINUOUS
 62
     7
 10
272.6806268738
 20
223.9379983788
 30
0.0
 11
272.6806268738
 21
215.9380000477
 31
0.0
  0
LINE
  5
F0
  8
0
  6
CONTINUOUS
 62
     7
 10
255.6806270675
 20
149.738
 30
0.0
 11
255.6806270675
 21
150.9380000104
 31
0.0
  0
LINE
  5
F1
  8
0
  6
CONTINUOUS
 62
     7
 10
259.6806269781
 20
149.738
 30
0.0
 11
255.6806270675
 21
149.738
 31
0.0
  0
LINE
  5
F2
  8
0
  6
CONTINUOUS
 62
     7
 10
255.6806270675
 20
150.9380000104
 30
0.0
 11
259.6806269781
 21
150.9380000104
 31
0.0
  0
LINE
  5
F3
  8
0
  6
CONTINUOUS
 62
     7
 10
259.6806269781
 20
149.738
 30
0.0
 11
261.6806269334
 21
149.738
 31
0.0
  0
LINE
  5
F4
  8
0
  6
CONTINUOUS
 62
     7
 10
259.6806269781
 20
150.9380000104
 30
0.0
 11
261.6806269334
 21
150.9380000104
 31
0.0
  0
LINE
  5
F5
  8
0
  6
CONTINUOUS
 62
     7
 10
261.6806269334
 20
149.738
 30
0.0
 11
289.0490484134
 21
149.738
 31
0.0
  0
LINE
  5
F6
  8
0
  6
CONTINUOUS
 62
     7
 10
289.0490484134
 20
150.9380000104
 30
0.0
 11
261.6806269334
 21
150.9380000104
 31
0.0
  0
LINE
  5
F7
  8
0
  6
CONTINUOUS
 62
     7
 10
291.6806262628
 20
150.9380000104
 30
0.0
 11
291.6806262628
 21
149.738
 31
0.0
  0
LINE
  5
F8
  8
0
  6
CONTINUOUS
 62
     7
 10
291.6806262628
 20
149.738
 30
0.0
 11
289.0490484134
 21
149.738
 31
0.0
  0
LINE
  5
F9
  8
0
  6
CONTINUOUS
 62
     7
 10
289.0490484134
 20
150.9380000104
 30
0.0
 11
291.6806262628
 21
150.9380000104
 31
0.0
  0
LINE
  5
FA
  8
0
  6
CONTINUOUS
 62
     7
 10
262.6806267248
 20
150.9380000104
 30
0.0
 11
262.6806267248
 21
215.1379984264
 31
0.0
  0
LINE
  5
FB
  8
0
  6
CONTINUOUS
 62
     7
 10
272.6806268738
 20
215.1379984264
 30
0.0
 11
272.6806268738
 21
150.9380000104
 31
0.0
  0
LINE
  5
FC
  8
0
  6
CONTINUOUS
 62
     7
 10
279.1363511876
 20
241.8066066151
 30
0.0
 11
277.92408361
 21
241.2407856827
 31
0.0
  0
POLYLINE
  5
FD
  8
0
  6
CONTINUOUS
 62
     7
 66
     1
 10
0.0
 20
0.0
 30
0.0
  0
VERTEX
  5
2B1
  8
0
  6
CONTINUOUS
 62
     7
 10
283.7690424816
 20
242.4378972893
 30
0.0
  0
VERTEX
  5
2B2
  8
0
  6
CONTINUOUS
 62
     7
 10
282.6365631716
 20
242.4298745041
 30
0.0
  0
VERTEX
  5
2B3
  8
0
  6
CONTINUOUS
 62
     7
 10
281.557884504
 20
242.3596244698
 30
0.0
  0
VERTEX
  5
2B4
  8
0
  6
CONTINUOUS
 62
     7
 10
280.624054064
 20
242.2317486649
 30
0.0
  0
VERTEX
  5
2B5
  8
0
  6
CONTINUOUS
 62
     7
 10
279.8102599279
 20
242.0469742661
 30
0.0
  0
VERTEX
  5
2B6
  8
0
  6
CONTINUOUS
 62
     7
 10
279.1363511876
 20
241.8066066151
 30
0.0
  0
SEQEND
  5
372
  8
0
  6
CONTINUOUS
 62
     7
  0
POLYLINE
  5
FE
  8
0
  6
CONTINUOUS
 62
     7
 66
     1
 10
0.0
 20
0.0
 30
0.0
  0
VERTEX
  5
2B7
  8
0
  6
CONTINUOUS
 62
     7
 10
286.7897656457
 20
242.3851471786
 30
0.0
  0
VERTEX
  5
2B8
  8
0
  6
CONTINUOUS
 62
     7
 10
285.2794018285
 20
242.4115341549
 30
0.0
  0
VERTEX
  5
2B9
  8
0
  6
CONTINUOUS
 62
     7
 10
283.7690424816
 20
242.4378972893
 30
0.0
  0
SEQEND
  5
371
  8
0
  6
CONTINUOUS
 62
     7
  0
POLYLINE
  5
FF
  8
0
  6
CONTINUOUS
 62
     7
 66
     1
 10
0.0
 20
0.0
 30
0.0
  0
VERTEX
  5
2BA
  8
0
  6
CONTINUOUS
 62
     7
 10
291.7890038983
 20
242.2978800182
 30
0.0
  0
VERTEX
  5
2BB
  8
0
  6
CONTINUOUS
 62
     7
 10
289.2858621375
 20
242.3346084003
 30
0.0
  0
VERTEX
  5
2BC
  8
0
  6
CONTINUOUS
 62
     7
 10
286.7953982846
 20
242.384998167
 30
0.0
  0
SEQEND
  5
370
  8
0
  6
CONTINUOUS
 62
     7
  0
LINE
  5
100
  8
0
  6
CONTINUOUS
 62
     7
 10
291.8151241438
 20
242.2974270229
 30
0.0
 11
291.7890038983
 21
242.2978800182
 31
0.0
  0
POLYLINE
  5
101
  8
0
  6
CONTINUOUS
 62
     7
 66
     1
 10
0.0
 20
0.0
 30
0.0
  0
VERTEX
  5
2BD
  8
0
  6
CONTINUOUS
 62
     7
 10
296.8223240868
 20
242.2100108509
 30
0.0
  0
VERTEX
  5
2BE
  8
0
  6
CONTINUOUS
 62
     7
 10
294.3185773389
 20
242.2539990788
 30
0.0
  0
VERTEX
  5
2BF
  8
0
  6
CONTINUOUS
 62
     7
 10
291.8151569263
 20
242.2974270229
 30
0.0
  0
SEQEND
  5
36F
  8
0
  6
CONTINUOUS
 62
     7
  0
LINE
  5
102
  8
0
  6
CONTINUOUS
 62
     7
 10
298.6730304257
 20
242.17047509
 30
0.0
 11
296.822338988
 21
242.2099333649
 31
0.0
  0
LINE
  5
103
  8
0
  6
CONTINUOUS
 62
     7
 10
306.7867216365
 20
242.0360964184
 30
0.0
 11
298.6730304257
 21
242.17047509
 31
0.0
  0
POLYLINE
  5
104
  8
0
  6
CONTINUOUS
 62
     7
 66
     1
 10
0.0
 20
0.0
 30
0.0
  0
VERTEX
  5
2C0
  8
0
  6
CONTINUOUS
 62
     7
 10
315.1806262032
 20
241.8913584595
 30
0.0
  0
VERTEX
  5
2C1
  8
0
  6
CONTINUOUS
 62
     7
 10
309.9585977093
 20
241.9883352165
 30
0.0
  0
VERTEX
  5
2C2
  8
0
  6
CONTINUOUS
 62
     7
 10
306.7867335574
 20
242.0360964184
 30
0.0
  0
SEQEND
  5
36E
  8
0
  6
CONTINUOUS
 62
     7
  0
POLYLINE
  5
105
  8
0
  6
CONTINUOUS
 62
     7
 66
     1
 10
0.0
 20
0.0
 30
0.0
  0
VERTEX
  5
2C3
  8
0
  6
CONTINUOUS
 62
     7
 10
326.7844673888
 20
241.687057579
 30
0.0
  0
VERTEX
  5
2C4
  8
0
  6
CONTINUOUS
 62
     7
 10
321.785932471
 20
241.7318981533
 30
0.0
  0
VERTEX
  5
2C5
  8
0
  6
CONTINUOUS
 62
     7
 10
320.5806252257
 20
241.763154829
 30
0.0
  0
SEQEND
  5
36D
  8
0
  6
CONTINUOUS
 62
     7
  0
POLYLINE
  5
106
  8
0
  6
CONTINUOUS
 62
     7
 66
     1
 10
0.0
 20
0.0
 30
0.0
  0
VERTEX
  5
2C6
  8
0
  6
CONTINUOUS
 62
     7
 10
338.4401497142
 20
241.2688773518
 30
0.0
  0
VERTEX
  5
2C7
  8
0
  6
CONTINUOUS
 62
     7
 10
338.4148237006
 20
241.2735741978
 30
0.0
  0
VERTEX
  5
2C8
  8
0
  6
CONTINUOUS
 62
     7
 10
336.0018131034
 20
241.5920716171
 30
0.0
  0
VERTEX
  5
2C9
  8
0
  6
CONTINUOUS
 62
     7
 10
333.6133476989
 20
241.7313140278
 30
0.0
  0
VERTEX
  5
2CA
  8
0
  6
CONTINUOUS
 62
     7
 10
331.2474307315
 20
241.7546790485
 30
0.0
  0
VERTEX
  5
2CB
  8
0
  6
CONTINUOUS
 62
     7
 10
328.8926061885
 20
241.7200010662
 30
0.0
  0
VERTEX
  5
2CC
  8
0
  6
CONTINUOUS
 62
     7
 10
326.7844673888
 20
241.6870754604
 30
0.0
  0
SEQEND
  5
36C
  8
0
  6
CONTINUOUS
 62
     7
  0
ARC
  5
107
  8
0
  6
CONTINUOUS
 62
     7
 10
336.204488642
 20
228.9814909082
 30
0.0
 40
12.48911710425693
 50
43.7647639822
 51
79.6879731616
  0
POLYLINE
  5
108
  8
0
  6
CONTINUOUS
 62
     7
 66
     1
 10
0.0
 20
0.0
 30
0.0
  0
VERTEX
  5
2CD
  8
0
  6
CONTINUOUS
 62
     7
 10
346.6702875392
 20
235.5527144318
 30
0.0
  0
VERTEX
  5
2CE
  8
0
  6
CONTINUOUS
 62
     7
 10
346.6728505389
 20
235.5488699322
 30
0.0
  0
VERTEX
  5
2CF
  8
0
  6
CONTINUOUS
 62
     7
 10
346.6041442649
 20
235.6525402908
 30
0.0
  0
VERTEX
  5
2D0
  8
0
  6
CONTINUOUS
 62
     7
 10
346.4601811663
 20
235.8684759979
 30
0.0
  0
VERTEX
  5
2D1
  8
0
  6
CONTINUOUS
 62
     7
 10
346.2413248317
 20
236.192230547
 30
0.0
  0
VERTEX
  5
2D2
  8
0
  6
CONTINUOUS
 62
     7
 10
345.8065506713
 20
236.8187826519
 30
0.0
  0
VERTEX
  5
2D3
  8
0
  6
CONTINUOUS
 62
     7
 10
345.2239510314
 20
237.6202028637
 30
0.0
  0
SEQEND
  5
36B
  8
0
  6
CONTINUOUS
 62
     7
  0
POLYLINE
  5
109
  8
0
  6
CONTINUOUS
 62
     7
 66
     1
 10
0.0
 20
0.0
 30
0.0
  0
VERTEX
  5
2D4
  8
0
  6
CONTINUOUS
 62
     7
 10
338.3738812701
 20
242.4947780018
 30
0.0
  0
VERTEX
  5
2D5
  8
0
  6
CONTINUOUS
 62
     7
 10
339.5219859378
 20
242.2555487995
 30
0.0
  0
VERTEX
  5
2D6
  8
0
  6
CONTINUOUS
 62
     7
 10
340.6239625708
 20
241.9347148781
 30
0.0
  0
VERTEX
  5
2D7
  8
0
  6
CONTINUOUS
 62
     7
 10
341.644453694
 20
241.5347379093
 30
0.0
  0
VERTEX
  5
2D8
  8
0
  6
CONTINUOUS
 62
     7
 10
342.5672289626
 20
241.0772663002
 30
0.0
  0
VERTEX
  5
2D9
  8
0
  6
CONTINUOUS
 62
     7
 10
343.4248861567
 20
240.5644458179
 30
0.0
  0
VERTEX
  5
2DA
  8
0
  6
CONTINUOUS
 62
     7
 10
344.1447493331
 20
240.066425169
 30
0.0
  0
VERTEX
  5
2DB
  8
0
  6
CONTINUOUS
 62
     7
 10
344.6511325137
 20
239.6742921715
 30
0.0
  0
VERTEX
  5
2DC
  8
0
  6
CONTINUOUS
 62
     7
 10
345.021074702
 20
239.3575590496
 30
0.0
  0
VERTEX
  5
2DD
  8
0
  6
CONTINUOUS
 62
     7
 10
345.1699075
 20
239.216123188
 30
0.0
  0
VERTEX
  5
2DE
  8
0
  6
CONTINUOUS
 62
     7
 10
345.2604350344
 20
239.11695298
 30
0.0
  0
SEQEND
  5
36A
  8
0
  6
CONTINUOUS
 62
     7
  0
POLYLINE
  5
10A
  8
0
  6
CONTINUOUS
 62
     7
 66
     1
 10
0.0
 20
0.0
 30
0.0
  0
VERTEX
  5
2DF
  8
0
  6
CONTINUOUS
 62
     7
 10
278.9691422776
 20
242.9527741318
 30
0.0
  0
VERTEX
  5
2E0
  8
0
  6
CONTINUOUS
 62
     7
 10
279.5525607363
 20
243.1704204922
 30
0.0
  0
VERTEX
  5
2E1
  8
0
  6
CONTINUOUS
 62
     7
 10
280.3223368422
 20
243.3602314835
 30
0.0
  0
VERTEX
  5
2E2
  8
0
  6
CONTINUOUS
 62
     7
 10
281.2125649945
 20
243.4982043152
 30
0.0
  0
VERTEX
  5
2E3
  8
0
  6
CONTINUOUS
 62
     7
 10
282.2472882168
 20
243.582127655
 30
0.0
  0
VERTEX
  5
2E4
  8
0
  6
CONTINUOUS
 62
     7
 10
282.9189029233
 20
243.6028819923
 30
0.0
  0
VERTEX
  5
2E5
  8
0
  6
CONTINUOUS
 62
     7
 10
283.6240154402
 20
243.6014574413
 30
0.0
  0
SEQEND
  5
369
  8
0
  6
CONTINUOUS
 62
     7
  0
ARC
  5
10B
  8
0
  6
CONTINUOUS
 62
     7
 10
325.4585641121
 20
143.3122017234
 30
0.0
 40
109.9523078992486
 50
115.0124018468
 51
117.0454636396
  0
POLYLINE
  5
10C
  8
0
  6
CONTINUOUS
 62
     7
 66
     1
 10
0.0
 20
0.0
 30
0.0
  0
VERTEX
  5
2E6
  8
0
  6
CONTINUOUS
 62
     7
 10
346.6962155597
 20
237.1587675457
 30
0.0
  0
VERTEX
  5
2E7
  8
0
  6
CONTINUOUS
 62
     7
 10
346.7020270125
 20
237.1502262001
 30
0.0
  0
VERTEX
  5
2E8
  8
0
  6
CONTINUOUS
 62
     7
 10
346.6174957053
 20
237.2735005264
 30
0.0
  0
VERTEX
  5
2E9
  8
0
  6
CONTINUOUS
 62
     7
 10
346.4304980532
 20
237.5422697906
 30
0.0
  0
VERTEX
  5
2EA
  8
0
  6
CONTINUOUS
 62
     7
 10
346.2236818568
 20
237.8342848663
 30
0.0
  0
VERTEX
  5
2EB
  8
0
  6
CONTINUOUS
 62
     7
 10
345.9598299758
 20
238.1981831436
 30
0.0
  0
VERTEX
  5
2EC
  8
0
  6
CONTINUOUS
 62
     7
 10
345.6385669009
 20
238.6284035091
 30
0.0
  0
VERTEX
  5
2ED
  8
0
  6
CONTINUOUS
 62
     7
 10
345.2604350344
 20
239.11695298
 30
0.0
  0
SEQEND
  5
368
  8
0
  6
CONTINUOUS
 62
     7
  0
POLYLINE
  5
10D
  8
0
  6
CONTINUOUS
 62
     7
 66
     1
 10
0.0
 20
0.0
 30
0.0
  0
VERTEX
  5
2EE
  8
0
  6
CONTINUOUS
 62
     7
 10
338.3738812701
 20
242.4947839622
 30
0.0
  0
VERTEX
  5
2EF
  8
0
  6
CONTINUOUS
 62
     7
 10
335.9768566386
 20
242.7911203747
 30
0.0
  0
VERTEX
  5
2F0
  8
0
  6
CONTINUOUS
 62
     7
 10
333.6371657149
 20
242.9214042072
 30
0.0
  0
VERTEX
  5
2F1
  8
0
  6
CONTINUOUS
 62
     7
 10
331.3427624003
 20
242.9446500187
 30
0.0
  0
VERTEX
  5
2F2
  8
0
  6
CONTINUOUS
 62
     7
 10
329.0848907725
 20
242.9127496128
 30
0.0
  0
VERTEX
  5
2F3
  8
0
  6
CONTINUOUS
 62
     7
 10
326.8543597953
 20
242.8764027004
 30
0.0
  0
VERTEX
  5
2F4
  8
0
  6
CONTINUOUS
 62
     7
 10
324.6269222991
 20
242.8750019913
 30
0.0
  0
VERTEX
  5
2F5
  8
0
  6
CONTINUOUS
 62
     7
 10
322.3860201136
 20
242.9068547134
 30
0.0
  0
VERTEX
  5
2F6
  8
0
  6
CONTINUOUS
 62
     7
 10
320.5806252257
 20
242.9509502296
 30
0.0
  0
SEQEND
  5
367
  8
0
  6
CONTINUOUS
 62
     7
  0
POLYLINE
  5
10E
  8
0
  6
CONTINUOUS
 62
     7
 66
     1
 10
0.0
 20
0.0
 30
0.0
  0
VERTEX
  5
2F7
  8
0
  6
CONTINUOUS
 62
     7
 10
315.1806262032
 20
243.0754583721
 30
0.0
  0
VERTEX
  5
2F8
  8
0
  6
CONTINUOUS
 62
     7
 10
309.976020147
 20
243.1641441231
 30
0.0
  0
VERTEX
  5
2F9
  8
0
  6
CONTINUOUS
 62
     7
 10
306.6785034434
 20
243.2110052948
 30
0.0
  0
VERTEX
  5
2FA
  8
0
  6
CONTINUOUS
 62
     7
 10
303.3782359854
 20
243.2638567333
 30
0.0
  0
VERTEX
  5
2FB
  8
0
  6
CONTINUOUS
 62
     7
 10
300.0774142043
 20
243.3214109783
 30
0.0
  0
VERTEX
  5
2FC
  8
0
  6
CONTINUOUS
 62
     7
 10
296.7792239682
 20
243.3798414116
 30
0.0
  0
VERTEX
  5
2FD
  8
0
  6
CONTINUOUS
 62
     7
 10
293.4840407864
 20
243.4364539032
 30
0.0
  0
VERTEX
  5
2FE
  8
0
  6
CONTINUOUS
 62
     7
 10
290.1919004218
 20
243.4921842461
 30
0.0
  0
VERTEX
  5
2FF
  8
0
  6
CONTINUOUS
 62
     7
 10
286.9156253235
 20
243.546722496
 30
0.0
  0
VERTEX
  5
300
  8
0
  6
CONTINUOUS
 62
     7
 10
283.6240214006
 20
243.6015349274
 30
0.0
  0
SEQEND
  5
366
  8
0
  6
CONTINUOUS
 62
     7
  0
POLYLINE
  5
10F
  8
0
  6
CONTINUOUS
 62
     7
 66
     1
 10
0.0
 20
0.0
 30
0.0
  0
VERTEX
  5
301
  8
0
  6
CONTINUOUS
 62
     7
 10
320.5806252257
 20
241.7868059521
 30
0.0
  0
VERTEX
  5
302
  8
0
  6
CONTINUOUS
 62
     7
 10
322.9878958956
 20
241.7289000397
 30
0.0
  0
VERTEX
  5
303
  8
0
  6
CONTINUOUS
 62
     7
 10
326.7844673888
 20
241.6870754604
 30
0.0
  0
SEQEND
  5
365
  8
0
  6
CONTINUOUS
 62
     7
  0
POLYLINE
  5
110
  8
0
  6
CONTINUOUS
 62
     7
 66
     1
 10
0.0
 20
0.0
 30
0.0
  0
VERTEX
  5
304
  8
0
  6
CONTINUOUS
 62
     7
 10
298.6751940743
 20
242.2943395023
 30
0.0
  0
VERTEX
  5
305
  8
0
  6
CONTINUOUS
 62
     7
 10
301.0835793511
 20
242.3521083241
 30
0.0
  0
VERTEX
  5
306
  8
0
  6
CONTINUOUS
 62
     7
 10
303.9412853019
 20
242.2235113029
 30
0.0
  0
VERTEX
  5
307
  8
0
  6
CONTINUOUS
 62
     7
 10
306.7867514388
 20
242.0365851765
 30
0.0
  0
SEQEND
  5
364
  8
0
  6
CONTINUOUS
 62
     7
  0
LINE
  5
111
  8
0
  6
CONTINUOUS
 62
     7
 10
296.822338988
 20
242.209987009
 30
0.0
 11
298.6751940743
 21
242.2943395023
 31
0.0
  0
POLYLINE
  5
112
  8
0
  6
CONTINUOUS
 62
     7
 66
     1
 10
0.0
 20
0.0
 30
0.0
  0
VERTEX
  5
308
  8
0
  6
CONTINUOUS
 62
     7
 10
286.7953982846
 20
242.3850458508
 30
0.0
  0
VERTEX
  5
309
  8
0
  6
CONTINUOUS
 62
     7
 10
287.9751589791
 20
242.4682062511
 30
0.0
  0
VERTEX
  5
30A
  8
0
  6
CONTINUOUS
 62
     7
 10
289.1696584121
 20
242.4616437798
 30
0.0
  0
VERTEX
  5
30B
  8
0
  6
CONTINUOUS
 62
     7
 10
290.4903021352
 20
242.388693655
 30
0.0
  0
VERTEX
  5
30C
  8
0
  6
CONTINUOUS
 62
     7
 10
291.815127124
 20
242.2974985485
 30
0.0
  0
SEQEND
  5
363
  8
0
  6
CONTINUOUS
 62
     7
  0
LINE
  5
113
  8
0
  6
CONTINUOUS
 62
     7
 10
262.6806267248
 20
215.1379984264
 30
0.0
 11
262.0806266264
 21
215.1379984264
 31
0.0
  0
LINE
  5
114
  8
0
  6
CONTINUOUS
 62
     7
 10
262.0806266264
 20
215.1379984264
 30
0.0
 11
262.0806266264
 21
215.9380000477
 31
0.0
  0
LINE
  5
115
  8
0
  6
CONTINUOUS
 62
     7
 10
262.6806267248
 20
215.9380000477
 30
0.0
 11
262.6806267248
 21
215.1379984264
 31
0.0
  0
LINE
  5
116
  8
0
  6
CONTINUOUS
 62
     7
 10
272.6806268738
 20
224.5380025749
 30
0.0
 11
272.6806268738
 21
223.9379983788
 31
0.0
  0
ARC
  5
117
  8
0
  6
CONTINUOUS
 62
     7
 10
272.2806267993
 20
224.538
 30
0.0
 40
0.4000000000000057
 50
0.0
 51
90.0
  0
LINE
  5
118
  8
0
  6
CONTINUOUS
 62
     7
 10
273.2806269721
 20
215.1379984264
 30
0.0
 11
272.6806268738
 21
215.1379984264
 31
0.0
  0
LINE
  5
119
  8
0
  6
CONTINUOUS
 62
     7
 10
273.2806269721
 20
215.9380000477
 30
0.0
 11
273.2806269721
 21
215.1379984264
 31
0.0
  0
LINE
  5
11A
  8
0
  6
CONTINUOUS
 62
     7
 10
272.6806268738
 20
215.1379984264
 30
0.0
 11
272.6806268738
 21
215.9380000477
 31
0.0
  0
ARC
  5
11B
  8
0
  6
CONTINUOUS
 62
     7
 10
332.1806267993
 20
238.9896301182
 30
0.0
 40
2.0
 50
280.7804509646
 51
0.0
  0
ARC
  5
11C
  8
0
  6
CONTINUOUS
 62
     7
 10
257.7362582421
 20
629.9653787141
 30
0.0
 40
400.0000000000002
 50
274.5077079787
 51
278.256844918
  0
ARC
  5
11D
  8
0
  6
CONTINUOUS
 62
     7
 10
257.7362582421
 20
629.9653787141
 30
0.0
 40
400.0000000000001
 50
279.0392433502
 51
280.7804509646
  0
ARC
  5
11E
  8
0
  6
CONTINUOUS
 62
     7
 10
276.5986286215
 20
390.7077540003
 30
0.0
 40
160.0000000000002
 50
273.0746772222
 51
274.5077079787
  0
ARC
  5
11F
  8
0
  6
CONTINUOUS
 62
     7
 10
285.8779141512
 20
217.9567920347
 30
0.0
 40
13.00000000000002
 50
93.0746772222
 51
121.4611845106
  0
ARC
  5
120
  8
0
  6
CONTINUOUS
 62
     7
 10
281.1806267993
 20
225.6337374906
 30
0.0
 40
4.0
 50
121.4611845106
 51
180.0
  0
LINE
  5
121
  8
0
  6
CONTINUOUS
 62
     7
 10
277.1806266801
 20
223.7380009537
 30
0.0
 11
277.1806266801
 21
225.6337386017
 31
0.0
  0
ARC
  5
122
  8
0
  6
CONTINUOUS
 62
     7
 10
275.1806267993
 20
223.738
 30
0.0
 40
2.000000000000023
 50
288.1948723388
 51
0.0
  0
LINE
  5
123
  8
0
  6
CONTINUOUS
 62
     7
 10
261.080626835
 20
221.738002861
 30
0.0
 11
261.8806269662
 21
221.738002861
 31
0.0
  0
ARC
  5
124
  8
0
  6
CONTINUOUS
 62
     7
 10
261.0806267993
 20
223.738
 30
0.0
 40
2.0
 50
180.0
 51
270.0
  0
LINE
  5
125
  8
0
  6
CONTINUOUS
 62
     7
 10
259.0806265072
 20
226.7848294621
 30
0.0
 11
259.0806265072
 21
223.7380009537
 31
0.0
  0
ARC
  5
126
  8
0
  6
CONTINUOUS
 62
     7
 10
267.0806267993
 20
226.7848276676
 30
0.0
 40
8.0
 50
148.4862321611
 51
180.0
  0
ARC
  5
127
  8
0
  6
CONTINUOUS
 62
     7
 10
277.3108018362
 20
220.5123864591
 30
0.0
 40
19.99999999999994
 50
102.5040575207
 51
109.6643105065
  0
ARC
  5
128
  8
0
  6
CONTINUOUS
 62
     7
 10
277.3108018362
 20
220.5123864591
 30
0.0
 40
19.99999999999995
 50
127.337488847
 51
148.4862321611
  0
LINE
  5
129
  8
0
  6
CONTINUOUS
 62
     7
 10
272.9806267367
 20
240.0379997139
 30
0.0
 11
272.9806267367
 21
240.2407866364
 31
0.0
  0
LINE
  5
12A
  8
0
  6
CONTINUOUS
 62
     7
 10
334.180628945
 20
240.2407866364
 30
0.0
 11
334.180628945
 21
238.9896314983
 31
0.0
  0
LINE
  5
12B
  8
0
  6
CONTINUOUS
 62
     7
 10
272.9806267367
 20
241.2328582649
 30
0.0
 11
273.0374459819
 21
241.2328582649
 31
0.0
  0
LINE
  5
12C
  8
0
  6
CONTINUOUS
 62
     7
 10
273.0374459819
 20
241.2328582649
 30
0.0
 11
273.0460972236
 21
241.2347477322
 31
0.0
  0
LINE
  5
12D
  8
0
  6
CONTINUOUS
 62
     7
 10
334.180628945
 20
241.2407856827
 30
0.0
 11
334.180628945
 21
240.2407866364
 31
0.0
  0
LINE
  5
12E
  8
0
  6
CONTINUOUS
 62
     7
 10
272.9806267367
 20
240.2407866364
 30
0.0
 11
272.9806267367
 21
241.2328582649
 31
0.0
  0
LINE
  5
12F
  8
0
  6
CONTINUOUS
 62
     7
 10
262.6806267248
 20
215.9380000477
 30
0.0
 11
261.8806269662
 21
215.9380000477
 31
0.0
  0
LINE
  5
130
  8
0
  6
CONTINUOUS
 62
     7
 10
261.8806269662
 20
215.9380000477
 30
0.0
 11
261.8806269662
 21
217.9379981403
 31
0.0
  0
LINE
  5
131
  8
0
  6
CONTINUOUS
 62
     7
 10
273.0806269393
 20
224.5380025749
 30
0.0
 11
273.0806269393
 21
217.9379981403
 31
0.0
  0
ARC
  5
132
  8
0
  6
CONTINUOUS
 62
     7
 10
272.6806267993
 20
224.538
 30
0.0
 40
0.4000000000000057
 50
0.0
 51
90.0
  0
LINE
  5
133
  8
0
  6
CONTINUOUS
 62
     7
 10
263.0806267903
 20
224.9379974251
 30
0.0
 11
263.6806268887
 21
224.9379974251
 31
0.0
  0
LINE
  5
134
  8
0
  6
CONTINUOUS
 62
     7
 10
271.6806267099
 20
224.9379974251
 30
0.0
 11
272.6806268738
 21
224.9379974251
 31
0.0
  0
LINE
  5
135
  8
0
  6
CONTINUOUS
 62
     7
 10
262.6806267248
 20
223.9379983788
 30
0.0
 11
262.6806267248
 21
224.5380025749
 31
0.0
  0
LINE
  5
136
  8
0
  6
CONTINUOUS
 62
     7
 10
261.8806269662
 20
217.9379981403
 30
0.0
 11
261.8806269662
 21
224.5380025749
 31
0.0
  0
ARC
  5
137
  8
0
  6
CONTINUOUS
 62
     7
 10
263.0806267993
 20
224.538
 30
0.0
 40
1.200000000000017
 50
90.0
 51
180.0
  0
LINE
  5
138
  8
0
  6
CONTINUOUS
 62
     7
 10
263.0806267903
 20
225.7379990463
 30
0.0
 11
272.6806268738
 21
225.7379990463
 31
0.0
  0
ARC
  5
139
  8
0
  6
CONTINUOUS
 62
     7
 10
272.6806267993
 20
224.538
 30
0.0
 40
1.200000000000017
 50
0.0
 51
90.0
  0
LINE
  5
13A
  8
0
  6
CONTINUOUS
 62
     7
 10
273.8806266979
 20
224.5380025749
 30
0.0
 11
273.8806266979
 21
217.9379981403
 31
0.0
  0
ARC
  5
13B
  8
0
  6
CONTINUOUS
 62
     7
 10
263.0806267993
 20
224.538
 30
0.0
 40
0.4000000000000057
 50
90.0
 51
180.0
  0
LINE
  5
13C
  8
0
  6
CONTINUOUS
 62
     7
 10
273.8806266979
 20
217.9379981403
 30
0.0
 11
273.8806266979
 21
215.9380000477
 31
0.0
  0
LINE
  5
13D
  8
0
  6
CONTINUOUS
 62
     7
 10
273.8806266979
 20
215.9380000477
 30
0.0
 11
273.0806269393
 21
215.9380000477
 31
0.0
  0
LINE
  5
13E
  8
0
  6
CONTINUOUS
 62
     7
 10
273.0806269393
 20
215.9380000477
 30
0.0
 11
273.0806269393
 21
217.9379981403
 31
0.0
  0
ARC
  5
13F
  8
0
  6
CONTINUOUS
 62
     7
 10
142.9474194599
 20
35.9728238849
 30
0.0
 40
8.129960244973892
 50
287.2568980878
 51
289.6914725677
  0
ARC
  5
140
  8
0
  6
CONTINUOUS
 62
     7
 10
82.2033144181
 20
36.3377498217
 30
0.0
 40
8.510739561453681
 50
250.4724682313
 51
252.7375622255
  0
LINE
  5
141
  8
0
  6
CONTINUOUS
 62
     7
 10
169.8207242892
 20
105.3000246691
 30
0.0
 11
169.8207242892
 21
90.3000251673
 31
0.0
  0
LINE
  5
142
  8
0
  6
CONTINUOUS
 62
     7
 10
175.2207203315
 20
90.3000251673
 30
0.0
 11
175.2207203315
 21
105.3000246691
 31
0.0
  0
LINE
  5
143
  8
0
  6
CONTINUOUS
 62
     7
 10
175.2207203315
 20
70.3000248693
 30
0.0
 11
175.2207203315
 21
90.3000251673
 31
0.0
  0
LINE
  5
144
  8
0
  6
CONTINUOUS
 62
     7
 10
169.8207242892
 20
90.3000251673
 30
0.0
 11
169.8207242892
 21
70.3000248693
 31
0.0
  0
LINE
  5
145
  8
0
  6
CONTINUOUS
 62
     7
 10
169.8207242892
 20
70.3000248693
 30
0.0
 11
169.8207242892
 21
55.3000272535
 31
0.0
  0
LINE
  5
146
  8
0
  6
CONTINUOUS
 62
     7
 10
175.2207203315
 20
55.3000272535
 30
0.0
 11
175.2207203315
 21
70.3000248693
 31
0.0
  0
LINE
  5
147
  8
0
  6
CONTINUOUS
 62
     7
 10
49.8207254813
 20
105.3000246691
 30
0.0
 11
49.8207254813
 21
90.3000251673
 31
0.0
  0
LINE
  5
148
  8
0
  6
CONTINUOUS
 62
     7
 10
55.2207215236
 20
90.3000251673
 30
0.0
 11
55.2207215236
 21
105.3000246691
 31
0.0
  0
LINE
  5
149
  8
0
  6
CONTINUOUS
 62
     7
 10
55.2207215236
 20
70.3000248693
 30
0.0
 11
55.2207215236
 21
90.3000251673
 31
0.0
  0
LINE
  5
14A
  8
0
  6
CONTINUOUS
 62
     7
 10
49.8207254813
 20
90.3000251673
 30
0.0
 11
49.8207254813
 21
70.3000248693
 31
0.0
  0
LINE
  5
14B
  8
0
  6
CONTINUOUS
 62
     7
 10
49.8207254813
 20
70.3000248693
 30
0.0
 11
49.8207254813
 21
55.3000272535
 31
0.0
  0
LINE
  5
14C
  8
0
  6
CONTINUOUS
 62
     7
 10
55.2207215236
 20
55.3000272535
 30
0.0
 11
55.2207215236
 21
70.3000248693
 31
0.0
  0
LINE
  5
14D
  8
0
  6
CONTINUOUS
 62
     7
 10
181.3207252429
 20
110.1000246875
 30
0.0
 11
181.3207252429
 21
109.5000245892
 31
0.0
  0
ARC
  5
14E
  8
0
  6
CONTINUOUS
 62
     7
 10
180.9207229064
 20
110.1000246786
 30
0.0
 40
0.4000000000000057
 50
0.0
 51
90.0
  0
LINE
  5
14F
  8
0
  6
CONTINUOUS
 62
     7
 10
44.1207213805
 20
110.5000247531
 30
0.0
 11
46.5207202838
 21
110.5000247531
 31
0.0
  0
LINE
  5
150
  8
0
  6
CONTINUOUS
 62
     7
 10
58.5207207606
 20
110.5000247531
 30
0.0
 11
70.0207217143
 21
110.5000247531
 31
0.0
  0
LINE
  5
151
  8
0
  6
CONTINUOUS
 62
     7
 10
80.0207240985
 20
110.5000247531
 30
0.0
 11
145.0207217143
 21
110.5000247531
 31
0.0
  0
LINE
  5
152
  8
0
  6
CONTINUOUS
 62
     7
 10
155.0207240985
 20
110.5000247531
 30
0.0
 11
166.5207250522
 21
110.5000247531
 31
0.0
  0
LINE
  5
153
  8
0
  6
CONTINUOUS
 62
     7
 10
178.520725529
 20
110.5000247531
 30
0.0
 11
180.9207244323
 21
110.5000247531
 31
0.0
  0
LINE
  5
154
  8
0
  6
CONTINUOUS
 62
     7
 10
181.3207252429
 20
109.5000245892
 30
0.0
 11
181.3207252429
 21
101.500024768
 31
0.0
  0
LINE
  5
155
  8
0
  6
CONTINUOUS
 62
     7
 10
43.7207205699
 20
109.5000245892
 30
0.0
 11
43.7207205699
 21
110.1000246875
 31
0.0
  0
ARC
  5
156
  8
0
  6
CONTINUOUS
 62
     7
 10
44.1207229064
 20
110.1000246786
 30
0.0
 40
0.3999999999999986
 50
90.0
 51
180.0
  0
LINE
  5
157
  8
0
  6
CONTINUOUS
 62
     7
 10
43.7207205699
 20
101.500024768
 30
0.0
 11
43.7207205699
 21
109.5000245892
 31
0.0
  0
LINE
  5
158
  8
0
  6
CONTINUOUS
 62
     7
 10
181.3207252429
 20
101.500024768
 30
0.0
 11
181.3207252429
 21
100.9000246696
 31
0.0
  0
ARC
  5
159
  8
0
  6
CONTINUOUS
 62
     7
 10
180.9207229064
 20
100.9000246786
 30
0.0
 40
0.4000000000000057
 50
270.0
 51
0.0
  0
LINE
  5
15A
  8
0
  6
CONTINUOUS
 62
     7
 10
43.7207205699
 20
100.9000246696
 30
0.0
 11
43.7207205699
 21
101.500024768
 31
0.0
  0
ARC
  5
15B
  8
0
  6
CONTINUOUS
 62
     7
 10
44.1207229064
 20
100.9000246786
 30
0.0
 40
0.4000000000000057
 50
180.0
 51
270.0
  0
LINE
  5
15C
  8
0
  6
CONTINUOUS
 62
     7
 10
180.9207244323
 20
100.5000246041
 30
0.0
 11
178.520725529
 21
100.5000246041
 31
0.0
  0
LINE
  5
15D
  8
0
  6
CONTINUOUS
 62
     7
 10
166.5207250522
 20
100.5000246041
 30
0.0
 11
155.0207240985
 21
100.5000246041
 31
0.0
  0
LINE
  5
15E
  8
0
  6
CONTINUOUS
 62
     7
 10
145.0207217143
 20
100.5000246041
 30
0.0
 11
122.8835246072
 21
100.5000246041
 31
0.0
  0
LINE
  5
15F
  8
0
  6
CONTINUOUS
 62
     7
 10
102.1232342825
 20
100.5000246041
 30
0.0
 11
80.0207240985
 21
100.5000246041
 31
0.0
  0
LINE
  5
160
  8
0
  6
CONTINUOUS
 62
     7
 10
70.0207217143
 20
100.5000246041
 30
0.0
 11
58.5207207606
 21
100.5000246041
 31
0.0
  0
LINE
  5
161
  8
0
  6
CONTINUOUS
 62
     7
 10
46.5207202838
 20
100.5000246041
 30
0.0
 11
44.1207213805
 21
100.5000246041
 31
0.0
  0
CIRCLE
  5
162
  8
0
  6
CONTINUOUS
 62
     7
 10
120.5207229064
 20
113.5000246786
 30
0.0
 40
1.5
  0
CIRCLE
  5
163
  8
0
  6
CONTINUOUS
 62
     7
 10
104.5207229064
 20
113.5000246786
 30
0.0
 40
1.499999999999986
  0
LINE
  5
164
  8
0
  6
CONTINUOUS
 62
     7
 10
101.2960805104
 20
100.3889491133
 30
0.0
 11
101.2805818127
 21
100.5000246041
 31
0.0
  0
LINE
  5
165
  8
0
  6
CONTINUOUS
 62
     7
 10
100.5269734667
 20
110.5000247531
 30
0.0
 11
100.5207231746
 21
111.5000245444
 31
0.0
  0
LINE
  5
166
  8
0
  6
CONTINUOUS
 62
     7
 10
100.5207231746
 20
113.5000244997
 30
0.0
 11
100.5207231746
 21
111.5000245444
 31
0.0
  0
ARC
  5
167
  8
0
  6
CONTINUOUS
 62
     7
 10
104.5207229064
 20
113.5000246786
 30
0.0
 40
4.0
 50
90.0
 51
180.0
  0
LINE
  5
168
  8
0
  6
CONTINUOUS
 62
     7
 10
120.5207227276
 20
117.5000244103
 30
0.0
 11
104.5207230852
 21
117.5000244103
 31
0.0
  0
ARC
  5
169
  8
0
  6
CONTINUOUS
 62
     7
 10
120.5207229064
 20
113.5000246786
 30
0.0
 40
4.0
 50
0.0
 51
90.0
  0
LINE
  5
16A
  8
0
  6
CONTINUOUS
 62
     7
 10
124.5207226382
 20
111.5000245444
 30
0.0
 11
124.5207226382
 21
113.5000244997
 31
0.0
  0
LINE
  5
16B
  8
0
  6
CONTINUOUS
 62
     7
 10
124.5207226382
 20
111.5000245444
 30
0.0
 11
124.5144723461
 21
110.5000247531
 31
0.0
  0
LINE
  5
16C
  8
0
  6
CONTINUOUS
 62
     7
 10
123.7608640001
 20
100.5000246041
 30
0.0
 11
123.7439034985
 21
100.3785283588
 31
0.0
  0
ARC
  5
16D
  8
0
  6
CONTINUOUS
 62
     7
 10
84.3985033305
 20
87.6005467473
 30
0.0
 40
7.349242666434168
 50
115.9018910856
 51
164.5639882162
  0
ARC
  5
16E
  8
0
  6
CONTINUOUS
 62
     7
 10
112.5207229064
 20
27.911256551
 30
0.0
 40
73.33113480251554
 50
64.7052171818
 51
115.2947828182
  0
ARC
  5
16F
  8
0
  6
CONTINUOUS
 62
     7
 10
140.6589883158
 20
87.6139000109
 30
0.0
 40
7.33022654746583
 50
15.3687847357
 51
64.1653359624
  0
POLYLINE
  5
170
  8
0
  6
CONTINUOUS
 62
     7
 66
     1
 10
0.0
 20
0.0
 30
0.0
  0
VERTEX
  5
30D
  8
0
  6
CONTINUOUS
 62
     7
 10
147.7270676301
 20
89.5566300772
 30
0.0
  0
VERTEX
  5
30E
  8
0
  6
CONTINUOUS
 62
     7
 10
148.6441327737
 20
86.2650261544
 30
0.0
  0
VERTEX
  5
30F
  8
0
  6
CONTINUOUS
 62
     7
 10
149.2453082011
 20
82.988751056
 30
0.0
  0
VERTEX
  5
310
  8
0
  6
CONTINUOUS
 62
     7
 10
149.6028287814
 20
79.6966106914
 30
0.0
  0
VERTEX
  5
311
  8
0
  6
CONTINUOUS
 62
     7
 10
149.8175872968
 20
76.4014275096
 30
0.0
  0
VERTEX
  5
312
  8
0
  6
CONTINUOUS
 62
     7
 10
149.8993350671
 20
73.1032372735
 30
0.0
  0
VERTEX
  5
313
  8
0
  6
CONTINUOUS
 62
     7
 10
149.8961700604
 20
69.8024154924
 30
0.0
  0
VERTEX
  5
314
  8
0
  6
CONTINUOUS
 62
     7
 10
149.8690678285
 20
66.5021480344
 30
0.0
  0
VERTEX
  5
315
  8
0
  6
CONTINUOUS
 62
     7
 10
149.8669101403
 20
63.2046313308
 30
0.0
  0
VERTEX
  5
316
  8
0
  6
CONTINUOUS
 62
     7
 10
149.9138458179
 20
56.8844826244
 30
0.0
  0
VERTEX
  5
317
  8
0
  6
CONTINUOUS
 62
     7
 10
149.9479366944
 20
50.5637527727
 30
0.0
  0
VERTEX
  5
318
  8
0
  6
CONTINUOUS
 62
     7
 10
149.956939976
 20
44.3105222009
 30
0.0
  0
VERTEX
  5
319
  8
0
  6
CONTINUOUS
 62
     7
 10
149.9587579177
 20
42.4658001684
 30
0.0
  0
VERTEX
  5
31A
  8
0
  6
CONTINUOUS
 62
     7
 10
149.9632461474
 20
40.5982733987
 30
0.0
  0
VERTEX
  5
31B
  8
0
  6
CONTINUOUS
 62
     7
 10
149.9724431441
 20
38.70291126
 30
0.0
  0
VERTEX
  5
31C
  8
0
  6
CONTINUOUS
 62
     7
 10
149.9884291099
 20
36.7753447317
 30
0.0
  0
VERTEX
  5
31D
  8
0
  6
CONTINUOUS
 62
     7
 10
150.0125272677
 20
34.8067702077
 30
0.0
  0
SEQEND
  5
362
  8
0
  6
CONTINUOUS
 62
     7
  0
ARC
  5
171
  8
0
  6
CONTINUOUS
 62
     7
 10
143.2923798355
 20
34.6134194156
 30
0.0
 40
6.722928382776558
 50
275.3899218463
 51
1.6480485111
  0
ARC
  5
172
  8
0
  6
CONTINUOUS
 62
     7
 10
112.5207229064
 20
367.8511595323
 30
0.0
 40
341.3783893576836
 50
264.7219388975
 51
275.2780611025
  0
ARC
  5
173
  8
0
  6
CONTINUOUS
 62
     7
 10
81.7390719344
 20
34.6045833353
 30
0.0
 40
6.713198793403753
 50
178.2741153836
 51
264.6879142591
  0
POLYLINE
  5
174
  8
0
  6
CONTINUOUS
 62
     7
 66
     1
 10
0.0
 20
0.0
 30
0.0
  0
VERTEX
  5
31E
  8
0
  6
CONTINUOUS
 62
     7
 10
75.0289185451
 20
34.8067702077
 30
0.0
  0
VERTEX
  5
31F
  8
0
  6
CONTINUOUS
 62
     7
 10
75.0572367118
 20
37.2037948392
 30
0.0
  0
VERTEX
  5
320
  8
0
  6
CONTINUOUS
 62
     7
 10
75.0737770007
 20
39.5434857629
 30
0.0
  0
VERTEX
  5
321
  8
0
  6
CONTINUOUS
 62
     7
 10
75.0815732883
 20
41.8378890775
 30
0.0
  0
VERTEX
  5
322
  8
0
  6
CONTINUOUS
 62
     7
 10
75.0843657659
 20
44.0957607053
 30
0.0
  0
VERTEX
  5
323
  8
0
  6
CONTINUOUS
 62
     7
 10
75.085766475
 20
46.3262916826
 30
0.0
  0
VERTEX
  5
324
  8
0
  6
CONTINUOUS
 62
     7
 10
75.0886781619
 20
48.5537291788
 30
0.0
  0
VERTEX
  5
325
  8
0
  6
CONTINUOUS
 62
     7
 10
75.0942184136
 20
50.7946313642
 30
0.0
  0
VERTEX
  5
326
  8
0
  6
CONTINUOUS
 62
     7
 10
75.1285447286
 20
57.0006908201
 30
0.0
  0
VERTEX
  5
327
  8
0
  6
CONTINUOUS
 62
     7
 10
75.1745356725
 20
63.2046313308
 30
0.0
  0
VERTEX
  5
328
  8
0
  6
CONTINUOUS
 62
     7
 10
75.1723779843
 20
66.5021480344
 30
0.0
  0
VERTEX
  5
329
  8
0
  6
CONTINUOUS
 62
     7
 10
75.1452757524
 20
69.8024154924
 30
0.0
  0
VERTEX
  5
32A
  8
0
  6
CONTINUOUS
 62
     7
 10
75.1421107457
 20
73.1032372735
 30
0.0
  0
VERTEX
  5
32B
  8
0
  6
CONTINUOUS
 62
     7
 10
75.223858516
 20
76.4014275096
 30
0.0
  0
VERTEX
  5
32C
  8
0
  6
CONTINUOUS
 62
     7
 10
75.4386170314
 20
79.6966106914
 30
0.0
  0
VERTEX
  5
32D
  8
0
  6
CONTINUOUS
 62
     7
 10
75.7961376117
 20
82.988751056
 30
0.0
  0
VERTEX
  5
32E
  8
0
  6
CONTINUOUS
 62
     7
 10
76.3973130391
 20
86.2650261544
 30
0.0
  0
VERTEX
  5
32F
  8
0
  6
CONTINUOUS
 62
     7
 10
77.3143781827
 20
89.5566300772
 30
0.0
  0
SEQEND
  5
361
  8
0
  6
CONTINUOUS
 62
     7
  0
ARC
  5
175
  8
0
  6
CONTINUOUS
 62
     7
 10
112.5207229064
 20
27.9235343049
 30
0.0
 40
73.33969272412406
 50
64.365028314
 51
115.634971686
  0
ARC
  5
176
  8
0
  6
CONTINUOUS
 62
     7
 10
140.9945101815
 20
87.4378637617
 30
0.0
 40
7.365053893038955
 50
15.544569452
 51
63.7661944591
  0
ARC
  5
177
  8
0
  6
CONTINUOUS
 62
     7
 10
84.0290872327
 20
87.4526583236
 30
0.0
 40
7.343899690940123
 50
116.159920293
 51
164.5293157959
  0
POLYLINE
  5
178
  8
0
  6
CONTINUOUS
 62
     7
 66
     1
 10
0.0
 20
0.0
 30
0.0
  0
VERTEX
  5
330
  8
0
  6
CONTINUOUS
 62
     7
 10
148.0901672051
 20
89.4116089962
 30
0.0
  0
VERTEX
  5
331
  8
0
  6
CONTINUOUS
 62
     7
 10
148.5240830586
 20
87.8984541915
 30
0.0
  0
VERTEX
  5
332
  8
0
  6
CONTINUOUS
 62
     7
 10
148.9220543311
 20
86.3852964066
 30
0.0
  0
SEQEND
  5
360
  8
0
  6
CONTINUOUS
 62
     7
  0
ARC
  5
179
  8
0
  6
CONTINUOUS
 62
     7
 10
90.2757450628
 20
74.4427434715
 30
0.0
 40
59.8497435764298
 50
6.6422335737
 51
11.5101505537
  0
POLYLINE
  5
17A
  8
0
  6
CONTINUOUS
 62
     7
 66
     1
 10
0.0
 20
0.0
 30
0.0
  0
VERTEX
  5
333
  8
0
  6
CONTINUOUS
 62
     7
 10
149.7234775231
 20
81.3654945515
 30
0.0
  0
VERTEX
  5
334
  8
0
  6
CONTINUOUS
 62
     7
 10
149.9477399991
 20
78.862074139
 30
0.0
  0
VERTEX
  5
335
  8
0
  6
CONTINUOUS
 62
     7
 10
150.0922484801
 20
76.358327391
 30
0.0
  0
SEQEND
  5
35F
  8
0
  6
CONTINUOUS
 62
     7
  0
LINE
  5
17B
  8
0
  6
CONTINUOUS
 62
     7
 10
150.1207216189
 20
74.5054574035
 30
0.0
 11
150.091899793
 21
76.3583124898
 31
0.0
  0
LINE
  5
17C
  8
0
  6
CONTINUOUS
 62
     7
 10
150.1207216189
 20
66.393900039
 30
0.0
 11
150.1207216189
 21
74.5054574035
 31
0.0
  0
POLYLINE
  5
17D
  8
0
  6
CONTINUOUS
 62
     7
 66
     1
 10
0.0
 20
0.0
 30
0.0
  0
VERTEX
  5
336
  8
0
  6
CONTINUOUS
 62
     7
 10
150.1207216189
 20
66.3939179204
 30
0.0
  0
VERTEX
  5
337
  8
0
  6
CONTINUOUS
 62
     7
 10
150.1060141728
 20
63.2220537685
 30
0.0
  0
VERTEX
  5
338
  8
0
  6
CONTINUOUS
 62
     7
 10
150.1207275794
 20
56.3940287851
 30
0.0
  0
SEQEND
  5
35E
  8
0
  6
CONTINUOUS
 62
     7
  0
POLYLINE
  5
17E
  8
0
  6
CONTINUOUS
 62
     7
 66
     1
 10
0.0
 20
0.0
 30
0.0
  0
VERTEX
  5
339
  8
0
  6
CONTINUOUS
 62
     7
 10
150.1207931445
 20
34.7395540498
 30
0.0
  0
VERTEX
  5
33A
  8
0
  6
CONTINUOUS
 62
     7
 10
150.1207931445
 20
35.0474954866
 30
0.0
  0
VERTEX
  5
33B
  8
0
  6
CONTINUOUS
 62
     7
 10
150.1205785678
 20
37.4593437932
 30
0.0
  0
VERTEX
  5
33C
  8
0
  6
CONTINUOUS
 62
     7
 10
150.1201017306
 20
39.8438991331
 30
0.0
  0
VERTEX
  5
33D
  8
0
  6
CONTINUOUS
 62
     7
 10
150.1197500632
 20
42.2072471403
 30
0.0
  0
VERTEX
  5
33E
  8
0
  6
CONTINUOUS
 62
     7
 10
150.1210703061
 20
46.916097524
 30
0.0
  0
VERTEX
  5
33F
  8
0
  6
CONTINUOUS
 62
     7
 10
150.1245452569
 20
51.64999974
 30
0.0
  0
VERTEX
  5
340
  8
0
  6
CONTINUOUS
 62
     7
 10
150.1207216189
 20
56.3940287851
 30
0.0
  0
SEQEND
  5
35D
  8
0
  6
CONTINUOUS
 62
     7
  0
LINE
  5
17F
  8
0
  6
CONTINUOUS
 62
     7
 10
74.9207241939
 20
56.3940287851
 30
0.0
 11
74.9207241939
 21
46.396184089
 31
0.0
  0
POLYLINE
  5
180
  8
0
  6
CONTINUOUS
 62
     7
 66
     1
 10
0.0
 20
0.0
 30
0.0
  0
VERTEX
  5
341
  8
0
  6
CONTINUOUS
 62
     7
 10
74.9207182334
 20
56.3940287851
 30
0.0
  0
VERTEX
  5
342
  8
0
  6
CONTINUOUS
 62
     7
 10
74.93543164
 20
63.2220537685
 30
0.0
  0
VERTEX
  5
343
  8
0
  6
CONTINUOUS
 62
     7
 10
74.9207241939
 20
66.3939179204
 30
0.0
  0
SEQEND
  5
35C
  8
0
  6
CONTINUOUS
 62
     7
  0
LINE
  5
181
  8
0
  6
CONTINUOUS
 62
     7
 10
74.9207241939
 20
74.5054574035
 30
0.0
 11
74.9207241939
 21
66.393900039
 31
0.0
  0
LINE
  5
182
  8
0
  6
CONTINUOUS
 62
     7
 10
74.9495460198
 20
76.3583124898
 30
0.0
 11
74.9207241939
 21
74.5054574035
 31
0.0
  0
POLYLINE
  5
183
  8
0
  6
CONTINUOUS
 62
     7
 66
     1
 10
0.0
 20
0.0
 30
0.0
  0
VERTEX
  5
344
  8
0
  6
CONTINUOUS
 62
     7
 10
74.9491973327
 20
76.358327391
 30
0.0
  0
VERTEX
  5
345
  8
0
  6
CONTINUOUS
 62
     7
 10
75.0937058137
 20
78.862074139
 30
0.0
  0
VERTEX
  5
346
  8
0
  6
CONTINUOUS
 62
     7
 10
75.3179682897
 20
81.3654945515
 30
0.0
  0
SEQEND
  5
35B
  8
0
  6
CONTINUOUS
 62
     7
  0
ARC
  5
184
  8
0
  6
CONTINUOUS
 62
     7
 10
134.7210438562
 20
74.449877316
 30
0.0
 40
59.80456129351985
 50
168.488009485
 51
173.3596063875
  0
POLYLINE
  5
185
  8
0
  6
CONTINUOUS
 62
     7
 66
     1
 10
0.0
 20
0.0
 30
0.0
  0
VERTEX
  5
347
  8
0
  6
CONTINUOUS
 62
     7
 10
76.1207236455
 20
86.3908858322
 30
0.0
  0
VERTEX
  5
348
  8
0
  6
CONTINUOUS
 62
     7
 10
76.5181495355
 20
87.9012496494
 30
0.0
  0
VERTEX
  5
349
  8
0
  6
CONTINUOUS
 62
     7
 10
76.9512786077
 20
89.4116089962
 30
0.0
  0
SEQEND
  5
35A
  8
0
  6
CONTINUOUS
 62
     7
  0
POLYLINE
  5
186
  8
0
  6
CONTINUOUS
 62
     7
 66
     1
 10
0.0
 20
0.0
 30
0.0
  0
VERTEX
  5
34A
  8
0
  6
CONTINUOUS
 62
     7
 10
74.9206526683
 20
34.7405017637
 30
0.0
  0
VERTEX
  5
34B
  8
0
  6
CONTINUOUS
 62
     7
 10
74.9206526683
 20
34.7658277772
 30
0.0
  0
VERTEX
  5
34C
  8
0
  6
CONTINUOUS
 62
     7
 10
74.9208225415
 20
37.1788383745
 30
0.0
  0
VERTEX
  5
34D
  8
0
  6
CONTINUOUS
 62
     7
 10
74.9212874578
 20
39.567303779
 30
0.0
  0
VERTEX
  5
34E
  8
0
  6
CONTINUOUS
 62
     7
 10
74.9216719077
 20
41.9332207464
 30
0.0
  0
VERTEX
  5
34F
  8
0
  6
CONTINUOUS
 62
     7
 10
74.9215705798
 20
44.2880452894
 30
0.0
  0
VERTEX
  5
350
  8
0
  6
CONTINUOUS
 62
     7
 10
74.9207241939
 20
46.396184089
 30
0.0
  0
SEQEND
  5
359
  8
0
  6
CONTINUOUS
 62
     7
  0
ARC
  5
187
  8
0
  6
CONTINUOUS
 62
     7
 10
143.4763115427
 20
34.6029098107
 30
0.0
 40
6.645886502542991
 50
292.544393283
 51
1.1781257346
  0
ARC
  5
188
  8
0
  6
CONTINUOUS
 62
     7
 10
81.5681795295
 20
34.6068941728
 30
0.0
 40
6.648869404511419
 50
178.8485762181
 51
250.641800128
  0
LINE
  5
189
  8
0
  6
CONTINUOUS
 62
     7
 10
149.7207237886
 20
81.3916475795
 30
0.0
 11
149.7237636254
 21
81.3655273341
 31
0.0
  0
POLYLINE
  5
18A
  8
0
  6
CONTINUOUS
 62
     7
 66
     1
 10
0.0
 20
0.0
 30
0.0
  0
VERTEX
  5
351
  8
0
  6
CONTINUOUS
 62
     7
 10
148.921872537
 20
86.3852531932
 30
0.0
  0
VERTEX
  5
352
  8
0
  6
CONTINUOUS
 62
     7
 10
149.3740572141
 20
83.8993878387
 30
0.0
  0
VERTEX
  5
353
  8
0
  6
CONTINUOUS
 62
     7
 10
149.7207237886
 20
81.3916475795
 30
0.0
  0
SEQEND
  5
358
  8
0
  6
CONTINUOUS
 62
     7
  0
POLYLINE
  5
18B
  8
0
  6
CONTINUOUS
 62
     7
 66
     1
 10
0.0
 20
0.0
 30
0.0
  0
VERTEX
  5
354
  8
0
  6
CONTINUOUS
 62
     7
 10
75.3207220243
 20
81.3916475795
 30
0.0
  0
VERTEX
  5
355
  8
0
  6
CONTINUOUS
 62
     7
 10
75.6666524814
 20
83.8947893403
 30
0.0
  0
VERTEX
  5
356
  8
0
  6
CONTINUOUS
 62
     7
 10
76.1195732759
 20
86.3852531932
 30
0.0
  0
SEQEND
  5
357
  8
0
  6
CONTINUOUS
 62
     7
  0
LINE
  5
18C
  8
0
  6
CONTINUOUS
 62
     7
 10
75.3176821874
 20
81.3655273341
 30
0.0
 11
75.3207220243
 21
81.3916475795
 31
0.0
  0
LINE
  5
18D
  8
0
  6
CONTINUOUS
 62
     7
 10
150.091899793
 20
76.3583124898
 30
0.0
 11
150.1207216189
 21
74.5076210521
 31
0.0
  0
LINE
  5
18E
  8
0
  6
CONTINUOUS
 62
     7
 10
74.9207241939
 20
74.5076210521
 30
0.0
 11
74.9495460198
 21
76.3583124898
 31
0.0
  0
LINE
  5
18F
  8
0
  6
CONTINUOUS
 62
     7
 10
75.6950481341
 20
100.2000247411
 30
0.0
 11
75.6950481341
 21
100.1432054959
 31
0.0
  0
LINE
  5
190
  8
0
  6
CONTINUOUS
 62
     7
 10
74.917299907
 20
39.0000225328
 30
0.0
 11
74.8207225011
 21
39.0000225328
 31
0.0
  0
LINE
  5
191
  8
0
  6
CONTINUOUS
 62
     7
 10
74.8207225011
 20
39.0000225328
 30
0.0
 11
74.8207225011
 21
100.2000247411
 31
0.0
  0
LINE
  5
192
  8
0
  6
CONTINUOUS
 62
     7
 10
74.8207225011
 20
100.2000247411
 30
0.0
 11
75.6950481341
 21
100.2000247411
 31
0.0
  0
LINE
  5
193
  8
0
  6
CONTINUOUS
 62
     7
 10
75.6950481341
 20
100.1432054959
 30
0.0
 11
75.9165687964
 21
100.1279675685
 31
0.0
  0
ARC
  5
194
  8
0
  6
CONTINUOUS
 62
     7
 10
76.4846839276
 20
98.0884398378
 30
0.0
 40
1.996146637964903
 50
359.8798940359
 51
86.0295312065
  0
LINE
  5
195
  8
0
  6
CONTINUOUS
 62
     7
 10
78.4808261798
 20
98.0842554294
 30
0.0
 11
78.4808261798
 21
93.6817341767
 31
0.0
  0
ARC
  5
196
  8
0
  6
CONTINUOUS
 62
     7
 10
79.6826187555
 20
93.6809508245
 30
0.0
 40
1.201792831047166
 50
179.9626534821
 51
232.2494355137
  0
LINE
  5
197
  8
0
  6
CONTINUOUS
 62
     7
 10
76.6229017184
 20
100.0797954671
 30
0.0
 11
75.9165687964
 21
100.1279675685
 31
0.0
  0
LINE
  5
198
  8
0
  6
CONTINUOUS
 62
     7
 10
74.8207225011
 20
100.2000247411
 30
0.0
 11
74.8207225011
 21
112.9201413415
 31
0.0
  0
LINE
  5
199
  8
0
  6
CONTINUOUS
 62
     7
 10
75.6207241223
 20
112.9201413415
 30
0.0
 11
75.6207241223
 21
100.2000247411
 31
0.0
  0
LINE
  5
19A
  8
0
  6
CONTINUOUS
 62
     7
 10
74.8207225011
 20
114.1000249706
 30
0.0
 11
75.6207241223
 21
114.1000249706
 31
0.0
  0
LINE
  5
19B
  8
0
  6
CONTINUOUS
 62
     7
 10
74.8207225011
 20
112.9201413415
 30
0.0
 11
74.8207225011
 21
114.1000249706
 31
0.0
  0
LINE
  5
19C
  8
0
  6
CONTINUOUS
 62
     7
 10
75.6207241223
 20
114.1000249706
 30
0.0
 11
75.6207241223
 21
112.9201413415
 31
0.0
  0
LINE
  5
19D
  8
0
  6
CONTINUOUS
 62
     7
 10
80.0207240985
 20
111.1000248514
 30
0.0
 11
75.6207241223
 21
111.1000248514
 31
0.0
  0
LINE
  5
19E
  8
0
  6
CONTINUOUS
 62
     7
 10
80.0207240985
 20
111.1000248514
 30
0.0
 11
80.0207240985
 21
110.1000246875
 31
0.0
  0
LINE
  5
19F
  8
0
  6
CONTINUOUS
 62
     7
 10
74.8207225011
 20
111.1000248514
 30
0.0
 11
70.0207217143
 21
111.1000248514
 31
0.0
  0
LINE
  5
1A0
  8
0
  6
CONTINUOUS
 62
     7
 10
70.0207217143
 20
111.1000248514
 30
0.0
 11
70.0207217143
 21
110.1000246875
 31
0.0
  0
LINE
  5
1A1
  8
0
  6
CONTINUOUS
 62
     7
 10
80.0207240985
 20
110.1000246875
 30
0.0
 11
80.0207240985
 21
100.9000246696
 31
0.0
  0
LINE
  5
1A2
  8
0
  6
CONTINUOUS
 62
     7
 10
70.0207217143
 20
110.1000246875
 30
0.0
 11
70.0207217143
 21
100.9000246696
 31
0.0
  0
LINE
  5
1A3
  8
0
  6
CONTINUOUS
 62
     7
 10
74.8207225011
 20
99.9000245057
 30
0.0
 11
70.0207217143
 21
99.9000245057
 31
0.0
  0
LINE
  5
1A4
  8
0
  6
CONTINUOUS
 62
     7
 10
70.0207217143
 20
100.9000246696
 30
0.0
 11
70.0207217143
 21
99.9000245057
 31
0.0
  0
LINE
  5
1A5
  8
0
  6
CONTINUOUS
 62
     7
 10
80.0207240985
 20
99.9000245057
 30
0.0
 11
77.3246123002
 21
99.9000245057
 31
0.0
  0
LINE
  5
1A6
  8
0
  6
CONTINUOUS
 62
     7
 10
80.0207240985
 20
100.9000246696
 30
0.0
 11
80.0207240985
 21
99.9000245057
 31
0.0
  0
LINE
  5
1A7
  8
0
  6
CONTINUOUS
 62
     7
 10
150.2207233117
 20
39.0000225328
 30
0.0
 11
150.2207233117
 21
100.2000247411
 31
0.0
  0
LINE
  5
1A8
  8
0
  6
CONTINUOUS
 62
     7
 10
150.1241459058
 20
39.0000225328
 30
0.0
 11
150.2207233117
 21
39.0000225328
 31
0.0
  0
LINE
  5
1A9
  8
0
  6
CONTINUOUS
 62
     7
 10
149.3463976787
 20
100.2000247411
 30
0.0
 11
149.3463976787
 21
100.1432054959
 31
0.0
  0
LINE
  5
1AA
  8
0
  6
CONTINUOUS
 62
     7
 10
150.2207233117
 20
100.2000247411
 30
0.0
 11
149.3463976787
 21
100.2000247411
 31
0.0
  0
LINE
  5
1AB
  8
0
  6
CONTINUOUS
 62
     7
 10
149.3463976787
 20
100.1432054959
 30
0.0
 11
149.1248770164
 21
100.1279675685
 31
0.0
  0
ARC
  5
1AC
  8
0
  6
CONTINUOUS
 62
     7
 10
145.358785083
 20
93.6809614233
 30
0.0
 40
1.201834798489517
 50
308.241941962
 51
0.0368399334
  0
LINE
  5
1AD
  8
0
  6
CONTINUOUS
 62
     7
 10
146.560619633
 20
98.0842554294
 30
0.0
 11
146.560619633
 21
93.6817341767
 31
0.0
  0
ARC
  5
1AE
  8
0
  6
CONTINUOUS
 62
     7
 10
148.5567618852
 20
98.0884398378
 30
0.0
 40
1.996146637964902
 50
93.9704687935
 51
180.1201059642
  0
LINE
  5
1AF
  8
0
  6
CONTINUOUS
 62
     7
 10
148.4185440944
 20
100.0797954671
 30
0.0
 11
149.1248770164
 21
100.1279675685
 31
0.0
  0
LINE
  5
1B0
  8
0
  6
CONTINUOUS
 62
     7
 10
150.2207233117
 20
100.2000247411
 30
0.0
 11
150.2207233117
 21
112.9201413415
 31
0.0
  0
LINE
  5
1B1
  8
0
  6
CONTINUOUS
 62
     7
 10
149.4207216905
 20
112.9201413415
 30
0.0
 11
149.4207216905
 21
100.2000247411
 31
0.0
  0
LINE
  5
1B2
  8
0
  6
CONTINUOUS
 62
     7
 10
150.2207233117
 20
114.1000249706
 30
0.0
 11
149.4207216905
 21
114.1000249706
 31
0.0
  0
LINE
  5
1B3
  8
0
  6
CONTINUOUS
 62
     7
 10
150.2207233117
 20
112.9201413415
 30
0.0
 11
150.2207233117
 21
114.1000249706
 31
0.0
  0
LINE
  5
1B4
  8
0
  6
CONTINUOUS
 62
     7
 10
149.4207216905
 20
114.1000249706
 30
0.0
 11
149.4207216905
 21
112.9201413415
 31
0.0
  0
LINE
  5
1B5
  8
0
  6
CONTINUOUS
 62
     7
 10
145.0207217143
 20
111.1000248514
 30
0.0
 11
145.0207217143
 21
110.1000246875
 31
0.0
  0
LINE
  5
1B6
  8
0
  6
CONTINUOUS
 62
     7
 10
145.0207217143
 20
111.1000248514
 30
0.0
 11
149.4207216905
 21
111.1000248514
 31
0.0
  0
LINE
  5
1B7
  8
0
  6
CONTINUOUS
 62
     7
 10
150.2207233117
 20
111.1000248514
 30
0.0
 11
155.0207240985
 21
111.1000248514
 31
0.0
  0
LINE
  5
1B8
  8
0
  6
CONTINUOUS
 62
     7
 10
155.0207240985
 20
111.1000248514
 30
0.0
 11
155.0207240985
 21
110.1000246875
 31
0.0
  0
LINE
  5
1B9
  8
0
  6
CONTINUOUS
 62
     7
 10
155.0207240985
 20
110.1000246875
 30
0.0
 11
155.0207240985
 21
100.9000246696
 31
0.0
  0
LINE
  5
1BA
  8
0
  6
CONTINUOUS
 62
     7
 10
145.0207217143
 20
110.1000246875
 30
0.0
 11
145.0207217143
 21
100.9000246696
 31
0.0
  0
LINE
  5
1BB
  8
0
  6
CONTINUOUS
 62
     7
 10
145.0207217143
 20
99.9000245057
 30
0.0
 11
147.7168335126
 21
99.9000245057
 31
0.0
  0
LINE
  5
1BC
  8
0
  6
CONTINUOUS
 62
     7
 10
145.0207217143
 20
100.9000246696
 30
0.0
 11
145.0207217143
 21
99.9000245057
 31
0.0
  0
LINE
  5
1BD
  8
0
  6
CONTINUOUS
 62
     7
 10
150.2207233117
 20
99.9000245057
 30
0.0
 11
155.0207240985
 21
99.9000245057
 31
0.0
  0
LINE
  5
1BE
  8
0
  6
CONTINUOUS
 62
     7
 10
155.0207240985
 20
100.9000246696
 30
0.0
 11
155.0207240985
 21
99.9000245057
 31
0.0
  0
ARC
  5
1BF
  8
0
  6
CONTINUOUS
 62
     7
 10
172.5207229064
 20
105.3000246786
 30
0.0
 40
2.700000000000017
 50
0.0
 51
180.0
  0
ARC
  5
1C0
  8
0
  6
CONTINUOUS
 62
     7
 10
172.5207229064
 20
55.3000246786
 30
0.0
 40
2.700000000000017
 50
180.0
 51
0.0
  0
LINE
  5
1C1
  8
0
  6
CONTINUOUS
 62
     7
 10
166.5207250522
 20
110.1000246875
 30
0.0
 11
166.5207250522
 21
111.3000245117
 31
0.0
  0
LINE
  5
1C2
  8
0
  6
CONTINUOUS
 62
     7
 10
166.5207250522
 20
111.3000245117
 30
0.0
 11
178.520725529
 21
111.3000245117
 31
0.0
  0
LINE
  5
1C3
  8
0
  6
CONTINUOUS
 62
     7
 10
178.520725529
 20
111.3000245117
 30
0.0
 11
178.520725529
 21
110.1000246875
 31
0.0
  0
LINE
  5
1C4
  8
0
  6
CONTINUOUS
 62
     7
 10
178.520725529
 20
110.1000246875
 30
0.0
 11
178.520725529
 21
100.5000246041
 31
0.0
  0
LINE
  5
1C5
  8
0
  6
CONTINUOUS
 62
     7
 10
166.5207250522
 20
110.1000246875
 30
0.0
 11
166.5207250522
 21
100.5000246041
 31
0.0
  0
LINE
  5
1C6
  8
0
  6
CONTINUOUS
 62
     7
 10
178.520725529
 20
99.3000247799
 30
0.0
 11
175.2207203315
 21
99.3000247799
 31
0.0
  0
LINE
  5
1C7
  8
0
  6
CONTINUOUS
 62
     7
 10
169.8207242892
 20
99.3000247799
 30
0.0
 11
166.5207250522
 21
99.3000247799
 31
0.0
  0
LINE
  5
1C8
  8
0
  6
CONTINUOUS
 62
     7
 10
178.520725529
 20
100.5000246041
 30
0.0
 11
178.520725529
 21
99.3000247799
 31
0.0
  0
LINE
  5
1C9
  8
0
  6
CONTINUOUS
 62
     7
 10
166.5207250522
 20
99.3000247799
 30
0.0
 11
166.5207250522
 21
100.5000246041
 31
0.0
  0
ARC
  5
1CA
  8
0
  6
CONTINUOUS
 62
     7
 10
52.5207229064
 20
105.3000246786
 30
0.0
 40
2.70000000000001
 50
0.0
 51
180.0
  0
ARC
  5
1CB
  8
0
  6
CONTINUOUS
 62
     7
 10
52.5207229064
 20
55.3000246786
 30
0.0
 40
2.70000000000001
 50
180.0
 51
0.0
  0
LINE
  5
1CC
  8
0
  6
CONTINUOUS
 62
     7
 10
46.5207202838
 20
110.1000246875
 30
0.0
 11
46.5207202838
 21
111.3000245117
 31
0.0
  0
LINE
  5
1CD
  8
0
  6
CONTINUOUS
 62
     7
 10
46.5207202838
 20
111.3000245117
 30
0.0
 11
58.5207207606
 21
111.3000245117
 31
0.0
  0
LINE
  5
1CE
  8
0
  6
CONTINUOUS
 62
     7
 10
58.5207207606
 20
111.3000245117
 30
0.0
 11
58.5207207606
 21
110.1000246875
 31
0.0
  0
LINE
  5
1CF
  8
0
  6
CONTINUOUS
 62
     7
 10
46.5207202838
 20
110.1000246875
 30
0.0
 11
46.5207202838
 21
100.5000246041
 31
0.0
  0
LINE
  5
1D0
  8
0
  6
CONTINUOUS
 62
     7
 10
58.5207207606
 20
110.1000246875
 30
0.0
 11
58.5207207606
 21
100.5000246041
 31
0.0
  0
LINE
  5
1D1
  8
0
  6
CONTINUOUS
 62
     7
 10
58.5207207606
 20
99.3000247799
 30
0.0
 11
55.2207215236
 21
99.3000247799
 31
0.0
  0
LINE
  5
1D2
  8
0
  6
CONTINUOUS
 62
     7
 10
49.8207254813
 20
99.3000247799
 30
0.0
 11
46.5207202838
 21
99.3000247799
 31
0.0
  0
LINE
  5
1D3
  8
0
  6
CONTINUOUS
 62
     7
 10
46.5207202838
 20
99.3000247799
 30
0.0
 11
46.5207202838
 21
100.5000246041
 31
0.0
  0
LINE
  5
1D4
  8
0
  6
CONTINUOUS
 62
     7
 10
58.5207207606
 20
100.5000246041
 30
0.0
 11
58.5207207606
 21
99.3000247799
 31
0.0
  0
ENDSEC
  0
EOF
