  0
SECTION
  2
HEADER
  9
$ACADVER
  1
AC1009
  9
$DWGCODEPAGE
  3
ansi_1252
  9
$INSBASE
 10
0.0
 20
0.0
 30
0.0
  9
$EXTMIN
 10
0.0
 20
0.0
 30
0.0
  9
$EXTMAX
 10
420.0
 20
297.0
 30
0.0
  9
$LIMMIN
 10
0.0
 20
0.0
  9
$LIMMAX
 10
420.0
 20
297.0
  9
$ORTHOMODE
 70
     0
  9
$REGENMODE
 70
     1
  9
$FILLMODE
 70
     1
  9
$QTEXTMODE
 70
     0
  9
$MIRRTEXT
 70
     1
  9
$DRAGMODE
 70
     2
  9
$LTSCALE
 40
1.0
  9
$OSMODE
 70
    37
  9
$ATTMODE
 70
     1
  9
$TEXTSIZE
 40
3.5
  9
$TRACEWID
 40
1.0
  9
$TEXTSTYLE
  7
STANDARD
  9
$CLAYER
  8
0
  9
$CELTYPE
  6
BYLAYER
  9
$CECOLOR
 62
   256
  9
$DIMSCALE
 40
1.0
  9
$DIMASZ
 40
4.0
  9
$DIMEXO
 40
0.0
  9
$DIMDLI
 40
3.75
  9
$DIMRND
 40
0.0
  9
$DIMDLE
 40
0.0
  9
$DIMEXE
 40
2.0
  9
$DIMTP
 40
0.0
  9
$DIMTM
 40
0.0
  9
$DIMTXT
 40
3.5
  9
$DIMCEN
 40
2.5
  9
$DIMTSZ
 40
0.0
  9
$DIMTOL
 70
     0
  9
$DIMLIM
 70
     0
  9
$DIMTIH
 70
     1
  9
$DIMTOH
 70
     1
  9
$DIMSE1
 70
     0
  9
$DIMSE2
 70
     0
  9
$DIMTAD
 70
     1
  9
$DIMZIN
 70
     0
  9
$DIMBLK
  1

  9
$DIMASO
 70
     1
  9
$DIMSHO
 70
     1
  9
$DIMPOST
  1

  9
$DIMAPOST
  1

  9
$DIMALT
 70
     0
  9
$DIMALTD
 70
     3
  9
$DIMALTF
 40
0.0393700787
  9
$DIMLFAC
 40
5.0
  9
$DIMTOFL
 70
     1
  9
$DIMTVP
 40
0.0
  9
$DIMTIX
 70
     0
  9
$DIMSOXD
 70
     0
  9
$DIMSAH
 70
     0
  9
$DIMBLK1
  1

  9
$DIMBLK2
  1

  9
$DIMSTYLE
  2
ISO-25
  9
$DIMCLRD
 70
     0
  9
$DIMCLRE
 70
     0
  9
$DIMCLRT
 70
     0
  9
$DIMTFAC
 40
1.0
  9
$DIMGAP
 40
1.524
  9
$LUNITS
 70
     2
  9
$LUPREC
 70
     2
  9
$SKETCHINC
 40
1.0
  9
$FILLETRAD
 40
10.0
  9
$AUNITS
 70
     0
  9
$AUPREC
 70
     2
  9
$MENU
  1
.
  9
$ELEVATION
 40
0.0
  9
$PELEVATION
 40
0.0
  9
$THICKNESS
 40
0.0
  9
$LIMCHECK
 70
     0
  9
$CHAMFERA
 40
10.0
  9
$CHAMFERB
 40
10.0
  9
$SKPOLY
 70
     0
  9
$TDCREATE
 40
2457802.603264004
  9
$TDUPDATE
 40
2457802.603264375
  9
$TDINDWG
 40
0.0000000116
  9
$TDUSRTIMER
 40
0.0000000116
  9
$USRTIMER
 70
     1
  9
$ANGBASE
 50
0.0
  9
$ANGDIR
 70
     0
  9
$PDMODE
 70
     0
  9
$PDSIZE
 40
-1.0
  9
$PLINEWID
 40
0.0
  9
$COORDS
 70
     1
  9
$SPLFRAME
 70
     0
  9
$SPLINETYPE
 70
     6
  9
$SPLINESEGS
 70
     8
  9
$ATTDIA
 70
     0
  9
$ATTREQ
 70
     1
  9
$HANDLING
 70
     1
  9
$HANDSEED
  5
BA7
  9
$SURFTAB1
 70
     6
  9
$SURFTAB2
 70
     6
  9
$SURFTYPE
 70
     6
  9
$SURFU
 70
     6
  9
$SURFV
 70
     6
  9
$UCSNAME
  2

  9
$UCSORG
 10
0.0
 20
0.0
 30
0.0
  9
$UCSXDIR
 10
1.0
 20
0.0
 30
0.0
  9
$UCSYDIR
 10
0.0
 20
1.0
 30
0.0
  9
$PUCSNAME
  2

  9
$PUCSORG
 10
0.0
 20
0.0
 30
0.0
  9
$PUCSXDIR
 10
1.0
 20
0.0
 30
0.0
  9
$PUCSYDIR
 10
0.0
 20
1.0
 30
0.0
  9
$USERI1
 70
     0
  9
$USERI2
 70
     0
  9
$USERI3
 70
     0
  9
$USERI4
 70
     0
  9
$USERI5
 70
     0
  9
$USERR1
 40
0.0
  9
$USERR2
 40
0.0
  9
$USERR3
 40
0.0
  9
$USERR4
 40
0.0
  9
$USERR5
 40
0.0
  9
$WORLDVIEW
 70
     1
  9
$SHADEDGE
 70
     3
  9
$SHADEDIF
 70
    70
  9
$TILEMODE
 70
     1
  9
$MAXACTVP
 70
    64
  9
$PLIMCHECK
 70
     0
  9
$PEXTMIN
 10
1.0000000000E+20
 20
1.0000000000E+20
 30
1.0000000000E+20
  9
$PEXTMAX
 10
-1.0000000000E+20
 20
-1.0000000000E+20
 30
-1.0000000000E+20
  9
$PLIMMIN
 10
0.0
 20
0.0
  9
$PLIMMAX
 10
420.0
 20
297.0
  9
$UNITMODE
 70
     0
  9
$VISRETAIN
 70
     1
  9
$PLINEGEN
 70
     0
  9
$PSLTSCALE
 70
     1
  0
ENDSEC
  0
SECTION
  2
TABLES
  0
TABLE
  2
VPORT
 70
     1
  0
VPORT
  2
*ACTIVE
 70
     0
 10
0.0
 20
0.0
 11
1.0
 21
1.0
 12
210.0
 22
148.5
 13
0.0
 23
0.0
 14
10.0
 24
10.0
 15
10.0
 25
10.0
 16
0.0
 26
0.0
 36
1.0
 17
0.0
 27
0.0
 37
0.0
 40
297.0
 41
1.4141414141
 42
50.0
 43
0.0
 44
0.0
 50
0.0
 51
0.0
 71
     0
 72
  2000
 73
     1
 74
     3
 75
     0
 76
     0
 77
     0
 78
     0
  0
ENDTAB
  0
TABLE
  2
LTYPE
 70
     6
  0
LTYPE
  2
CONTINUOUS
 70
     0
  3
Solid line
 72
    65
 73
     0
 40
0.0
  0
LTYPE
  2
HIDDEN
 70
     0
  3
Hidden __ __ __ __ __ __ __ __ __ __ __ __ __ __
 72
    65
 73
     2
 40
1.905
 49
1.27
 49
-0.635
  0
LTYPE
  2
PHANTOM
 70
     0
  3
Phantom ______  __  __  ______  __  __  ______
 72
    65
 73
     6
 40
12.7
 49
6.35
 49
-1.27
 49
1.27
 49
-1.27
 49
1.27
 49
-1.27
  0
LTYPE
  2
CENTER
 70
     0
  3
Center ____ _ ____ _ ____ _ ____ _ ____ _ ____
 72
    65
 73
     4
 40
10.16
 49
6.35
 49
-1.27
 49
1.27
 49
-1.27
  0
LTYPE
  2
CENTERX2
 70
     0
  3
Center (2x) ________  __  ________  __  _____
 72
    65
 73
     4
 40
20.32
 49
12.7
 49
-2.54
 49
2.54
 49
-2.54
  0
LTYPE
  2
DOT2
 70
     0
  3
Dot (.5x) ........................................
 72
    65
 73
     2
 40
0.635
 49
0.0
 49
-0.635
  0
ENDTAB
  0
TABLE
  2
LAYER
 70
     2
  0
LAYER
  2
0
 70
     0
 62
     7
  6
CONTINUOUS
  0
LAYER
  2
FORMAT
 70
     0
 62
     7
  6
CONTINUOUS
  0
ENDTAB
  0
TABLE
  2
STYLE
 70
     1
  0
STYLE
  2
STANDARD
 70
     0
 40
0.0
 41
1.0
 50
0.0
 71
     0
 42
3.5
  3
txt
  4

  0
ENDTAB
  0
TABLE
  2
VIEW
 70
     0
  0
ENDTAB
  0
TABLE
  2
UCS
 70
     0
  0
ENDTAB
  0
TABLE
  2
APPID
 70
     1
  0
APPID
  2
ACAD
 70
     0
  0
ENDTAB
  0
TABLE
  2
DIMSTYLE
 70
     1
  0
DIMSTYLE
  2
ISO-25
 70
     0
  3

  4

  5

  6

  7

 40
1.0
 41
2.5
 42
0.625
 43
3.75
 44
1.25
 45
0.0
 46
0.0
 47
0.0
 48
0.0
140
2.5
141
2.5
142
0.0
143
0.0393700787
144
1.0
145
0.0
146
1.0
147
0.625
 71
     0
 72
     0
 73
     0
 74
     0
 75
     0
 76
     0
 77
     1
 78
     8
170
     0
171
     3
172
     1
173
     0
174
     0
175
     0
176
     0
177
     0
178
     0
  0
ENDTAB
  0
ENDSEC
  0
SECTION
  2
BLOCKS
  0
BLOCK
  8
0
  2
$MODEL_SPACE
 70
     0
 10
0.0
 20
0.0
 30
0.0
  3
$MODEL_SPACE
  1

  0
ENDBLK
  5
21
  8
0
  0
BLOCK
 67
     1
  8
0
  2
$PAPER_SPACE
 70
     0
 10
0.0
 20
0.0
 30
0.0
  3
$PAPER_SPACE
  1

  0
ENDBLK
  5
1D
 67
     1
  8
0
  0
ENDSEC
  0
SECTION
  2
ENTITIES
  0
LINE
  5
45
  8
0
  6
CONTINUOUS
 62
     7
 10
328.1521595701
 20
167.4318646361
 30
0.0
 11
328.1521595701
 21
152.4318670203
 31
0.0
  0
LINE
  5
46
  8
0
  6
CONTINUOUS
 62
     7
 10
333.5521615728
 20
152.4318670203
 30
0.0
 11
333.5521615728
 21
167.4318646361
 31
0.0
  0
LINE
  5
47
  8
0
  6
CONTINUOUS
 62
     7
 10
333.5521615728
 20
135.831866162
 30
0.0
 11
333.5521615728
 21
152.4318670203
 31
0.0
  0
LINE
  5
48
  8
0
  6
CONTINUOUS
 62
     7
 10
328.1521595701
 20
152.4318670203
 30
0.0
 11
328.1521595701
 21
135.831866162
 31
0.0
  0
LINE
  5
49
  8
0
  6
CONTINUOUS
 62
     7
 10
328.1521595701
 20
135.831866162
 30
0.0
 11
328.1521595701
 21
120.8318685462
 31
0.0
  0
LINE
  5
4A
  8
0
  6
CONTINUOUS
 62
     7
 10
333.5521615728
 20
120.8318685462
 30
0.0
 11
333.5521615728
 21
135.831866162
 31
0.0
  0
LINE
  5
4B
  8
0
  6
CONTINUOUS
 62
     7
 10
-26.4478288904
 20
135.831866162
 30
0.0
 11
-26.4478288904
 21
152.4318670203
 31
0.0
  0
LINE
  5
4C
  8
0
  6
CONTINUOUS
 62
     7
 10
-31.8478428141
 20
152.4318670203
 30
0.0
 11
-31.8478428141
 21
135.831866162
 31
0.0
  0
LINE
  5
4D
  8
0
  6
CONTINUOUS
 62
     7
 10
-31.8478428141
 20
167.4318646361
 30
0.0
 11
-31.8478428141
 21
152.4318670203
 31
0.0
  0
LINE
  5
4E
  8
0
  6
CONTINUOUS
 62
     7
 10
-26.4478288904
 20
152.4318670203
 30
0.0
 11
-26.4478288904
 21
167.4318646361
 31
0.0
  0
LINE
  5
4F
  8
0
  6
CONTINUOUS
 62
     7
 10
-31.8478428141
 20
135.831866162
 30
0.0
 11
-31.8478428141
 21
120.8318685462
 31
0.0
  0
LINE
  5
50
  8
0
  6
CONTINUOUS
 62
     7
 10
-26.4478288904
 20
120.8318685462
 30
0.0
 11
-26.4478288904
 21
135.831866162
 31
0.0
  0
LINE
  5
51
  8
0
  6
CONTINUOUS
 62
     7
 10
208.1521616935
 20
167.4318646361
 30
0.0
 11
208.1521616935
 21
152.4318670203
 31
0.0
  0
LINE
  5
52
  8
0
  6
CONTINUOUS
 62
     7
 10
213.5521618336
 20
152.4318670203
 30
0.0
 11
213.5521618336
 21
167.4318646361
 31
0.0
  0
LINE
  5
53
  8
0
  6
CONTINUOUS
 62
     7
 10
213.5521618336
 20
135.831866162
 30
0.0
 11
213.5521618336
 21
152.4318670203
 31
0.0
  0
LINE
  5
54
  8
0
  6
CONTINUOUS
 62
     7
 10
208.1521616935
 20
152.4318670203
 30
0.0
 11
208.1521616935
 21
135.831866162
 31
0.0
  0
LINE
  5
55
  8
0
  6
CONTINUOUS
 62
     7
 10
208.1521616935
 20
135.831866162
 30
0.0
 11
208.1521616935
 21
120.8318685462
 31
0.0
  0
LINE
  5
56
  8
0
  6
CONTINUOUS
 62
     7
 10
213.5521618336
 20
120.8318685462
 30
0.0
 11
213.5521618336
 21
135.831866162
 31
0.0
  0
LINE
  5
57
  8
0
  6
CONTINUOUS
 62
     7
 10
448.1521524175
 20
167.4318646361
 30
0.0
 11
448.1521524175
 21
152.4318670203
 31
0.0
  0
LINE
  5
58
  8
0
  6
CONTINUOUS
 62
     7
 10
453.5521663412
 20
152.4318670203
 30
0.0
 11
453.5521663412
 21
167.4318646361
 31
0.0
  0
LINE
  5
59
  8
0
  6
CONTINUOUS
 62
     7
 10
453.5521663412
 20
135.831866162
 30
0.0
 11
453.5521663412
 21
152.4318670203
 31
0.0
  0
LINE
  5
5A
  8
0
  6
CONTINUOUS
 62
     7
 10
448.1521524175
 20
152.4318670203
 30
0.0
 11
448.1521524175
 21
135.831866162
 31
0.0
  0
LINE
  5
5B
  8
0
  6
CONTINUOUS
 62
     7
 10
448.1521524175
 20
135.831866162
 30
0.0
 11
448.1521524175
 21
120.8318685462
 31
0.0
  0
LINE
  5
5C
  8
0
  6
CONTINUOUS
 62
     7
 10
453.5521663412
 20
120.8318685462
 30
0.0
 11
453.5521663412
 21
135.831866162
 31
0.0
  0
LINE
  5
5D
  8
0
  6
CONTINUOUS
 62
     7
 10
93.552163957
 20
135.831866162
 30
0.0
 11
93.552163957
 21
152.4318670203
 31
0.0
  0
LINE
  5
5E
  8
0
  6
CONTINUOUS
 62
     7
 10
88.1521619543
 20
152.4318670203
 30
0.0
 11
88.1521619543
 21
135.831866162
 31
0.0
  0
LINE
  5
5F
  8
0
  6
CONTINUOUS
 62
     7
 10
88.1521619543
 20
167.4318646361
 30
0.0
 11
88.1521619543
 21
152.4318670203
 31
0.0
  0
LINE
  5
60
  8
0
  6
CONTINUOUS
 62
     7
 10
93.552163957
 20
152.4318670203
 30
0.0
 11
93.552163957
 21
167.4318646361
 31
0.0
  0
LINE
  5
61
  8
0
  6
CONTINUOUS
 62
     7
 10
88.1521619543
 20
135.831866162
 30
0.0
 11
88.1521619543
 21
120.8318685462
 31
0.0
  0
LINE
  5
62
  8
0
  6
CONTINUOUS
 62
     7
 10
93.552163957
 20
120.8318685462
 30
0.0
 11
93.552163957
 21
135.831866162
 31
0.0
  0
ARC
  5
63
  8
0
  6
CONTINUOUS
 62
     7
 10
295.8029993592
 20
182.7658206254
 30
0.0
 40
15.10053330490873
 50
271.1940943835
 51
0.20745633
  0
ARC
  5
64
  8
0
  6
CONTINUOUS
 62
     7
 10
245.8992897832
 20
182.7620020071
 30
0.0
 40
15.09768361845972
 50
179.7788270622
 51
268.8138955865
  0
LINE
  5
65
  8
0
  6
CONTINUOUS
 62
     7
 10
230.7934052929
 20
222.522590058
 30
0.0
 11
230.7934052929
 21
182.8207467963
 31
0.0
  0
LINE
  5
66
  8
0
  6
CONTINUOUS
 62
     7
 10
310.9109200224
 20
182.8207467963
 30
0.0
 11
310.9109200224
 21
222.522590058
 31
0.0
  0
POLYLINE
  5
67
  8
0
  6
CONTINUOUS
 62
     7
 66
     1
 10
0.0
 20
0.0
 30
0.0
  0
VERTEX
  5
565
  8
0
  6
CONTINUOUS
 62
     7
 10
245.5866194948
 20
167.6600431372
 30
0.0
  0
VERTEX
  5
566
  8
0
  6
CONTINUOUS
 62
     7
 10
247.3784275039
 20
167.6312302519
 30
0.0
  0
VERTEX
  5
567
  8
0
  6
CONTINUOUS
 62
     7
 10
250.7889993175
 20
167.5823425223
 30
0.0
  0
VERTEX
  5
568
  8
0
  6
CONTINUOUS
 62
     7
 10
254.2063630804
 20
167.541108029
 30
0.0
  0
VERTEX
  5
569
  8
0
  6
CONTINUOUS
 62
     7
 10
257.6293266996
 20
167.507562535
 30
0.0
  0
VERTEX
  5
56A
  8
0
  6
CONTINUOUS
 62
     7
 10
261.0567427858
 20
167.481717961
 30
0.0
  0
VERTEX
  5
56B
  8
0
  6
CONTINUOUS
 62
     7
 10
264.4874490484
 20
167.4635743071
 30
0.0
  0
VERTEX
  5
56C
  8
0
  6
CONTINUOUS
 62
     7
 10
267.9203010782
 20
167.4531315733
 30
0.0
  0
VERTEX
  5
56D
  8
0
  6
CONTINUOUS
 62
     7
 10
271.3541365846
 20
167.4504016806
 30
0.0
  0
VERTEX
  5
56E
  8
0
  6
CONTINUOUS
 62
     7
 10
274.7877992376
 20
167.4553846289
 30
0.0
  0
VERTEX
  5
56F
  8
0
  6
CONTINUOUS
 62
     7
 10
278.220132707
 20
167.4680804183
 30
0.0
  0
VERTEX
  5
570
  8
0
  6
CONTINUOUS
 62
     7
 10
281.6499747022
 20
167.4884771277
 30
0.0
  0
VERTEX
  5
571
  8
0
  6
CONTINUOUS
 62
     7
 10
285.0761808141
 20
167.5165747572
 30
0.0
  0
VERTEX
  5
572
  8
0
  6
CONTINUOUS
 62
     7
 10
288.4975947126
 20
167.5523733069
 30
0.0
  0
VERTEX
  5
573
  8
0
  6
CONTINUOUS
 62
     7
 10
291.9130600675
 20
167.5958370139
 30
0.0
  0
VERTEX
  5
574
  8
0
  6
CONTINUOUS
 62
     7
 10
295.1422847494
 20
167.6440929343
 30
0.0
  0
VERTEX
  5
575
  8
0
  6
CONTINUOUS
 62
     7
 10
296.1177028402
 20
167.6600431372
 30
0.0
  0
SEQEND
  5
BA6
  8
0
  6
CONTINUOUS
 62
     7
  0
ARC
  5
68
  8
0
  6
CONTINUOUS
 62
     7
 10
245.3119009022
 20
222.9203919854
 30
0.0
 40
14.2537322139944
 50
88.5351333239
 51
113.3277196996
  0
ARC
  5
69
  8
0
  6
CONTINUOUS
 62
     7
 10
296.391016099
 20
222.8829877443
 30
0.0
 40
14.29231641385369
 50
66.7644852849
 51
91.4553473028
  0
POLYLINE
  5
6A
  8
0
  6
CONTINUOUS
 62
     7
 66
     1
 10
0.0
 20
0.0
 30
0.0
  0
VERTEX
  5
576
  8
0
  6
CONTINUOUS
 62
     7
 10
236.9757450803
 20
234.5231985022
 30
0.0
  0
VERTEX
  5
577
  8
0
  6
CONTINUOUS
 62
     7
 10
236.9303561434
 20
234.493372338
 30
0.0
  0
VERTEX
  5
578
  8
0
  6
CONTINUOUS
 62
     7
 10
236.5985728487
 20
234.2424487044
 30
0.0
  0
SEQEND
  5
BA5
  8
0
  6
CONTINUOUS
 62
     7
  0
ARC
  5
6B
  8
0
  6
CONTINUOUS
 62
     7
 10
245.3586105357
 20
222.6197698986
 30
0.0
 40
14.55831665883455
 50
128.4665640879
 51
180.382886532
  0
ARC
  5
6C
  8
0
  6
CONTINUOUS
 62
     7
 10
296.3231815788
 20
222.615026262
 30
0.0
 40
14.57975925395802
 50
359.636178064
 51
54.8680753639
  0
POLYLINE
  5
6D
  8
0
  6
CONTINUOUS
 62
     7
 66
     1
 10
0.0
 20
0.0
 30
0.0
  0
VERTEX
  5
579
  8
0
  6
CONTINUOUS
 62
     7
 10
296.0279859289
 20
237.1776317526
 30
0.0
  0
VERTEX
  5
57A
  8
0
  6
CONTINUOUS
 62
     7
 10
294.2426420435
 20
237.1489261557
 30
0.0
  0
VERTEX
  5
57B
  8
0
  6
CONTINUOUS
 62
     7
 10
290.8444322332
 20
237.1002053191
 30
0.0
  0
VERTEX
  5
57C
  8
0
  6
CONTINUOUS
 62
     7
 10
287.4393380865
 20
237.0591257979
 30
0.0
  0
VERTEX
  5
57D
  8
0
  6
CONTINUOUS
 62
     7
 10
284.0285576566
 20
237.0256995131
 30
0.0
  0
VERTEX
  5
57E
  8
0
  6
CONTINUOUS
 62
     7
 10
280.6132591947
 20
236.9999383856
 30
0.0
  0
VERTEX
  5
57F
  8
0
  6
CONTINUOUS
 62
     7
 10
277.1946109518
 20
236.9818543364
 30
0.0
  0
VERTEX
  5
580
  8
0
  6
CONTINUOUS
 62
     7
 10
273.7737811788
 20
236.9714473654
 30
0.0
  0
VERTEX
  5
581
  8
0
  6
CONTINUOUS
 62
     7
 10
270.3519500478
 20
236.9687293936
 30
0.0
  0
VERTEX
  5
582
  8
0
  6
CONTINUOUS
 62
     7
 10
266.9302858099
 20
236.973700421
 30
0.0
  0
VERTEX
  5
583
  8
0
  6
CONTINUOUS
 62
     7
 10
263.5099567159
 20
236.9863485266
 30
0.0
  0
VERTEX
  5
584
  8
0
  6
CONTINUOUS
 62
     7
 10
260.0921459182
 20
237.0066737105
 30
0.0
  0
VERTEX
  5
585
  8
0
  6
CONTINUOUS
 62
     7
 10
256.6780127271
 20
237.0346759726
 30
0.0
  0
VERTEX
  5
586
  8
0
  6
CONTINUOUS
 62
     7
 10
253.2687373146
 20
237.070343392
 30
0.0
  0
VERTEX
  5
587
  8
0
  6
CONTINUOUS
 62
     7
 10
249.8654819711
 20
237.1136640479
 30
0.0
  0
VERTEX
  5
588
  8
0
  6
CONTINUOUS
 62
     7
 10
246.6479606613
 20
237.1617411543
 30
0.0
  0
VERTEX
  5
589
  8
0
  6
CONTINUOUS
 62
     7
 10
245.6763393863
 20
237.1776317526
 30
0.0
  0
SEQEND
  5
BA4
  8
0
  6
CONTINUOUS
 62
     7
  0
ARC
  5
6E
  8
0
  6
CONTINUOUS
 62
     7
 10
175.8029952988
 20
182.7658287211
 30
0.0
 40
15.10054150829801
 50
271.1941136686
 51
0.2074254998
  0
ARC
  5
6F
  8
0
  6
CONTINUOUS
 62
     7
 10
125.899280343
 20
182.7619871788
 30
0.0
 40
15.09766857322425
 50
179.7787705677
 51
268.8139347625
  0
LINE
  5
70
  8
0
  6
CONTINUOUS
 62
     7
 10
110.7934035047
 20
222.522590058
 30
0.0
 11
110.7934035047
 21
182.8207467963
 31
0.0
  0
LINE
  5
71
  8
0
  6
CONTINUOUS
 62
     7
 10
190.9109182342
 20
182.8207467963
 30
0.0
 11
190.9109182342
 21
222.522590058
 31
0.0
  0
POLYLINE
  5
72
  8
0
  6
CONTINUOUS
 62
     7
 66
     1
 10
0.0
 20
0.0
 30
0.0
  0
VERTEX
  5
58A
  8
0
  6
CONTINUOUS
 62
     7
 10
125.5866206869
 20
167.6600431372
 30
0.0
  0
VERTEX
  5
58B
  8
0
  6
CONTINUOUS
 62
     7
 10
127.3784257158
 20
167.6312302519
 30
0.0
  0
VERTEX
  5
58C
  8
0
  6
CONTINUOUS
 62
     7
 10
130.7889975294
 20
167.5823425223
 30
0.0
  0
VERTEX
  5
58D
  8
0
  6
CONTINUOUS
 62
     7
 10
134.2063642725
 20
167.541108029
 30
0.0
  0
VERTEX
  5
58E
  8
0
  6
CONTINUOUS
 62
     7
 10
137.6293278917
 20
167.507562535
 30
0.0
  0
VERTEX
  5
58F
  8
0
  6
CONTINUOUS
 62
     7
 10
141.0567439779
 20
167.481717961
 30
0.0
  0
VERTEX
  5
590
  8
0
  6
CONTINUOUS
 62
     7
 10
144.4874502405
 20
167.4635743071
 30
0.0
  0
VERTEX
  5
591
  8
0
  6
CONTINUOUS
 62
     7
 10
147.9203022703
 20
167.4531315733
 30
0.0
  0
VERTEX
  5
592
  8
0
  6
CONTINUOUS
 62
     7
 10
151.3541377767
 20
167.4504016806
 30
0.0
  0
VERTEX
  5
593
  8
0
  6
CONTINUOUS
 62
     7
 10
154.7878004297
 20
167.4553846289
 30
0.0
  0
VERTEX
  5
594
  8
0
  6
CONTINUOUS
 62
     7
 10
158.2201279386
 20
167.4680804183
 30
0.0
  0
VERTEX
  5
595
  8
0
  6
CONTINUOUS
 62
     7
 10
161.6499758943
 20
167.4884771277
 30
0.0
  0
VERTEX
  5
596
  8
0
  6
CONTINUOUS
 62
     7
 10
165.0761820062
 20
167.5165747572
 30
0.0
  0
VERTEX
  5
597
  8
0
  6
CONTINUOUS
 62
     7
 10
168.4975959047
 20
167.5523733069
 30
0.0
  0
VERTEX
  5
598
  8
0
  6
CONTINUOUS
 62
     7
 10
171.9130582794
 20
167.5958370139
 30
0.0
  0
VERTEX
  5
599
  8
0
  6
CONTINUOUS
 62
     7
 10
175.1422829612
 20
167.6440929343
 30
0.0
  0
VERTEX
  5
59A
  8
0
  6
CONTINUOUS
 62
     7
 10
176.1177040323
 20
167.6600431372
 30
0.0
  0
SEQEND
  5
BA3
  8
0
  6
CONTINUOUS
 62
     7
  0
ARC
  5
73
  8
0
  6
CONTINUOUS
 62
     7
 10
125.3119088567
 20
222.9203569723
 30
0.0
 40
14.25376704277409
 50
88.5351640956
 51
113.3276889279
  0
ARC
  5
74
  8
0
  6
CONTINUOUS
 62
     7
 10
176.3910158626
 20
222.88299581
 30
0.0
 40
14.29230839019003
 50
66.7644782449
 51
91.4553543428
  0
POLYLINE
  5
75
  8
0
  6
CONTINUOUS
 62
     7
 66
     1
 10
0.0
 20
0.0
 30
0.0
  0
VERTEX
  5
59B
  8
0
  6
CONTINUOUS
 62
     7
 10
116.9757462724
 20
234.5231985022
 30
0.0
  0
VERTEX
  5
59C
  8
0
  6
CONTINUOUS
 62
     7
 10
116.9303573354
 20
234.493372338
 30
0.0
  0
VERTEX
  5
59D
  8
0
  6
CONTINUOUS
 62
     7
 10
116.5985740408
 20
234.2424487044
 30
0.0
  0
SEQEND
  5
BA2
  8
0
  6
CONTINUOUS
 62
     7
  0
ARC
  5
76
  8
0
  6
CONTINUOUS
 62
     7
 10
125.3586226515
 20
222.6197613572
 30
0.0
 40
14.55833199556974
 50
128.466586022
 51
180.3828525126
  0
ARC
  5
77
  8
0
  6
CONTINUOUS
 62
     7
 10
176.3231785626
 20
222.6150315992
 30
0.0
 40
14.57975902578268
 50
359.6361570838
 51
54.8680401908
  0
POLYLINE
  5
78
  8
0
  6
CONTINUOUS
 62
     7
 66
     1
 10
0.0
 20
0.0
 30
0.0
  0
VERTEX
  5
59E
  8
0
  6
CONTINUOUS
 62
     7
 10
176.0279841408
 20
237.1776317526
 30
0.0
  0
VERTEX
  5
59F
  8
0
  6
CONTINUOUS
 62
     7
 10
174.2426432356
 20
237.1489261557
 30
0.0
  0
VERTEX
  5
5A0
  8
0
  6
CONTINUOUS
 62
     7
 10
170.8444304451
 20
237.1002053191
 30
0.0
  0
VERTEX
  5
5A1
  8
0
  6
CONTINUOUS
 62
     7
 10
167.4393362983
 20
237.0591257979
 30
0.0
  0
VERTEX
  5
5A2
  8
0
  6
CONTINUOUS
 62
     7
 10
164.0285558685
 20
237.0256995131
 30
0.0
  0
VERTEX
  5
5A3
  8
0
  6
CONTINUOUS
 62
     7
 10
160.6132544264
 20
236.9999383856
 30
0.0
  0
VERTEX
  5
5A4
  8
0
  6
CONTINUOUS
 62
     7
 10
157.1946061834
 20
236.9818543364
 30
0.0
  0
VERTEX
  5
5A5
  8
0
  6
CONTINUOUS
 62
     7
 10
153.7737823709
 20
236.9714473654
 30
0.0
  0
VERTEX
  5
5A6
  8
0
  6
CONTINUOUS
 62
     7
 10
150.3519512399
 20
236.9687293936
 30
0.0
  0
VERTEX
  5
5A7
  8
0
  6
CONTINUOUS
 62
     7
 10
146.9302810415
 20
236.973700421
 30
0.0
  0
VERTEX
  5
5A8
  8
0
  6
CONTINUOUS
 62
     7
 10
143.509957908
 20
236.9863485266
 30
0.0
  0
VERTEX
  5
5A9
  8
0
  6
CONTINUOUS
 62
     7
 10
140.0921441301
 20
237.0066737105
 30
0.0
  0
VERTEX
  5
5AA
  8
0
  6
CONTINUOUS
 62
     7
 10
136.6780139192
 20
237.0346759726
 30
0.0
  0
VERTEX
  5
5AB
  8
0
  6
CONTINUOUS
 62
     7
 10
133.2687355264
 20
237.070343392
 30
0.0
  0
VERTEX
  5
5AC
  8
0
  6
CONTINUOUS
 62
     7
 10
129.8654831632
 20
237.1136640479
 30
0.0
  0
VERTEX
  5
5AD
  8
0
  6
CONTINUOUS
 62
     7
 10
126.6479588732
 20
237.1617411543
 30
0.0
  0
VERTEX
  5
5AE
  8
0
  6
CONTINUOUS
 62
     7
 10
125.6763375982
 20
237.1776317526
 30
0.0
  0
SEQEND
  5
BA1
  8
0
  6
CONTINUOUS
 62
     7
  0
ARC
  5
79
  8
0
  6
CONTINUOUS
 62
     7
 10
415.803003908
 20
182.7658090831
 30
0.0
 40
15.10052164538554
 50
271.1940735181
 51
0.2075002857
  0
ARC
  5
7A
  8
0
  6
CONTINUOUS
 62
     7
 10
365.8992802929
 20
182.7619895792
 30
0.0
 40
15.09767089807235
 50
179.7787797115
 51
268.81394871
  0
LINE
  5
7B
  8
0
  6
CONTINUOUS
 62
     7
 10
350.7934011205
 20
222.522590058
 30
0.0
 11
350.7934011205
 21
182.8207467963
 31
0.0
  0
LINE
  5
7C
  8
0
  6
CONTINUOUS
 62
     7
 10
430.9109128698
 20
182.8207467963
 30
0.0
 11
430.9109128698
 21
222.522590058
 31
0.0
  0
POLYLINE
  5
7D
  8
0
  6
CONTINUOUS
 62
     7
 66
     1
 10
0.0
 20
0.0
 30
0.0
  0
VERTEX
  5
5AF
  8
0
  6
CONTINUOUS
 62
     7
 10
365.5866183027
 20
167.6600431372
 30
0.0
  0
VERTEX
  5
5B0
  8
0
  6
CONTINUOUS
 62
     7
 10
367.3784292921
 20
167.6312302519
 30
0.0
  0
VERTEX
  5
5B1
  8
0
  6
CONTINUOUS
 62
     7
 10
370.7889951452
 20
167.5823425223
 30
0.0
  0
VERTEX
  5
5B2
  8
0
  6
CONTINUOUS
 62
     7
 10
374.2063678488
 20
167.541108029
 30
0.0
  0
VERTEX
  5
5B3
  8
0
  6
CONTINUOUS
 62
     7
 10
377.629331468
 20
167.507562535
 30
0.0
  0
VERTEX
  5
5B4
  8
0
  6
CONTINUOUS
 62
     7
 10
381.0567415937
 20
167.481717961
 30
0.0
  0
VERTEX
  5
5B5
  8
0
  6
CONTINUOUS
 62
     7
 10
384.4874538168
 20
167.4635743071
 30
0.0
  0
VERTEX
  5
5B6
  8
0
  6
CONTINUOUS
 62
     7
 10
387.9202998861
 20
167.4531315733
 30
0.0
  0
VERTEX
  5
5B7
  8
0
  6
CONTINUOUS
 62
     7
 10
391.3541353925
 20
167.4504016806
 30
0.0
  0
VERTEX
  5
5B8
  8
0
  6
CONTINUOUS
 62
     7
 10
394.787792085
 20
167.4553846289
 30
0.0
  0
VERTEX
  5
5B9
  8
0
  6
CONTINUOUS
 62
     7
 10
398.2201255544
 20
167.4680804183
 30
0.0
  0
VERTEX
  5
5BA
  8
0
  6
CONTINUOUS
 62
     7
 10
401.6499794706
 20
167.4884771277
 30
0.0
  0
VERTEX
  5
5BB
  8
0
  6
CONTINUOUS
 62
     7
 10
405.0761855825
 20
167.5165747572
 30
0.0
  0
VERTEX
  5
5BC
  8
0
  6
CONTINUOUS
 62
     7
 10
408.497599481
 20
167.5523733069
 30
0.0
  0
VERTEX
  5
5BD
  8
0
  6
CONTINUOUS
 62
     7
 10
411.913052915
 20
167.5958370139
 30
0.0
  0
VERTEX
  5
5BE
  8
0
  6
CONTINUOUS
 62
     7
 10
415.1422895178
 20
167.6440929343
 30
0.0
  0
VERTEX
  5
5BF
  8
0
  6
CONTINUOUS
 62
     7
 10
416.1177076086
 20
167.6600431372
 30
0.0
  0
SEQEND
  5
BA0
  8
0
  6
CONTINUOUS
 62
     7
  0
ARC
  5
7E
  8
0
  6
CONTINUOUS
 62
     7
 10
365.3119035702
 20
222.9203701279
 30
0.0
 40
14.25375381331577
 50
88.5351750327
 51
113.3276991557
  0
ARC
  5
7F
  8
0
  6
CONTINUOUS
 62
     7
 10
416.3910169017
 20
222.8830582012
 30
0.0
 40
14.29224618175599
 50
66.7644251157
 51
91.4553863579
  0
POLYLINE
  5
80
  8
0
  6
CONTINUOUS
 62
     7
 66
     1
 10
0.0
 20
0.0
 30
0.0
  0
VERTEX
  5
5C0
  8
0
  6
CONTINUOUS
 62
     7
 10
356.9757379278
 20
234.5231985022
 30
0.0
  0
VERTEX
  5
5C1
  8
0
  6
CONTINUOUS
 62
     7
 10
356.9303549513
 20
234.493372338
 30
0.0
  0
VERTEX
  5
5C2
  8
0
  6
CONTINUOUS
 62
     7
 10
356.5985716566
 20
234.2424487044
 30
0.0
  0
SEQEND
  5
B9F
  8
0
  6
CONTINUOUS
 62
     7
  0
ARC
  5
81
  8
0
  6
CONTINUOUS
 62
     7
 10
365.3586202674
 20
222.6197613572
 30
0.0
 40
14.55833199556973
 50
128.466586022
 51
180.3828525126
  0
ARC
  5
82
  8
0
  6
CONTINUOUS
 62
     7
 10
416.3231876208
 20
222.6150413818
 30
0.0
 40
14.57974615560977
 50
359.636118318
 51
54.8680452647
  0
POLYLINE
  5
83
  8
0
  6
CONTINUOUS
 62
     7
 66
     1
 10
0.0
 20
0.0
 30
0.0
  0
VERTEX
  5
5C3
  8
0
  6
CONTINUOUS
 62
     7
 10
416.0279906973
 20
237.1776317526
 30
0.0
  0
VERTEX
  5
5C4
  8
0
  6
CONTINUOUS
 62
     7
 10
414.2426408514
 20
237.1489261557
 30
0.0
  0
VERTEX
  5
5C5
  8
0
  6
CONTINUOUS
 62
     7
 10
410.8444250807
 20
237.1002053191
 30
0.0
  0
VERTEX
  5
5C6
  8
0
  6
CONTINUOUS
 62
     7
 10
407.4393428549
 20
237.0591257979
 30
0.0
  0
VERTEX
  5
5C7
  8
0
  6
CONTINUOUS
 62
     7
 10
404.028562425
 20
237.0256995131
 30
0.0
  0
VERTEX
  5
5C8
  8
0
  6
CONTINUOUS
 62
     7
 10
400.6132520422
 20
236.9999383856
 30
0.0
  0
VERTEX
  5
5C9
  8
0
  6
CONTINUOUS
 62
     7
 10
397.1946037992
 20
236.9818543364
 30
0.0
  0
VERTEX
  5
5CA
  8
0
  6
CONTINUOUS
 62
     7
 10
393.7737859472
 20
236.9714473654
 30
0.0
  0
VERTEX
  5
5CB
  8
0
  6
CONTINUOUS
 62
     7
 10
390.3519548162
 20
236.9687293936
 30
0.0
  0
VERTEX
  5
5CC
  8
0
  6
CONTINUOUS
 62
     7
 10
386.9302786573
 20
236.973700421
 30
0.0
  0
VERTEX
  5
5CD
  8
0
  6
CONTINUOUS
 62
     7
 10
383.5099614843
 20
236.9863485266
 30
0.0
  0
VERTEX
  5
5CE
  8
0
  6
CONTINUOUS
 62
     7
 10
380.0921477064
 20
237.0066737105
 30
0.0
  0
VERTEX
  5
5CF
  8
0
  6
CONTINUOUS
 62
     7
 10
376.6780174955
 20
237.0346759726
 30
0.0
  0
VERTEX
  5
5D0
  8
0
  6
CONTINUOUS
 62
     7
 10
373.2687391027
 20
237.070343392
 30
0.0
  0
VERTEX
  5
5D1
  8
0
  6
CONTINUOUS
 62
     7
 10
369.865480779
 20
237.1136640479
 30
0.0
  0
VERTEX
  5
5D2
  8
0
  6
CONTINUOUS
 62
     7
 10
366.6479624494
 20
237.1617411543
 30
0.0
  0
VERTEX
  5
5D3
  8
0
  6
CONTINUOUS
 62
     7
 10
365.676335214
 20
237.1776317526
 30
0.0
  0
SEQEND
  5
B9E
  8
0
  6
CONTINUOUS
 62
     7
  0
ARC
  5
84
  8
0
  6
CONTINUOUS
 62
     7
 10
55.8029952448
 20
182.7658270907
 30
0.0
 40
15.10053977999287
 50
271.1940959134
 51
0.2074317098
  0
ARC
  5
85
  8
0
  6
CONTINUOUS
 62
     7
 10
5.8993061558
 20
182.7620287726
 30
0.0
 40
15.09771091451404
 50
179.7789290376
 51
268.8137993839
  0
LINE
  5
86
  8
0
  6
CONTINUOUS
 62
     7
 10
-9.2065893427
 20
222.522590058
 30
0.0
 11
-9.2065893427
 21
182.8207467963
 31
0.0
  0
LINE
  5
87
  8
0
  6
CONTINUOUS
 62
     7
 10
70.9109224066
 20
182.8207467963
 30
0.0
 11
70.9109224066
 21
222.522590058
 31
0.0
  0
POLYLINE
  5
88
  8
0
  6
CONTINUOUS
 62
     7
 66
     1
 10
0.0
 20
0.0
 30
0.0
  0
VERTEX
  5
5D4
  8
0
  6
CONTINUOUS
 62
     7
 10
5.5866159185
 20
167.6600431372
 30
0.0
  0
VERTEX
  5
5D5
  8
0
  6
CONTINUOUS
 62
     7
 10
7.3784269079
 20
167.6312302519
 30
0.0
  0
VERTEX
  5
5D6
  8
0
  6
CONTINUOUS
 62
     7
 10
10.7890046819
 20
167.5823425223
 30
0.0
  0
VERTEX
  5
5D7
  8
0
  6
CONTINUOUS
 62
     7
 10
14.2063654646
 20
167.541108029
 30
0.0
  0
VERTEX
  5
5D8
  8
0
  6
CONTINUOUS
 62
     7
 10
17.6293290838
 20
167.507562535
 30
0.0
  0
VERTEX
  5
5D9
  8
0
  6
CONTINUOUS
 62
     7
 10
21.0567392095
 20
167.481717961
 30
0.0
  0
VERTEX
  5
5DA
  8
0
  6
CONTINUOUS
 62
     7
 10
24.4874514326
 20
167.4635743071
 30
0.0
  0
VERTEX
  5
5DB
  8
0
  6
CONTINUOUS
 62
     7
 10
27.9202975019
 20
167.4531315733
 30
0.0
  0
VERTEX
  5
5DC
  8
0
  6
CONTINUOUS
 62
     7
 10
31.3541330084
 20
167.4504016806
 30
0.0
  0
VERTEX
  5
5DD
  8
0
  6
CONTINUOUS
 62
     7
 10
34.7878016218
 20
167.4553846289
 30
0.0
  0
VERTEX
  5
5DE
  8
0
  6
CONTINUOUS
 62
     7
 10
38.2201350912
 20
167.4680804183
 30
0.0
  0
VERTEX
  5
5DF
  8
0
  6
CONTINUOUS
 62
     7
 10
41.6499770864
 20
167.4884771277
 30
0.0
  0
VERTEX
  5
5E0
  8
0
  6
CONTINUOUS
 62
     7
 10
45.0761831983
 20
167.5165747572
 30
0.0
  0
VERTEX
  5
5E1
  8
0
  6
CONTINUOUS
 62
     7
 10
48.4975970968
 20
167.5523733069
 30
0.0
  0
VERTEX
  5
5E2
  8
0
  6
CONTINUOUS
 62
     7
 10
51.9130624517
 20
167.5958370139
 30
0.0
  0
VERTEX
  5
5E3
  8
0
  6
CONTINUOUS
 62
     7
 10
55.1422871336
 20
167.6440929343
 30
0.0
  0
VERTEX
  5
5E4
  8
0
  6
CONTINUOUS
 62
     7
 10
56.1177052244
 20
167.6600431372
 30
0.0
  0
SEQEND
  5
B9D
  8
0
  6
CONTINUOUS
 62
     7
  0
ARC
  5
89
  8
0
  6
CONTINUOUS
 62
     7
 10
5.3119302753
 20
222.9202232572
 30
0.0
 40
14.25390019709772
 50
88.5352591126
 51
113.3275727461
  0
ARC
  5
8A
  8
0
  6
CONTINUOUS
 62
     7
 10
56.3910202314
 20
222.8830259385
 30
0.0
 40
14.29227827634151
 50
66.7644532757
 51
91.4553581978
  0
POLYLINE
  5
8B
  8
0
  6
CONTINUOUS
 62
     7
 66
     1
 10
0.0
 20
0.0
 30
0.0
  0
VERTEX
  5
5E5
  8
0
  6
CONTINUOUS
 62
     7
 10
-3.0242525355
 20
234.5231985022
 30
0.0
  0
VERTEX
  5
5E6
  8
0
  6
CONTINUOUS
 62
     7
 10
-3.0696474329
 20
234.493372338
 30
0.0
  0
VERTEX
  5
5E7
  8
0
  6
CONTINUOUS
 62
     7
 10
-3.4014307276
 20
234.2424487044
 30
0.0
  0
SEQEND
  5
B9C
  8
0
  6
CONTINUOUS
 62
     7
  0
ARC
  5
8C
  8
0
  6
CONTINUOUS
 62
     7
 10
5.3586436781
 20
222.6197396212
 30
0.0
 40
14.55835764468805
 50
128.4665755606
 51
180.3827662919
  0
ARC
  5
8D
  8
0
  6
CONTINUOUS
 62
     7
 10
56.3231702574
 20
222.6150192026
 30
0.0
 40
14.57977291437424
 50
359.6362061477
 51
54.8680472801
  0
POLYLINE
  5
8E
  8
0
  6
CONTINUOUS
 62
     7
 66
     1
 10
0.0
 20
0.0
 30
0.0
  0
VERTEX
  5
5E8
  8
0
  6
CONTINUOUS
 62
     7
 10
56.0279883131
 20
237.1776317526
 30
0.0
  0
VERTEX
  5
5E9
  8
0
  6
CONTINUOUS
 62
     7
 10
54.2426384672
 20
237.1489261557
 30
0.0
  0
VERTEX
  5
5EA
  8
0
  6
CONTINUOUS
 62
     7
 10
50.8444346174
 20
237.1002053191
 30
0.0
  0
VERTEX
  5
5EB
  8
0
  6
CONTINUOUS
 62
     7
 10
47.4393404707
 20
237.0591257979
 30
0.0
  0
VERTEX
  5
5EC
  8
0
  6
CONTINUOUS
 62
     7
 10
44.0285600408
 20
237.0256995131
 30
0.0
  0
VERTEX
  5
5ED
  8
0
  6
CONTINUOUS
 62
     7
 10
40.6132615789
 20
236.9999383856
 30
0.0
  0
VERTEX
  5
5EE
  8
0
  6
CONTINUOUS
 62
     7
 10
37.194613336
 20
236.9818543364
 30
0.0
  0
VERTEX
  5
5EF
  8
0
  6
CONTINUOUS
 62
     7
 10
33.773783563
 20
236.9714473654
 30
0.0
  0
VERTEX
  5
5F0
  8
0
  6
CONTINUOUS
 62
     7
 10
30.351952432
 20
236.9687293936
 30
0.0
  0
VERTEX
  5
5F1
  8
0
  6
CONTINUOUS
 62
     7
 10
26.9302881941
 20
236.973700421
 30
0.0
  0
VERTEX
  5
5F2
  8
0
  6
CONTINUOUS
 62
     7
 10
23.5099591001
 20
236.9863485266
 30
0.0
  0
VERTEX
  5
5F3
  8
0
  6
CONTINUOUS
 62
     7
 10
20.0921453222
 20
237.0066737105
 30
0.0
  0
VERTEX
  5
5F4
  8
0
  6
CONTINUOUS
 62
     7
 10
16.6780151113
 20
237.0346759726
 30
0.0
  0
VERTEX
  5
5F5
  8
0
  6
CONTINUOUS
 62
     7
 10
13.2687367185
 20
237.070343392
 30
0.0
  0
VERTEX
  5
5F6
  8
0
  6
CONTINUOUS
 62
     7
 10
9.8654903158
 20
237.1136640479
 30
0.0
  0
VERTEX
  5
5F7
  8
0
  6
CONTINUOUS
 62
     7
 10
6.6479600652
 20
237.1617411543
 30
0.0
  0
VERTEX
  5
5F8
  8
0
  6
CONTINUOUS
 62
     7
 10
5.6763328298
 20
237.1776317526
 30
0.0
  0
SEQEND
  5
B9B
  8
0
  6
CONTINUOUS
 62
     7
  0
POLYLINE
  5
8F
  8
0
  6
CONTINUOUS
 62
     7
 66
     1
 10
0.0
 20
0.0
 30
0.0
  0
VERTEX
  5
5F9
  8
0
  6
CONTINUOUS
 62
     7
 10
307.7519870981
 20
145.3605746199
 30
0.0
  0
VERTEX
  5
5FA
  8
0
  6
CONTINUOUS
 62
     7
 10
307.7464259847
 20
145.3596090247
 30
0.0
  0
VERTEX
  5
5FB
  8
0
  6
CONTINUOUS
 62
     7
 10
307.7453709825
 20
145.3594182898
 30
0.0
  0
SEQEND
  5
B9A
  8
0
  6
CONTINUOUS
 62
     7
  0
POLYLINE
  5
90
  8
0
  6
CONTINUOUS
 62
     7
 66
     1
 10
0.0
 20
0.0
 30
0.0
  0
VERTEX
  5
5FC
  8
0
  6
CONTINUOUS
 62
     7
 10
233.9592776879
 20
145.3593288828
 30
0.0
  0
VERTEX
  5
5FD
  8
0
  6
CONTINUOUS
 62
     7
 10
233.9582852706
 20
145.3595136572
 30
0.0
  0
VERTEX
  5
5FE
  8
0
  6
CONTINUOUS
 62
     7
 10
233.9473671898
 20
145.361397164
 30
0.0
  0
SEQEND
  5
B99
  8
0
  6
CONTINUOUS
 62
     7
  0
LINE
  5
91
  8
0
  6
CONTINUOUS
 62
     7
 10
233.9590273484
 20
145.3593884875
 30
0.0
 11
233.9516482934
 21
145.3606997897
 31
0.0
  0
ARC
  5
92
  8
0
  6
CONTINUOUS
 62
     7
 10
216.8466279346
 20
59.9048819896
 30
0.0
 40
81.77167426462637
 50
78.4979662252
 51
78.6267740598
  0
LINE
  5
93
  8
0
  6
CONTINUOUS
 62
     7
 10
232.9664729222
 20
140.071931975
 30
0.0
 11
232.9709388002
 21
140.0710438658
 31
0.0
  0
LINE
  5
94
  8
0
  6
CONTINUOUS
 62
     7
 10
308.6696900114
 20
140.0582050253
 30
0.0
 11
308.7263323053
 21
140.0696312357
 31
0.0
  0
POLYLINE
  5
95
  8
0
  6
CONTINUOUS
 62
     7
 66
     1
 10
0.0
 20
0.0
 30
0.0
  0
VERTEX
  5
5FF
  8
0
  6
CONTINUOUS
 62
     7
 10
427.751985906
 20
145.3605746199
 30
0.0
  0
VERTEX
  5
600
  8
0
  6
CONTINUOUS
 62
     7
 10
427.7464307531
 20
145.3596090247
 30
0.0
  0
VERTEX
  5
601
  8
0
  6
CONTINUOUS
 62
     7
 10
427.7453817114
 20
145.3594182898
 30
0.0
  0
SEQEND
  5
B98
  8
0
  6
CONTINUOUS
 62
     7
  0
POLYLINE
  5
96
  8
0
  6
CONTINUOUS
 62
     7
 66
     1
 10
0.0
 20
0.0
 30
0.0
  0
VERTEX
  5
602
  8
0
  6
CONTINUOUS
 62
     7
 10
353.9592779859
 20
145.3593288828
 30
0.0
  0
VERTEX
  5
603
  8
0
  6
CONTINUOUS
 62
     7
 10
353.9582885488
 20
145.3595136572
 30
0.0
  0
VERTEX
  5
604
  8
0
  6
CONTINUOUS
 62
     7
 10
353.9473689779
 20
145.361397164
 30
0.0
  0
SEQEND
  5
B97
  8
0
  6
CONTINUOUS
 62
     7
  0
LINE
  5
97
  8
0
  6
CONTINUOUS
 62
     7
 10
353.9590276464
 20
145.3593884875
 30
0.0
 11
353.9516485914
 21
145.3606997897
 31
0.0
  0
ARC
  5
98
  8
0
  6
CONTINUOUS
 62
     7
 10
336.9290794085
 20
60.3110937855
 30
0.0
 40
81.35717947434081
 50
78.4978212654
 51
78.6272874017
  0
LINE
  5
99
  8
0
  6
CONTINUOUS
 62
     7
 10
352.9664672598
 20
140.071931975
 30
0.0
 11
352.9709376081
 21
140.0710438658
 31
0.0
  0
LINE
  5
9A
  8
0
  6
CONTINUOUS
 62
     7
 10
428.6696828588
 20
140.0582050253
 30
0.0
 11
428.7263311132
 21
140.0696312357
 31
0.0
  0
POLYLINE
  5
9B
  8
0
  6
CONTINUOUS
 62
     7
 66
     1
 10
0.0
 20
0.0
 30
0.0
  0
VERTEX
  5
605
  8
0
  6
CONTINUOUS
 62
     7
 10
187.75198531
 20
145.3605746199
 30
0.0
  0
VERTEX
  5
606
  8
0
  6
CONTINUOUS
 62
     7
 10
187.7464256867
 20
145.3596090247
 30
0.0
  0
VERTEX
  5
607
  8
0
  6
CONTINUOUS
 62
     7
 10
187.7453706845
 20
145.3594182898
 30
0.0
  0
SEQEND
  5
B96
  8
0
  6
CONTINUOUS
 62
     7
  0
POLYLINE
  5
9C
  8
0
  6
CONTINUOUS
 62
     7
 66
     1
 10
0.0
 20
0.0
 30
0.0
  0
VERTEX
  5
608
  8
0
  6
CONTINUOUS
 62
     7
 10
113.9592803701
 20
145.3593288828
 30
0.0
  0
VERTEX
  5
609
  8
0
  6
CONTINUOUS
 62
     7
 10
113.9582849725
 20
145.3595136572
 30
0.0
  0
VERTEX
  5
60A
  8
0
  6
CONTINUOUS
 62
     7
 10
113.9473654016
 20
145.361397164
 30
0.0
  0
SEQEND
  5
B95
  8
0
  6
CONTINUOUS
 62
     7
  0
LINE
  5
9D
  8
0
  6
CONTINUOUS
 62
     7
 10
113.9590300306
 20
145.3593884875
 30
0.0
 11
113.9516509756
 21
145.3606997897
 31
0.0
  0
LINE
  5
9E
  8
0
  6
CONTINUOUS
 62
     7
 10
188.6696912035
 20
140.0582050253
 30
0.0
 11
188.7263334974
 21
140.0696312357
 31
0.0
  0
ARC
  5
9F
  8
0
  6
CONTINUOUS
 62
     7
 10
96.9173740132
 20
60.2558793604
 30
0.0
 40
81.41361843969653
 50
78.4974998086
 51
78.6268720826
  0
LINE
  5
A0
  8
0
  6
CONTINUOUS
 62
     7
 10
112.9664756044
 20
140.071931975
 30
0.0
 11
112.9709399923
 21
140.0710438658
 31
0.0
  0
POLYLINE
  5
A1
  8
0
  6
CONTINUOUS
 62
     7
 66
     1
 10
0.0
 20
0.0
 30
0.0
  0
VERTEX
  5
60B
  8
0
  6
CONTINUOUS
 62
     7
 10
67.7519835218
 20
145.3605746199
 30
0.0
  0
VERTEX
  5
60C
  8
0
  6
CONTINUOUS
 62
     7
 10
67.7464283689
 20
145.3596090247
 30
0.0
  0
VERTEX
  5
60D
  8
0
  6
CONTINUOUS
 62
     7
 10
67.7453674062
 20
145.3594182898
 30
0.0
  0
SEQEND
  5
B94
  8
0
  6
CONTINUOUS
 62
     7
  0
POLYLINE
  5
A2
  8
0
  6
CONTINUOUS
 62
     7
 66
     1
 10
0.0
 20
0.0
 30
0.0
  0
VERTEX
  5
60E
  8
0
  6
CONTINUOUS
 62
     7
 10
-6.0407243983
 20
145.3593288828
 30
0.0
  0
VERTEX
  5
60F
  8
0
  6
CONTINUOUS
 62
     7
 10
-6.0417257563
 20
145.3595136572
 30
0.0
  0
VERTEX
  5
610
  8
0
  6
CONTINUOUS
 62
     7
 10
-6.0526214854
 20
145.361397164
 30
0.0
  0
SEQEND
  5
B93
  8
0
  6
CONTINUOUS
 62
     7
  0
LINE
  5
A3
  8
0
  6
CONTINUOUS
 62
     7
 10
-6.0409628168
 20
145.3593884875
 30
0.0
 11
-6.0483537928
 21
145.3606997897
 31
0.0
  0
ARC
  5
A4
  8
0
  6
CONTINUOUS
 62
     7
 10
-23.6833459205
 20
57.2785207693
 30
0.0
 40
84.45097251772481
 50
78.500925452
 51
78.6256566264
  0
LINE
  5
A5
  8
0
  6
CONTINUOUS
 62
     7
 10
-7.0335232035
 20
140.071931975
 30
0.0
 11
-7.0290647761
 21
140.0710438658
 31
0.0
  0
LINE
  5
A6
  8
0
  6
CONTINUOUS
 62
     7
 10
68.6696923956
 20
140.0582050253
 30
0.0
 11
68.726328729
 21
140.0696312357
 31
0.0
  0
LINE
  5
A7
  8
0
  6
CONTINUOUS
 62
     7
 10
23.6792362913
 20
52.6318679844
 30
0.0
 11
27.437881349
 21
52.6318679844
 31
0.0
  0
LINE
  5
A8
  8
0
  6
CONTINUOUS
 62
     7
 10
27.437881349
 20
51.4318679739
 30
0.0
 11
23.6792362913
 21
51.4318679739
 31
0.0
  0
LINE
  5
A9
  8
0
  6
CONTINUOUS
 62
     7
 10
27.437881349
 20
52.6318679844
 30
0.0
 11
34.2664517149
 21
52.6318679844
 31
0.0
  0
LINE
  5
AA
  8
0
  6
CONTINUOUS
 62
     7
 10
27.437881349
 20
51.4318679739
 30
0.0
 11
34.2664517149
 21
51.4318679739
 31
0.0
  0
LINE
  5
AB
  8
0
  6
CONTINUOUS
 62
     7
 10
34.2664517149
 20
52.6318679844
 30
0.0
 11
38.0250967725
 21
52.6318679844
 31
0.0
  0
LINE
  5
AC
  8
0
  6
CONTINUOUS
 62
     7
 10
38.0250967725
 20
51.4318679739
 30
0.0
 11
34.2664517149
 21
51.4318679739
 31
0.0
  0
LINE
  5
AD
  8
0
  6
CONTINUOUS
 62
     7
 10
387.4378718122
 20
52.6318679844
 30
0.0
 11
394.2664421781
 21
52.6318679844
 31
0.0
  0
LINE
  5
AE
  8
0
  6
CONTINUOUS
 62
     7
 10
387.4378718122
 20
51.4318679739
 30
0.0
 11
394.2664421781
 21
51.4318679739
 31
0.0
  0
LINE
  5
AF
  8
0
  6
CONTINUOUS
 62
     7
 10
398.0250872358
 20
51.4318679739
 30
0.0
 11
394.2664421781
 21
51.4318679739
 31
0.0
  0
LINE
  5
B0
  8
0
  6
CONTINUOUS
 62
     7
 10
394.2664421781
 20
52.6318679844
 30
0.0
 11
398.0250872358
 21
52.6318679844
 31
0.0
  0
LINE
  5
B1
  8
0
  6
CONTINUOUS
 62
     7
 10
387.4378718122
 20
51.4318679739
 30
0.0
 11
383.6792267545
 21
51.4318679739
 31
0.0
  0
LINE
  5
B2
  8
0
  6
CONTINUOUS
 62
     7
 10
383.6792267545
 20
52.6318679844
 30
0.0
 11
387.4378718122
 21
52.6318679844
 31
0.0
  0
LINE
  5
B3
  8
0
  6
CONTINUOUS
 62
     7
 10
18.8521660551
 20
51.4318679739
 30
0.0
 11
18.8521660551
 21
52.6318679844
 31
0.0
  0
LINE
  5
B4
  8
0
  6
CONTINUOUS
 62
     7
 10
23.6792362913
 20
52.6318679844
 30
0.0
 11
18.8521660551
 21
52.6318679844
 31
0.0
  0
LINE
  5
B5
  8
0
  6
CONTINUOUS
 62
     7
 10
18.8521660551
 20
51.4318679739
 30
0.0
 11
23.6792362913
 21
51.4318679739
 31
0.0
  0
LINE
  5
B6
  8
0
  6
CONTINUOUS
 62
     7
 10
42.8521670088
 20
51.4318679739
 30
0.0
 11
42.8521670088
 21
52.6318679844
 31
0.0
  0
LINE
  5
B7
  8
0
  6
CONTINUOUS
 62
     7
 10
42.8521670088
 20
52.6318679844
 30
0.0
 11
38.0250967725
 21
52.6318679844
 31
0.0
  0
LINE
  5
B8
  8
0
  6
CONTINUOUS
 62
     7
 10
38.0250967725
 20
51.4318679739
 30
0.0
 11
42.8521670088
 21
51.4318679739
 31
0.0
  0
LINE
  5
B9
  8
0
  6
CONTINUOUS
 62
     7
 10
402.852157472
 20
51.4318679739
 30
0.0
 11
402.852157472
 21
52.6318679844
 31
0.0
  0
LINE
  5
BA
  8
0
  6
CONTINUOUS
 62
     7
 10
398.0250872358
 20
51.4318679739
 30
0.0
 11
402.852157472
 21
51.4318679739
 31
0.0
  0
LINE
  5
BB
  8
0
  6
CONTINUOUS
 62
     7
 10
402.852157472
 20
52.6318679844
 30
0.0
 11
398.0250872358
 21
52.6318679844
 31
0.0
  0
LINE
  5
BC
  8
0
  6
CONTINUOUS
 62
     7
 10
378.8521565183
 20
51.4318679739
 30
0.0
 11
378.8521565183
 21
52.6318679844
 31
0.0
  0
LINE
  5
BD
  8
0
  6
CONTINUOUS
 62
     7
 10
378.8521565183
 20
51.4318679739
 30
0.0
 11
383.6792267545
 21
51.4318679739
 31
0.0
  0
LINE
  5
BE
  8
0
  6
CONTINUOUS
 62
     7
 10
383.6792267545
 20
52.6318679844
 30
0.0
 11
378.8521565183
 21
52.6318679844
 31
0.0
  0
LINE
  5
BF
  8
0
  6
CONTINUOUS
 62
     7
 10
35.8521617635
 20
116.4318655898
 30
0.0
 11
35.8521617635
 21
52.6318679844
 31
0.0
  0
LINE
  5
C0
  8
0
  6
CONTINUOUS
 62
     7
 10
374.7751272901
 20
116.6318689753
 30
0.0
 11
286.9291938528
 21
116.6318689753
 31
0.0
  0
LINE
  5
C1
  8
0
  6
CONTINUOUS
 62
     7
 10
254.7751284822
 20
116.6318689753
 30
0.0
 11
166.9291950449
 21
116.6318689753
 31
0.0
  0
LINE
  5
C2
  8
0
  6
CONTINUOUS
 62
     7
 10
134.7751296743
 20
116.6318689753
 30
0.0
 11
46.929196237
 21
116.6318689753
 31
0.0
  0
LINE
  5
C3
  8
0
  6
CONTINUOUS
 62
     7
 10
-37.547834994
 20
126.631865399
 30
0.0
 11
-35.1478420512
 21
126.631865399
 31
0.0
  0
LINE
  5
C4
  8
0
  6
CONTINUOUS
 62
     7
 10
-23.1478296534
 20
126.631865399
 30
0.0
 11
-11.6478286997
 21
126.631865399
 31
0.0
  0
LINE
  5
C5
  8
0
  6
CONTINUOUS
 62
     7
 10
-1.6478382365
 20
126.631865399
 30
0.0
 11
12.8521598562
 21
126.631865399
 31
0.0
  0
LINE
  5
C6
  8
0
  6
CONTINUOUS
 62
     7
 10
48.8521612867
 20
126.631865399
 30
0.0
 11
63.3521593794
 21
126.631865399
 31
0.0
  0
LINE
  5
C7
  8
0
  6
CONTINUOUS
 62
     7
 10
73.3521617635
 20
126.631865399
 30
0.0
 11
84.8521627172
 21
126.631865399
 31
0.0
  0
LINE
  5
C8
  8
0
  6
CONTINUOUS
 62
     7
 10
96.8521631941
 20
126.631865399
 30
0.0
 11
108.3521641477
 21
126.631865399
 31
0.0
  0
LINE
  5
C9
  8
0
  6
CONTINUOUS
 62
     7
 10
118.3521605715
 20
126.631865399
 30
0.0
 11
132.8521646246
 21
126.631865399
 31
0.0
  0
LINE
  5
CA
  8
0
  6
CONTINUOUS
 62
     7
 10
168.8521630748
 20
126.631865399
 30
0.0
 11
183.3521611675
 21
126.631865399
 31
0.0
  0
LINE
  5
CB
  8
0
  6
CONTINUOUS
 62
     7
 10
193.3521620616
 20
126.631865399
 30
0.0
 11
204.8521618977
 21
126.631865399
 31
0.0
  0
LINE
  5
CC
  8
0
  6
CONTINUOUS
 62
     7
 10
216.8521616294
 20
126.631865399
 30
0.0
 11
228.3521614655
 21
126.631865399
 31
0.0
  0
LINE
  5
CD
  8
0
  6
CONTINUOUS
 62
     7
 10
238.3521623596
 20
126.631865399
 30
0.0
 11
252.8521604522
 21
126.631865399
 31
0.0
  0
LINE
  5
CE
  8
0
  6
CONTINUOUS
 62
     7
 10
288.8521589025
 20
126.631865399
 30
0.0
 11
303.3521629556
 21
126.631865399
 31
0.0
  0
LINE
  5
CF
  8
0
  6
CONTINUOUS
 62
     7
 10
313.3521593794
 20
126.631865399
 30
0.0
 11
324.852160333
 21
126.631865399
 31
0.0
  0
LINE
  5
D0
  8
0
  6
CONTINUOUS
 62
     7
 10
336.8521608099
 20
126.631865399
 30
0.0
 11
348.3521617635
 21
126.631865399
 31
0.0
  0
LINE
  5
D1
  8
0
  6
CONTINUOUS
 62
     7
 10
358.3521641477
 20
126.631865399
 30
0.0
 11
372.8521622404
 21
126.631865399
 31
0.0
  0
LINE
  5
D2
  8
0
  6
CONTINUOUS
 62
     7
 10
408.8521636709
 20
126.631865399
 30
0.0
 11
423.3521617635
 21
126.631865399
 31
0.0
  0
LINE
  5
D3
  8
0
  6
CONTINUOUS
 62
     7
 10
433.3521522268
 20
126.631865399
 30
0.0
 11
444.8521531805
 21
126.631865399
 31
0.0
  0
LINE
  5
D4
  8
0
  6
CONTINUOUS
 62
     7
 10
456.8521655782
 20
126.631865399
 30
0.0
 11
459.2521585211
 21
126.631865399
 31
0.0
  0
LINE
  5
D5
  8
0
  6
CONTINUOUS
 62
     7
 10
395.8521641477
 20
116.4318655898
 30
0.0
 11
395.8521641477
 21
52.6318679844
 31
0.0
  0
LINE
  5
D6
  8
0
  6
CONTINUOUS
 62
     7
 10
385.8521617635
 20
52.6318679844
 30
0.0
 11
385.8521617635
 21
116.4318655898
 31
0.0
  0
LINE
  5
D7
  8
0
  6
CONTINUOUS
 62
     7
 10
-37.9478298441
 20
117.6318680216
 30
0.0
 11
-37.9478298441
 21
125.6318663527
 31
0.0
  0
LINE
  5
D8
  8
0
  6
CONTINUOUS
 62
     7
 10
-37.9478298441
 20
125.6318663527
 30
0.0
 11
-37.9478298441
 21
126.2318705489
 31
0.0
  0
ARC
  5
D9
  8
0
  6
CONTINUOUS
 62
     7
 10
-37.5478382365
 20
126.2318679739
 30
0.0
 40
0.4000000000000199
 50
90.0
 51
180.0
  0
LINE
  5
DA
  8
0
  6
CONTINUOUS
 62
     7
 10
459.2521585211
 20
116.6318689753
 30
0.0
 11
406.9291986212
 21
116.6318689753
 31
0.0
  0
ARC
  5
DB
  8
0
  6
CONTINUOUS
 62
     7
 10
459.2521617635
 20
126.2318679739
 30
0.0
 40
0.4000000000000341
 50
0.0
 51
90.0
  0
LINE
  5
DC
  8
0
  6
CONTINUOUS
 62
     7
 10
459.6521533712
 20
126.2318705489
 30
0.0
 11
459.6521533712
 21
125.6318663527
 31
0.0
  0
LINE
  5
DD
  8
0
  6
CONTINUOUS
 62
     7
 10
459.6521533712
 20
117.6318680216
 30
0.0
 11
459.6521533712
 21
117.0318697859
 31
0.0
  0
ARC
  5
DE
  8
0
  6
CONTINUOUS
 62
     7
 10
459.2521617635
 20
117.0318679739
 30
0.0
 40
0.4000000000000341
 50
270.0
 51
0.0
  0
LINE
  5
DF
  8
0
  6
CONTINUOUS
 62
     7
 10
-37.9478298441
 20
117.0318697859
 30
0.0
 11
-37.9478298441
 21
117.6318680216
 31
0.0
  0
ARC
  5
E0
  8
0
  6
CONTINUOUS
 62
     7
 10
-37.5478382365
 20
117.0318679739
 30
0.0
 40
0.4000000000000128
 50
180.0
 51
270.0
  0
LINE
  5
E1
  8
0
  6
CONTINUOUS
 62
     7
 10
459.6521533712
 20
125.6318663527
 30
0.0
 11
459.6521533712
 21
117.6318680216
 31
0.0
  0
LINE
  5
E2
  8
0
  6
CONTINUOUS
 62
     7
 10
25.8521593794
 20
52.6318679844
 30
0.0
 11
25.8521593794
 21
116.4318655898
 31
0.0
  0
LINE
  5
E3
  8
0
  6
CONTINUOUS
 62
     7
 10
14.7751249059
 20
116.6318689753
 30
0.0
 11
-37.547834994
 21
116.6318689753
 31
0.0
  0
ARC
  5
E4
  8
0
  6
CONTINUOUS
 62
     7
 10
330.8521617635
 20
167.4318679739
 30
0.0
 40
2.699999999999989
 50
0.0
 51
180.0
  0
ARC
  5
E5
  8
0
  6
CONTINUOUS
 62
     7
 10
330.8521617635
 20
120.8318679739
 30
0.0
 40
2.699999999999989
 50
180.0
 51
0.0
  0
ARC
  5
E6
  8
0
  6
CONTINUOUS
 62
     7
 10
334.8521617635
 20
119.6318679739
 30
0.0
 40
2.0
 50
270.0
 51
0.0
  0
LINE
  5
E7
  8
0
  6
CONTINUOUS
 62
     7
 10
334.8521627172
 20
117.6318680216
 30
0.0
 11
326.8521584257
 21
117.6318680216
 31
0.0
  0
ARC
  5
E8
  8
0
  6
CONTINUOUS
 62
     7
 10
326.8521617635
 20
119.6318679739
 30
0.0
 40
2.0
 50
180.0
 51
270.0
  0
LINE
  5
E9
  8
0
  6
CONTINUOUS
 62
     7
 10
324.852160333
 20
126.2318705489
 30
0.0
 11
324.852160333
 21
119.6318661143
 31
0.0
  0
LINE
  5
EA
  8
0
  6
CONTINUOUS
 62
     7
 10
336.8521608099
 20
126.2318705489
 30
0.0
 11
336.8521608099
 21
119.6318661143
 31
0.0
  0
LINE
  5
EB
  8
0
  6
CONTINUOUS
 62
     7
 10
324.852160333
 20
127.4318670203
 30
0.0
 11
328.1521595701
 21
127.4318670203
 31
0.0
  0
LINE
  5
EC
  8
0
  6
CONTINUOUS
 62
     7
 10
333.5521615728
 20
127.4318670203
 30
0.0
 11
336.8521608099
 21
127.4318670203
 31
0.0
  0
LINE
  5
ED
  8
0
  6
CONTINUOUS
 62
     7
 10
336.8521608099
 20
127.4318670203
 30
0.0
 11
336.8521608099
 21
126.2318705489
 31
0.0
  0
LINE
  5
EE
  8
0
  6
CONTINUOUS
 62
     7
 10
324.852160333
 20
126.2318705489
 30
0.0
 11
324.852160333
 21
127.4318670203
 31
0.0
  0
ARC
  5
EF
  8
0
  6
CONTINUOUS
 62
     7
 10
-29.1478382365
 20
167.4318679739
 30
0.0
 40
2.700000000000035
 50
0.0
 51
180.0
  0
ARC
  5
F0
  8
0
  6
CONTINUOUS
 62
     7
 10
-29.1478382365
 20
120.8318679739
 30
0.0
 40
2.700000000000035
 50
180.0
 51
0.0
  0
ARC
  5
F1
  8
0
  6
CONTINUOUS
 62
     7
 10
-25.1478382365
 20
119.6318679739
 30
0.0
 40
2.0
 50
270.0
 51
0.0
  0
LINE
  5
F2
  8
0
  6
CONTINUOUS
 62
     7
 10
-25.147827746
 20
117.6318680216
 30
0.0
 11
-33.1478439585
 21
117.6318680216
 31
0.0
  0
ARC
  5
F3
  8
0
  6
CONTINUOUS
 62
     7
 10
-33.1478382365
 20
119.6318679739
 30
0.0
 40
2.0
 50
180.0
 51
270.0
  0
LINE
  5
F4
  8
0
  6
CONTINUOUS
 62
     7
 10
-35.1478420512
 20
126.2318705489
 30
0.0
 11
-35.1478420512
 21
119.6318661143
 31
0.0
  0
LINE
  5
F5
  8
0
  6
CONTINUOUS
 62
     7
 10
-23.1478296534
 20
126.2318705489
 30
0.0
 11
-23.1478296534
 21
119.6318661143
 31
0.0
  0
LINE
  5
F6
  8
0
  6
CONTINUOUS
 62
     7
 10
-35.1478420512
 20
126.2318705489
 30
0.0
 11
-35.1478420512
 21
127.4318670203
 31
0.0
  0
LINE
  5
F7
  8
0
  6
CONTINUOUS
 62
     7
 10
-35.1478420512
 20
127.4318670203
 30
0.0
 11
-31.8478428141
 21
127.4318670203
 31
0.0
  0
LINE
  5
F8
  8
0
  6
CONTINUOUS
 62
     7
 10
-26.4478288904
 20
127.4318670203
 30
0.0
 11
-23.1478296534
 21
127.4318670203
 31
0.0
  0
LINE
  5
F9
  8
0
  6
CONTINUOUS
 62
     7
 10
-23.1478296534
 20
127.4318670203
 30
0.0
 11
-23.1478296534
 21
126.2318705489
 31
0.0
  0
ARC
  5
FA
  8
0
  6
CONTINUOUS
 62
     7
 10
210.8521617635
 20
167.4318679739
 30
0.0
 40
2.700000000000017
 50
0.0
 51
180.0
  0
ARC
  5
FB
  8
0
  6
CONTINUOUS
 62
     7
 10
210.8521617635
 20
120.8318679739
 30
0.0
 40
2.700000000000017
 50
180.0
 51
0.0
  0
ARC
  5
FC
  8
0
  6
CONTINUOUS
 62
     7
 10
214.8521617635
 20
119.6318679739
 30
0.0
 40
2.0
 50
270.0
 51
0.0
  0
LINE
  5
FD
  8
0
  6
CONTINUOUS
 62
     7
 10
214.8521616741
 20
117.6318680216
 30
0.0
 11
206.852161853
 21
117.6318680216
 31
0.0
  0
ARC
  5
FE
  8
0
  6
CONTINUOUS
 62
     7
 10
206.8521617635
 20
119.6318679739
 30
0.0
 40
2.000000000000028
 50
180.0
 51
270.0
  0
LINE
  5
FF
  8
0
  6
CONTINUOUS
 62
     7
 10
204.8521618977
 20
126.2318705489
 30
0.0
 11
204.8521618977
 21
119.6318661143
 31
0.0
  0
LINE
  5
100
  8
0
  6
CONTINUOUS
 62
     7
 10
216.8521616294
 20
126.2318705489
 30
0.0
 11
216.8521616294
 21
119.6318661143
 31
0.0
  0
LINE
  5
101
  8
0
  6
CONTINUOUS
 62
     7
 10
204.8521618977
 20
127.4318670203
 30
0.0
 11
208.1521616935
 21
127.4318670203
 31
0.0
  0
LINE
  5
102
  8
0
  6
CONTINUOUS
 62
     7
 10
213.5521618336
 20
127.4318670203
 30
0.0
 11
216.8521616294
 21
127.4318670203
 31
0.0
  0
LINE
  5
103
  8
0
  6
CONTINUOUS
 62
     7
 10
216.8521616294
 20
127.4318670203
 30
0.0
 11
216.8521616294
 21
126.2318705489
 31
0.0
  0
LINE
  5
104
  8
0
  6
CONTINUOUS
 62
     7
 10
204.8521618977
 20
126.2318705489
 30
0.0
 11
204.8521618977
 21
127.4318670203
 31
0.0
  0
ARC
  5
105
  8
0
  6
CONTINUOUS
 62
     7
 10
450.8521617635
 20
167.4318679739
 30
0.0
 40
2.700000000000045
 50
0.0
 51
180.0
  0
ARC
  5
106
  8
0
  6
CONTINUOUS
 62
     7
 10
450.8521617635
 20
120.8318679739
 30
0.0
 40
2.700000000000045
 50
180.0
 51
0.0
  0
ARC
  5
107
  8
0
  6
CONTINUOUS
 62
     7
 10
454.8521617635
 20
119.6318679739
 30
0.0
 40
2.0
 50
270.0
 51
0.0
  0
LINE
  5
108
  8
0
  6
CONTINUOUS
 62
     7
 10
454.8521674856
 20
117.6318680216
 30
0.0
 11
446.8521512731
 21
117.6318680216
 31
0.0
  0
ARC
  5
109
  8
0
  6
CONTINUOUS
 62
     7
 10
446.8521617635
 20
119.6318679739
 30
0.0
 40
2.0
 50
180.0
 51
270.0
  0
LINE
  5
10A
  8
0
  6
CONTINUOUS
 62
     7
 10
444.8521531805
 20
126.2318705489
 30
0.0
 11
444.8521531805
 21
119.6318661143
 31
0.0
  0
LINE
  5
10B
  8
0
  6
CONTINUOUS
 62
     7
 10
456.8521655782
 20
126.2318705489
 30
0.0
 11
456.8521655782
 21
119.6318661143
 31
0.0
  0
LINE
  5
10C
  8
0
  6
CONTINUOUS
 62
     7
 10
444.8521531805
 20
126.2318705489
 30
0.0
 11
444.8521531805
 21
127.4318670203
 31
0.0
  0
LINE
  5
10D
  8
0
  6
CONTINUOUS
 62
     7
 10
444.8521531805
 20
127.4318670203
 30
0.0
 11
448.1521524175
 21
127.4318670203
 31
0.0
  0
LINE
  5
10E
  8
0
  6
CONTINUOUS
 62
     7
 10
453.5521663412
 20
127.4318670203
 30
0.0
 11
456.8521655782
 21
127.4318670203
 31
0.0
  0
LINE
  5
10F
  8
0
  6
CONTINUOUS
 62
     7
 10
456.8521655782
 20
127.4318670203
 30
0.0
 11
456.8521655782
 21
126.2318705489
 31
0.0
  0
ARC
  5
110
  8
0
  6
CONTINUOUS
 62
     7
 10
90.8521617635
 20
167.4318679739
 30
0.0
 40
2.700000000000003
 50
0.0
 51
180.0
  0
ARC
  5
111
  8
0
  6
CONTINUOUS
 62
     7
 10
90.8521617635
 20
120.8318679739
 30
0.0
 40
2.700000000000003
 50
180.0
 51
0.0
  0
ARC
  5
112
  8
0
  6
CONTINUOUS
 62
     7
 10
94.8521617635
 20
119.6318679739
 30
0.0
 40
2.0
 50
270.0
 51
0.0
  0
LINE
  5
113
  8
0
  6
CONTINUOUS
 62
     7
 10
94.8521651014
 20
117.6318680216
 30
0.0
 11
86.8521608099
 21
117.6318680216
 31
0.0
  0
ARC
  5
114
  8
0
  6
CONTINUOUS
 62
     7
 10
86.8521617635
 20
119.6318679739
 30
0.0
 40
2.0
 50
180.0
 51
270.0
  0
LINE
  5
115
  8
0
  6
CONTINUOUS
 62
     7
 10
84.8521627172
 20
126.2318705489
 30
0.0
 11
84.8521627172
 21
119.6318661143
 31
0.0
  0
LINE
  5
116
  8
0
  6
CONTINUOUS
 62
     7
 10
96.8521631941
 20
126.2318705489
 30
0.0
 11
96.8521631941
 21
119.6318661143
 31
0.0
  0
LINE
  5
117
  8
0
  6
CONTINUOUS
 62
     7
 10
84.8521627172
 20
127.4318670203
 30
0.0
 11
88.1521619543
 21
127.4318670203
 31
0.0
  0
LINE
  5
118
  8
0
  6
CONTINUOUS
 62
     7
 10
93.552163957
 20
127.4318670203
 30
0.0
 11
96.8521631941
 21
127.4318670203
 31
0.0
  0
LINE
  5
119
  8
0
  6
CONTINUOUS
 62
     7
 10
96.8521631941
 20
127.4318670203
 30
0.0
 11
96.8521631941
 21
126.2318705489
 31
0.0
  0
LINE
  5
11A
  8
0
  6
CONTINUOUS
 62
     7
 10
84.8521627172
 20
126.2318705489
 30
0.0
 11
84.8521627172
 21
127.4318670203
 31
0.0
  0
POLYLINE
  5
11B
  8
0
  6
CONTINUOUS
 62
     7
 66
     1
 10
0.0
 20
0.0
 30
0.0
  0
VERTEX
  5
611
  8
0
  6
CONTINUOUS
 62
     7
 10
295.8859361395
 20
172.8088830878
 30
0.0
  0
VERTEX
  5
612
  8
0
  6
CONTINUOUS
 62
     7
 10
296.7264569982
 20
172.8305553366
 30
0.0
  0
VERTEX
  5
613
  8
0
  6
CONTINUOUS
 62
     7
 10
297.5527144655
 20
172.8649233748
 30
0.0
  0
SEQEND
  5
B92
  8
0
  6
CONTINUOUS
 62
     7
  0
ARC
  5
11C
  8
0
  6
CONTINUOUS
 62
     7
 10
295.5282365195
 20
182.9228025731
 30
0.0
 40
10.25960257132041
 50
281.3805863759
 51
0.210768635
  0
ARC
  5
11D
  8
0
  6
CONTINUOUS
 62
     7
 10
246.8110127615
 20
227.1471789626
 30
0.0
 40
54.34736153740093
 50
267.1951986881
 51
268.953463907
  0
ARC
  5
11E
  8
0
  6
CONTINUOUS
 62
     7
 10
246.1635144919
 20
182.9125480724
 30
0.0
 40
10.24707423228372
 50
179.7316358646
 51
258.6770091245
  0
POLYLINE
  5
11F
  8
0
  6
CONTINUOUS
 62
     7
 66
     1
 10
0.0
 20
0.0
 30
0.0
  0
VERTEX
  5
614
  8
0
  6
CONTINUOUS
 62
     7
 10
244.1516078695
 20
172.8649233748
 30
0.0
  0
VERTEX
  5
615
  8
0
  6
CONTINUOUS
 62
     7
 10
247.9445703014
 20
172.8021716048
 30
0.0
  0
VERTEX
  5
616
  8
0
  6
CONTINUOUS
 62
     7
 10
251.7474002823
 20
172.7490281035
 30
0.0
  0
VERTEX
  5
617
  8
0
  6
CONTINUOUS
 62
     7
 10
255.5584646448
 20
172.7055167128
 30
0.0
  0
VERTEX
  5
618
  8
0
  6
CONTINUOUS
 62
     7
 10
259.3761183008
 20
172.6716493536
 30
0.0
  0
VERTEX
  5
619
  8
0
  6
CONTINUOUS
 62
     7
 10
263.1987191423
 20
172.6474498679
 30
0.0
  0
VERTEX
  5
61A
  8
0
  6
CONTINUOUS
 62
     7
 10
267.0246161207
 20
172.6329301764
 30
0.0
  0
VERTEX
  5
61B
  8
0
  6
CONTINUOUS
 62
     7
 10
270.8521641477
 20
172.6280902792
 30
0.0
  0
VERTEX
  5
61C
  8
0
  6
CONTINUOUS
 62
     7
 10
274.6797062143
 20
172.6329301764
 30
0.0
  0
VERTEX
  5
61D
  8
0
  6
CONTINUOUS
 62
     7
 10
278.5056031927
 20
172.6474498679
 30
0.0
  0
VERTEX
  5
61E
  8
0
  6
CONTINUOUS
 62
     7
 10
282.3282040342
 20
172.6716493536
 30
0.0
  0
VERTEX
  5
61F
  8
0
  6
CONTINUOUS
 62
     7
 10
286.1458576902
 20
172.7055167128
 30
0.0
  0
VERTEX
  5
620
  8
0
  6
CONTINUOUS
 62
     7
 10
289.956925033
 20
172.7490281035
 30
0.0
  0
VERTEX
  5
621
  8
0
  6
CONTINUOUS
 62
     7
 10
293.7597550138
 20
172.8021716048
 30
0.0
  0
VERTEX
  5
622
  8
0
  6
CONTINUOUS
 62
     7
 10
297.5527144655
 20
172.8649233748
 30
0.0
  0
SEQEND
  5
B91
  8
0
  6
CONTINUOUS
 62
     7
  0
LINE
  5
120
  8
0
  6
CONTINUOUS
 62
     7
 10
235.9165526613
 20
222.6623987128
 30
0.0
 11
235.9165526613
 21
182.9605435301
 31
0.0
  0
ARC
  5
121
  8
0
  6
CONTINUOUS
 62
     7
 10
245.6997053926
 20
222.7573319723
 30
0.0
 40
9.783613324751963
 50
99.1043898121
 51
180.5559664191
  0
POLYLINE
  5
122
  8
0
  6
CONTINUOUS
 62
     7
 66
     1
 10
0.0
 20
0.0
 30
0.0
  0
VERTEX
  5
623
  8
0
  6
CONTINUOUS
 62
     7
 10
244.1516078695
 20
232.4176882674
 30
0.0
  0
VERTEX
  5
624
  8
0
  6
CONTINUOUS
 62
     7
 10
247.9445703014
 20
232.3549364974
 30
0.0
  0
VERTEX
  5
625
  8
0
  6
CONTINUOUS
 62
     7
 10
251.7474002823
 20
232.3017929961
 30
0.0
  0
VERTEX
  5
626
  8
0
  6
CONTINUOUS
 62
     7
 10
255.5584646448
 20
232.2582816054
 30
0.0
  0
VERTEX
  5
627
  8
0
  6
CONTINUOUS
 62
     7
 10
259.3761183008
 20
232.2244261672
 30
0.0
  0
VERTEX
  5
628
  8
0
  6
CONTINUOUS
 62
     7
 10
263.1987191423
 20
232.2002266814
 30
0.0
  0
VERTEX
  5
629
  8
0
  6
CONTINUOUS
 62
     7
 10
267.0246161207
 20
232.185695069
 30
0.0
  0
VERTEX
  5
62A
  8
0
  6
CONTINUOUS
 62
     7
 10
270.8521641477
 20
232.1808551718
 30
0.0
  0
VERTEX
  5
62B
  8
0
  6
CONTINUOUS
 62
     7
 10
274.6797062143
 20
232.185695069
 30
0.0
  0
VERTEX
  5
62C
  8
0
  6
CONTINUOUS
 62
     7
 10
278.5056031927
 20
232.2002266814
 30
0.0
  0
VERTEX
  5
62D
  8
0
  6
CONTINUOUS
 62
     7
 10
282.3282040342
 20
232.2244261672
 30
0.0
  0
VERTEX
  5
62E
  8
0
  6
CONTINUOUS
 62
     7
 10
286.1458576902
 20
232.2582816054
 30
0.0
  0
VERTEX
  5
62F
  8
0
  6
CONTINUOUS
 62
     7
 10
289.956925033
 20
232.3017929961
 30
0.0
  0
VERTEX
  5
630
  8
0
  6
CONTINUOUS
 62
     7
 10
293.7597550138
 20
232.3549364974
 30
0.0
  0
VERTEX
  5
631
  8
0
  6
CONTINUOUS
 62
     7
 10
297.5527144655
 20
232.4176882674
 30
0.0
  0
SEQEND
  5
B90
  8
0
  6
CONTINUOUS
 62
     7
  0
ARC
  5
123
  8
0
  6
CONTINUOUS
 62
     7
 10
296.0160492829
 20
222.766982732
 30
0.0
 40
9.772280041685562
 50
359.3868025399
 51
80.9528412289
  0
LINE
  5
124
  8
0
  6
CONTINUOUS
 62
     7
 10
305.7877696737
 20
182.9605435301
 30
0.0
 11
305.7877696737
 21
222.6623987128
 31
0.0
  0
POLYLINE
  5
125
  8
0
  6
CONTINUOUS
 62
     7
 66
     1
 10
0.0
 20
0.0
 30
0.0
  0
VERTEX
  5
632
  8
0
  6
CONTINUOUS
 62
     7
 10
245.8183861955
 20
172.8088830878
 30
0.0
  0
VERTEX
  5
633
  8
0
  6
CONTINUOUS
 62
     7
 10
249.6511585697
 20
172.7499340941
 30
0.0
  0
VERTEX
  5
634
  8
0
  6
CONTINUOUS
 62
     7
 10
253.493211387
 20
172.7007602622
 30
0.0
  0
VERTEX
  5
635
  8
0
  6
CONTINUOUS
 62
     7
 10
257.3428697571
 20
172.6613973547
 30
0.0
  0
VERTEX
  5
636
  8
0
  6
CONTINUOUS
 62
     7
 10
261.1984409078
 20
172.6318692137
 30
0.0
  0
VERTEX
  5
637
  8
0
  6
CONTINUOUS
 62
     7
 10
265.0582350477
 20
172.6121639182
 30
0.0
  0
VERTEX
  5
638
  8
0
  6
CONTINUOUS
 62
     7
 10
268.9205743059
 20
172.6023172308
 30
0.0
  0
VERTEX
  5
639
  8
0
  6
CONTINUOUS
 62
     7
 10
272.7837539896
 20
172.6023172308
 30
0.0
  0
VERTEX
  5
63A
  8
0
  6
CONTINUOUS
 62
     7
 10
276.6460872873
 20
172.6121639182
 30
0.0
  0
VERTEX
  5
63B
  8
0
  6
CONTINUOUS
 62
     7
 10
280.5058814272
 20
172.6318692137
 30
0.0
  0
VERTEX
  5
63C
  8
0
  6
CONTINUOUS
 62
     7
 10
284.3614555582
 20
172.6613973547
 30
0.0
  0
VERTEX
  5
63D
  8
0
  6
CONTINUOUS
 62
     7
 10
288.211110948
 20
172.7007602622
 30
0.0
  0
VERTEX
  5
63E
  8
0
  6
CONTINUOUS
 62
     7
 10
292.0531667455
 20
172.7499340941
 30
0.0
  0
VERTEX
  5
63F
  8
0
  6
CONTINUOUS
 62
     7
 10
295.8859361395
 20
172.8088830878
 30
0.0
  0
SEQEND
  5
B8F
  8
0
  6
CONTINUOUS
 62
     7
  0
ARC
  5
126
  8
0
  6
CONTINUOUS
 62
     7
 10
243.8875770681
 20
225.283613779
 30
0.0
 40
11.53015475364664
 50
111.5475430071
 51
126.7247218963
  0
ARC
  5
127
  8
0
  6
CONTINUOUS
 62
     7
 10
297.4313888496
 20
224.5135382317
 30
0.0
 40
12.38111910854442
 50
54.0748919226
 51
68.1454714933
  0
POLYLINE
  5
128
  8
0
  6
CONTINUOUS
 62
     7
 66
     1
 10
0.0
 20
0.0
 30
0.0
  0
VERTEX
  5
640
  8
0
  6
CONTINUOUS
 62
     7
 10
175.8859373316
 20
172.8088830878
 30
0.0
  0
VERTEX
  5
641
  8
0
  6
CONTINUOUS
 62
     7
 10
176.7264581903
 20
172.8305553366
 30
0.0
  0
VERTEX
  5
642
  8
0
  6
CONTINUOUS
 62
     7
 10
177.5527156576
 20
172.8649233748
 30
0.0
  0
SEQEND
  5
B8E
  8
0
  6
CONTINUOUS
 62
     7
  0
ARC
  5
129
  8
0
  6
CONTINUOUS
 62
     7
 10
175.5282428611
 20
182.9227983727
 30
0.0
 40
10.25959743735735
 50
281.3805628125
 51
0.2107921984
  0
ARC
  5
12A
  8
0
  6
CONTINUOUS
 62
     7
 10
126.8109791572
 20
227.1461440307
 30
0.0
 40
54.34632614260115
 50
267.1951819377
 51
268.9534806573
  0
ARC
  5
12B
  8
0
  6
CONTINUOUS
 62
     7
 10
126.1635132513
 20
182.9125460881
 30
0.0
 40
10.24707180890107
 50
179.7316247056
 51
258.6770202835
  0
POLYLINE
  5
12C
  8
0
  6
CONTINUOUS
 62
     7
 66
     1
 10
0.0
 20
0.0
 30
0.0
  0
VERTEX
  5
643
  8
0
  6
CONTINUOUS
 62
     7
 10
124.1516090616
 20
172.8649233748
 30
0.0
  0
VERTEX
  5
644
  8
0
  6
CONTINUOUS
 62
     7
 10
127.9445685133
 20
172.8021716048
 30
0.0
  0
VERTEX
  5
645
  8
0
  6
CONTINUOUS
 62
     7
 10
131.7473984941
 20
172.7490281035
 30
0.0
  0
VERTEX
  5
646
  8
0
  6
CONTINUOUS
 62
     7
 10
135.5584658369
 20
172.7055167128
 30
0.0
  0
VERTEX
  5
647
  8
0
  6
CONTINUOUS
 62
     7
 10
139.3761194929
 20
172.6716493536
 30
0.0
  0
VERTEX
  5
648
  8
0
  6
CONTINUOUS
 62
     7
 10
143.1987203344
 20
172.6474498679
 30
0.0
  0
VERTEX
  5
649
  8
0
  6
CONTINUOUS
 62
     7
 10
147.0246173128
 20
172.6329301764
 30
0.0
  0
VERTEX
  5
64A
  8
0
  6
CONTINUOUS
 62
     7
 10
150.8521593794
 20
172.6280902792
 30
0.0
  0
VERTEX
  5
64B
  8
0
  6
CONTINUOUS
 62
     7
 10
154.6797074064
 20
172.6329301764
 30
0.0
  0
VERTEX
  5
64C
  8
0
  6
CONTINUOUS
 62
     7
 10
158.5056043848
 20
172.6474498679
 30
0.0
  0
VERTEX
  5
64D
  8
0
  6
CONTINUOUS
 62
     7
 10
162.3282052263
 20
172.6716493536
 30
0.0
  0
VERTEX
  5
64E
  8
0
  6
CONTINUOUS
 62
     7
 10
166.1458588823
 20
172.7055167128
 30
0.0
  0
VERTEX
  5
64F
  8
0
  6
CONTINUOUS
 62
     7
 10
169.9569232448
 20
172.7490281035
 30
0.0
  0
VERTEX
  5
650
  8
0
  6
CONTINUOUS
 62
     7
 10
173.7597532257
 20
172.8021716048
 30
0.0
  0
VERTEX
  5
651
  8
0
  6
CONTINUOUS
 62
     7
 10
177.5527156576
 20
172.8649233748
 30
0.0
  0
SEQEND
  5
B8D
  8
0
  6
CONTINUOUS
 62
     7
  0
LINE
  5
12D
  8
0
  6
CONTINUOUS
 62
     7
 10
115.9165538534
 20
222.6623987128
 30
0.0
 11
115.9165538534
 21
182.9605435301
 31
0.0
  0
ARC
  5
12E
  8
0
  6
CONTINUOUS
 62
     7
 10
125.699711331
 20
222.7573279657
 30
0.0
 40
9.783618031955799
 50
99.1044135448
 51
180.5559426864
  0
POLYLINE
  5
12F
  8
0
  6
CONTINUOUS
 62
     7
 66
     1
 10
0.0
 20
0.0
 30
0.0
  0
VERTEX
  5
652
  8
0
  6
CONTINUOUS
 62
     7
 10
124.1516090616
 20
232.4176882674
 30
0.0
  0
VERTEX
  5
653
  8
0
  6
CONTINUOUS
 62
     7
 10
127.9445685133
 20
232.3549364974
 30
0.0
  0
VERTEX
  5
654
  8
0
  6
CONTINUOUS
 62
     7
 10
131.7473984941
 20
232.3017929961
 30
0.0
  0
VERTEX
  5
655
  8
0
  6
CONTINUOUS
 62
     7
 10
135.5584658369
 20
232.2582816054
 30
0.0
  0
VERTEX
  5
656
  8
0
  6
CONTINUOUS
 62
     7
 10
139.3761194929
 20
232.2244261672
 30
0.0
  0
VERTEX
  5
657
  8
0
  6
CONTINUOUS
 62
     7
 10
143.1987203344
 20
232.2002266814
 30
0.0
  0
VERTEX
  5
658
  8
0
  6
CONTINUOUS
 62
     7
 10
147.0246173128
 20
232.185695069
 30
0.0
  0
VERTEX
  5
659
  8
0
  6
CONTINUOUS
 62
     7
 10
150.8521593794
 20
232.1808551718
 30
0.0
  0
VERTEX
  5
65A
  8
0
  6
CONTINUOUS
 62
     7
 10
154.6797074064
 20
232.185695069
 30
0.0
  0
VERTEX
  5
65B
  8
0
  6
CONTINUOUS
 62
     7
 10
158.5056043848
 20
232.2002266814
 30
0.0
  0
VERTEX
  5
65C
  8
0
  6
CONTINUOUS
 62
     7
 10
162.3282052263
 20
232.2244261672
 30
0.0
  0
VERTEX
  5
65D
  8
0
  6
CONTINUOUS
 62
     7
 10
166.1458588823
 20
232.2582816054
 30
0.0
  0
VERTEX
  5
65E
  8
0
  6
CONTINUOUS
 62
     7
 10
169.9569232448
 20
232.3017929961
 30
0.0
  0
VERTEX
  5
65F
  8
0
  6
CONTINUOUS
 62
     7
 10
173.7597532257
 20
232.3549364974
 30
0.0
  0
VERTEX
  5
660
  8
0
  6
CONTINUOUS
 62
     7
 10
177.5527156576
 20
232.4176882674
 30
0.0
  0
SEQEND
  5
B8C
  8
0
  6
CONTINUOUS
 62
     7
  0
ARC
  5
130
  8
0
  6
CONTINUOUS
 62
     7
 10
176.0160483557
 20
222.766980943
 30
0.0
 40
9.772282141696826
 50
359.3868131615
 51
80.9528306073
  0
LINE
  5
131
  8
0
  6
CONTINUOUS
 62
     7
 10
185.7877708658
 20
182.9605435301
 30
0.0
 11
185.7877708658
 21
222.6623987128
 31
0.0
  0
POLYLINE
  5
132
  8
0
  6
CONTINUOUS
 62
     7
 66
     1
 10
0.0
 20
0.0
 30
0.0
  0
VERTEX
  5
661
  8
0
  6
CONTINUOUS
 62
     7
 10
125.8183873876
 20
172.8088830878
 30
0.0
  0
VERTEX
  5
662
  8
0
  6
CONTINUOUS
 62
     7
 10
129.6511567816
 20
172.7499340941
 30
0.0
  0
VERTEX
  5
663
  8
0
  6
CONTINUOUS
 62
     7
 10
133.4932125791
 20
172.7007602622
 30
0.0
  0
VERTEX
  5
664
  8
0
  6
CONTINUOUS
 62
     7
 10
137.3428679689
 20
172.6613973547
 30
0.0
  0
VERTEX
  5
665
  8
0
  6
CONTINUOUS
 62
     7
 10
141.1984420999
 20
172.6318692137
 30
0.0
  0
VERTEX
  5
666
  8
0
  6
CONTINUOUS
 62
     7
 10
145.0582362398
 20
172.6121639182
 30
0.0
  0
VERTEX
  5
667
  8
0
  6
CONTINUOUS
 62
     7
 10
148.9205695375
 20
172.6023172308
 30
0.0
  0
VERTEX
  5
668
  8
0
  6
CONTINUOUS
 62
     7
 10
152.7837492212
 20
172.6023172308
 30
0.0
  0
VERTEX
  5
669
  8
0
  6
CONTINUOUS
 62
     7
 10
156.6460884794
 20
172.6121639182
 30
0.0
  0
VERTEX
  5
66A
  8
0
  6
CONTINUOUS
 62
     7
 10
160.5058826193
 20
172.6318692137
 30
0.0
  0
VERTEX
  5
66B
  8
0
  6
CONTINUOUS
 62
     7
 10
164.36145377
 20
172.6613973547
 30
0.0
  0
VERTEX
  5
66C
  8
0
  6
CONTINUOUS
 62
     7
 10
168.2111121401
 20
172.7007602622
 30
0.0
  0
VERTEX
  5
66D
  8
0
  6
CONTINUOUS
 62
     7
 10
172.0531649574
 20
172.7499340941
 30
0.0
  0
VERTEX
  5
66E
  8
0
  6
CONTINUOUS
 62
     7
 10
175.8859373316
 20
172.8088830878
 30
0.0
  0
SEQEND
  5
B8B
  8
0
  6
CONTINUOUS
 62
     7
  0
ARC
  5
133
  8
0
  6
CONTINUOUS
 62
     7
 10
123.8877476649
 20
225.2833045235
 30
0.0
 40
11.53050570869332
 50
111.5477753418
 51
126.7244895617
  0
ARC
  5
134
  8
0
  6
CONTINUOUS
 62
     7
 10
177.4314977536
 20
224.5137388344
 30
0.0
 40
12.38089171755904
 50
54.0747620571
 51
68.1456013588
  0
POLYLINE
  5
135
  8
0
  6
CONTINUOUS
 62
     7
 66
     1
 10
0.0
 20
0.0
 30
0.0
  0
VERTEX
  5
66F
  8
0
  6
CONTINUOUS
 62
     7
 10
415.8859409078
 20
172.8088830878
 30
0.0
  0
VERTEX
  5
670
  8
0
  6
CONTINUOUS
 62
     7
 10
416.7264617666
 20
172.8305553366
 30
0.0
  0
VERTEX
  5
671
  8
0
  6
CONTINUOUS
 62
     7
 10
417.5527251943
 20
172.8649233748
 30
0.0
  0
SEQEND
  5
B8A
  8
0
  6
CONTINUOUS
 62
     7
  0
ARC
  5
136
  8
0
  6
CONTINUOUS
 62
     7
 10
415.5282346222
 20
182.9228068151
 30
0.0
 40
10.2596092213734
 50
281.380650827
 51
0.2107448084
  0
ARC
  5
137
  8
0
  6
CONTINUOUS
 62
     7
 10
366.8109053414
 20
227.1437366335
 30
0.0
 40
54.34391784236187
 50
267.195139234
 51
268.9535095989
  0
ARC
  5
138
  8
0
  6
CONTINUOUS
 62
     7
 10
366.1635210573
 20
182.9125555881
 30
0.0
 40
10.24708195450421
 50
179.7316780907
 51
258.6770075229
  0
POLYLINE
  5
139
  8
0
  6
CONTINUOUS
 62
     7
 66
     1
 10
0.0
 20
0.0
 30
0.0
  0
VERTEX
  5
672
  8
0
  6
CONTINUOUS
 62
     7
 10
364.1516126379
 20
172.8649233748
 30
0.0
  0
VERTEX
  5
673
  8
0
  6
CONTINUOUS
 62
     7
 10
367.9445661291
 20
172.8021716048
 30
0.0
  0
VERTEX
  5
674
  8
0
  6
CONTINUOUS
 62
     7
 10
371.7474020704
 20
172.7490281035
 30
0.0
  0
VERTEX
  5
675
  8
0
  6
CONTINUOUS
 62
     7
 10
375.5584634527
 20
172.7055167128
 30
0.0
  0
VERTEX
  5
676
  8
0
  6
CONTINUOUS
 62
     7
 10
379.3761171087
 20
172.6716493536
 30
0.0
  0
VERTEX
  5
677
  8
0
  6
CONTINUOUS
 62
     7
 10
383.1987179502
 20
172.6474498679
 30
0.0
  0
VERTEX
  5
678
  8
0
  6
CONTINUOUS
 62
     7
 10
387.0246208891
 20
172.6329301764
 30
0.0
  0
VERTEX
  5
679
  8
0
  6
CONTINUOUS
 62
     7
 10
390.8521569952
 20
172.6280902792
 30
0.0
  0
VERTEX
  5
67A
  8
0
  6
CONTINUOUS
 62
     7
 10
394.6797050222
 20
172.6329301764
 30
0.0
  0
VERTEX
  5
67B
  8
0
  6
CONTINUOUS
 62
     7
 10
398.5056079611
 20
172.6474498679
 30
0.0
  0
VERTEX
  5
67C
  8
0
  6
CONTINUOUS
 62
     7
 10
402.3282088026
 20
172.6716493536
 30
0.0
  0
VERTEX
  5
67D
  8
0
  6
CONTINUOUS
 62
     7
 10
406.1458624586
 20
172.7055167128
 30
0.0
  0
VERTEX
  5
67E
  8
0
  6
CONTINUOUS
 62
     7
 10
409.9569238409
 20
172.7490281035
 30
0.0
  0
VERTEX
  5
67F
  8
0
  6
CONTINUOUS
 62
     7
 10
413.7597478613
 20
172.8021716048
 30
0.0
  0
VERTEX
  5
680
  8
0
  6
CONTINUOUS
 62
     7
 10
417.5527251943
 20
172.8649233748
 30
0.0
  0
SEQEND
  5
B89
  8
0
  6
CONTINUOUS
 62
     7
  0
LINE
  5
13A
  8
0
  6
CONTINUOUS
 62
     7
 10
355.9165514692
 20
222.6623987128
 30
0.0
 11
355.9165514692
 21
182.9605435301
 31
0.0
  0
ARC
  5
13B
  8
0
  6
CONTINUOUS
 62
     7
 10
365.6997118483
 20
222.7573245705
 30
0.0
 40
9.783620900325403
 50
99.1043927098
 51
180.5559226392
  0
POLYLINE
  5
13C
  8
0
  6
CONTINUOUS
 62
     7
 66
     1
 10
0.0
 20
0.0
 30
0.0
  0
VERTEX
  5
681
  8
0
  6
CONTINUOUS
 62
     7
 10
364.1516126379
 20
232.4176882674
 30
0.0
  0
VERTEX
  5
682
  8
0
  6
CONTINUOUS
 62
     7
 10
367.9445661291
 20
232.3549364974
 30
0.0
  0
VERTEX
  5
683
  8
0
  6
CONTINUOUS
 62
     7
 10
371.7474020704
 20
232.3017929961
 30
0.0
  0
VERTEX
  5
684
  8
0
  6
CONTINUOUS
 62
     7
 10
375.5584634527
 20
232.2582816054
 30
0.0
  0
VERTEX
  5
685
  8
0
  6
CONTINUOUS
 62
     7
 10
379.3761171087
 20
232.2244261672
 30
0.0
  0
VERTEX
  5
686
  8
0
  6
CONTINUOUS
 62
     7
 10
383.1987179502
 20
232.2002266814
 30
0.0
  0
VERTEX
  5
687
  8
0
  6
CONTINUOUS
 62
     7
 10
387.0246208891
 20
232.185695069
 30
0.0
  0
VERTEX
  5
688
  8
0
  6
CONTINUOUS
 62
     7
 10
390.8521569952
 20
232.1808551718
 30
0.0
  0
VERTEX
  5
689
  8
0
  6
CONTINUOUS
 62
     7
 10
394.6797050222
 20
232.185695069
 30
0.0
  0
VERTEX
  5
68A
  8
0
  6
CONTINUOUS
 62
     7
 10
398.5056079611
 20
232.2002266814
 30
0.0
  0
VERTEX
  5
68B
  8
0
  6
CONTINUOUS
 62
     7
 10
402.3282088026
 20
232.2244261672
 30
0.0
  0
VERTEX
  5
68C
  8
0
  6
CONTINUOUS
 62
     7
 10
406.1458624586
 20
232.2582816054
 30
0.0
  0
VERTEX
  5
68D
  8
0
  6
CONTINUOUS
 62
     7
 10
409.9569238409
 20
232.3017929961
 30
0.0
  0
VERTEX
  5
68E
  8
0
  6
CONTINUOUS
 62
     7
 10
413.7597478613
 20
232.3549364974
 30
0.0
  0
VERTEX
  5
68F
  8
0
  6
CONTINUOUS
 62
     7
 10
417.5527251943
 20
232.4176882674
 30
0.0
  0
SEQEND
  5
B88
  8
0
  6
CONTINUOUS
 62
     7
  0
ARC
  5
13D
  8
0
  6
CONTINUOUS
 62
     7
 10
416.0160476842
 20
222.7669782961
 30
0.0
 40
9.772286360933984
 50
359.3868289463
 51
80.9527739403
  0
LINE
  5
13E
  8
0
  6
CONTINUOUS
 62
     7
 10
425.7877744421
 20
182.9605435301
 30
0.0
 11
425.7877744421
 21
222.6623987128
 31
0.0
  0
POLYLINE
  5
13F
  8
0
  6
CONTINUOUS
 62
     7
 66
     1
 10
0.0
 20
0.0
 30
0.0
  0
VERTEX
  5
690
  8
0
  6
CONTINUOUS
 62
     7
 10
365.8183850034
 20
172.8088830878
 30
0.0
  0
VERTEX
  5
691
  8
0
  6
CONTINUOUS
 62
     7
 10
369.6511543974
 20
172.7499340941
 30
0.0
  0
VERTEX
  5
692
  8
0
  6
CONTINUOUS
 62
     7
 10
373.4932101949
 20
172.7007602622
 30
0.0
  0
VERTEX
  5
693
  8
0
  6
CONTINUOUS
 62
     7
 10
377.3428715452
 20
172.6613973547
 30
0.0
  0
VERTEX
  5
694
  8
0
  6
CONTINUOUS
 62
     7
 10
381.1984337553
 20
172.6318692137
 30
0.0
  0
VERTEX
  5
695
  8
0
  6
CONTINUOUS
 62
     7
 10
385.0582398161
 20
172.6121639182
 30
0.0
  0
VERTEX
  5
696
  8
0
  6
CONTINUOUS
 62
     7
 10
388.9205731138
 20
172.6023172308
 30
0.0
  0
VERTEX
  5
697
  8
0
  6
CONTINUOUS
 62
     7
 10
392.7837527975
 20
172.6023172308
 30
0.0
  0
VERTEX
  5
698
  8
0
  6
CONTINUOUS
 62
     7
 10
396.6460860952
 20
172.6121639182
 30
0.0
  0
VERTEX
  5
699
  8
0
  6
CONTINUOUS
 62
     7
 10
400.5058802351
 20
172.6318692137
 30
0.0
  0
VERTEX
  5
69A
  8
0
  6
CONTINUOUS
 62
     7
 10
404.3614543661
 20
172.6613973547
 30
0.0
  0
VERTEX
  5
69B
  8
0
  6
CONTINUOUS
 62
     7
 10
408.2111157163
 20
172.7007602622
 30
0.0
  0
VERTEX
  5
69C
  8
0
  6
CONTINUOUS
 62
     7
 10
412.0531715139
 20
172.7499340941
 30
0.0
  0
VERTEX
  5
69D
  8
0
  6
CONTINUOUS
 62
     7
 10
415.8859409078
 20
172.8088830878
 30
0.0
  0
SEQEND
  5
B87
  8
0
  6
CONTINUOUS
 62
     7
  0
ARC
  5
140
  8
0
  6
CONTINUOUS
 62
     7
 10
363.8879461222
 20
225.2829719352
 30
0.0
 40
11.53088881757557
 50
111.5480965958
 51
126.724277509
  0
ARC
  5
141
  8
0
  6
CONTINUOUS
 62
     7
 10
417.4310962703
 20
224.5130772127
 30
0.0
 40
12.38165990240329
 50
54.0750740516
 51
68.1449629569
  0
POLYLINE
  5
142
  8
0
  6
CONTINUOUS
 62
     7
 66
     1
 10
0.0
 20
0.0
 30
0.0
  0
VERTEX
  5
69E
  8
0
  6
CONTINUOUS
 62
     7
 10
55.8859385236
 20
172.8088830878
 30
0.0
  0
VERTEX
  5
69F
  8
0
  6
CONTINUOUS
 62
     7
 10
56.7264593824
 20
172.8305553366
 30
0.0
  0
VERTEX
  5
6A0
  8
0
  6
CONTINUOUS
 62
     7
 10
57.5527108892
 20
172.8649233748
 30
0.0
  0
SEQEND
  5
B86
  8
0
  6
CONTINUOUS
 62
     7
  0
ARC
  5
143
  8
0
  6
CONTINUOUS
 62
     7
 10
55.5282362465
 20
182.9228059358
 30
0.0
 40
10.25960521612554
 50
281.3805645855
 51
0.210749801
  0
ARC
  5
144
  8
0
  6
CONTINUOUS
 62
     7
 10
6.8110458259
 20
227.1485516082
 30
0.0
 40
54.34873462327953
 50
267.1952246412
 51
268.953451716
  0
ARC
  5
145
  8
0
  6
CONTINUOUS
 62
     7
 10
6.1635159682
 20
182.912551006
 30
0.0
 40
10.24707927102178
 50
179.7316523995
 51
258.6769519652
  0
POLYLINE
  5
146
  8
0
  6
CONTINUOUS
 62
     7
 66
     1
 10
0.0
 20
0.0
 30
0.0
  0
VERTEX
  5
6A1
  8
0
  6
CONTINUOUS
 62
     7
 10
4.1515983328
 20
172.8649233748
 30
0.0
  0
VERTEX
  5
6A2
  8
0
  6
CONTINUOUS
 62
     7
 10
7.9445756658
 20
172.8021716048
 30
0.0
  0
VERTEX
  5
6A3
  8
0
  6
CONTINUOUS
 62
     7
 10
11.7473996862
 20
172.7490281035
 30
0.0
  0
VERTEX
  5
6A4
  8
0
  6
CONTINUOUS
 62
     7
 10
15.5584610685
 20
172.7055167128
 30
0.0
  0
VERTEX
  5
6A5
  8
0
  6
CONTINUOUS
 62
     7
 10
19.3761147245
 20
172.6716493536
 30
0.0
  0
VERTEX
  5
6A6
  8
0
  6
CONTINUOUS
 62
     7
 10
23.198715566
 20
172.6474498679
 30
0.0
  0
VERTEX
  5
6A7
  8
0
  6
CONTINUOUS
 62
     7
 10
27.0246185049
 20
172.6329301764
 30
0.0
  0
VERTEX
  5
6A8
  8
0
  6
CONTINUOUS
 62
     7
 10
30.8521665319
 20
172.6280902792
 30
0.0
  0
VERTEX
  5
6A9
  8
0
  6
CONTINUOUS
 62
     7
 10
34.679702638
 20
172.6329301764
 30
0.0
  0
VERTEX
  5
6AA
  8
0
  6
CONTINUOUS
 62
     7
 10
38.5056055769
 20
172.6474498679
 30
0.0
  0
VERTEX
  5
6AB
  8
0
  6
CONTINUOUS
 62
     7
 10
42.3282064184
 20
172.6716493536
 30
0.0
  0
VERTEX
  5
6AC
  8
0
  6
CONTINUOUS
 62
     7
 10
46.1458600744
 20
172.7055167128
 30
0.0
  0
VERTEX
  5
6AD
  8
0
  6
CONTINUOUS
 62
     7
 10
49.9569214567
 20
172.7490281035
 30
0.0
  0
VERTEX
  5
6AE
  8
0
  6
CONTINUOUS
 62
     7
 10
53.759757398
 20
172.8021716048
 30
0.0
  0
VERTEX
  5
6AF
  8
0
  6
CONTINUOUS
 62
     7
 10
57.5527108892
 20
172.8649233748
 30
0.0
  0
SEQEND
  5
B85
  8
0
  6
CONTINUOUS
 62
     7
  0
LINE
  5
147
  8
0
  6
CONTINUOUS
 62
     7
 10
-4.083450915
 20
222.6623987128
 30
0.0
 11
-4.083450915
 21
182.9605435301
 31
0.0
  0
ARC
  5
148
  8
0
  6
CONTINUOUS
 62
     7
 10
5.699711875
 20
222.7573244271
 30
0.0
 40
9.783623309724193
 50
99.104475451
 51
180.5559216624
  0
POLYLINE
  5
149
  8
0
  6
CONTINUOUS
 62
     7
 66
     1
 10
0.0
 20
0.0
 30
0.0
  0
VERTEX
  5
6B0
  8
0
  6
CONTINUOUS
 62
     7
 10
4.1515983328
 20
232.4176882674
 30
0.0
  0
VERTEX
  5
6B1
  8
0
  6
CONTINUOUS
 62
     7
 10
7.9445756658
 20
232.3549364974
 30
0.0
  0
VERTEX
  5
6B2
  8
0
  6
CONTINUOUS
 62
     7
 10
11.7473996862
 20
232.3017929961
 30
0.0
  0
VERTEX
  5
6B3
  8
0
  6
CONTINUOUS
 62
     7
 10
15.5584610685
 20
232.2582816054
 30
0.0
  0
VERTEX
  5
6B4
  8
0
  6
CONTINUOUS
 62
     7
 10
19.3761147245
 20
232.2244261672
 30
0.0
  0
VERTEX
  5
6B5
  8
0
  6
CONTINUOUS
 62
     7
 10
23.198715566
 20
232.2002266814
 30
0.0
  0
VERTEX
  5
6B6
  8
0
  6
CONTINUOUS
 62
     7
 10
27.0246185049
 20
232.185695069
 30
0.0
  0
VERTEX
  5
6B7
  8
0
  6
CONTINUOUS
 62
     7
 10
30.8521665319
 20
232.1808551718
 30
0.0
  0
VERTEX
  5
6B8
  8
0
  6
CONTINUOUS
 62
     7
 10
34.679702638
 20
232.185695069
 30
0.0
  0
VERTEX
  5
6B9
  8
0
  6
CONTINUOUS
 62
     7
 10
38.5056055769
 20
232.2002266814
 30
0.0
  0
VERTEX
  5
6BA
  8
0
  6
CONTINUOUS
 62
     7
 10
42.3282064184
 20
232.2244261672
 30
0.0
  0
VERTEX
  5
6BB
  8
0
  6
CONTINUOUS
 62
     7
 10
46.1458600744
 20
232.2582816054
 30
0.0
  0
VERTEX
  5
6BC
  8
0
  6
CONTINUOUS
 62
     7
 10
49.9569214567
 20
232.3017929961
 30
0.0
  0
VERTEX
  5
6BD
  8
0
  6
CONTINUOUS
 62
     7
 10
53.759757398
 20
232.3549364974
 30
0.0
  0
VERTEX
  5
6BE
  8
0
  6
CONTINUOUS
 62
     7
 10
57.5527108892
 20
232.4176882674
 30
0.0
  0
SEQEND
  5
B84
  8
0
  6
CONTINUOUS
 62
     7
  0
ARC
  5
14A
  8
0
  6
CONTINUOUS
 62
     7
 10
56.0160417673
 20
222.7669734361
 30
0.0
 40
9.772289841431945
 50
359.3868576609
 51
80.95282699
  0
LINE
  5
14B
  8
0
  6
CONTINUOUS
 62
     7
 10
65.7877720579
 20
182.9605435301
 30
0.0
 11
65.7877720579
 21
222.6623987128
 31
0.0
  0
POLYLINE
  5
14C
  8
0
  6
CONTINUOUS
 62
     7
 66
     1
 10
0.0
 20
0.0
 30
0.0
  0
VERTEX
  5
6BF
  8
0
  6
CONTINUOUS
 62
     7
 10
5.8183826193
 20
172.8088830878
 30
0.0
  0
VERTEX
  5
6C0
  8
0
  6
CONTINUOUS
 62
     7
 10
9.6511520132
 20
172.7499340941
 30
0.0
  0
VERTEX
  5
6C1
  8
0
  6
CONTINUOUS
 62
     7
 10
13.4932078108
 20
172.7007602622
 30
0.0
  0
VERTEX
  5
6C2
  8
0
  6
CONTINUOUS
 62
     7
 10
17.342869161
 20
172.6613973547
 30
0.0
  0
VERTEX
  5
6C3
  8
0
  6
CONTINUOUS
 62
     7
 10
21.198443292
 20
172.6318692137
 30
0.0
  0
VERTEX
  5
6C4
  8
0
  6
CONTINUOUS
 62
     7
 10
25.0582374319
 20
172.6121639182
 30
0.0
  0
VERTEX
  5
6C5
  8
0
  6
CONTINUOUS
 62
     7
 10
28.9205707296
 20
172.6023172308
 30
0.0
  0
VERTEX
  5
6C6
  8
0
  6
CONTINUOUS
 62
     7
 10
32.7837504133
 20
172.6023172308
 30
0.0
  0
VERTEX
  5
6C7
  8
0
  6
CONTINUOUS
 62
     7
 10
36.646083711
 20
172.6121639182
 30
0.0
  0
VERTEX
  5
6C8
  8
0
  6
CONTINUOUS
 62
     7
 10
40.5058897718
 20
172.6318692137
 30
0.0
  0
VERTEX
  5
6C9
  8
0
  6
CONTINUOUS
 62
     7
 10
44.3614519819
 20
172.6613973547
 30
0.0
  0
VERTEX
  5
6CA
  8
0
  6
CONTINUOUS
 62
     7
 10
48.2111133322
 20
172.7007602622
 30
0.0
  0
VERTEX
  5
6CB
  8
0
  6
CONTINUOUS
 62
     7
 10
52.0531691297
 20
172.7499340941
 30
0.0
  0
VERTEX
  5
6CC
  8
0
  6
CONTINUOUS
 62
     7
 10
55.8859385236
 20
172.8088830878
 30
0.0
  0
SEQEND
  5
B83
  8
0
  6
CONTINUOUS
 62
     7
  0
ARC
  5
14D
  8
0
  6
CONTINUOUS
 62
     7
 10
3.886966259
 20
225.2847809388
 30
0.0
 40
11.52884723803478
 50
111.5468802537
 51
126.7257122549
  0
ARC
  5
14E
  8
0
  6
CONTINUOUS
 62
     7
 10
57.4314863668
 20
224.5136918896
 30
0.0
 40
12.38093886164472
 50
54.0748312159
 51
68.1456410017
  0
LINE
  5
14F
  8
0
  6
CONTINUOUS
 62
     7
 10
288.8521589025
 20
126.2318705489
 30
0.0
 11
288.8521589025
 21
119.4318686892
 31
0.0
  0
ARC
  5
150
  8
0
  6
CONTINUOUS
 62
     7
 10
285.8521617635
 20
119.4318679739
 30
0.0
 40
3.0
 50
270.0
 51
0.0
  0
LINE
  5
151
  8
0
  6
CONTINUOUS
 62
     7
 10
285.8521617635
 20
116.4318655898
 30
0.0
 11
255.8521605715
 21
116.4318655898
 31
0.0
  0
ARC
  5
152
  8
0
  6
CONTINUOUS
 62
     7
 10
255.8521617635
 20
119.4318679739
 30
0.0
 40
3.0
 50
180.0
 51
270.0
  0
LINE
  5
153
  8
0
  6
CONTINUOUS
 62
     7
 10
252.8521604522
 20
126.2318705489
 30
0.0
 11
252.8521604522
 21
119.4318686892
 31
0.0
  0
CIRCLE
  5
154
  8
0
  6
CONTINUOUS
 62
     7
 10
255.8521617635
 20
120.6318679739
 30
0.0
 40
1.099999999999994
  0
CIRCLE
  5
155
  8
0
  6
CONTINUOUS
 62
     7
 10
285.8521617635
 20
120.6318679739
 30
0.0
 40
1.100000000000023
  0
LINE
  5
156
  8
0
  6
CONTINUOUS
 62
     7
 10
288.8521589025
 20
127.2318695952
 30
0.0
 11
252.8521604522
 21
127.2318695952
 31
0.0
  0
LINE
  5
157
  8
0
  6
CONTINUOUS
 62
     7
 10
252.8521604522
 20
127.2318695952
 30
0.0
 11
252.8521604522
 21
126.2318705489
 31
0.0
  0
LINE
  5
158
  8
0
  6
CONTINUOUS
 62
     7
 10
288.8521589025
 20
127.2318695952
 30
0.0
 11
288.8521589025
 21
126.2318705489
 31
0.0
  0
LINE
  5
159
  8
0
  6
CONTINUOUS
 62
     7
 10
267.8521610483
 20
133.1766282488
 30
0.0
 11
267.8521610483
 21
127.2318695952
 31
0.0
  0
LINE
  5
15A
  8
0
  6
CONTINUOUS
 62
     7
 10
273.8521612867
 20
133.1766282488
 30
0.0
 11
273.8521612867
 21
127.2318695952
 31
0.0
  0
LINE
  5
15B
  8
0
  6
CONTINUOUS
 62
     7
 10
267.8521610483
 20
136.2537299563
 30
0.0
 11
267.8521610483
 21
133.1766282488
 31
0.0
  0
LINE
  5
15C
  8
0
  6
CONTINUOUS
 62
     7
 10
273.8521612867
 20
136.2537299563
 30
0.0
 11
273.8521612867
 21
133.1766282488
 31
0.0
  0
LINE
  5
15D
  8
0
  6
CONTINUOUS
 62
     7
 10
267.8521610483
 20
157.6037501265
 30
0.0
 11
267.8521610483
 21
141.634431975
 31
0.0
  0
LINE
  5
15E
  8
0
  6
CONTINUOUS
 62
     7
 10
273.8521612867
 20
157.6037501265
 30
0.0
 11
273.8521612867
 21
141.634431975
 31
0.0
  0
LINE
  5
15F
  8
0
  6
CONTINUOUS
 62
     7
 10
267.8521610483
 20
161.3678192069
 30
0.0
 11
267.8521610483
 21
157.6037501265
 31
0.0
  0
LINE
  5
160
  8
0
  6
CONTINUOUS
 62
     7
 10
273.8521612867
 20
161.3678192069
 30
0.0
 11
273.8521612867
 21
157.6037501265
 31
0.0
  0
LINE
  5
161
  8
0
  6
CONTINUOUS
 62
     7
 10
273.8521612867
 20
161.3678192069
 30
0.0
 11
273.8521612867
 21
167.454025643
 31
0.0
  0
LINE
  5
162
  8
0
  6
CONTINUOUS
 62
     7
 10
267.8521610483
 20
161.3678192069
 30
0.0
 11
267.8521610483
 21
167.4533342291
 31
0.0
  0
LINE
  5
163
  8
0
  6
CONTINUOUS
 62
     7
 10
168.8521630748
 20
126.2318705489
 30
0.0
 11
168.8521630748
 21
119.4318686892
 31
0.0
  0
ARC
  5
164
  8
0
  6
CONTINUOUS
 62
     7
 10
165.8521617635
 20
119.4318679739
 30
0.0
 40
3.0
 50
270.0
 51
0.0
  0
LINE
  5
165
  8
0
  6
CONTINUOUS
 62
     7
 10
165.8521629556
 20
116.4318655898
 30
0.0
 11
135.8521617635
 21
116.4318655898
 31
0.0
  0
ARC
  5
166
  8
0
  6
CONTINUOUS
 62
     7
 10
135.8521617635
 20
119.4318679739
 30
0.0
 40
2.999999999999986
 50
180.0
 51
270.0
  0
LINE
  5
167
  8
0
  6
CONTINUOUS
 62
     7
 10
132.8521646246
 20
126.2318705489
 30
0.0
 11
132.8521646246
 21
119.4318686892
 31
0.0
  0
CIRCLE
  5
168
  8
0
  6
CONTINUOUS
 62
     7
 10
135.8521617635
 20
120.6318679739
 30
0.0
 40
1.099999999999994
  0
CIRCLE
  5
169
  8
0
  6
CONTINUOUS
 62
     7
 10
165.8521617635
 20
120.6318679739
 30
0.0
 40
1.100000000000023
  0
LINE
  5
16A
  8
0
  6
CONTINUOUS
 62
     7
 10
168.8521630748
 20
127.2318695952
 30
0.0
 11
132.8521646246
 21
127.2318695952
 31
0.0
  0
LINE
  5
16B
  8
0
  6
CONTINUOUS
 62
     7
 10
168.8521630748
 20
127.2318695952
 30
0.0
 11
168.8521630748
 21
126.2318705489
 31
0.0
  0
LINE
  5
16C
  8
0
  6
CONTINUOUS
 62
     7
 10
132.8521646246
 20
127.2318695952
 30
0.0
 11
132.8521646246
 21
126.2318705489
 31
0.0
  0
LINE
  5
16D
  8
0
  6
CONTINUOUS
 62
     7
 10
153.8521624788
 20
133.1766282488
 30
0.0
 11
153.8521624788
 21
127.2318695952
 31
0.0
  0
LINE
  5
16E
  8
0
  6
CONTINUOUS
 62
     7
 10
147.8521622404
 20
133.1766282488
 30
0.0
 11
147.8521622404
 21
127.2318695952
 31
0.0
  0
LINE
  5
16F
  8
0
  6
CONTINUOUS
 62
     7
 10
153.8521624788
 20
136.2537299563
 30
0.0
 11
153.8521624788
 21
133.1766282488
 31
0.0
  0
LINE
  5
170
  8
0
  6
CONTINUOUS
 62
     7
 10
147.8521622404
 20
136.2537299563
 30
0.0
 11
147.8521622404
 21
133.1766282488
 31
0.0
  0
LINE
  5
171
  8
0
  6
CONTINUOUS
 62
     7
 10
147.8521622404
 20
157.6037501265
 30
0.0
 11
147.8521622404
 21
141.634431975
 31
0.0
  0
LINE
  5
172
  8
0
  6
CONTINUOUS
 62
     7
 10
153.8521624788
 20
157.6037501265
 30
0.0
 11
153.8521624788
 21
141.634431975
 31
0.0
  0
LINE
  5
173
  8
0
  6
CONTINUOUS
 62
     7
 10
153.8521624788
 20
161.3678192069
 30
0.0
 11
153.8521624788
 21
157.6037501265
 31
0.0
  0
LINE
  5
174
  8
0
  6
CONTINUOUS
 62
     7
 10
147.8521622404
 20
161.3678192069
 30
0.0
 11
147.8521622404
 21
157.6037501265
 31
0.0
  0
LINE
  5
175
  8
0
  6
CONTINUOUS
 62
     7
 10
153.8521624788
 20
161.3678192069
 30
0.0
 11
153.8521624788
 21
167.454025643
 31
0.0
  0
LINE
  5
176
  8
0
  6
CONTINUOUS
 62
     7
 10
147.8521622404
 20
161.3678192069
 30
0.0
 11
147.8521622404
 21
167.4533342291
 31
0.0
  0
LINE
  5
177
  8
0
  6
CONTINUOUS
 62
     7
 10
408.8521636709
 20
126.2318705489
 30
0.0
 11
408.8521636709
 21
119.4318686892
 31
0.0
  0
ARC
  5
178
  8
0
  6
CONTINUOUS
 62
     7
 10
405.8521617635
 20
119.4318679739
 30
0.0
 40
3.000000000000057
 50
270.0
 51
0.0
  0
LINE
  5
179
  8
0
  6
CONTINUOUS
 62
     7
 10
405.8521665319
 20
116.4318655898
 30
0.0
 11
375.8521593794
 21
116.4318655898
 31
0.0
  0
ARC
  5
17A
  8
0
  6
CONTINUOUS
 62
     7
 10
375.8521617635
 20
119.4318679739
 30
0.0
 40
3.0
 50
180.0
 51
270.0
  0
LINE
  5
17B
  8
0
  6
CONTINUOUS
 62
     7
 10
372.8521622404
 20
126.2318705489
 30
0.0
 11
372.8521622404
 21
119.4318686892
 31
0.0
  0
CIRCLE
  5
17C
  8
0
  6
CONTINUOUS
 62
     7
 10
375.8521617635
 20
120.6318679739
 30
0.0
 40
1.099999999999994
  0
CIRCLE
  5
17D
  8
0
  6
CONTINUOUS
 62
     7
 10
405.8521617635
 20
120.6318679739
 30
0.0
 40
1.100000000000023
  0
LINE
  5
17E
  8
0
  6
CONTINUOUS
 62
     7
 10
408.8521636709
 20
127.2318695952
 30
0.0
 11
372.8521622404
 21
127.2318695952
 31
0.0
  0
LINE
  5
17F
  8
0
  6
CONTINUOUS
 62
     7
 10
408.8521636709
 20
127.2318695952
 30
0.0
 11
408.8521636709
 21
126.2318705489
 31
0.0
  0
LINE
  5
180
  8
0
  6
CONTINUOUS
 62
     7
 10
372.8521622404
 20
127.2318695952
 30
0.0
 11
372.8521622404
 21
126.2318705489
 31
0.0
  0
LINE
  5
181
  8
0
  6
CONTINUOUS
 62
     7
 10
387.8521598562
 20
133.1766282488
 30
0.0
 11
387.8521598562
 21
127.2318695952
 31
0.0
  0
LINE
  5
182
  8
0
  6
CONTINUOUS
 62
     7
 10
393.8521660551
 20
133.1766282488
 30
0.0
 11
393.8521660551
 21
127.2318695952
 31
0.0
  0
LINE
  5
183
  8
0
  6
CONTINUOUS
 62
     7
 10
387.8521598562
 20
136.2537299563
 30
0.0
 11
387.8521598562
 21
133.1766282488
 31
0.0
  0
LINE
  5
184
  8
0
  6
CONTINUOUS
 62
     7
 10
393.8521660551
 20
136.2537299563
 30
0.0
 11
393.8521660551
 21
133.1766282488
 31
0.0
  0
LINE
  5
185
  8
0
  6
CONTINUOUS
 62
     7
 10
387.8521598562
 20
157.6037501265
 30
0.0
 11
387.8521598562
 21
141.634431975
 31
0.0
  0
LINE
  5
186
  8
0
  6
CONTINUOUS
 62
     7
 10
393.8521660551
 20
157.6037501265
 30
0.0
 11
393.8521660551
 21
141.634431975
 31
0.0
  0
LINE
  5
187
  8
0
  6
CONTINUOUS
 62
     7
 10
393.8521660551
 20
161.3678192069
 30
0.0
 11
393.8521660551
 21
157.6037501265
 31
0.0
  0
LINE
  5
188
  8
0
  6
CONTINUOUS
 62
     7
 10
387.8521598562
 20
161.3678192069
 30
0.0
 11
387.8521598562
 21
157.6037501265
 31
0.0
  0
LINE
  5
189
  8
0
  6
CONTINUOUS
 62
     7
 10
393.8521660551
 20
161.3678192069
 30
0.0
 11
393.8521660551
 21
167.454025643
 31
0.0
  0
LINE
  5
18A
  8
0
  6
CONTINUOUS
 62
     7
 10
387.8521598562
 20
161.3678192069
 30
0.0
 11
387.8521598562
 21
167.4533342291
 31
0.0
  0
LINE
  5
18B
  8
0
  6
CONTINUOUS
 62
     7
 10
48.8521612867
 20
126.2318705489
 30
0.0
 11
48.8521612867
 21
119.4318686892
 31
0.0
  0
ARC
  5
18C
  8
0
  6
CONTINUOUS
 62
     7
 10
45.8521617635
 20
119.4318679739
 30
0.0
 40
3.0
 50
270.0
 51
0.0
  0
LINE
  5
18D
  8
0
  6
CONTINUOUS
 62
     7
 10
45.8521641477
 20
116.4318655898
 30
0.0
 11
15.8521569952
 21
116.4318655898
 31
0.0
  0
ARC
  5
18E
  8
0
  6
CONTINUOUS
 62
     7
 10
15.8521617635
 20
119.4318679739
 30
0.0
 40
3.000000000000004
 50
180.0
 51
270.0
  0
LINE
  5
18F
  8
0
  6
CONTINUOUS
 62
     7
 10
12.8521598562
 20
126.2318705489
 30
0.0
 11
12.8521598562
 21
119.4318686892
 31
0.0
  0
CIRCLE
  5
190
  8
0
  6
CONTINUOUS
 62
     7
 10
15.8521617635
 20
120.6318679739
 30
0.0
 40
1.099999999999994
  0
CIRCLE
  5
191
  8
0
  6
CONTINUOUS
 62
     7
 10
45.8521617635
 20
120.6318679739
 30
0.0
 40
1.100000000000023
  0
LINE
  5
192
  8
0
  6
CONTINUOUS
 62
     7
 10
48.8521612867
 20
127.2318695952
 30
0.0
 11
12.8521598562
 21
127.2318695952
 31
0.0
  0
LINE
  5
193
  8
0
  6
CONTINUOUS
 62
     7
 10
12.8521598562
 20
127.2318695952
 30
0.0
 11
12.8521598562
 21
126.2318705489
 31
0.0
  0
LINE
  5
194
  8
0
  6
CONTINUOUS
 62
     7
 10
48.8521612867
 20
127.2318695952
 30
0.0
 11
48.8521612867
 21
126.2318705489
 31
0.0
  0
LINE
  5
195
  8
0
  6
CONTINUOUS
 62
     7
 10
33.8521636709
 20
133.1766282488
 30
0.0
 11
33.8521636709
 21
127.2318695952
 31
0.0
  0
LINE
  5
196
  8
0
  6
CONTINUOUS
 62
     7
 10
27.852157472
 20
133.1766282488
 30
0.0
 11
27.852157472
 21
127.2318695952
 31
0.0
  0
LINE
  5
197
  8
0
  6
CONTINUOUS
 62
     7
 10
33.8521636709
 20
136.2537299563
 30
0.0
 11
33.8521636709
 21
133.1766282488
 31
0.0
  0
LINE
  5
198
  8
0
  6
CONTINUOUS
 62
     7
 10
27.852157472
 20
136.2537299563
 30
0.0
 11
27.852157472
 21
133.1766282488
 31
0.0
  0
LINE
  5
199
  8
0
  6
CONTINUOUS
 62
     7
 10
33.8521636709
 20
157.6037501265
 30
0.0
 11
33.8521636709
 21
141.634431975
 31
0.0
  0
LINE
  5
19A
  8
0
  6
CONTINUOUS
 62
     7
 10
27.852157472
 20
157.6037501265
 30
0.0
 11
27.852157472
 21
141.634431975
 31
0.0
  0
LINE
  5
19B
  8
0
  6
CONTINUOUS
 62
     7
 10
33.8521636709
 20
161.3678192069
 30
0.0
 11
33.8521636709
 21
157.6037501265
 31
0.0
  0
LINE
  5
19C
  8
0
  6
CONTINUOUS
 62
     7
 10
27.852157472
 20
161.3678192069
 30
0.0
 11
27.852157472
 21
157.6037501265
 31
0.0
  0
LINE
  5
19D
  8
0
  6
CONTINUOUS
 62
     7
 10
33.8521636709
 20
161.3678192069
 30
0.0
 11
33.8521636709
 21
167.454025643
 31
0.0
  0
LINE
  5
19E
  8
0
  6
CONTINUOUS
 62
     7
 10
27.852157472
 20
161.3678192069
 30
0.0
 11
27.852157472
 21
167.4533342291
 31
0.0
  0
ARC
  5
19F
  8
0
  6
CONTINUOUS
 62
     7
 10
270.8519867178
 20
324.9208515617
 30
0.0
 40
183.3109878346423
 50
277.7930441774
 51
281.5887865078
  0
ARC
  5
1A0
  8
0
  6
CONTINUOUS
 62
     7
 10
308.2209183964
 20
142.7123710944
 30
0.0
 40
2.689999999999993
 50
12.4186815058
 51
100.0467259555
  0
ARC
  5
1A1
  8
0
  6
CONTINUOUS
 62
     7
 10
270.8646056326
 20
324.8471246687
 30
0.0
 40
188.6162308835828
 50
277.7922826888
 51
281.5895067778
  0
ARC
  5
1A2
  8
0
  6
CONTINUOUS
 62
     7
 10
308.2209183964
 20
142.7123710944
 30
0.0
 40
2.689999999999998
 50
281.5900201068
 51
12.4186815058
  0
ARC
  5
1A3
  8
0
  6
CONTINUOUS
 62
     7
 10
233.4834051307
 20
142.7123710944
 30
0.0
 40
2.690000000000011
 50
80.0567778886
 51
167.5813184942
  0
ARC
  5
1A4
  8
0
  6
CONTINUOUS
 62
     7
 10
270.8715998602
 20
325.0341015093
 30
0.0
 40
183.4258036152341
 50
258.4125294448
 51
262.2057915725
  0
ARC
  5
1A5
  8
0
  6
CONTINUOUS
 62
     7
 10
270.8714095612
 20
325.032618078
 30
0.0
 40
188.8043081518234
 50
258.4125086084
 51
262.2058213536
  0
ARC
  5
1A6
  8
0
  6
CONTINUOUS
 62
     7
 10
233.4834051307
 20
142.7123710944
 30
0.0
 40
2.690000000000009
 50
167.5813184942
 51
258.4099798932
  0
ARC
  5
1A7
  8
0
  6
CONTINUOUS
 62
     7
 10
270.8521617635
 20
324.9198792485
 30
0.0
 40
183.31
 50
262.2069690737
 51
277.7930309263
  0
ARC
  5
1A8
  8
0
  6
CONTINUOUS
 62
     7
 10
270.8521617635
 20
324.9198792485
 30
0.0
 40
188.69
 50
262.2069690737
 51
277.7930309263
  0
LINE
  5
1A9
  8
0
  6
CONTINUOUS
 62
     7
 10
307.5521625265
 20
139.5718668868
 30
0.0
 11
308.5521615728
 21
139.5718668868
 31
0.0
  0
LINE
  5
1AA
  8
0
  6
CONTINUOUS
 62
     7
 10
308.5521615728
 20
140.0428449084
 30
0.0
 11
308.5521615728
 21
139.5718668868
 31
0.0
  0
LINE
  5
1AB
  8
0
  6
CONTINUOUS
 62
     7
 10
307.5521625265
 20
139.8333167006
 30
0.0
 11
307.5521625265
 21
139.5718668868
 31
0.0
  0
LINE
  5
1AC
  8
0
  6
CONTINUOUS
 62
     7
 10
308.5521615728
 20
139.5718668868
 30
0.0
 11
308.5521615728
 21
135.1049219538
 31
0.0
  0
LINE
  5
1AD
  8
0
  6
CONTINUOUS
 62
     7
 10
307.5521625265
 20
139.5718668868
 30
0.0
 11
307.5521625265
 21
135.1049219538
 31
0.0
  0
LINE
  5
1AE
  8
0
  6
CONTINUOUS
 62
     7
 10
234.1521612986
 20
139.8333405425
 30
0.0
 11
234.1521612986
 21
139.5718668868
 31
0.0
  0
LINE
  5
1AF
  8
0
  6
CONTINUOUS
 62
     7
 10
234.1521612986
 20
139.5718668868
 30
0.0
 11
233.1521622523
 21
139.5718668868
 31
0.0
  0
LINE
  5
1B0
  8
0
  6
CONTINUOUS
 62
     7
 10
233.1521622523
 20
140.0428449084
 30
0.0
 11
233.1521622523
 21
139.5718668868
 31
0.0
  0
LINE
  5
1B1
  8
0
  6
CONTINUOUS
 62
     7
 10
234.1521612986
 20
139.5718668868
 30
0.0
 11
234.1521612986
 21
135.1049219538
 31
0.0
  0
LINE
  5
1B2
  8
0
  6
CONTINUOUS
 62
     7
 10
233.1521622523
 20
139.5718668868
 30
0.0
 11
233.1521622523
 21
135.1049219538
 31
0.0
  0
LINE
  5
1B3
  8
0
  6
CONTINUOUS
 62
     7
 10
234.0238459095
 20
145.3475212027
 30
0.0
 11
234.0277678951
 21
145.34671654
 31
0.0
  0
LINE
  5
1B4
  8
0
  6
CONTINUOUS
 62
     7
 10
307.676247476
 20
145.3466509749
 30
0.0
 11
307.6804794058
 21
145.3475212027
 31
0.0
  0
LINE
  5
1B5
  8
0
  6
CONTINUOUS
 62
     7
 10
233.1521622523
 20
135.1049219538
 30
0.0
 11
233.1521622523
 21
134.2513834406
 31
0.0
  0
LINE
  5
1B6
  8
0
  6
CONTINUOUS
 62
     7
 10
234.1521612986
 20
135.1049219538
 30
0.0
 11
234.1521612986
 21
134.2513834406
 31
0.0
  0
LINE
  5
1B7
  8
0
  6
CONTINUOUS
 62
     7
 10
308.5521615728
 20
135.1049219538
 30
0.0
 11
308.5521615728
 21
134.2513834406
 31
0.0
  0
LINE
  5
1B8
  8
0
  6
CONTINUOUS
 62
     7
 10
307.5521625265
 20
135.1049219538
 30
0.0
 11
307.5521625265
 21
134.2513834406
 31
0.0
  0
LINE
  5
1B9
  8
0
  6
CONTINUOUS
 62
     7
 10
233.1521622523
 20
134.2513834406
 30
0.0
 11
233.1521622523
 21
126.396951573
 31
0.0
  0
LINE
  5
1BA
  8
0
  6
CONTINUOUS
 62
     7
 10
234.1521612986
 20
134.2513834406
 30
0.0
 11
234.1521612986
 21
126.396951573
 31
0.0
  0
LINE
  5
1BB
  8
0
  6
CONTINUOUS
 62
     7
 10
308.5521615728
 20
134.2513834406
 30
0.0
 11
308.5521615728
 21
126.396951573
 31
0.0
  0
LINE
  5
1BC
  8
0
  6
CONTINUOUS
 62
     7
 10
307.5521625265
 20
134.2513834406
 30
0.0
 11
307.5521625265
 21
126.396951573
 31
0.0
  0
LINE
  5
1BD
  8
0
  6
CONTINUOUS
 62
     7
 10
234.1521612986
 20
123.63186826
 30
0.0
 11
233.1521622523
 21
123.63186826
 31
0.0
  0
LINE
  5
1BE
  8
0
  6
CONTINUOUS
 62
     7
 10
233.1521622523
 20
125.6318663527
 30
0.0
 11
233.1521622523
 21
123.63186826
 31
0.0
  0
LINE
  5
1BF
  8
0
  6
CONTINUOUS
 62
     7
 10
234.1521612986
 20
125.6318663527
 30
0.0
 11
234.1521612986
 21
123.63186826
 31
0.0
  0
LINE
  5
1C0
  8
0
  6
CONTINUOUS
 62
     7
 10
233.1521622523
 20
126.396951573
 30
0.0
 11
233.1521622523
 21
125.6318663527
 31
0.0
  0
LINE
  5
1C1
  8
0
  6
CONTINUOUS
 62
     7
 10
234.1521612986
 20
126.396951573
 30
0.0
 11
234.1521612986
 21
125.6318663527
 31
0.0
  0
LINE
  5
1C2
  8
0
  6
CONTINUOUS
 62
     7
 10
307.5521625265
 20
123.63186826
 30
0.0
 11
308.5521615728
 21
123.63186826
 31
0.0
  0
LINE
  5
1C3
  8
0
  6
CONTINUOUS
 62
     7
 10
308.5521615728
 20
125.6318663527
 30
0.0
 11
308.5521615728
 21
123.63186826
 31
0.0
  0
LINE
  5
1C4
  8
0
  6
CONTINUOUS
 62
     7
 10
307.5521625265
 20
125.6318663527
 30
0.0
 11
307.5521625265
 21
123.63186826
 31
0.0
  0
LINE
  5
1C5
  8
0
  6
CONTINUOUS
 62
     7
 10
308.5521615728
 20
126.396951573
 30
0.0
 11
308.5521615728
 21
125.6318663527
 31
0.0
  0
LINE
  5
1C6
  8
0
  6
CONTINUOUS
 62
     7
 10
307.5521625265
 20
126.396951573
 30
0.0
 11
307.5521625265
 21
125.6318663527
 31
0.0
  0
LINE
  5
1C7
  8
0
  6
CONTINUOUS
 62
     7
 10
238.3521623596
 20
119.4318686892
 30
0.0
 11
238.3521623596
 21
126.4318679739
 31
0.0
  0
ARC
  5
1C8
  8
0
  6
CONTINUOUS
 62
     7
 10
236.3521617635
 20
119.4318679739
 30
0.0
 40
2.0
 50
270.0
 51
0.0
  0
LINE
  5
1C9
  8
0
  6
CONTINUOUS
 62
     7
 10
236.3521612867
 20
117.4318705966
 30
0.0
 11
230.3521610483
 21
117.4318705966
 31
0.0
  0
ARC
  5
1CA
  8
0
  6
CONTINUOUS
 62
     7
 10
230.3521617635
 20
119.4318679739
 30
0.0
 40
2.0
 50
180.0
 51
270.0
  0
LINE
  5
1CB
  8
0
  6
CONTINUOUS
 62
     7
 10
228.3521614655
 20
119.4318686892
 30
0.0
 11
228.3521614655
 21
126.4318679739
 31
0.0
  0
CIRCLE
  5
1CC
  8
0
  6
CONTINUOUS
 62
     7
 10
233.3521617635
 20
120.8318679739
 30
0.0
 40
1.0
  0
LINE
  5
1CD
  8
0
  6
CONTINUOUS
 62
     7
 10
238.3521623596
 20
127.4318670203
 30
0.0
 11
234.1521612986
 21
127.4318670203
 31
0.0
  0
LINE
  5
1CE
  8
0
  6
CONTINUOUS
 62
     7
 10
238.3521623596
 20
127.4318670203
 30
0.0
 11
238.3521623596
 21
126.4318679739
 31
0.0
  0
LINE
  5
1CF
  8
0
  6
CONTINUOUS
 62
     7
 10
313.3521593794
 20
126.4318679739
 30
0.0
 11
313.3521593794
 21
127.4318670203
 31
0.0
  0
LINE
  5
1D0
  8
0
  6
CONTINUOUS
 62
     7
 10
313.3521593794
 20
127.4318670203
 30
0.0
 11
308.5521615728
 21
127.4318670203
 31
0.0
  0
LINE
  5
1D1
  8
0
  6
CONTINUOUS
 62
     7
 10
228.3521614655
 20
126.4318679739
 30
0.0
 11
228.3521614655
 21
127.4318670203
 31
0.0
  0
LINE
  5
1D2
  8
0
  6
CONTINUOUS
 62
     7
 10
233.1521622523
 20
127.4318670203
 30
0.0
 11
228.3521614655
 21
127.4318670203
 31
0.0
  0
LINE
  5
1D3
  8
0
  6
CONTINUOUS
 62
     7
 10
307.5521625265
 20
127.4318670203
 30
0.0
 11
303.3521629556
 21
127.4318670203
 31
0.0
  0
LINE
  5
1D4
  8
0
  6
CONTINUOUS
 62
     7
 10
303.3521629556
 20
126.4318679739
 30
0.0
 11
303.3521629556
 21
127.4318670203
 31
0.0
  0
LINE
  5
1D5
  8
0
  6
CONTINUOUS
 62
     7
 10
313.3521593794
 20
119.4318686892
 30
0.0
 11
313.3521593794
 21
126.4318679739
 31
0.0
  0
ARC
  5
1D6
  8
0
  6
CONTINUOUS
 62
     7
 10
311.3521617635
 20
119.4318679739
 30
0.0
 40
2.0
 50
270.0
 51
0.0
  0
LINE
  5
1D7
  8
0
  6
CONTINUOUS
 62
     7
 10
303.3521629556
 20
126.4318679739
 30
0.0
 11
303.3521629556
 21
119.4318686892
 31
0.0
  0
ARC
  5
1D8
  8
0
  6
CONTINUOUS
 62
     7
 10
305.3521617635
 20
119.4318679739
 30
0.0
 40
2.0
 50
180.0
 51
270.0
  0
CIRCLE
  5
1D9
  8
0
  6
CONTINUOUS
 62
     7
 10
308.3521617635
 20
120.8318679739
 30
0.0
 40
1.0
  0
LINE
  5
1DA
  8
0
  6
CONTINUOUS
 62
     7
 10
311.3521612867
 20
117.4318705966
 30
0.0
 11
305.3521610483
 21
117.4318705966
 31
0.0
  0
ARC
  5
1DB
  8
0
  6
CONTINUOUS
 62
     7
 10
390.8646866654
 20
324.8466431726
 30
0.0
 40
188.6157426853082
 50
277.7922777727
 51
281.5895116938
  0
ARC
  5
1DC
  8
0
  6
CONTINUOUS
 62
     7
 10
428.2209183964
 20
142.7123710944
 30
0.0
 40
2.689999999999998
 50
281.5900201068
 51
12.4186815058
  0
ARC
  5
1DD
  8
0
  6
CONTINUOUS
 62
     7
 10
390.8530105087
 20
324.9144896907
 30
0.0
 40
183.3045473535301
 50
277.7930000842
 51
281.5888684784
  0
ARC
  5
1DE
  8
0
  6
CONTINUOUS
 62
     7
 10
428.2209183964
 20
142.7123710944
 30
0.0
 40
2.689999999999993
 50
12.4186815058
 51
100.0467259555
  0
ARC
  5
1DF
  8
0
  6
CONTINUOUS
 62
     7
 10
353.4834051307
 20
142.7123710944
 30
0.0
 40
2.69000000000003
 50
80.0567778886
 51
167.5813184942
  0
ARC
  5
1E0
  8
0
  6
CONTINUOUS
 62
     7
 10
390.8715874095
 20
325.0340449906
 30
0.0
 40
183.4257456876528
 50
258.4125297998
 51
262.2057935849
  0
ARC
  5
1E1
  8
0
  6
CONTINUOUS
 62
     7
 10
390.8720579782
 20
325.0365121098
 30
0.0
 40
188.8082539016426
 50
258.4125519674
 51
262.2057871943
  0
ARC
  5
1E2
  8
0
  6
CONTINUOUS
 62
     7
 10
353.4834051307
 20
142.7123710944
 30
0.0
 40
2.690000000000023
 50
167.5813184942
 51
258.4099798932
  0
ARC
  5
1E3
  8
0
  6
CONTINUOUS
 62
     7
 10
390.8521617635
 20
324.9198792485
 30
0.0
 40
183.31
 50
262.2069690737
 51
277.7930309263
  0
ARC
  5
1E4
  8
0
  6
CONTINUOUS
 62
     7
 10
390.8521617635
 20
324.9198792485
 30
0.0
 40
188.69
 50
262.2069690737
 51
277.7930309263
  0
LINE
  5
1E5
  8
0
  6
CONTINUOUS
 62
     7
 10
427.5521672949
 20
139.5718668868
 30
0.0
 11
428.5521663412
 21
139.5718668868
 31
0.0
  0
LINE
  5
1E6
  8
0
  6
CONTINUOUS
 62
     7
 10
427.5521672949
 20
139.8333167006
 30
0.0
 11
427.5521672949
 21
139.5718668868
 31
0.0
  0
LINE
  5
1E7
  8
0
  6
CONTINUOUS
 62
     7
 10
428.5521663412
 20
140.0428449084
 30
0.0
 11
428.5521663412
 21
139.5718668868
 31
0.0
  0
LINE
  5
1E8
  8
0
  6
CONTINUOUS
 62
     7
 10
354.1521586164
 20
139.8333405425
 30
0.0
 11
354.1521586164
 21
139.5718668868
 31
0.0
  0
LINE
  5
1E9
  8
0
  6
CONTINUOUS
 62
     7
 10
354.1521586164
 20
139.5718668868
 30
0.0
 11
353.1521595701
 21
139.5718668868
 31
0.0
  0
LINE
  5
1EA
  8
0
  6
CONTINUOUS
 62
     7
 10
353.1521595701
 20
140.0428449084
 30
0.0
 11
353.1521595701
 21
139.5718668868
 31
0.0
  0
LINE
  5
1EB
  8
0
  6
CONTINUOUS
 62
     7
 10
354.1521586164
 20
139.5718668868
 30
0.0
 11
354.1521586164
 21
135.1049219538
 31
0.0
  0
LINE
  5
1EC
  8
0
  6
CONTINUOUS
 62
     7
 10
353.1521595701
 20
139.5718668868
 30
0.0
 11
353.1521595701
 21
135.1049219538
 31
0.0
  0
LINE
  5
1ED
  8
0
  6
CONTINUOUS
 62
     7
 10
428.5521663412
 20
139.5718668868
 30
0.0
 11
428.5521663412
 21
135.1049219538
 31
0.0
  0
LINE
  5
1EE
  8
0
  6
CONTINUOUS
 62
     7
 10
427.5521672949
 20
139.5718668868
 30
0.0
 11
427.5521672949
 21
135.1049219538
 31
0.0
  0
LINE
  5
1EF
  8
0
  6
CONTINUOUS
 62
     7
 10
354.0238417371
 20
145.3475212027
 30
0.0
 11
354.0277637228
 21
145.34671654
 31
0.0
  0
LINE
  5
1F0
  8
0
  6
CONTINUOUS
 62
     7
 10
427.6762403234
 20
145.3466509749
 30
0.0
 11
427.6804841741
 21
145.3475212027
 31
0.0
  0
LINE
  5
1F1
  8
0
  6
CONTINUOUS
 62
     7
 10
354.1521586164
 20
135.1049219538
 30
0.0
 11
354.1521586164
 21
134.2513834406
 31
0.0
  0
LINE
  5
1F2
  8
0
  6
CONTINUOUS
 62
     7
 10
353.1521595701
 20
135.1049219538
 30
0.0
 11
353.1521595701
 21
134.2513834406
 31
0.0
  0
LINE
  5
1F3
  8
0
  6
CONTINUOUS
 62
     7
 10
428.5521663412
 20
135.1049219538
 30
0.0
 11
428.5521663412
 21
134.2513834406
 31
0.0
  0
LINE
  5
1F4
  8
0
  6
CONTINUOUS
 62
     7
 10
427.5521672949
 20
135.1049219538
 30
0.0
 11
427.5521672949
 21
134.2513834406
 31
0.0
  0
LINE
  5
1F5
  8
0
  6
CONTINUOUS
 62
     7
 10
354.1521586164
 20
134.2513834406
 30
0.0
 11
354.1521586164
 21
126.396951573
 31
0.0
  0
LINE
  5
1F6
  8
0
  6
CONTINUOUS
 62
     7
 10
353.1521595701
 20
134.2513834406
 30
0.0
 11
353.1521595701
 21
126.396951573
 31
0.0
  0
LINE
  5
1F7
  8
0
  6
CONTINUOUS
 62
     7
 10
428.5521663412
 20
134.2513834406
 30
0.0
 11
428.5521663412
 21
126.396951573
 31
0.0
  0
LINE
  5
1F8
  8
0
  6
CONTINUOUS
 62
     7
 10
427.5521672949
 20
134.2513834406
 30
0.0
 11
427.5521672949
 21
126.396951573
 31
0.0
  0
LINE
  5
1F9
  8
0
  6
CONTINUOUS
 62
     7
 10
354.1521586164
 20
123.63186826
 30
0.0
 11
353.1521595701
 21
123.63186826
 31
0.0
  0
LINE
  5
1FA
  8
0
  6
CONTINUOUS
 62
     7
 10
354.1521586164
 20
125.6318663527
 30
0.0
 11
354.1521586164
 21
123.63186826
 31
0.0
  0
LINE
  5
1FB
  8
0
  6
CONTINUOUS
 62
     7
 10
353.1521595701
 20
125.6318663527
 30
0.0
 11
353.1521595701
 21
123.63186826
 31
0.0
  0
LINE
  5
1FC
  8
0
  6
CONTINUOUS
 62
     7
 10
427.5521672949
 20
123.63186826
 30
0.0
 11
428.5521663412
 21
123.63186826
 31
0.0
  0
LINE
  5
1FD
  8
0
  6
CONTINUOUS
 62
     7
 10
428.5521663412
 20
125.6318663527
 30
0.0
 11
428.5521663412
 21
123.63186826
 31
0.0
  0
LINE
  5
1FE
  8
0
  6
CONTINUOUS
 62
     7
 10
427.5521672949
 20
125.6318663527
 30
0.0
 11
427.5521672949
 21
123.63186826
 31
0.0
  0
LINE
  5
1FF
  8
0
  6
CONTINUOUS
 62
     7
 10
354.1521586164
 20
126.396951573
 30
0.0
 11
354.1521586164
 21
125.6318663527
 31
0.0
  0
LINE
  5
200
  8
0
  6
CONTINUOUS
 62
     7
 10
353.1521595701
 20
126.396951573
 30
0.0
 11
353.1521595701
 21
125.6318663527
 31
0.0
  0
LINE
  5
201
  8
0
  6
CONTINUOUS
 62
     7
 10
428.5521663412
 20
126.396951573
 30
0.0
 11
428.5521663412
 21
125.6318663527
 31
0.0
  0
LINE
  5
202
  8
0
  6
CONTINUOUS
 62
     7
 10
427.5521672949
 20
126.396951573
 30
0.0
 11
427.5521672949
 21
125.6318663527
 31
0.0
  0
ARC
  5
203
  8
0
  6
CONTINUOUS
 62
     7
 10
431.3521617635
 20
119.4318679739
 30
0.0
 40
2.0
 50
270.0
 51
0.0
  0
LINE
  5
204
  8
0
  6
CONTINUOUS
 62
     7
 10
431.3521541342
 20
117.4318705966
 30
0.0
 11
425.3521598562
 21
117.4318705966
 31
0.0
  0
ARC
  5
205
  8
0
  6
CONTINUOUS
 62
     7
 10
425.3521617635
 20
119.4318679739
 30
0.0
 40
2.0
 50
180.0
 51
270.0
  0
LINE
  5
206
  8
0
  6
CONTINUOUS
 62
     7
 10
423.3521617635
 20
126.4318679739
 30
0.0
 11
423.3521617635
 21
119.4318686892
 31
0.0
  0
CIRCLE
  5
207
  8
0
  6
CONTINUOUS
 62
     7
 10
428.3521617635
 20
120.8318679739
 30
0.0
 40
1.0
  0
LINE
  5
208
  8
0
  6
CONTINUOUS
 62
     7
 10
433.3521522268
 20
119.4318686892
 30
0.0
 11
433.3521522268
 21
126.4318679739
 31
0.0
  0
LINE
  5
209
  8
0
  6
CONTINUOUS
 62
     7
 10
348.3521617635
 20
126.4318679739
 30
0.0
 11
348.3521617635
 21
127.4318670203
 31
0.0
  0
LINE
  5
20A
  8
0
  6
CONTINUOUS
 62
     7
 10
353.1521595701
 20
127.4318670203
 30
0.0
 11
348.3521617635
 21
127.4318670203
 31
0.0
  0
LINE
  5
20B
  8
0
  6
CONTINUOUS
 62
     7
 10
358.3521641477
 20
119.4318686892
 30
0.0
 11
358.3521641477
 21
126.4318679739
 31
0.0
  0
ARC
  5
20C
  8
0
  6
CONTINUOUS
 62
     7
 10
356.3521617635
 20
119.4318679739
 30
0.0
 40
2.0
 50
270.0
 51
0.0
  0
ARC
  5
20D
  8
0
  6
CONTINUOUS
 62
     7
 10
350.3521617635
 20
119.4318679739
 30
0.0
 40
2.0
 50
180.0
 51
270.0
  0
LINE
  5
20E
  8
0
  6
CONTINUOUS
 62
     7
 10
348.3521617635
 20
119.4318686892
 30
0.0
 11
348.3521617635
 21
126.4318679739
 31
0.0
  0
CIRCLE
  5
20F
  8
0
  6
CONTINUOUS
 62
     7
 10
353.3521617635
 20
120.8318679739
 30
0.0
 40
1.0
  0
LINE
  5
210
  8
0
  6
CONTINUOUS
 62
     7
 10
356.3521660551
 20
117.4318705966
 30
0.0
 11
350.3521598562
 21
117.4318705966
 31
0.0
  0
LINE
  5
211
  8
0
  6
CONTINUOUS
 62
     7
 10
433.3521522268
 20
127.4318670203
 30
0.0
 11
428.5521663412
 21
127.4318670203
 31
0.0
  0
LINE
  5
212
  8
0
  6
CONTINUOUS
 62
     7
 10
433.3521522268
 20
126.4318679739
 30
0.0
 11
433.3521522268
 21
127.4318670203
 31
0.0
  0
LINE
  5
213
  8
0
  6
CONTINUOUS
 62
     7
 10
427.5521672949
 20
127.4318670203
 30
0.0
 11
423.3521617635
 21
127.4318670203
 31
0.0
  0
LINE
  5
214
  8
0
  6
CONTINUOUS
 62
     7
 10
423.3521617635
 20
126.4318679739
 30
0.0
 11
423.3521617635
 21
127.4318670203
 31
0.0
  0
LINE
  5
215
  8
0
  6
CONTINUOUS
 62
     7
 10
358.3521641477
 20
127.4318670203
 30
0.0
 11
354.1521586164
 21
127.4318670203
 31
0.0
  0
LINE
  5
216
  8
0
  6
CONTINUOUS
 62
     7
 10
358.3521641477
 20
127.4318670203
 30
0.0
 11
358.3521641477
 21
126.4318679739
 31
0.0
  0
ARC
  5
217
  8
0
  6
CONTINUOUS
 62
     7
 10
150.8520938559
 20
324.9202137077
 30
0.0
 40
183.3103411017744
 50
277.7930374791
 51
281.5887932061
  0
ARC
  5
218
  8
0
  6
CONTINUOUS
 62
     7
 10
188.2209183964
 20
142.7123710944
 30
0.0
 40
2.689999999999996
 50
12.4186815058
 51
100.0467259555
  0
ARC
  5
219
  8
0
  6
CONTINUOUS
 62
     7
 10
150.8651564437
 20
324.8438887337
 30
0.0
 40
188.6129499063097
 50
277.7922496498
 51
281.5895398168
  0
ARC
  5
21A
  8
0
  6
CONTINUOUS
 62
     7
 10
188.2209183964
 20
142.7123710944
 30
0.0
 40
2.690000000000002
 50
281.5900201068
 51
12.4186815058
  0
ARC
  5
21B
  8
0
  6
CONTINUOUS
 62
     7
 10
113.4834051307
 20
142.7123710944
 30
0.0
 40
2.690000000000011
 50
80.0567778886
 51
167.5813184942
  0
ARC
  5
21C
  8
0
  6
CONTINUOUS
 62
     7
 10
150.8722621217
 20
325.0380169656
 30
0.0
 40
183.4297729541761
 50
258.4125714562
 51
262.2057519284
  0
ARC
  5
21D
  8
0
  6
CONTINUOUS
 62
     7
 10
150.8716170491
 20
325.0338435737
 30
0.0
 40
188.8055507069737
 50
258.4125210951
 51
262.2058088669
  0
ARC
  5
21E
  8
0
  6
CONTINUOUS
 62
     7
 10
113.4834051307
 20
142.7123710944
 30
0.0
 40
2.690000000000011
 50
167.5813184942
 51
258.4099798932
  0
ARC
  5
21F
  8
0
  6
CONTINUOUS
 62
     7
 10
150.8521617635
 20
324.9198792485
 30
0.0
 40
188.69
 50
262.2069690737
 51
277.7930309263
  0
ARC
  5
220
  8
0
  6
CONTINUOUS
 62
     7
 10
150.8521617635
 20
324.9198792485
 30
0.0
 40
183.31
 50
262.2069690737
 51
277.7930309263
  0
LINE
  5
221
  8
0
  6
CONTINUOUS
 62
     7
 10
114.1521610006
 20
139.5718668868
 30
0.0
 11
113.1521619543
 21
139.5718668868
 31
0.0
  0
LINE
  5
222
  8
0
  6
CONTINUOUS
 62
     7
 10
114.1521610006
 20
139.5718668868
 30
0.0
 11
114.1521610006
 21
135.1049219538
 31
0.0
  0
LINE
  5
223
  8
0
  6
CONTINUOUS
 62
     7
 10
113.1521619543
 20
139.5718668868
 30
0.0
 11
113.1521619543
 21
135.1049219538
 31
0.0
  0
LINE
  5
224
  8
0
  6
CONTINUOUS
 62
     7
 10
114.1521610006
 20
139.8333405425
 30
0.0
 11
114.1521610006
 21
139.5718668868
 31
0.0
  0
LINE
  5
225
  8
0
  6
CONTINUOUS
 62
     7
 10
113.1521619543
 20
140.0428449084
 30
0.0
 11
113.1521619543
 21
139.5718668868
 31
0.0
  0
LINE
  5
226
  8
0
  6
CONTINUOUS
 62
     7
 10
187.5521622285
 20
139.5718668868
 30
0.0
 11
187.5521622285
 21
135.1049219538
 31
0.0
  0
LINE
  5
227
  8
0
  6
CONTINUOUS
 62
     7
 10
187.5521622285
 20
139.5718668868
 30
0.0
 11
188.5521612748
 21
139.5718668868
 31
0.0
  0
LINE
  5
228
  8
0
  6
CONTINUOUS
 62
     7
 10
188.5521612748
 20
139.5718668868
 30
0.0
 11
188.5521612748
 21
135.1049219538
 31
0.0
  0
LINE
  5
229
  8
0
  6
CONTINUOUS
 62
     7
 10
187.5521622285
 20
139.8333167006
 30
0.0
 11
187.5521622285
 21
139.5718668868
 31
0.0
  0
LINE
  5
22A
  8
0
  6
CONTINUOUS
 62
     7
 10
188.5521612748
 20
140.0428449084
 30
0.0
 11
188.5521612748
 21
139.5718668868
 31
0.0
  0
LINE
  5
22B
  8
0
  6
CONTINUOUS
 62
     7
 10
114.0238441213
 20
145.3475212027
 30
0.0
 11
114.027766107
 21
145.34671654
 31
0.0
  0
LINE
  5
22C
  8
0
  6
CONTINUOUS
 62
     7
 10
187.6762441977
 20
145.3466509749
 30
0.0
 11
187.6804776176
 21
145.3475212027
 31
0.0
  0
LINE
  5
22D
  8
0
  6
CONTINUOUS
 62
     7
 10
113.1521619543
 20
135.1049219538
 30
0.0
 11
113.1521619543
 21
134.2513834406
 31
0.0
  0
LINE
  5
22E
  8
0
  6
CONTINUOUS
 62
     7
 10
114.1521610006
 20
135.1049219538
 30
0.0
 11
114.1521610006
 21
134.2513834406
 31
0.0
  0
LINE
  5
22F
  8
0
  6
CONTINUOUS
 62
     7
 10
187.5521622285
 20
135.1049219538
 30
0.0
 11
187.5521622285
 21
134.2513834406
 31
0.0
  0
LINE
  5
230
  8
0
  6
CONTINUOUS
 62
     7
 10
188.5521612748
 20
135.1049219538
 30
0.0
 11
188.5521612748
 21
134.2513834406
 31
0.0
  0
LINE
  5
231
  8
0
  6
CONTINUOUS
 62
     7
 10
187.5521622285
 20
134.2513834406
 30
0.0
 11
187.5521622285
 21
126.396951573
 31
0.0
  0
LINE
  5
232
  8
0
  6
CONTINUOUS
 62
     7
 10
188.5521612748
 20
134.2513834406
 30
0.0
 11
188.5521612748
 21
126.396951573
 31
0.0
  0
LINE
  5
233
  8
0
  6
CONTINUOUS
 62
     7
 10
113.1521619543
 20
134.2513834406
 30
0.0
 11
113.1521619543
 21
126.396951573
 31
0.0
  0
LINE
  5
234
  8
0
  6
CONTINUOUS
 62
     7
 10
114.1521610006
 20
134.2513834406
 30
0.0
 11
114.1521610006
 21
126.396951573
 31
0.0
  0
LINE
  5
235
  8
0
  6
CONTINUOUS
 62
     7
 10
187.5521622285
 20
126.396951573
 30
0.0
 11
187.5521622285
 21
125.6318663527
 31
0.0
  0
LINE
  5
236
  8
0
  6
CONTINUOUS
 62
     7
 10
188.5521612748
 20
126.396951573
 30
0.0
 11
188.5521612748
 21
125.6318663527
 31
0.0
  0
LINE
  5
237
  8
0
  6
CONTINUOUS
 62
     7
 10
187.5521622285
 20
123.63186826
 30
0.0
 11
188.5521612748
 21
123.63186826
 31
0.0
  0
LINE
  5
238
  8
0
  6
CONTINUOUS
 62
     7
 10
187.5521622285
 20
125.6318663527
 30
0.0
 11
187.5521622285
 21
123.63186826
 31
0.0
  0
LINE
  5
239
  8
0
  6
CONTINUOUS
 62
     7
 10
188.5521612748
 20
125.6318663527
 30
0.0
 11
188.5521612748
 21
123.63186826
 31
0.0
  0
LINE
  5
23A
  8
0
  6
CONTINUOUS
 62
     7
 10
114.1521610006
 20
123.63186826
 30
0.0
 11
113.1521619543
 21
123.63186826
 31
0.0
  0
LINE
  5
23B
  8
0
  6
CONTINUOUS
 62
     7
 10
113.1521619543
 20
125.6318663527
 30
0.0
 11
113.1521619543
 21
123.63186826
 31
0.0
  0
LINE
  5
23C
  8
0
  6
CONTINUOUS
 62
     7
 10
114.1521610006
 20
125.6318663527
 30
0.0
 11
114.1521610006
 21
123.63186826
 31
0.0
  0
LINE
  5
23D
  8
0
  6
CONTINUOUS
 62
     7
 10
113.1521619543
 20
126.396951573
 30
0.0
 11
113.1521619543
 21
125.6318663527
 31
0.0
  0
LINE
  5
23E
  8
0
  6
CONTINUOUS
 62
     7
 10
114.1521610006
 20
126.396951573
 30
0.0
 11
114.1521610006
 21
125.6318663527
 31
0.0
  0
LINE
  5
23F
  8
0
  6
CONTINUOUS
 62
     7
 10
118.3521605715
 20
119.4318686892
 30
0.0
 11
118.3521605715
 21
126.4318679739
 31
0.0
  0
ARC
  5
240
  8
0
  6
CONTINUOUS
 62
     7
 10
116.3521617635
 20
119.4318679739
 30
0.0
 40
2.0
 50
270.0
 51
0.0
  0
LINE
  5
241
  8
0
  6
CONTINUOUS
 62
     7
 10
116.3521624788
 20
117.4318705966
 30
0.0
 11
110.3521622404
 21
117.4318705966
 31
0.0
  0
ARC
  5
242
  8
0
  6
CONTINUOUS
 62
     7
 10
110.3521617635
 20
119.4318679739
 30
0.0
 40
2.0
 50
180.0
 51
270.0
  0
LINE
  5
243
  8
0
  6
CONTINUOUS
 62
     7
 10
108.3521641477
 20
119.4318686892
 30
0.0
 11
108.3521641477
 21
126.4318679739
 31
0.0
  0
CIRCLE
  5
244
  8
0
  6
CONTINUOUS
 62
     7
 10
113.3521617635
 20
120.8318679739
 30
0.0
 40
1.0
  0
LINE
  5
245
  8
0
  6
CONTINUOUS
 62
     7
 10
187.5521622285
 20
127.4318670203
 30
0.0
 11
183.3521611675
 21
127.4318670203
 31
0.0
  0
LINE
  5
246
  8
0
  6
CONTINUOUS
 62
     7
 10
183.3521611675
 20
126.4318679739
 30
0.0
 11
183.3521611675
 21
127.4318670203
 31
0.0
  0
LINE
  5
247
  8
0
  6
CONTINUOUS
 62
     7
 10
108.3521641477
 20
126.4318679739
 30
0.0
 11
108.3521641477
 21
127.4318670203
 31
0.0
  0
LINE
  5
248
  8
0
  6
CONTINUOUS
 62
     7
 10
113.1521619543
 20
127.4318670203
 30
0.0
 11
108.3521641477
 21
127.4318670203
 31
0.0
  0
LINE
  5
249
  8
0
  6
CONTINUOUS
 62
     7
 10
118.3521605715
 20
127.4318670203
 30
0.0
 11
114.1521610006
 21
127.4318670203
 31
0.0
  0
LINE
  5
24A
  8
0
  6
CONTINUOUS
 62
     7
 10
118.3521605715
 20
127.4318670203
 30
0.0
 11
118.3521605715
 21
126.4318679739
 31
0.0
  0
LINE
  5
24B
  8
0
  6
CONTINUOUS
 62
     7
 10
183.3521611675
 20
126.4318679739
 30
0.0
 11
183.3521611675
 21
119.4318686892
 31
0.0
  0
LINE
  5
24C
  8
0
  6
CONTINUOUS
 62
     7
 10
193.3521620616
 20
119.4318686892
 30
0.0
 11
193.3521620616
 21
126.4318679739
 31
0.0
  0
CIRCLE
  5
24D
  8
0
  6
CONTINUOUS
 62
     7
 10
188.3521617635
 20
120.8318679739
 30
0.0
 40
1.0
  0
ARC
  5
24E
  8
0
  6
CONTINUOUS
 62
     7
 10
191.3521617635
 20
119.4318679739
 30
0.0
 40
2.0
 50
270.0
 51
0.0
  0
LINE
  5
24F
  8
0
  6
CONTINUOUS
 62
     7
 10
191.3521624788
 20
117.4318705966
 30
0.0
 11
185.3521622404
 21
117.4318705966
 31
0.0
  0
ARC
  5
250
  8
0
  6
CONTINUOUS
 62
     7
 10
185.3521617635
 20
119.4318679739
 30
0.0
 40
2.0
 50
180.0
 51
270.0
  0
LINE
  5
251
  8
0
  6
CONTINUOUS
 62
     7
 10
193.3521620616
 20
127.4318670203
 30
0.0
 11
188.5521612748
 21
127.4318670203
 31
0.0
  0
LINE
  5
252
  8
0
  6
CONTINUOUS
 62
     7
 10
193.3521620616
 20
126.4318679739
 30
0.0
 11
193.3521620616
 21
127.4318670203
 31
0.0
  0
ARC
  5
253
  8
0
  6
CONTINUOUS
 62
     7
 10
30.8526557185
 20
324.9169130642
 30
0.0
 40
183.3069945137036
 50
277.7930028174
 51
281.5888278678
  0
ARC
  5
254
  8
0
  6
CONTINUOUS
 62
     7
 10
68.2209183964
 20
142.7123710944
 30
0.0
 40
2.69000000000001
 50
12.4186815058
 51
100.0467259555
  0
ARC
  5
255
  8
0
  6
CONTINUOUS
 62
     7
 10
30.8658864705
 20
324.8396033399
 30
0.0
 40
188.608604862498
 50
277.792205894
 51
281.5895835726
  0
ARC
  5
256
  8
0
  6
CONTINUOUS
 62
     7
 10
68.2209183964
 20
142.7123710944
 30
0.0
 40
2.690000000000016
 50
281.5900201068
 51
12.4186815058
  0
ARC
  5
257
  8
0
  6
CONTINUOUS
 62
     7
 10
30.8711341099
 20
325.0311160059
 30
0.0
 40
188.8027826820552
 50
258.4124969862
 51
262.2058421755
  0
ARC
  5
258
  8
0
  6
CONTINUOUS
 62
     7
 10
-6.5165948693
 20
142.7123710944
 30
0.0
 40
2.690000000000011
 50
167.5813184942
 51
258.4099798932
  0
ARC
  5
259
  8
0
  6
CONTINUOUS
 62
     7
 10
-6.5165948693
 20
142.7123710944
 30
0.0
 40
2.690000000000011
 50
80.0567778886
 51
167.5813184942
  0
ARC
  5
25A
  8
0
  6
CONTINUOUS
 62
     7
 10
30.871837443
 20
325.0353780249
 30
0.0
 40
183.4271022551883
 50
258.4125361985
 51
262.2057682471
  0
ARC
  5
25B
  8
0
  6
CONTINUOUS
 62
     7
 10
30.8521617635
 20
324.9198792485
 30
0.0
 40
183.31
 50
262.2069690737
 51
277.7930309263
  0
ARC
  5
25C
  8
0
  6
CONTINUOUS
 62
     7
 10
30.8521617635
 20
324.9198792485
 30
0.0
 40
188.69
 50
262.2069690737
 51
277.7930309263
  0
LINE
  5
25D
  8
0
  6
CONTINUOUS
 62
     7
 10
67.5521649107
 20
139.5718668868
 30
0.0
 11
68.552163957
 21
139.5718668868
 31
0.0
  0
LINE
  5
25E
  8
0
  6
CONTINUOUS
 62
     7
 10
67.5521649107
 20
139.8333167006
 30
0.0
 11
67.5521649107
 21
139.5718668868
 31
0.0
  0
LINE
  5
25F
  8
0
  6
CONTINUOUS
 62
     7
 10
68.552163957
 20
140.0428449084
 30
0.0
 11
68.552163957
 21
139.5718668868
 31
0.0
  0
LINE
  5
260
  8
0
  6
CONTINUOUS
 62
     7
 10
68.552163957
 20
139.5718668868
 30
0.0
 11
68.552163957
 21
135.1049219538
 31
0.0
  0
LINE
  5
261
  8
0
  6
CONTINUOUS
 62
     7
 10
67.5521649107
 20
139.5718668868
 30
0.0
 11
67.5521649107
 21
135.1049219538
 31
0.0
  0
LINE
  5
262
  8
0
  6
CONTINUOUS
 62
     7
 10
-5.8478437678
 20
139.5718668868
 30
0.0
 11
-6.8478428141
 21
139.5718668868
 31
0.0
  0
LINE
  5
263
  8
0
  6
CONTINUOUS
 62
     7
 10
-5.8478437678
 20
139.5718668868
 30
0.0
 11
-5.8478437678
 21
135.1049219538
 31
0.0
  0
LINE
  5
264
  8
0
  6
CONTINUOUS
 62
     7
 10
-6.8478428141
 20
139.5718668868
 30
0.0
 11
-6.8478428141
 21
135.1049219538
 31
0.0
  0
LINE
  5
265
  8
0
  6
CONTINUOUS
 62
     7
 10
-5.8478437678
 20
139.8333405425
 30
0.0
 11
-5.8478437678
 21
139.5718668868
 31
0.0
  0
LINE
  5
266
  8
0
  6
CONTINUOUS
 62
     7
 10
-6.8478428141
 20
140.0428449084
 30
0.0
 11
-6.8478428141
 21
139.5718668868
 31
0.0
  0
LINE
  5
267
  8
0
  6
CONTINUOUS
 62
     7
 10
-5.976160647
 20
145.3475212027
 30
0.0
 11
-5.9722267405
 21
145.34671654
 31
0.0
  0
LINE
  5
268
  8
0
  6
CONTINUOUS
 62
     7
 10
67.6762498602
 20
145.3466509749
 30
0.0
 11
67.6804817899
 21
145.3475212027
 31
0.0
  0
LINE
  5
269
  8
0
  6
CONTINUOUS
 62
     7
 10
68.552163957
 20
135.1049219538
 30
0.0
 11
68.552163957
 21
134.2513834406
 31
0.0
  0
LINE
  5
26A
  8
0
  6
CONTINUOUS
 62
     7
 10
67.5521649107
 20
135.1049219538
 30
0.0
 11
67.5521649107
 21
134.2513834406
 31
0.0
  0
LINE
  5
26B
  8
0
  6
CONTINUOUS
 62
     7
 10
-5.8478437678
 20
135.1049219538
 30
0.0
 11
-5.8478437678
 21
134.2513834406
 31
0.0
  0
LINE
  5
26C
  8
0
  6
CONTINUOUS
 62
     7
 10
-6.8478428141
 20
135.1049219538
 30
0.0
 11
-6.8478428141
 21
134.2513834406
 31
0.0
  0
LINE
  5
26D
  8
0
  6
CONTINUOUS
 62
     7
 10
68.552163957
 20
134.2513834406
 30
0.0
 11
68.552163957
 21
126.396951573
 31
0.0
  0
LINE
  5
26E
  8
0
  6
CONTINUOUS
 62
     7
 10
67.5521649107
 20
134.2513834406
 30
0.0
 11
67.5521649107
 21
126.396951573
 31
0.0
  0
LINE
  5
26F
  8
0
  6
CONTINUOUS
 62
     7
 10
-5.8478437678
 20
134.2513834406
 30
0.0
 11
-5.8478437678
 21
126.396951573
 31
0.0
  0
LINE
  5
270
  8
0
  6
CONTINUOUS
 62
     7
 10
-6.8478428141
 20
134.2513834406
 30
0.0
 11
-6.8478428141
 21
126.396951573
 31
0.0
  0
LINE
  5
271
  8
0
  6
CONTINUOUS
 62
     7
 10
-5.8478437678
 20
126.396951573
 30
0.0
 11
-5.8478437678
 21
125.6318663527
 31
0.0
  0
LINE
  5
272
  8
0
  6
CONTINUOUS
 62
     7
 10
-6.8478428141
 20
126.396951573
 30
0.0
 11
-6.8478428141
 21
125.6318663527
 31
0.0
  0
LINE
  5
273
  8
0
  6
CONTINUOUS
 62
     7
 10
68.552163957
 20
126.396951573
 30
0.0
 11
68.552163957
 21
125.6318663527
 31
0.0
  0
LINE
  5
274
  8
0
  6
CONTINUOUS
 62
     7
 10
67.5521649107
 20
126.396951573
 30
0.0
 11
67.5521649107
 21
125.6318663527
 31
0.0
  0
LINE
  5
275
  8
0
  6
CONTINUOUS
 62
     7
 10
67.5521649107
 20
123.63186826
 30
0.0
 11
68.552163957
 21
123.63186826
 31
0.0
  0
LINE
  5
276
  8
0
  6
CONTINUOUS
 62
     7
 10
68.552163957
 20
125.6318663527
 30
0.0
 11
68.552163957
 21
123.63186826
 31
0.0
  0
LINE
  5
277
  8
0
  6
CONTINUOUS
 62
     7
 10
67.5521649107
 20
125.6318663527
 30
0.0
 11
67.5521649107
 21
123.63186826
 31
0.0
  0
LINE
  5
278
  8
0
  6
CONTINUOUS
 62
     7
 10
-5.8478437678
 20
123.63186826
 30
0.0
 11
-6.8478428141
 21
123.63186826
 31
0.0
  0
LINE
  5
279
  8
0
  6
CONTINUOUS
 62
     7
 10
-5.8478437678
 20
125.6318663527
 30
0.0
 11
-5.8478437678
 21
123.63186826
 31
0.0
  0
LINE
  5
27A
  8
0
  6
CONTINUOUS
 62
     7
 10
-6.8478428141
 20
125.6318663527
 30
0.0
 11
-6.8478428141
 21
123.63186826
 31
0.0
  0
LINE
  5
27B
  8
0
  6
CONTINUOUS
 62
     7
 10
73.3521617635
 20
119.4318686892
 30
0.0
 11
73.3521617635
 21
126.4318679739
 31
0.0
  0
ARC
  5
27C
  8
0
  6
CONTINUOUS
 62
     7
 10
71.3521617635
 20
119.4318679739
 30
0.0
 40
2.000000000000014
 50
270.0
 51
0.0
  0
LINE
  5
27D
  8
0
  6
CONTINUOUS
 62
     7
 10
71.3521636709
 20
117.4318705966
 30
0.0
 11
65.352157472
 21
117.4318705966
 31
0.0
  0
ARC
  5
27E
  8
0
  6
CONTINUOUS
 62
     7
 10
65.3521617635
 20
119.4318679739
 30
0.0
 40
2.0
 50
180.0
 51
270.0
  0
LINE
  5
27F
  8
0
  6
CONTINUOUS
 62
     7
 10
63.3521593794
 20
126.4318679739
 30
0.0
 11
63.3521593794
 21
119.4318686892
 31
0.0
  0
CIRCLE
  5
280
  8
0
  6
CONTINUOUS
 62
     7
 10
68.3521617635
 20
120.8318679739
 30
0.0
 40
1.000000000000028
  0
LINE
  5
281
  8
0
  6
CONTINUOUS
 62
     7
 10
-1.6478382365
 20
127.4318670203
 30
0.0
 11
-5.8478437678
 21
127.4318670203
 31
0.0
  0
LINE
  5
282
  8
0
  6
CONTINUOUS
 62
     7
 10
-1.6478382365
 20
127.4318670203
 30
0.0
 11
-1.6478382365
 21
126.4318679739
 31
0.0
  0
LINE
  5
283
  8
0
  6
CONTINUOUS
 62
     7
 10
-6.8478428141
 20
127.4318670203
 30
0.0
 11
-11.6478286997
 21
127.4318670203
 31
0.0
  0
LINE
  5
284
  8
0
  6
CONTINUOUS
 62
     7
 10
-11.6478286997
 20
126.4318679739
 30
0.0
 11
-11.6478286997
 21
127.4318670203
 31
0.0
  0
LINE
  5
285
  8
0
  6
CONTINUOUS
 62
     7
 10
73.3521617635
 20
127.4318670203
 30
0.0
 11
68.552163957
 21
127.4318670203
 31
0.0
  0
LINE
  5
286
  8
0
  6
CONTINUOUS
 62
     7
 10
73.3521617635
 20
126.4318679739
 30
0.0
 11
73.3521617635
 21
127.4318670203
 31
0.0
  0
LINE
  5
287
  8
0
  6
CONTINUOUS
 62
     7
 10
67.5521649107
 20
127.4318670203
 30
0.0
 11
63.3521593794
 21
127.4318670203
 31
0.0
  0
LINE
  5
288
  8
0
  6
CONTINUOUS
 62
     7
 10
63.3521593794
 20
126.4318679739
 30
0.0
 11
63.3521593794
 21
127.4318670203
 31
0.0
  0
LINE
  5
289
  8
0
  6
CONTINUOUS
 62
     7
 10
-1.6478382365
 20
119.4318686892
 30
0.0
 11
-1.6478382365
 21
126.4318679739
 31
0.0
  0
ARC
  5
28A
  8
0
  6
CONTINUOUS
 62
     7
 10
-3.6478382365
 20
119.4318679739
 30
0.0
 40
2.000000000000002
 50
270.0
 51
0.0
  0
CIRCLE
  5
28B
  8
0
  6
CONTINUOUS
 62
     7
 10
-6.6478382365
 20
120.8318679739
 30
0.0
 40
1.000000000000001
  0
LINE
  5
28C
  8
0
  6
CONTINUOUS
 62
     7
 10
-3.6478363291
 20
117.4318705966
 30
0.0
 11
-9.6478306071
 21
117.4318705966
 31
0.0
  0
ARC
  5
28D
  8
0
  6
CONTINUOUS
 62
     7
 10
-9.6478382365
 20
119.4318679739
 30
0.0
 40
2.000000000000002
 50
180.0
 51
270.0
  0
LINE
  5
28E
  8
0
  6
CONTINUOUS
 62
     7
 10
-11.6478286997
 20
119.4318686892
 30
0.0
 11
-11.6478286997
 21
126.4318679739
 31
0.0
  0
LINE
  5
28F
  8
0
  6
CONTINUOUS
 62
     7
 10
328.1521595701
 20
-55.7592789913
 30
0.0
 11
328.1521595701
 21
-70.759278493
 31
0.0
  0
LINE
  5
290
  8
0
  6
CONTINUOUS
 62
     7
 10
333.5521615728
 20
-70.759278493
 30
0.0
 11
333.5521615728
 21
-55.7592789913
 31
0.0
  0
LINE
  5
291
  8
0
  6
CONTINUOUS
 62
     7
 10
333.5521615728
 20
-90.7592787911
 30
0.0
 11
333.5521615728
 21
-70.759278493
 31
0.0
  0
LINE
  5
292
  8
0
  6
CONTINUOUS
 62
     7
 10
328.1521595701
 20
-70.759278493
 30
0.0
 11
328.1521595701
 21
-90.7592787911
 31
0.0
  0
LINE
  5
293
  8
0
  6
CONTINUOUS
 62
     7
 10
328.1521595701
 20
-90.7592787911
 30
0.0
 11
328.1521595701
 21
-105.7592764069
 31
0.0
  0
LINE
  5
294
  8
0
  6
CONTINUOUS
 62
     7
 10
333.5521615728
 20
-105.7592764069
 30
0.0
 11
333.5521615728
 21
-90.7592787911
 31
0.0
  0
LINE
  5
295
  8
0
  6
CONTINUOUS
 62
     7
 10
-31.8478428141
 20
-55.7592789913
 30
0.0
 11
-31.8478428141
 21
-70.759278493
 31
0.0
  0
LINE
  5
296
  8
0
  6
CONTINUOUS
 62
     7
 10
-26.4478288904
 20
-70.759278493
 30
0.0
 11
-26.4478288904
 21
-55.7592789913
 31
0.0
  0
LINE
  5
297
  8
0
  6
CONTINUOUS
 62
     7
 10
-26.4478288904
 20
-90.7592787911
 30
0.0
 11
-26.4478288904
 21
-70.759278493
 31
0.0
  0
LINE
  5
298
  8
0
  6
CONTINUOUS
 62
     7
 10
-31.8478428141
 20
-70.759278493
 30
0.0
 11
-31.8478428141
 21
-90.7592787911
 31
0.0
  0
LINE
  5
299
  8
0
  6
CONTINUOUS
 62
     7
 10
-31.8478428141
 20
-90.7592787911
 30
0.0
 11
-31.8478428141
 21
-105.7592764069
 31
0.0
  0
LINE
  5
29A
  8
0
  6
CONTINUOUS
 62
     7
 10
-26.4478288904
 20
-105.7592764069
 30
0.0
 11
-26.4478288904
 21
-90.7592787911
 31
0.0
  0
LINE
  5
29B
  8
0
  6
CONTINUOUS
 62
     7
 10
208.1521616935
 20
-55.7592789913
 30
0.0
 11
208.1521616935
 21
-70.759278493
 31
0.0
  0
LINE
  5
29C
  8
0
  6
CONTINUOUS
 62
     7
 10
213.5521618336
 20
-70.759278493
 30
0.0
 11
213.5521618336
 21
-55.7592789913
 31
0.0
  0
LINE
  5
29D
  8
0
  6
CONTINUOUS
 62
     7
 10
213.5521618336
 20
-90.7592787911
 30
0.0
 11
213.5521618336
 21
-70.759278493
 31
0.0
  0
LINE
  5
29E
  8
0
  6
CONTINUOUS
 62
     7
 10
208.1521616935
 20
-70.759278493
 30
0.0
 11
208.1521616935
 21
-90.7592787911
 31
0.0
  0
LINE
  5
29F
  8
0
  6
CONTINUOUS
 62
     7
 10
208.1521616935
 20
-90.7592787911
 30
0.0
 11
208.1521616935
 21
-105.7592764069
 31
0.0
  0
LINE
  5
2A0
  8
0
  6
CONTINUOUS
 62
     7
 10
213.5521618336
 20
-105.7592764069
 30
0.0
 11
213.5521618336
 21
-90.7592787911
 31
0.0
  0
LINE
  5
2A1
  8
0
  6
CONTINUOUS
 62
     7
 10
448.1521524175
 20
-55.7592789913
 30
0.0
 11
448.1521524175
 21
-70.759278493
 31
0.0
  0
LINE
  5
2A2
  8
0
  6
CONTINUOUS
 62
     7
 10
453.5521663412
 20
-70.759278493
 30
0.0
 11
453.5521663412
 21
-55.7592789913
 31
0.0
  0
LINE
  5
2A3
  8
0
  6
CONTINUOUS
 62
     7
 10
453.5521663412
 20
-90.7592787911
 30
0.0
 11
453.5521663412
 21
-70.759278493
 31
0.0
  0
LINE
  5
2A4
  8
0
  6
CONTINUOUS
 62
     7
 10
448.1521524175
 20
-70.759278493
 30
0.0
 11
448.1521524175
 21
-90.7592787911
 31
0.0
  0
LINE
  5
2A5
  8
0
  6
CONTINUOUS
 62
     7
 10
448.1521524175
 20
-90.7592787911
 30
0.0
 11
448.1521524175
 21
-105.7592764069
 31
0.0
  0
LINE
  5
2A6
  8
0
  6
CONTINUOUS
 62
     7
 10
453.5521663412
 20
-105.7592764069
 30
0.0
 11
453.5521663412
 21
-90.7592787911
 31
0.0
  0
LINE
  5
2A7
  8
0
  6
CONTINUOUS
 62
     7
 10
88.1521619543
 20
-55.7592789913
 30
0.0
 11
88.1521619543
 21
-70.759278493
 31
0.0
  0
LINE
  5
2A8
  8
0
  6
CONTINUOUS
 62
     7
 10
93.552163957
 20
-70.759278493
 30
0.0
 11
93.552163957
 21
-55.7592789913
 31
0.0
  0
LINE
  5
2A9
  8
0
  6
CONTINUOUS
 62
     7
 10
93.552163957
 20
-90.7592787911
 30
0.0
 11
93.552163957
 21
-70.759278493
 31
0.0
  0
LINE
  5
2AA
  8
0
  6
CONTINUOUS
 62
     7
 10
88.1521619543
 20
-70.759278493
 30
0.0
 11
88.1521619543
 21
-90.7592787911
 31
0.0
  0
LINE
  5
2AB
  8
0
  6
CONTINUOUS
 62
     7
 10
88.1521619543
 20
-90.7592787911
 30
0.0
 11
88.1521619543
 21
-105.7592764069
 31
0.0
  0
LINE
  5
2AC
  8
0
  6
CONTINUOUS
 62
     7
 10
93.552163957
 20
-105.7592764069
 30
0.0
 11
93.552163957
 21
-90.7592787911
 31
0.0
  0
POLYLINE
  5
2AD
  8
0
  6
CONTINUOUS
 62
     7
 66
     1
 10
0.0
 20
0.0
 30
0.0
  0
VERTEX
  5
6CD
  8
0
  6
CONTINUOUS
 62
     7
 10
245.2693976148
 20
-33.3035662342
 30
0.0
  0
VERTEX
  5
6CE
  8
0
  6
CONTINUOUS
 62
     7
 10
244.4732941374
 20
-33.41554101
 30
0.0
  0
VERTEX
  5
6CF
  8
0
  6
CONTINUOUS
 62
     7
 10
243.5666121229
 20
-33.5553377439
 30
0.0
  0
VERTEX
  5
6D0
  8
0
  6
CONTINUOUS
 62
     7
 10
242.6693655237
 20
-33.7061211039
 30
0.0
  0
VERTEX
  5
6D1
  8
0
  6
CONTINUOUS
 62
     7
 10
241.7861915811
 20
-33.867236929
 30
0.0
  0
VERTEX
  5
6D2
  8
0
  6
CONTINUOUS
 62
     7
 10
240.931678532
 20
-34.0354948808
 30
0.0
  0
VERTEX
  5
6D3
  8
0
  6
CONTINUOUS
 62
     7
 10
240.0927342161
 20
-34.2127769757
 30
0.0
  0
VERTEX
  5
6D4
  8
0
  6
CONTINUOUS
 62
     7
 10
239.2706609949
 20
-34.3986242581
 30
0.0
  0
VERTEX
  5
6D5
  8
0
  6
CONTINUOUS
 62
     7
 10
238.4715594038
 20
-34.5915793944
 30
0.0
  0
VERTEX
  5
6D6
  8
0
  6
CONTINUOUS
 62
     7
 10
237.7012766584
 20
-34.7901850511
 30
0.0
  0
VERTEX
  5
6D7
  8
0
  6
CONTINUOUS
 62
     7
 10
236.9650549873
 20
-34.9930971433
 30
0.0
  0
VERTEX
  5
6D8
  8
0
  6
CONTINUOUS
 62
     7
 10
236.2671114191
 20
-35.1992889811
 30
0.0
  0
VERTEX
  5
6D9
  8
0
  6
CONTINUOUS
 62
     7
 10
235.6129087194
 20
-35.4069307018
 30
0.0
  0
VERTEX
  5
6DA
  8
0
  6
CONTINUOUS
 62
     7
 10
235.0137270673
 20
-35.6115042735
 30
0.0
  0
VERTEX
  5
6DB
  8
0
  6
CONTINUOUS
 62
     7
 10
234.4295255526
 20
-35.827444451
 30
0.0
  0
VERTEX
  5
6DC
  8
0
  6
CONTINUOUS
 62
     7
 10
233.8760889753
 20
-36.0514953304
 30
0.0
  0
VERTEX
  5
6DD
  8
0
  6
CONTINUOUS
 62
     7
 10
233.3457685693
 20
-36.2906232048
 30
0.0
  0
VERTEX
  5
6DE
  8
0
  6
CONTINUOUS
 62
     7
 10
232.8198171839
 20
-36.5627303291
 30
0.0
  0
VERTEX
  5
6DF
  8
0
  6
CONTINUOUS
 62
     7
 10
232.3781095132
 20
-36.8335380722
 30
0.0
  0
VERTEX
  5
6E0
  8
0
  6
CONTINUOUS
 62
     7
 10
232.0734850749
 20
-37.0555579234
 30
0.0
  0
VERTEX
  5
6E1
  8
0
  6
CONTINUOUS
 62
     7
 10
231.8139560207
 20
-37.2785895635
 30
0.0
  0
VERTEX
  5
6E2
  8
0
  6
CONTINUOUS
 62
     7
 10
231.5796456918
 20
-37.5187038947
 30
0.0
  0
VERTEX
  5
6E3
  8
0
  6
CONTINUOUS
 62
     7
 10
231.3672072872
 20
-37.7834513355
 30
0.0
  0
VERTEX
  5
6E4
  8
0
  6
CONTINUOUS
 62
     7
 10
231.1775989517
 20
-38.0794867445
 30
0.0
  0
VERTEX
  5
6E5
  8
0
  6
CONTINUOUS
 62
     7
 10
231.0169778451
 20
-38.4090408255
 30
0.0
  0
VERTEX
  5
6E6
  8
0
  6
CONTINUOUS
 62
     7
 10
230.8941267117
 20
-38.7691258956
 30
0.0
  0
VERTEX
  5
6E7
  8
0
  6
CONTINUOUS
 62
     7
 10
230.8174840792
 20
-39.1525268127
 30
0.0
  0
VERTEX
  5
6E8
  8
0
  6
CONTINUOUS
 62
     7
 10
230.7951070055
 20
-39.5184903909
 30
0.0
  0
SEQEND
  5
B82
  8
0
  6
CONTINUOUS
 62
     7
  0
POLYLINE
  5
2AE
  8
0
  6
CONTINUOUS
 62
     7
 66
     1
 10
0.0
 20
0.0
 30
0.0
  0
VERTEX
  5
6E9
  8
0
  6
CONTINUOUS
 62
     7
 10
310.9053410276
 20
-39.5312785674
 30
0.0
  0
VERTEX
  5
6EA
  8
0
  6
CONTINUOUS
 62
     7
 10
310.9089292272
 20
-39.4580184985
 30
0.0
  0
VERTEX
  5
6EB
  8
0
  6
CONTINUOUS
 62
     7
 10
310.8717359289
 20
-39.059160607
 30
0.0
  0
VERTEX
  5
6EC
  8
0
  6
CONTINUOUS
 62
     7
 10
310.784808515
 20
-38.6847495605
 30
0.0
  0
VERTEX
  5
6ED
  8
0
  6
CONTINUOUS
 62
     7
 10
310.6567062124
 20
-38.3400246073
 30
0.0
  0
VERTEX
  5
6EE
  8
0
  6
CONTINUOUS
 62
     7
 10
310.4962862715
 20
-38.0281418134
 30
0.0
  0
VERTEX
  5
6EF
  8
0
  6
CONTINUOUS
 62
     7
 10
310.3115893587
 20
-37.7493798305
 30
0.0
  0
VERTEX
  5
6F0
  8
0
  6
CONTINUOUS
 62
     7
 10
310.1080275758
 20
-37.5005289484
 30
0.0
  0
VERTEX
  5
6F1
  8
0
  6
CONTINUOUS
 62
     7
 10
309.8864413484
 20
-37.2750833202
 30
0.0
  0
VERTEX
  5
6F2
  8
0
  6
CONTINUOUS
 62
     7
 10
309.6413172468
 20
-37.0638921429
 30
0.0
  0
VERTEX
  5
6F3
  8
0
  6
CONTINUOUS
 62
     7
 10
309.355101703
 20
-36.8531927038
 30
0.0
  0
VERTEX
  5
6F4
  8
0
  6
CONTINUOUS
 62
     7
 10
308.9821017965
 20
-36.6189494301
 30
0.0
  0
VERTEX
  5
6F5
  8
0
  6
CONTINUOUS
 62
     7
 10
308.5022784456
 20
-36.3617017437
 30
0.0
  0
VERTEX
  5
6F6
  8
0
  6
CONTINUOUS
 62
     7
 10
307.9709566816
 20
-36.1141070295
 30
0.0
  0
VERTEX
  5
6F7
  8
0
  6
CONTINUOUS
 62
     7
 10
307.4338175043
 20
-35.8904629518
 30
0.0
  0
VERTEX
  5
6F8
  8
0
  6
CONTINUOUS
 62
     7
 10
306.8156577333
 20
-35.6567292977
 30
0.0
  0
VERTEX
  5
6F9
  8
0
  6
CONTINUOUS
 62
     7
 10
306.1774886831
 20
-35.4355722238
 30
0.0
  0
VERTEX
  5
6FA
  8
0
  6
CONTINUOUS
 62
     7
 10
305.5146194681
 20
-35.2231010366
 30
0.0
  0
VERTEX
  5
6FB
  8
0
  6
CONTINUOUS
 62
     7
 10
304.8274852022
 20
-35.0182354022
 30
0.0
  0
VERTEX
  5
6FC
  8
0
  6
CONTINUOUS
 62
     7
 10
304.0944017156
 20
-34.8142116834
 30
0.0
  0
VERTEX
  5
6FD
  8
0
  6
CONTINUOUS
 62
     7
 10
303.3282018884
 20
-34.6148326565
 30
0.0
  0
VERTEX
  5
6FE
  8
0
  6
CONTINUOUS
 62
     7
 10
302.5313593134
 20
-34.4208120872
 30
0.0
  0
VERTEX
  5
6FF
  8
0
  6
CONTINUOUS
 62
     7
 10
301.7070449575
 20
-34.2331006695
 30
0.0
  0
VERTEX
  5
700
  8
0
  6
CONTINUOUS
 62
     7
 10
300.8589245065
 20
-34.052783208
 30
0.0
  0
VERTEX
  5
701
  8
0
  6
CONTINUOUS
 62
     7
 10
299.9909437879
 20
-33.8809832502
 30
0.0
  0
VERTEX
  5
702
  8
0
  6
CONTINUOUS
 62
     7
 10
299.1072632059
 20
-33.718827324
 30
0.0
  0
VERTEX
  5
703
  8
0
  6
CONTINUOUS
 62
     7
 10
298.2174671873
 20
-33.5681482721
 30
0.0
  0
VERTEX
  5
704
  8
0
  6
CONTINUOUS
 62
     7
 10
297.3159230932
 20
-33.4278896023
 30
0.0
  0
VERTEX
  5
705
  8
0
  6
CONTINUOUS
 62
     7
 10
296.4350081667
 20
-33.302755611
 30
0.0
  0
SEQEND
  5
B81
  8
0
  6
CONTINUOUS
 62
     7
  0
ARC
  5
2AF
  8
0
  6
CONTINUOUS
 62
     7
 10
270.729724672
 20
-220.3951606784
 30
0.0
 40
188.8174970670524
 50
90.2489016896
 51
97.7494217917
  0
ARC
  5
2B0
  8
0
  6
CONTINUOUS
 62
     7
 10
271.0590091778
 20
-219.4864979806
 30
0.0
 40
187.9057548470603
 50
82.2387216937
 51
89.7798313593
  0
POLYLINE
  5
2B1
  8
0
  6
CONTINUOUS
 62
     7
 66
     1
 10
0.0
 20
0.0
 30
0.0
  0
VERTEX
  5
706
  8
0
  6
CONTINUOUS
 62
     7
 10
235.3882126197
 20
-41.2925660182
 30
0.0
  0
VERTEX
  5
707
  8
0
  6
CONTINUOUS
 62
     7
 10
235.3867403849
 20
-41.2936955262
 30
0.0
  0
VERTEX
  5
708
  8
0
  6
CONTINUOUS
 62
     7
 10
235.4271493539
 20
-41.269092219
 30
0.0
  0
VERTEX
  5
709
  8
0
  6
CONTINUOUS
 62
     7
 10
235.5185933098
 20
-41.2186175157
 30
0.0
  0
VERTEX
  5
70A
  8
0
  6
CONTINUOUS
 62
     7
 10
235.6678120478
 20
-41.1437212993
 30
0.0
  0
VERTEX
  5
70B
  8
0
  6
CONTINUOUS
 62
     7
 10
235.8798660024
 20
-41.0464182068
 30
0.0
  0
VERTEX
  5
70C
  8
0
  6
CONTINUOUS
 62
     7
 10
236.1574060901
 20
-40.9293531943
 30
0.0
  0
VERTEX
  5
70D
  8
0
  6
CONTINUOUS
 62
     7
 10
236.5005798324
 20
-40.7956227232
 30
0.0
  0
VERTEX
  5
70E
  8
0
  6
CONTINUOUS
 62
     7
 10
236.9074411377
 20
-40.6484931279
 30
0.0
  0
VERTEX
  5
70F
  8
0
  6
CONTINUOUS
 62
     7
 10
237.3745329365
 20
-40.491178589
 30
0.0
  0
VERTEX
  5
710
  8
0
  6
CONTINUOUS
 62
     7
 10
237.8971643432
 20
-40.3267785479
 30
0.0
  0
VERTEX
  5
711
  8
0
  6
CONTINUOUS
 62
     7
 10
238.472447513
 20
-40.1577293445
 30
0.0
  0
VERTEX
  5
712
  8
0
  6
CONTINUOUS
 62
     7
 10
239.0813626035
 20
-39.9901642967
 30
0.0
  0
VERTEX
  5
713
  8
0
  6
CONTINUOUS
 62
     7
 10
239.7420026048
 20
-39.8195415307
 30
0.0
  0
VERTEX
  5
714
  8
0
  6
CONTINUOUS
 62
     7
 10
240.4474772199
 20
-39.6485879589
 30
0.0
  0
VERTEX
  5
715
  8
0
  6
CONTINUOUS
 62
     7
 10
241.1904520973
 20
-39.4798889328
 30
0.0
  0
VERTEX
  5
716
  8
0
  6
CONTINUOUS
 62
     7
 10
241.962907432
 20
-39.3159523178
 30
0.0
  0
VERTEX
  5
717
  8
0
  6
CONTINUOUS
 62
     7
 10
242.7550203785
 20
-39.159409659
 30
0.0
  0
VERTEX
  5
718
  8
0
  6
CONTINUOUS
 62
     7
 10
243.5582674726
 20
-39.0123426486
 30
0.0
  0
VERTEX
  5
719
  8
0
  6
CONTINUOUS
 62
     7
 10
244.3689174637
 20
-38.8754739929
 30
0.0
  0
VERTEX
  5
71A
  8
0
  6
CONTINUOUS
 62
     7
 10
245.1979912504
 20
-38.7468784619
 30
0.0
  0
VERTEX
  5
71B
  8
0
  6
CONTINUOUS
 62
     7
 10
245.9938533291
 20
-38.6341660787
 30
0.0
  0
SEQEND
  5
B80
  8
0
  6
CONTINUOUS
 62
     7
  0
POLYLINE
  5
2B2
  8
0
  6
CONTINUOUS
 62
     7
 66
     1
 10
0.0
 20
0.0
 30
0.0
  0
VERTEX
  5
71C
  8
0
  6
CONTINUOUS
 62
     7
 10
295.7105196699
 20
-38.6345400978
 30
0.0
  0
VERTEX
  5
71D
  8
0
  6
CONTINUOUS
 62
     7
 10
296.3704801782
 20
-38.7266352345
 30
0.0
  0
VERTEX
  5
71E
  8
0
  6
CONTINUOUS
 62
     7
 10
297.2079075559
 20
-38.8548552562
 30
0.0
  0
VERTEX
  5
71F
  8
0
  6
CONTINUOUS
 62
     7
 10
298.0370916113
 20
-38.9932795931
 30
0.0
  0
VERTEX
  5
720
  8
0
  6
CONTINUOUS
 62
     7
 10
298.8515473589
 20
-39.1408055593
 30
0.0
  0
VERTEX
  5
721
  8
0
  6
CONTINUOUS
 62
     7
 10
299.6403611883
 20
-39.2950027753
 30
0.0
  0
VERTEX
  5
722
  8
0
  6
CONTINUOUS
 62
     7
 10
300.4085041269
 20
-39.4562631417
 30
0.0
  0
VERTEX
  5
723
  8
0
  6
CONTINUOUS
 62
     7
 10
301.1521495565
 20
-39.6234079767
 30
0.0
  0
VERTEX
  5
724
  8
0
  6
CONTINUOUS
 62
     7
 10
301.8652833685
 20
-39.7946804334
 30
0.0
  0
VERTEX
  5
725
  8
0
  6
CONTINUOUS
 62
     7
 10
302.5418854936
 20
-39.9681493212
 30
0.0
  0
VERTEX
  5
726
  8
0
  6
CONTINUOUS
 62
     7
 10
303.1761802419
 20
-40.1417478491
 30
0.0
  0
VERTEX
  5
727
  8
0
  6
CONTINUOUS
 62
     7
 10
303.7625349745
 20
-40.3132348825
 30
0.0
  0
VERTEX
  5
728
  8
0
  6
CONTINUOUS
 62
     7
 10
304.2959309801
 20
-40.4802664686
 30
0.0
  0
VERTEX
  5
729
  8
0
  6
CONTINUOUS
 62
     7
 10
304.775253652
 20
-40.641307788
 30
0.0
  0
VERTEX
  5
72A
  8
0
  6
CONTINUOUS
 62
     7
 10
305.2014209017
 20
-40.7954111267
 30
0.0
  0
VERTEX
  5
72B
  8
0
  6
CONTINUOUS
 62
     7
 10
305.5672026857
 20
-40.9384965468
 30
0.0
  0
VERTEX
  5
72C
  8
0
  6
CONTINUOUS
 62
     7
 10
305.8658100351
 20
-41.0657286216
 30
0.0
  0
VERTEX
  5
72D
  8
0
  6
CONTINUOUS
 62
     7
 10
306.0700215086
 20
-41.160836773
 30
0.0
  0
VERTEX
  5
72E
  8
0
  6
CONTINUOUS
 62
     7
 10
306.2113977655
 20
-41.2329494525
 30
0.0
  0
VERTEX
  5
72F
  8
0
  6
CONTINUOUS
 62
     7
 10
306.2935806497
 20
-41.2791475225
 30
0.0
  0
VERTEX
  5
730
  8
0
  6
CONTINUOUS
 62
     7
 10
306.3230015024
 20
-41.2973820735
 30
0.0
  0
VERTEX
  5
731
  8
0
  6
CONTINUOUS
 62
     7
 10
306.320802091
 20
-41.2957801987
 30
0.0
  0
SEQEND
  5
B7F
  8
0
  6
CONTINUOUS
 62
     7
  0
LINE
  5
2B3
  8
0
  6
CONTINUOUS
 62
     7
 10
269.8521591409
 20
-31.2372847963
 30
0.0
 11
269.8521591409
 21
-31.5952568818
 31
0.0
  0
LINE
  5
2B4
  8
0
  6
CONTINUOUS
 62
     7
 10
271.8521631941
 20
-31.5952568818
 30
0.0
 11
271.8521631941
 21
-31.2372847963
 31
0.0
  0
ARC
  5
2B5
  8
0
  6
CONTINUOUS
 62
     7
 10
270.8521626576
 20
-221.6440548749
 30
0.0
 40
184.6915014406569
 50
82.2647833754
 51
97.7352166246
  0
LINE
  5
2B6
  8
0
  6
CONTINUOUS
 62
     7
 10
310.9109200224
 20
-44.4017849434
 30
0.0
 11
310.9109200224
 21
-39.5270108748
 31
0.0
  0
LINE
  5
2B7
  8
0
  6
CONTINUOUS
 62
     7
 10
230.7934052929
 20
-39.5270108748
 30
0.0
 11
230.7934052929
 21
-44.4017849434
 31
0.0
  0
POLYLINE
  5
2B8
  8
0
  6
CONTINUOUS
 62
     7
 66
     1
 10
0.0
 20
0.0
 30
0.0
  0
VERTEX
  5
732
  8
0
  6
CONTINUOUS
 62
     7
 10
295.7106984838
 20
-46.5086064805
 30
0.0
  0
VERTEX
  5
733
  8
0
  6
CONTINUOUS
 62
     7
 10
296.4873470052
 20
-46.6128117908
 30
0.0
  0
VERTEX
  5
734
  8
0
  6
CONTINUOUS
 62
     7
 10
297.3697758898
 20
-46.7275842596
 30
0.0
  0
VERTEX
  5
735
  8
0
  6
CONTINUOUS
 62
     7
 10
298.2417083963
 20
-46.837384956
 30
0.0
  0
VERTEX
  5
736
  8
0
  6
CONTINUOUS
 62
     7
 10
299.0992046579
 20
-46.9416416753
 30
0.0
  0
VERTEX
  5
737
  8
0
  6
CONTINUOUS
 62
     7
 10
299.9350823148
 20
-47.0391615797
 30
0.0
  0
VERTEX
  5
738
  8
0
  6
CONTINUOUS
 62
     7
 10
300.7565237268
 20
-47.1304773856
 30
0.0
  0
VERTEX
  5
739
  8
0
  6
CONTINUOUS
 62
     7
 10
301.5627063497
 20
-47.2150429655
 30
0.0
  0
VERTEX
  5
73A
  8
0
  6
CONTINUOUS
 62
     7
 10
302.3472286447
 20
-47.2916476
 30
0.0
  0
VERTEX
  5
73B
  8
0
  6
CONTINUOUS
 62
     7
 10
303.104010938
 20
-47.359120803
 30
0.0
  0
VERTEX
  5
73C
  8
0
  6
CONTINUOUS
 62
     7
 10
303.8277364954
 20
-47.4163509477
 30
0.0
  0
VERTEX
  5
73D
  8
0
  6
CONTINUOUS
 62
     7
 10
304.5143223985
 20
-47.4622778166
 30
0.0
  0
VERTEX
  5
73E
  8
0
  6
CONTINUOUS
 62
     7
 10
305.1625109895
 20
-47.4959127177
 30
0.0
  0
VERTEX
  5
73F
  8
0
  6
CONTINUOUS
 62
     7
 10
305.7805515512
 20
-47.5165426303
 30
0.0
  0
VERTEX
  5
740
  8
0
  6
CONTINUOUS
 62
     7
 10
306.3735402807
 20
-47.5223861207
 30
0.0
  0
VERTEX
  5
741
  8
0
  6
CONTINUOUS
 62
     7
 10
306.9500066026
 20
-47.5099764336
 30
0.0
  0
VERTEX
  5
742
  8
0
  6
CONTINUOUS
 62
     7
 10
307.5319505914
 20
-47.471188711
 30
0.0
  0
VERTEX
  5
743
  8
0
  6
CONTINUOUS
 62
     7
 10
308.0946899637
 20
-47.3955921401
 30
0.0
  0
VERTEX
  5
744
  8
0
  6
CONTINUOUS
 62
     7
 10
308.4606207594
 20
-47.3170026709
 30
0.0
  0
VERTEX
  5
745
  8
0
  6
CONTINUOUS
 62
     7
 10
308.7982691511
 20
-47.2163758744
 30
0.0
  0
VERTEX
  5
746
  8
0
  6
CONTINUOUS
 62
     7
 10
309.1111696943
 20
-47.0925725568
 30
0.0
  0
VERTEX
  5
747
  8
0
  6
CONTINUOUS
 62
     7
 10
309.4129241689
 20
-46.9384483565
 30
0.0
  0
VERTEX
  5
748
  8
0
  6
CONTINUOUS
 62
     7
 10
309.705880998
 20
-46.7476889063
 30
0.0
  0
VERTEX
  5
749
  8
0
  6
CONTINUOUS
 62
     7
 10
309.9863983377
 20
-46.5153440405
 30
0.0
  0
VERTEX
  5
74A
  8
0
  6
CONTINUOUS
 62
     7
 10
310.2458931192
 20
-46.2399713267
 30
0.0
  0
VERTEX
  5
74B
  8
0
  6
CONTINUOUS
 62
     7
 10
310.4738689646
 20
-45.9242000748
 30
0.0
  0
VERTEX
  5
74C
  8
0
  6
CONTINUOUS
 62
     7
 10
310.660628198
 20
-45.5738938917
 30
0.0
  0
VERTEX
  5
74D
  8
0
  6
CONTINUOUS
 62
     7
 10
310.8104027494
 20
-45.155195849
 30
0.0
  0
VERTEX
  5
74E
  8
0
  6
CONTINUOUS
 62
     7
 10
310.8362234815
 20
-45.0213364829
 30
0.0
  0
SEQEND
  5
B7E
  8
0
  6
CONTINUOUS
 62
     7
  0
POLYLINE
  5
2B9
  8
0
  6
CONTINUOUS
 62
     7
 66
     1
 10
0.0
 20
0.0
 30
0.0
  0
VERTEX
  5
74F
  8
0
  6
CONTINUOUS
 62
     7
 10
230.862959443
 20
-45.0220100153
 30
0.0
  0
VERTEX
  5
750
  8
0
  6
CONTINUOUS
 62
     7
 10
230.8639026865
 20
-45.0285203327
 30
0.0
  0
VERTEX
  5
751
  8
0
  6
CONTINUOUS
 62
     7
 10
230.9867374285
 20
-45.4339369703
 30
0.0
  0
VERTEX
  5
752
  8
0
  6
CONTINUOUS
 62
     7
 10
231.1599038228
 20
-45.8028479982
 30
0.0
  0
VERTEX
  5
753
  8
0
  6
CONTINUOUS
 62
     7
 10
231.3734344825
 20
-46.1309082378
 30
0.0
  0
VERTEX
  5
754
  8
0
  6
CONTINUOUS
 62
     7
 10
231.6173828825
 20
-46.4158959259
 30
0.0
  0
VERTEX
  5
755
  8
0
  6
CONTINUOUS
 62
     7
 10
231.882075189
 20
-46.6574951578
 30
0.0
  0
VERTEX
  5
756
  8
0
  6
CONTINUOUS
 62
     7
 10
232.1590639337
 20
-46.8576035965
 30
0.0
  0
VERTEX
  5
757
  8
0
  6
CONTINUOUS
 62
     7
 10
232.4428565487
 20
-47.020430075
 30
0.0
  0
VERTEX
  5
758
  8
0
  6
CONTINUOUS
 62
     7
 10
232.7328018531
 20
-47.151873963
 30
0.0
  0
VERTEX
  5
759
  8
0
  6
CONTINUOUS
 62
     7
 10
233.0360822066
 20
-47.258757757
 30
0.0
  0
VERTEX
  5
75A
  8
0
  6
CONTINUOUS
 62
     7
 10
233.369607447
 20
-47.3470016886
 30
0.0
  0
VERTEX
  5
75B
  8
0
  6
CONTINUOUS
 62
     7
 10
233.7267838105
 20
-47.4147691895
 30
0.0
  0
VERTEX
  5
75C
  8
0
  6
CONTINUOUS
 62
     7
 10
234.1923512205
 20
-47.4722504188
 30
0.0
  0
VERTEX
  5
75D
  8
0
  6
CONTINUOUS
 62
     7
 10
234.8588309869
 20
-47.5129529406
 30
0.0
  0
VERTEX
  5
75E
  8
0
  6
CONTINUOUS
 62
     7
 10
235.4321829661
 20
-47.52186458
 30
0.0
  0
VERTEX
  5
75F
  8
0
  6
CONTINUOUS
 62
     7
 10
236.0128231033
 20
-47.5140079428
 30
0.0
  0
VERTEX
  5
760
  8
0
  6
CONTINUOUS
 62
     7
 10
236.6706289037
 20
-47.4900200535
 30
0.0
  0
VERTEX
  5
761
  8
0
  6
CONTINUOUS
 62
     7
 10
237.3445577606
 20
-47.4527693857
 30
0.0
  0
VERTEX
  5
762
  8
0
  6
CONTINUOUS
 62
     7
 10
238.0479104503
 20
-47.4036424924
 30
0.0
  0
VERTEX
  5
763
  8
0
  6
CONTINUOUS
 62
     7
 10
238.782984732
 20
-47.3437077869
 30
0.0
  0
VERTEX
  5
764
  8
0
  6
CONTINUOUS
 62
     7
 10
239.5482606872
 20
-47.2738444377
 30
0.0
  0
VERTEX
  5
765
  8
0
  6
CONTINUOUS
 62
     7
 10
240.3412915453
 20
-47.1948854197
 30
0.0
  0
VERTEX
  5
766
  8
0
  6
CONTINUOUS
 62
     7
 10
241.1587692484
 20
-47.1076875497
 30
0.0
  0
VERTEX
  5
767
  8
0
  6
CONTINUOUS
 62
     7
 10
241.9968582376
 20
-47.0131322313
 30
0.0
  0
VERTEX
  5
768
  8
0
  6
CONTINUOUS
 62
     7
 10
242.8514338716
 20
-46.9121194948
 30
0.0
  0
VERTEX
  5
769
  8
0
  6
CONTINUOUS
 62
     7
 10
243.7168217882
 20
-46.8057587315
 30
0.0
  0
VERTEX
  5
76A
  8
0
  6
CONTINUOUS
 62
     7
 10
244.588295339
 20
-46.6949998904
 30
0.0
  0
VERTEX
  5
76B
  8
0
  6
CONTINUOUS
 62
     7
 10
245.4678721412
 20
-46.579603808
 30
0.0
  0
VERTEX
  5
76C
  8
0
  6
CONTINUOUS
 62
     7
 10
245.9936834558
 20
-46.5084604491
 30
0.0
  0
SEQEND
  5
B7D
  8
0
  6
CONTINUOUS
 62
     7
  0
POLYLINE
  5
2BA
  8
0
  6
CONTINUOUS
 62
     7
 66
     1
 10
0.0
 20
0.0
 30
0.0
  0
VERTEX
  5
76D
  8
0
  6
CONTINUOUS
 62
     7
 10
310.8497179731
 20
-44.9514030982
 30
0.0
  0
VERTEX
  5
76E
  8
0
  6
CONTINUOUS
 62
     7
 10
310.8922160848
 20
-44.7311043311
 30
0.0
  0
VERTEX
  5
76F
  8
0
  6
CONTINUOUS
 62
     7
 10
310.9062231764
 20
-44.40263878
 30
0.0
  0
SEQEND
  5
B7C
  8
0
  6
CONTINUOUS
 62
     7
  0
POLYLINE
  5
2BB
  8
0
  6
CONTINUOUS
 62
     7
 66
     1
 10
0.0
 20
0.0
 30
0.0
  0
VERTEX
  5
770
  8
0
  6
CONTINUOUS
 62
     7
 10
230.801556228
 20
-44.3954191674
 30
0.0
  0
VERTEX
  5
771
  8
0
  6
CONTINUOUS
 62
     7
 10
230.8011375054
 20
-44.5952675808
 30
0.0
  0
VERTEX
  5
772
  8
0
  6
CONTINUOUS
 62
     7
 10
230.862959443
 20
-45.0220100153
 30
0.0
  0
SEQEND
  5
B7B
  8
0
  6
CONTINUOUS
 62
     7
  0
ARC
  5
2BC
  8
0
  6
CONTINUOUS
 62
     7
 10
270.8521626576
 20
-229.519184445
 30
0.0
 40
184.6914342469481
 50
82.264780544
 51
97.735219456
  0
POLYLINE
  5
2BD
  8
0
  6
CONTINUOUS
 62
     7
 66
     1
 10
0.0
 20
0.0
 30
0.0
  0
VERTEX
  5
773
  8
0
  6
CONTINUOUS
 62
     7
 10
125.2693988069
 20
-33.3035662342
 30
0.0
  0
VERTEX
  5
774
  8
0
  6
CONTINUOUS
 62
     7
 10
124.4732953294
 20
-33.41554101
 30
0.0
  0
VERTEX
  5
775
  8
0
  6
CONTINUOUS
 62
     7
 10
123.566613315
 20
-33.5553377439
 30
0.0
  0
VERTEX
  5
776
  8
0
  6
CONTINUOUS
 62
     7
 10
122.6693667158
 20
-33.7061211039
 30
0.0
  0
VERTEX
  5
777
  8
0
  6
CONTINUOUS
 62
     7
 10
121.7861927732
 20
-33.867236929
 30
0.0
  0
VERTEX
  5
778
  8
0
  6
CONTINUOUS
 62
     7
 10
120.9316767439
 20
-34.0354948808
 30
0.0
  0
VERTEX
  5
779
  8
0
  6
CONTINUOUS
 62
     7
 10
120.0927354082
 20
-34.2127769757
 30
0.0
  0
VERTEX
  5
77A
  8
0
  6
CONTINUOUS
 62
     7
 10
119.270662187
 20
-34.3986242581
 30
0.0
  0
VERTEX
  5
77B
  8
0
  6
CONTINUOUS
 62
     7
 10
118.4715605959
 20
-34.5915793944
 30
0.0
  0
VERTEX
  5
77C
  8
0
  6
CONTINUOUS
 62
     7
 10
117.7012778505
 20
-34.7901850511
 30
0.0
  0
VERTEX
  5
77D
  8
0
  6
CONTINUOUS
 62
     7
 10
116.9650531992
 20
-34.9930971433
 30
0.0
  0
VERTEX
  5
77E
  8
0
  6
CONTINUOUS
 62
     7
 10
116.2671126112
 20
-35.1992889811
 30
0.0
  0
VERTEX
  5
77F
  8
0
  6
CONTINUOUS
 62
     7
 10
115.6129099115
 20
-35.4069307018
 30
0.0
  0
VERTEX
  5
780
  8
0
  6
CONTINUOUS
 62
     7
 10
115.0137282594
 20
-35.6115042735
 30
0.0
  0
VERTEX
  5
781
  8
0
  6
CONTINUOUS
 62
     7
 10
114.4295252546
 20
-35.827444451
 30
0.0
  0
VERTEX
  5
782
  8
0
  6
CONTINUOUS
 62
     7
 10
113.8760901674
 20
-36.0514953304
 30
0.0
  0
VERTEX
  5
783
  8
0
  6
CONTINUOUS
 62
     7
 10
113.3457697614
 20
-36.2906232048
 30
0.0
  0
VERTEX
  5
784
  8
0
  6
CONTINUOUS
 62
     7
 10
112.8198183759
 20
-36.5627303291
 30
0.0
  0
VERTEX
  5
785
  8
0
  6
CONTINUOUS
 62
     7
 10
112.3781121954
 20
-36.8335380722
 30
0.0
  0
VERTEX
  5
786
  8
0
  6
CONTINUOUS
 62
     7
 10
112.0734847769
 20
-37.0555579234
 30
0.0
  0
VERTEX
  5
787
  8
0
  6
CONTINUOUS
 62
     7
 10
111.8139542326
 20
-37.2785895635
 30
0.0
  0
VERTEX
  5
788
  8
0
  6
CONTINUOUS
 62
     7
 10
111.5796424135
 20
-37.5187038947
 30
0.0
  0
VERTEX
  5
789
  8
0
  6
CONTINUOUS
 62
     7
 10
111.3672054991
 20
-37.7834513355
 30
0.0
  0
VERTEX
  5
78A
  8
0
  6
CONTINUOUS
 62
     7
 10
111.1775971636
 20
-38.0794867445
 30
0.0
  0
VERTEX
  5
78B
  8
0
  6
CONTINUOUS
 62
     7
 10
111.0169745668
 20
-38.4090408255
 30
0.0
  0
VERTEX
  5
78C
  8
0
  6
CONTINUOUS
 62
     7
 10
110.8941234335
 20
-38.7691258956
 30
0.0
  0
VERTEX
  5
78D
  8
0
  6
CONTINUOUS
 62
     7
 10
110.8174837812
 20
-39.1525268127
 30
0.0
  0
VERTEX
  5
78E
  8
0
  6
CONTINUOUS
 62
     7
 10
110.7951081976
 20
-39.5184903909
 30
0.0
  0
SEQEND
  5
B7A
  8
0
  6
CONTINUOUS
 62
     7
  0
POLYLINE
  5
2BE
  8
0
  6
CONTINUOUS
 62
     7
 66
     1
 10
0.0
 20
0.0
 30
0.0
  0
VERTEX
  5
78F
  8
0
  6
CONTINUOUS
 62
     7
 10
190.9053377494
 20
-39.5312785674
 30
0.0
  0
VERTEX
  5
790
  8
0
  6
CONTINUOUS
 62
     7
 10
190.9089319094
 20
-39.4580184985
 30
0.0
  0
VERTEX
  5
791
  8
0
  6
CONTINUOUS
 62
     7
 10
190.8717415913
 20
-39.059160607
 30
0.0
  0
VERTEX
  5
792
  8
0
  6
CONTINUOUS
 62
     7
 10
190.7848111972
 20
-38.6847495605
 30
0.0
  0
VERTEX
  5
793
  8
0
  6
CONTINUOUS
 62
     7
 10
190.6567088946
 20
-38.3400246073
 30
0.0
  0
VERTEX
  5
794
  8
0
  6
CONTINUOUS
 62
     7
 10
190.4962859734
 20
-38.0281418134
 30
0.0
  0
VERTEX
  5
795
  8
0
  6
CONTINUOUS
 62
     7
 10
190.3115875705
 20
-37.7493798305
 30
0.0
  0
VERTEX
  5
796
  8
0
  6
CONTINUOUS
 62
     7
 10
190.1080287679
 20
-37.5005289484
 30
0.0
  0
VERTEX
  5
797
  8
0
  6
CONTINUOUS
 62
     7
 10
189.8864410504
 20
-37.2750833202
 30
0.0
  0
VERTEX
  5
798
  8
0
  6
CONTINUOUS
 62
     7
 10
189.6413139685
 20
-37.0638921429
 30
0.0
  0
VERTEX
  5
799
  8
0
  6
CONTINUOUS
 62
     7
 10
189.3550999149
 20
-36.8531927038
 30
0.0
  0
VERTEX
  5
79A
  8
0
  6
CONTINUOUS
 62
     7
 10
188.9821014985
 20
-36.6189494301
 30
0.0
  0
VERTEX
  5
79B
  8
0
  6
CONTINUOUS
 62
     7
 10
188.5022811278
 20
-36.3617017437
 30
0.0
  0
VERTEX
  5
79C
  8
0
  6
CONTINUOUS
 62
     7
 10
187.9709548935
 20
-36.1141070295
 30
0.0
  0
VERTEX
  5
79D
  8
0
  6
CONTINUOUS
 62
     7
 10
187.4338186964
 20
-35.8904629518
 30
0.0
  0
VERTEX
  5
79E
  8
0
  6
CONTINUOUS
 62
     7
 10
186.8156559452
 20
-35.6567292977
 30
0.0
  0
VERTEX
  5
79F
  8
0
  6
CONTINUOUS
 62
     7
 10
186.1774854048
 20
-35.4355722238
 30
0.0
  0
VERTEX
  5
7A0
  8
0
  6
CONTINUOUS
 62
     7
 10
185.5146236404
 20
-35.2231010366
 30
0.0
  0
VERTEX
  5
7A1
  8
0
  6
CONTINUOUS
 62
     7
 10
184.8274863943
 20
-35.0182354022
 30
0.0
  0
VERTEX
  5
7A2
  8
0
  6
CONTINUOUS
 62
     7
 10
184.0943999275
 20
-34.8142116834
 30
0.0
  0
VERTEX
  5
7A3
  8
0
  6
CONTINUOUS
 62
     7
 10
183.3282001003
 20
-34.6148326565
 30
0.0
  0
VERTEX
  5
7A4
  8
0
  6
CONTINUOUS
 62
     7
 10
182.5313575252
 20
-34.4208120872
 30
0.0
  0
VERTEX
  5
7A5
  8
0
  6
CONTINUOUS
 62
     7
 10
181.7070431694
 20
-34.2331006695
 30
0.0
  0
VERTEX
  5
7A6
  8
0
  6
CONTINUOUS
 62
     7
 10
180.8589256986
 20
-34.052783208
 30
0.0
  0
VERTEX
  5
7A7
  8
0
  6
CONTINUOUS
 62
     7
 10
179.9909419998
 20
-33.8809832502
 30
0.0
  0
VERTEX
  5
7A8
  8
0
  6
CONTINUOUS
 62
     7
 10
179.107264398
 20
-33.718827324
 30
0.0
  0
VERTEX
  5
7A9
  8
0
  6
CONTINUOUS
 62
     7
 10
178.2174653991
 20
-33.5681482721
 30
0.0
  0
VERTEX
  5
7AA
  8
0
  6
CONTINUOUS
 62
     7
 10
177.3159213051
 20
-33.4278896023
 30
0.0
  0
VERTEX
  5
7AB
  8
0
  6
CONTINUOUS
 62
     7
 10
176.4350093588
 20
-33.302755611
 30
0.0
  0
SEQEND
  5
B79
  8
0
  6
CONTINUOUS
 62
     7
  0
ARC
  5
2BF
  8
0
  6
CONTINUOUS
 62
     7
 10
150.7297234454
 20
-220.3951260817
 30
0.0
 40
188.8174624601715
 50
90.2489010012
 51
97.7494224801
  0
ARC
  5
2C0
  8
0
  6
CONTINUOUS
 62
     7
 10
151.0590029634
 20
-219.4866041456
 30
0.0
 40
187.905861039796
 50
82.2387238277
 51
89.7798292253
  0
POLYLINE
  5
2C1
  8
0
  6
CONTINUOUS
 62
     7
 66
     1
 10
0.0
 20
0.0
 30
0.0
  0
VERTEX
  5
7AC
  8
0
  6
CONTINUOUS
 62
     7
 10
115.3882123216
 20
-41.2925660182
 30
0.0
  0
VERTEX
  5
7AD
  8
0
  6
CONTINUOUS
 62
     7
 10
115.3867400869
 20
-41.2936955262
 30
0.0
  0
VERTEX
  5
7AE
  8
0
  6
CONTINUOUS
 62
     7
 10
115.4271520361
 20
-41.269092219
 30
0.0
  0
VERTEX
  5
7AF
  8
0
  6
CONTINUOUS
 62
     7
 10
115.5185915216
 20
-41.2186175157
 30
0.0
  0
VERTEX
  5
7B0
  8
0
  6
CONTINUOUS
 62
     7
 10
115.6678117498
 20
-41.1437212993
 30
0.0
  0
VERTEX
  5
7B1
  8
0
  6
CONTINUOUS
 62
     7
 10
115.8798671945
 20
-41.0464182068
 30
0.0
  0
VERTEX
  5
7B2
  8
0
  6
CONTINUOUS
 62
     7
 10
116.157404302
 20
-40.9293531943
 30
0.0
  0
VERTEX
  5
7B3
  8
0
  6
CONTINUOUS
 62
     7
 10
116.5005780443
 20
-40.7956227232
 30
0.0
  0
VERTEX
  5
7B4
  8
0
  6
CONTINUOUS
 62
     7
 10
116.9074393495
 20
-40.6484931279
 30
0.0
  0
VERTEX
  5
7B5
  8
0
  6
CONTINUOUS
 62
     7
 10
117.3745311483
 20
-40.491178589
 30
0.0
  0
VERTEX
  5
7B6
  8
0
  6
CONTINUOUS
 62
     7
 10
117.8971625551
 20
-40.3267785479
 30
0.0
  0
VERTEX
  5
7B7
  8
0
  6
CONTINUOUS
 62
     7
 10
118.4724487051
 20
-40.1577293445
 30
0.0
  0
VERTEX
  5
7B8
  8
0
  6
CONTINUOUS
 62
     7
 10
119.0813637956
 20
-39.9901642967
 30
0.0
  0
VERTEX
  5
7B9
  8
0
  6
CONTINUOUS
 62
     7
 10
119.7420037969
 20
-39.8195415307
 30
0.0
  0
VERTEX
  5
7BA
  8
0
  6
CONTINUOUS
 62
     7
 10
120.447478412
 20
-39.6485879589
 30
0.0
  0
VERTEX
  5
7BB
  8
0
  6
CONTINUOUS
 62
     7
 10
121.1904503092
 20
-39.4798889328
 30
0.0
  0
VERTEX
  5
7BC
  8
0
  6
CONTINUOUS
 62
     7
 10
121.9629086241
 20
-39.3159523178
 30
0.0
  0
VERTEX
  5
7BD
  8
0
  6
CONTINUOUS
 62
     7
 10
122.7550185903
 20
-39.159409659
 30
0.0
  0
VERTEX
  5
7BE
  8
0
  6
CONTINUOUS
 62
     7
 10
123.5582686647
 20
-39.0123426486
 30
0.0
  0
VERTEX
  5
7BF
  8
0
  6
CONTINUOUS
 62
     7
 10
124.3689156755
 20
-38.8754739929
 30
0.0
  0
VERTEX
  5
7C0
  8
0
  6
CONTINUOUS
 62
     7
 10
125.1979924425
 20
-38.7468784619
 30
0.0
  0
VERTEX
  5
7C1
  8
0
  6
CONTINUOUS
 62
     7
 10
125.9938515409
 20
-38.6341660787
 30
0.0
  0
SEQEND
  5
B78
  8
0
  6
CONTINUOUS
 62
     7
  0
POLYLINE
  5
2C2
  8
0
  6
CONTINUOUS
 62
     7
 66
     1
 10
0.0
 20
0.0
 30
0.0
  0
VERTEX
  5
7C2
  8
0
  6
CONTINUOUS
 62
     7
 10
175.710520862
 20
-38.6345400978
 30
0.0
  0
VERTEX
  5
7C3
  8
0
  6
CONTINUOUS
 62
     7
 10
176.3704813703
 20
-38.7266352345
 30
0.0
  0
VERTEX
  5
7C4
  8
0
  6
CONTINUOUS
 62
     7
 10
177.2079117283
 20
-38.8548552562
 30
0.0
  0
VERTEX
  5
7C5
  8
0
  6
CONTINUOUS
 62
     7
 10
178.0370898231
 20
-38.9932795931
 30
0.0
  0
VERTEX
  5
7C6
  8
0
  6
CONTINUOUS
 62
     7
 10
178.8515455707
 20
-39.1408055593
 30
0.0
  0
VERTEX
  5
7C7
  8
0
  6
CONTINUOUS
 62
     7
 10
179.6403623804
 20
-39.2950027753
 30
0.0
  0
VERTEX
  5
7C8
  8
0
  6
CONTINUOUS
 62
     7
 10
180.408505319
 20
-39.4562631417
 30
0.0
  0
VERTEX
  5
7C9
  8
0
  6
CONTINUOUS
 62
     7
 10
181.1521477684
 20
-39.6234079767
 30
0.0
  0
VERTEX
  5
7CA
  8
0
  6
CONTINUOUS
 62
     7
 10
181.8652815803
 20
-39.7946804334
 30
0.0
  0
VERTEX
  5
7CB
  8
0
  6
CONTINUOUS
 62
     7
 10
182.5418866857
 20
-39.9681493212
 30
0.0
  0
VERTEX
  5
7CC
  8
0
  6
CONTINUOUS
 62
     7
 10
183.1761784538
 20
-40.1417478491
 30
0.0
  0
VERTEX
  5
7CD
  8
0
  6
CONTINUOUS
 62
     7
 10
183.7625361665
 20
-40.3132348825
 30
0.0
  0
VERTEX
  5
7CE
  8
0
  6
CONTINUOUS
 62
     7
 10
184.2959291919
 20
-40.4802664686
 30
0.0
  0
VERTEX
  5
7CF
  8
0
  6
CONTINUOUS
 62
     7
 10
184.7752548441
 20
-40.641307788
 30
0.0
  0
VERTEX
  5
7D0
  8
0
  6
CONTINUOUS
 62
     7
 10
185.2014220937
 20
-40.7954111267
 30
0.0
  0
VERTEX
  5
7D1
  8
0
  6
CONTINUOUS
 62
     7
 10
185.5672008976
 20
-40.9384965468
 30
0.0
  0
VERTEX
  5
7D2
  8
0
  6
CONTINUOUS
 62
     7
 10
185.8658097371
 20
-41.0657286216
 30
0.0
  0
VERTEX
  5
7D3
  8
0
  6
CONTINUOUS
 62
     7
 10
186.0700212105
 20
-41.160836773
 30
0.0
  0
VERTEX
  5
7D4
  8
0
  6
CONTINUOUS
 62
     7
 10
186.2113944873
 20
-41.2329494525
 30
0.0
  0
VERTEX
  5
7D5
  8
0
  6
CONTINUOUS
 62
     7
 10
186.2935833319
 20
-41.2791475225
 30
0.0
  0
VERTEX
  5
7D6
  8
0
  6
CONTINUOUS
 62
     7
 10
186.3230012044
 20
-41.2973820735
 30
0.0
  0
VERTEX
  5
7D7
  8
0
  6
CONTINUOUS
 62
     7
 10
186.3208032831
 20
-41.2957801987
 30
0.0
  0
SEQEND
  5
B77
  8
0
  6
CONTINUOUS
 62
     7
  0
LINE
  5
2C3
  8
0
  6
CONTINUOUS
 62
     7
 10
149.852160333
 20
-31.2372847963
 30
0.0
 11
149.852160333
 21
-31.5952568818
 31
0.0
  0
LINE
  5
2C4
  8
0
  6
CONTINUOUS
 62
     7
 10
151.8521643862
 20
-31.5952568818
 30
0.0
 11
151.8521643862
 21
-31.2372847963
 31
0.0
  0
ARC
  5
2C5
  8
0
  6
CONTINUOUS
 62
     7
 10
150.8521608695
 20
-221.6440524138
 30
0.0
 40
184.6914990019515
 50
82.2647832727
 51
97.7352167273
  0
LINE
  5
2C6
  8
0
  6
CONTINUOUS
 62
     7
 10
110.7934035047
 20
-39.5270108748
 30
0.0
 11
110.7934035047
 21
-44.4017849434
 31
0.0
  0
LINE
  5
2C7
  8
0
  6
CONTINUOUS
 62
     7
 10
190.9109182342
 20
-44.4017849434
 30
0.0
 11
190.9109182342
 21
-39.5270108748
 31
0.0
  0
POLYLINE
  5
2C8
  8
0
  6
CONTINUOUS
 62
     7
 66
     1
 10
0.0
 20
0.0
 30
0.0
  0
VERTEX
  5
7D8
  8
0
  6
CONTINUOUS
 62
     7
 10
175.7106996759
 20
-46.5086064805
 30
0.0
  0
VERTEX
  5
7D9
  8
0
  6
CONTINUOUS
 62
     7
 10
176.4873481973
 20
-46.6128117908
 30
0.0
  0
VERTEX
  5
7DA
  8
0
  6
CONTINUOUS
 62
     7
 10
177.3697770818
 20
-46.7275842596
 30
0.0
  0
VERTEX
  5
7DB
  8
0
  6
CONTINUOUS
 62
     7
 10
178.2417095884
 20
-46.837384956
 30
0.0
  0
VERTEX
  5
7DC
  8
0
  6
CONTINUOUS
 62
     7
 10
179.0992028698
 20
-46.9416416753
 30
0.0
  0
VERTEX
  5
7DD
  8
0
  6
CONTINUOUS
 62
     7
 10
179.9350835069
 20
-47.0391615797
 30
0.0
  0
VERTEX
  5
7DE
  8
0
  6
CONTINUOUS
 62
     7
 10
180.7565219387
 20
-47.1304773856
 30
0.0
  0
VERTEX
  5
7DF
  8
0
  6
CONTINUOUS
 62
     7
 10
181.5627075418
 20
-47.2150429655
 30
0.0
  0
VERTEX
  5
7E0
  8
0
  6
CONTINUOUS
 62
     7
 10
182.3472268566
 20
-47.2916476
 30
0.0
  0
VERTEX
  5
7E1
  8
0
  6
CONTINUOUS
 62
     7
 10
183.1040121301
 20
-47.359120803
 30
0.0
  0
VERTEX
  5
7E2
  8
0
  6
CONTINUOUS
 62
     7
 10
183.8277347072
 20
-47.4163509477
 30
0.0
  0
VERTEX
  5
7E3
  8
0
  6
CONTINUOUS
 62
     7
 10
184.5143206104
 20
-47.4622778166
 30
0.0
  0
VERTEX
  5
7E4
  8
0
  6
CONTINUOUS
 62
     7
 10
185.1625092014
 20
-47.4959127177
 30
0.0
  0
VERTEX
  5
7E5
  8
0
  6
CONTINUOUS
 62
     7
 10
185.7805497631
 20
-47.5165426303
 30
0.0
  0
VERTEX
  5
7E6
  8
0
  6
CONTINUOUS
 62
     7
 10
186.3735384926
 20
-47.5223861207
 30
0.0
  0
VERTEX
  5
7E7
  8
0
  6
CONTINUOUS
 62
     7
 10
186.9500048145
 20
-47.5099764336
 30
0.0
  0
VERTEX
  5
7E8
  8
0
  6
CONTINUOUS
 62
     7
 10
187.5319502934
 20
-47.471188711
 30
0.0
  0
VERTEX
  5
7E9
  8
0
  6
CONTINUOUS
 62
     7
 10
188.0946911558
 20
-47.3955921401
 30
0.0
  0
VERTEX
  5
7EA
  8
0
  6
CONTINUOUS
 62
     7
 10
188.4606219515
 20
-47.3170026709
 30
0.0
  0
VERTEX
  5
7EB
  8
0
  6
CONTINUOUS
 62
     7
 10
188.7982703432
 20
-47.2163758744
 30
0.0
  0
VERTEX
  5
7EC
  8
0
  6
CONTINUOUS
 62
     7
 10
189.1111679062
 20
-47.0925725568
 30
0.0
  0
VERTEX
  5
7ED
  8
0
  6
CONTINUOUS
 62
     7
 10
189.412925361
 20
-46.9384483565
 30
0.0
  0
VERTEX
  5
7EE
  8
0
  6
CONTINUOUS
 62
     7
 10
189.7058836802
 20
-46.7476889063
 30
0.0
  0
VERTEX
  5
7EF
  8
0
  6
CONTINUOUS
 62
     7
 10
189.9863995298
 20
-46.5153440405
 30
0.0
  0
VERTEX
  5
7F0
  8
0
  6
CONTINUOUS
 62
     7
 10
190.2458943113
 20
-46.2399713267
 30
0.0
  0
VERTEX
  5
7F1
  8
0
  6
CONTINUOUS
 62
     7
 10
190.4738671764
 20
-45.9242000748
 30
0.0
  0
VERTEX
  5
7F2
  8
0
  6
CONTINUOUS
 62
     7
 10
190.6606308802
 20
-45.5738938917
 30
0.0
  0
VERTEX
  5
7F3
  8
0
  6
CONTINUOUS
 62
     7
 10
190.8104039415
 20
-45.155195849
 30
0.0
  0
VERTEX
  5
7F4
  8
0
  6
CONTINUOUS
 62
     7
 10
190.8362246736
 20
-45.0213364829
 30
0.0
  0
SEQEND
  5
B76
  8
0
  6
CONTINUOUS
 62
     7
  0
POLYLINE
  5
2C9
  8
0
  6
CONTINUOUS
 62
     7
 66
     1
 10
0.0
 20
0.0
 30
0.0
  0
VERTEX
  5
7F5
  8
0
  6
CONTINUOUS
 62
     7
 10
110.8629621252
 20
-45.0220100153
 30
0.0
  0
VERTEX
  5
7F6
  8
0
  6
CONTINUOUS
 62
     7
 10
110.8639038786
 20
-45.0285203327
 30
0.0
  0
VERTEX
  5
7F7
  8
0
  6
CONTINUOUS
 62
     7
 10
110.9867371305
 20
-45.4339369703
 30
0.0
  0
VERTEX
  5
7F8
  8
0
  6
CONTINUOUS
 62
     7
 10
111.1599005445
 20
-45.8028479982
 30
0.0
  0
VERTEX
  5
7F9
  8
0
  6
CONTINUOUS
 62
     7
 10
111.3734341844
 20
-46.1309082378
 30
0.0
  0
VERTEX
  5
7FA
  8
0
  6
CONTINUOUS
 62
     7
 10
111.6173840746
 20
-46.4158959259
 30
0.0
  0
VERTEX
  5
7FB
  8
0
  6
CONTINUOUS
 62
     7
 10
111.8820763811
 20
-46.6574951578
 30
0.0
  0
VERTEX
  5
7FC
  8
0
  6
CONTINUOUS
 62
     7
 10
112.1590651258
 20
-46.8576035965
 30
0.0
  0
VERTEX
  5
7FD
  8
0
  6
CONTINUOUS
 62
     7
 10
112.4428547605
 20
-47.020430075
 30
0.0
  0
VERTEX
  5
7FE
  8
0
  6
CONTINUOUS
 62
     7
 10
112.732801555
 20
-47.151873963
 30
0.0
  0
VERTEX
  5
7FF
  8
0
  6
CONTINUOUS
 62
     7
 10
113.0360819086
 20
-47.258757757
 30
0.0
  0
VERTEX
  5
800
  8
0
  6
CONTINUOUS
 62
     7
 10
113.3696056589
 20
-47.3470016886
 30
0.0
  0
VERTEX
  5
801
  8
0
  6
CONTINUOUS
 62
     7
 10
113.7267805322
 20
-47.4147691895
 30
0.0
  0
VERTEX
  5
802
  8
0
  6
CONTINUOUS
 62
     7
 10
114.1923524126
 20
-47.4722504188
 30
0.0
  0
VERTEX
  5
803
  8
0
  6
CONTINUOUS
 62
     7
 10
114.8588277086
 20
-47.5129529406
 30
0.0
  0
VERTEX
  5
804
  8
0
  6
CONTINUOUS
 62
     7
 10
115.4321826681
 20
-47.52186458
 30
0.0
  0
VERTEX
  5
805
  8
0
  6
CONTINUOUS
 62
     7
 10
116.0128213152
 20
-47.5140079428
 30
0.0
  0
VERTEX
  5
806
  8
0
  6
CONTINUOUS
 62
     7
 10
116.6706300958
 20
-47.4900200535
 30
0.0
  0
VERTEX
  5
807
  8
0
  6
CONTINUOUS
 62
     7
 10
117.3445559725
 20
-47.4527693857
 30
0.0
  0
VERTEX
  5
808
  8
0
  6
CONTINUOUS
 62
     7
 10
118.0479086622
 20
-47.4036424924
 30
0.0
  0
VERTEX
  5
809
  8
0
  6
CONTINUOUS
 62
     7
 10
118.7829889044
 20
-47.3437077869
 30
0.0
  0
VERTEX
  5
80A
  8
0
  6
CONTINUOUS
 62
     7
 10
119.5482588991
 20
-47.2738444377
 30
0.0
  0
VERTEX
  5
80B
  8
0
  6
CONTINUOUS
 62
     7
 10
120.3412927374
 20
-47.1948854197
 30
0.0
  0
VERTEX
  5
80C
  8
0
  6
CONTINUOUS
 62
     7
 10
121.1587704405
 20
-47.1076875497
 30
0.0
  0
VERTEX
  5
80D
  8
0
  6
CONTINUOUS
 62
     7
 10
121.9968594297
 20
-47.0131322313
 30
0.0
  0
VERTEX
  5
80E
  8
0
  6
CONTINUOUS
 62
     7
 10
122.8514350637
 20
-46.9121194948
 30
0.0
  0
VERTEX
  5
80F
  8
0
  6
CONTINUOUS
 62
     7
 10
123.7168229803
 20
-46.8057587315
 30
0.0
  0
VERTEX
  5
810
  8
0
  6
CONTINUOUS
 62
     7
 10
124.5882965311
 20
-46.6949998904
 30
0.0
  0
VERTEX
  5
811
  8
0
  6
CONTINUOUS
 62
     7
 10
125.4678703531
 20
-46.579603808
 30
0.0
  0
VERTEX
  5
812
  8
0
  6
CONTINUOUS
 62
     7
 10
125.9936846479
 20
-46.5084604491
 30
0.0
  0
SEQEND
  5
B75
  8
0
  6
CONTINUOUS
 62
     7
  0
POLYLINE
  5
2CA
  8
0
  6
CONTINUOUS
 62
     7
 66
     1
 10
0.0
 20
0.0
 30
0.0
  0
VERTEX
  5
813
  8
0
  6
CONTINUOUS
 62
     7
 10
190.849716185
 20
-44.9514030982
 30
0.0
  0
VERTEX
  5
814
  8
0
  6
CONTINUOUS
 62
     7
 10
190.8922113165
 20
-44.7311043311
 30
0.0
  0
VERTEX
  5
815
  8
0
  6
CONTINUOUS
 62
     7
 10
190.9062273487
 20
-44.40263878
 30
0.0
  0
SEQEND
  5
B74
  8
0
  6
CONTINUOUS
 62
     7
  0
POLYLINE
  5
2CB
  8
0
  6
CONTINUOUS
 62
     7
 66
     1
 10
0.0
 20
0.0
 30
0.0
  0
VERTEX
  5
816
  8
0
  6
CONTINUOUS
 62
     7
 10
110.8015574201
 20
-44.3954191674
 30
0.0
  0
VERTEX
  5
817
  8
0
  6
CONTINUOUS
 62
     7
 10
110.8011401876
 20
-44.5952675808
 30
0.0
  0
VERTEX
  5
818
  8
0
  6
CONTINUOUS
 62
     7
 10
110.8629621252
 20
-45.0220100153
 30
0.0
  0
SEQEND
  5
B73
  8
0
  6
CONTINUOUS
 62
     7
  0
ARC
  5
2CC
  8
0
  6
CONTINUOUS
 62
     7
 10
150.8521608695
 20
-229.5191819839
 30
0.0
 40
184.6914318082511
 50
82.2647804412
 51
97.7352195588
  0
POLYLINE
  5
2CD
  8
0
  6
CONTINUOUS
 62
     7
 66
     1
 10
0.0
 20
0.0
 30
0.0
  0
VERTEX
  5
819
  8
0
  6
CONTINUOUS
 62
     7
 10
365.2694023832
 20
-33.3035662342
 30
0.0
  0
VERTEX
  5
81A
  8
0
  6
CONTINUOUS
 62
     7
 10
364.4732989057
 20
-33.41554101
 30
0.0
  0
VERTEX
  5
81B
  8
0
  6
CONTINUOUS
 62
     7
 10
363.5666049703
 20
-33.5553377439
 30
0.0
  0
VERTEX
  5
81C
  8
0
  6
CONTINUOUS
 62
     7
 10
362.6693643316
 20
-33.7061211039
 30
0.0
  0
VERTEX
  5
81D
  8
0
  6
CONTINUOUS
 62
     7
 10
361.786190389
 20
-33.867236929
 30
0.0
  0
VERTEX
  5
81E
  8
0
  6
CONTINUOUS
 62
     7
 10
360.9316743597
 20
-34.0354948808
 30
0.0
  0
VERTEX
  5
81F
  8
0
  6
CONTINUOUS
 62
     7
 10
360.0927389845
 20
-34.2127769757
 30
0.0
  0
VERTEX
  5
820
  8
0
  6
CONTINUOUS
 62
     7
 10
359.2706598028
 20
-34.3986242581
 30
0.0
  0
VERTEX
  5
821
  8
0
  6
CONTINUOUS
 62
     7
 10
358.4715641721
 20
-34.5915793944
 30
0.0
  0
VERTEX
  5
822
  8
0
  6
CONTINUOUS
 62
     7
 10
357.7012814268
 20
-34.7901850511
 30
0.0
  0
VERTEX
  5
823
  8
0
  6
CONTINUOUS
 62
     7
 10
356.9650567754
 20
-34.9930971433
 30
0.0
  0
VERTEX
  5
824
  8
0
  6
CONTINUOUS
 62
     7
 10
356.267110227
 20
-35.1992889811
 30
0.0
  0
VERTEX
  5
825
  8
0
  6
CONTINUOUS
 62
     7
 10
355.6129134878
 20
-35.4069307018
 30
0.0
  0
VERTEX
  5
826
  8
0
  6
CONTINUOUS
 62
     7
 10
355.0137318357
 20
-35.6115042735
 30
0.0
  0
VERTEX
  5
827
  8
0
  6
CONTINUOUS
 62
     7
 10
354.4295228704
 20
-35.827444451
 30
0.0
  0
VERTEX
  5
828
  8
0
  6
CONTINUOUS
 62
     7
 10
353.8760937437
 20
-36.0514953304
 30
0.0
  0
VERTEX
  5
829
  8
0
  6
CONTINUOUS
 62
     7
 10
353.3457673773
 20
-36.2906232048
 30
0.0
  0
VERTEX
  5
82A
  8
0
  6
CONTINUOUS
 62
     7
 10
352.8198159918
 20
-36.5627303291
 30
0.0
  0
VERTEX
  5
82B
  8
0
  6
CONTINUOUS
 62
     7
 10
352.3781098112
 20
-36.8335380722
 30
0.0
  0
VERTEX
  5
82C
  8
0
  6
CONTINUOUS
 62
     7
 10
352.0734823927
 20
-37.0555579234
 30
0.0
  0
VERTEX
  5
82D
  8
0
  6
CONTINUOUS
 62
     7
 10
351.8139518484
 20
-37.2785895635
 30
0.0
  0
VERTEX
  5
82E
  8
0
  6
CONTINUOUS
 62
     7
 10
351.5796459898
 20
-37.5187038947
 30
0.0
  0
VERTEX
  5
82F
  8
0
  6
CONTINUOUS
 62
     7
 10
351.3672031149
 20
-37.7834513355
 30
0.0
  0
VERTEX
  5
830
  8
0
  6
CONTINUOUS
 62
     7
 10
351.1776007398
 20
-38.0794867445
 30
0.0
  0
VERTEX
  5
831
  8
0
  6
CONTINUOUS
 62
     7
 10
351.0169781431
 20
-38.4090408255
 30
0.0
  0
VERTEX
  5
832
  8
0
  6
CONTINUOUS
 62
     7
 10
350.8941210493
 20
-38.7691258956
 30
0.0
  0
VERTEX
  5
833
  8
0
  6
CONTINUOUS
 62
     7
 10
350.817481397
 20
-39.1525268127
 30
0.0
  0
VERTEX
  5
834
  8
0
  6
CONTINUOUS
 62
     7
 10
350.7951058134
 20
-39.5184903909
 30
0.0
  0
SEQEND
  5
B72
  8
0
  6
CONTINUOUS
 62
     7
  0
POLYLINE
  5
2CE
  8
0
  6
CONTINUOUS
 62
     7
 66
     1
 10
0.0
 20
0.0
 30
0.0
  0
VERTEX
  5
835
  8
0
  6
CONTINUOUS
 62
     7
 10
430.9053338751
 20
-39.5312785674
 30
0.0
  0
VERTEX
  5
836
  8
0
  6
CONTINUOUS
 62
     7
 10
430.9089339956
 20
-39.4580184985
 30
0.0
  0
VERTEX
  5
837
  8
0
  6
CONTINUOUS
 62
     7
 10
430.8717406973
 20
-39.059160607
 30
0.0
  0
VERTEX
  5
838
  8
0
  6
CONTINUOUS
 62
     7
 10
430.7848132833
 20
-38.6847495605
 30
0.0
  0
VERTEX
  5
839
  8
0
  6
CONTINUOUS
 62
     7
 10
430.6567109808
 20
-38.3400246073
 30
0.0
  0
VERTEX
  5
83A
  8
0
  6
CONTINUOUS
 62
     7
 10
430.4962791189
 20
-38.0281418134
 30
0.0
  0
VERTEX
  5
83B
  8
0
  6
CONTINUOUS
 62
     7
 10
430.3116000875
 20
-37.7493798305
 30
0.0
  0
VERTEX
  5
83C
  8
0
  6
CONTINUOUS
 62
     7
 10
430.1080383047
 20
-37.5005289484
 30
0.0
  0
VERTEX
  5
83D
  8
0
  6
CONTINUOUS
 62
     7
 10
429.8864520773
 20
-37.2750833202
 30
0.0
  0
VERTEX
  5
83E
  8
0
  6
CONTINUOUS
 62
     7
 10
429.6413100942
 20
-37.0638921429
 30
0.0
  0
VERTEX
  5
83F
  8
0
  6
CONTINUOUS
 62
     7
 10
429.35508859
 20
-36.8531927038
 30
0.0
  0
VERTEX
  5
840
  8
0
  6
CONTINUOUS
 62
     7
 10
428.9821065649
 20
-36.6189494301
 30
0.0
  0
VERTEX
  5
841
  8
0
  6
CONTINUOUS
 62
     7
 10
428.5022891744
 20
-36.3617017437
 30
0.0
  0
VERTEX
  5
842
  8
0
  6
CONTINUOUS
 62
     7
 10
427.970949529
 20
-36.1141070295
 30
0.0
  0
VERTEX
  5
843
  8
0
  6
CONTINUOUS
 62
     7
 10
427.4338163122
 20
-35.8904629518
 30
0.0
  0
VERTEX
  5
844
  8
0
  6
CONTINUOUS
 62
     7
 10
426.8156446203
 20
-35.6567292977
 30
0.0
  0
VERTEX
  5
845
  8
0
  6
CONTINUOUS
 62
     7
 10
426.1774934515
 20
-35.4355722238
 30
0.0
  0
VERTEX
  5
846
  8
0
  6
CONTINUOUS
 62
     7
 10
425.514618276
 20
-35.2231010366
 30
0.0
  0
VERTEX
  5
847
  8
0
  6
CONTINUOUS
 62
     7
 10
424.827495931
 20
-35.0182354022
 30
0.0
  0
VERTEX
  5
848
  8
0
  6
CONTINUOUS
 62
     7
 10
424.094406484
 20
-34.8142116834
 30
0.0
  0
VERTEX
  5
849
  8
0
  6
CONTINUOUS
 62
     7
 10
423.3282006963
 20
-34.6148326565
 30
0.0
  0
VERTEX
  5
84A
  8
0
  6
CONTINUOUS
 62
     7
 10
422.5313581213
 20
-34.4208120872
 30
0.0
  0
VERTEX
  5
84B
  8
0
  6
CONTINUOUS
 62
     7
 10
421.7070497259
 20
-34.2331006695
 30
0.0
  0
VERTEX
  5
84C
  8
0
  6
CONTINUOUS
 62
     7
 10
420.8589233145
 20
-34.052783208
 30
0.0
  0
VERTEX
  5
84D
  8
0
  6
CONTINUOUS
 62
     7
 10
419.9909366354
 20
-33.8809832502
 30
0.0
  0
VERTEX
  5
84E
  8
0
  6
CONTINUOUS
 62
     7
 10
419.1072620138
 20
-33.718827324
 30
0.0
  0
VERTEX
  5
84F
  8
0
  6
CONTINUOUS
 62
     7
 10
418.2174600347
 20
-33.5681482721
 30
0.0
  0
VERTEX
  5
850
  8
0
  6
CONTINUOUS
 62
     7
 10
417.3159278616
 20
-33.4278896023
 30
0.0
  0
VERTEX
  5
851
  8
0
  6
CONTINUOUS
 62
     7
 10
416.4350188955
 20
-33.302755611
 30
0.0
  0
SEQEND
  5
B71
  8
0
  6
CONTINUOUS
 62
     7
  0
ARC
  5
2CF
  8
0
  6
CONTINUOUS
 62
     7
 10
390.7297109983
 20
-220.3948940506
 30
0.0
 40
188.8172303875901
 50
90.2488982536
 51
97.7494271563
  0
ARC
  5
2D0
  8
0
  6
CONTINUOUS
 62
     7
 10
391.0590221842
 20
-219.4862919565
 30
0.0
 40
187.9055487928446
 50
82.2387174998
 51
89.7798336298
  0
POLYLINE
  5
2D1
  8
0
  6
CONTINUOUS
 62
     7
 66
     1
 10
0.0
 20
0.0
 30
0.0
  0
VERTEX
  5
852
  8
0
  6
CONTINUOUS
 62
     7
 10
355.3882158979
 20
-41.2925660182
 30
0.0
  0
VERTEX
  5
853
  8
0
  6
CONTINUOUS
 62
     7
 10
355.3867377027
 20
-41.2936955262
 30
0.0
  0
VERTEX
  5
854
  8
0
  6
CONTINUOUS
 62
     7
 10
355.4271496519
 20
-41.269092219
 30
0.0
  0
VERTEX
  5
855
  8
0
  6
CONTINUOUS
 62
     7
 10
355.5185950979
 20
-41.2186175157
 30
0.0
  0
VERTEX
  5
856
  8
0
  6
CONTINUOUS
 62
     7
 10
355.6678093656
 20
-41.1437212993
 30
0.0
  0
VERTEX
  5
857
  8
0
  6
CONTINUOUS
 62
     7
 10
355.8798707708
 20
-41.0464182068
 30
0.0
  0
VERTEX
  5
858
  8
0
  6
CONTINUOUS
 62
     7
 10
356.1574019178
 20
-40.9293531943
 30
0.0
  0
VERTEX
  5
859
  8
0
  6
CONTINUOUS
 62
     7
 10
356.5005816206
 20
-40.7956227232
 30
0.0
  0
VERTEX
  5
85A
  8
0
  6
CONTINUOUS
 62
     7
 10
356.9074429258
 20
-40.6484931279
 30
0.0
  0
VERTEX
  5
85B
  8
0
  6
CONTINUOUS
 62
     7
 10
357.3745287641
 20
-40.491178589
 30
0.0
  0
VERTEX
  5
85C
  8
0
  6
CONTINUOUS
 62
     7
 10
357.8971661314
 20
-40.3267785479
 30
0.0
  0
VERTEX
  5
85D
  8
0
  6
CONTINUOUS
 62
     7
 10
358.4724463209
 20
-40.1577293445
 30
0.0
  0
VERTEX
  5
85E
  8
0
  6
CONTINUOUS
 62
     7
 10
359.0813673719
 20
-39.9901642967
 30
0.0
  0
VERTEX
  5
85F
  8
0
  6
CONTINUOUS
 62
     7
 10
359.7420014127
 20
-39.8195415307
 30
0.0
  0
VERTEX
  5
860
  8
0
  6
CONTINUOUS
 62
     7
 10
360.4474819883
 20
-39.6485879589
 30
0.0
  0
VERTEX
  5
861
  8
0
  6
CONTINUOUS
 62
     7
 10
361.1904538854
 20
-39.4798889328
 30
0.0
  0
VERTEX
  5
862
  8
0
  6
CONTINUOUS
 62
     7
 10
361.9629062399
 20
-39.3159523178
 30
0.0
  0
VERTEX
  5
863
  8
0
  6
CONTINUOUS
 62
     7
 10
362.7550162061
 20
-39.159409659
 30
0.0
  0
VERTEX
  5
864
  8
0
  6
CONTINUOUS
 62
     7
 10
363.558272241
 20
-39.0123426486
 30
0.0
  0
VERTEX
  5
865
  8
0
  6
CONTINUOUS
 62
     7
 10
364.3689192518
 20
-38.8754739929
 30
0.0
  0
VERTEX
  5
866
  8
0
  6
CONTINUOUS
 62
     7
 10
365.1979960188
 20
-38.7468784619
 30
0.0
  0
VERTEX
  5
867
  8
0
  6
CONTINUOUS
 62
     7
 10
365.9938491567
 20
-38.6341660787
 30
0.0
  0
SEQEND
  5
B70
  8
0
  6
CONTINUOUS
 62
     7
  0
POLYLINE
  5
2D2
  8
0
  6
CONTINUOUS
 62
     7
 66
     1
 10
0.0
 20
0.0
 30
0.0
  0
VERTEX
  5
868
  8
0
  6
CONTINUOUS
 62
     7
 10
415.7105125173
 20
-38.6345400978
 30
0.0
  0
VERTEX
  5
869
  8
0
  6
CONTINUOUS
 62
     7
 10
416.3704789861
 20
-38.7266352345
 30
0.0
  0
VERTEX
  5
86A
  8
0
  6
CONTINUOUS
 62
     7
 10
417.2079004034
 20
-38.8548552562
 30
0.0
  0
VERTEX
  5
86B
  8
0
  6
CONTINUOUS
 62
     7
 10
418.0370963796
 20
-38.9932795931
 30
0.0
  0
VERTEX
  5
86C
  8
0
  6
CONTINUOUS
 62
     7
 10
418.8515342458
 20
-39.1408055593
 30
0.0
  0
VERTEX
  5
86D
  8
0
  6
CONTINUOUS
 62
     7
 10
419.6403659567
 20
-39.2950027753
 30
0.0
  0
VERTEX
  5
86E
  8
0
  6
CONTINUOUS
 62
     7
 10
420.4085029348
 20
-39.4562631417
 30
0.0
  0
VERTEX
  5
86F
  8
0
  6
CONTINUOUS
 62
     7
 10
421.1521543249
 20
-39.6234079767
 30
0.0
  0
VERTEX
  5
870
  8
0
  6
CONTINUOUS
 62
     7
 10
421.8652881368
 20
-39.7946804334
 30
0.0
  0
VERTEX
  5
871
  8
0
  6
CONTINUOUS
 62
     7
 10
422.5418962225
 20
-39.9681493212
 30
0.0
  0
VERTEX
  5
872
  8
0
  6
CONTINUOUS
 62
     7
 10
423.1761850103
 20
-40.1417478491
 30
0.0
  0
VERTEX
  5
873
  8
0
  6
CONTINUOUS
 62
     7
 10
423.7625278219
 20
-40.3132348825
 30
0.0
  0
VERTEX
  5
874
  8
0
  6
CONTINUOUS
 62
     7
 10
424.2959178671
 20
-40.4802664686
 30
0.0
  0
VERTEX
  5
875
  8
0
  6
CONTINUOUS
 62
     7
 10
424.7752584203
 20
-40.641307788
 30
0.0
  0
VERTEX
  5
876
  8
0
  6
CONTINUOUS
 62
     7
 10
425.2014316305
 20
-40.7954111267
 30
0.0
  0
VERTEX
  5
877
  8
0
  6
CONTINUOUS
 62
     7
 10
425.5671895727
 20
-40.9384965468
 30
0.0
  0
VERTEX
  5
878
  8
0
  6
CONTINUOUS
 62
     7
 10
425.865808843
 20
-41.0657286216
 30
0.0
  0
VERTEX
  5
879
  8
0
  6
CONTINUOUS
 62
     7
 10
426.070014356
 20
-41.160836773
 30
0.0
  0
VERTEX
  5
87A
  8
0
  6
CONTINUOUS
 62
     7
 10
426.2113965734
 20
-41.2329494525
 30
0.0
  0
VERTEX
  5
87B
  8
0
  6
CONTINUOUS
 62
     7
 10
426.2935794576
 20
-41.2791475225
 30
0.0
  0
VERTEX
  5
87C
  8
0
  6
CONTINUOUS
 62
     7
 10
426.3230003103
 20
-41.2973820735
 30
0.0
  0
VERTEX
  5
87D
  8
0
  6
CONTINUOUS
 62
     7
 10
426.3208068594
 20
-41.2957801987
 30
0.0
  0
SEQEND
  5
B6F
  8
0
  6
CONTINUOUS
 62
     7
  0
LINE
  5
2D3
  8
0
  6
CONTINUOUS
 62
     7
 10
389.8521579488
 20
-31.2372847963
 30
0.0
 11
389.8521579488
 21
-31.5952568818
 31
0.0
  0
LINE
  5
2D4
  8
0
  6
CONTINUOUS
 62
     7
 10
391.8521560415
 20
-31.5952568818
 30
0.0
 11
391.8521560415
 21
-31.2372847963
 31
0.0
  0
ARC
  5
2D5
  8
0
  6
CONTINUOUS
 62
     7
 10
390.8521569952
 20
-221.6438892614
 30
0.0
 40
184.6913363312882
 50
82.2647787506
 51
97.7352212494
  0
LINE
  5
2D6
  8
0
  6
CONTINUOUS
 62
     7
 10
430.9109128698
 20
-44.4017849434
 30
0.0
 11
430.9109128698
 21
-39.5270108748
 31
0.0
  0
LINE
  5
2D7
  8
0
  6
CONTINUOUS
 62
     7
 10
350.7934011205
 20
-39.5270108748
 30
0.0
 11
350.7934011205
 21
-44.4017849434
 31
0.0
  0
POLYLINE
  5
2D8
  8
0
  6
CONTINUOUS
 62
     7
 66
     1
 10
0.0
 20
0.0
 30
0.0
  0
VERTEX
  5
87E
  8
0
  6
CONTINUOUS
 62
     7
 10
415.7107032522
 20
-46.5086064805
 30
0.0
  0
VERTEX
  5
87F
  8
0
  6
CONTINUOUS
 62
     7
 10
416.4873517736
 20
-46.6128117908
 30
0.0
  0
VERTEX
  5
880
  8
0
  6
CONTINUOUS
 62
     7
 10
417.3697866186
 20
-46.7275842596
 30
0.0
  0
VERTEX
  5
881
  8
0
  6
CONTINUOUS
 62
     7
 10
418.2417072042
 20
-46.837384956
 30
0.0
  0
VERTEX
  5
882
  8
0
  6
CONTINUOUS
 62
     7
 10
419.0992034658
 20
-46.9416416753
 30
0.0
  0
VERTEX
  5
883
  8
0
  6
CONTINUOUS
 62
     7
 10
419.9350751623
 20
-47.0391615797
 30
0.0
  0
VERTEX
  5
884
  8
0
  6
CONTINUOUS
 62
     7
 10
420.7565225347
 20
-47.1304773856
 30
0.0
  0
VERTEX
  5
885
  8
0
  6
CONTINUOUS
 62
     7
 10
421.5627111181
 20
-47.2150429655
 30
0.0
  0
VERTEX
  5
886
  8
0
  6
CONTINUOUS
 62
     7
 10
422.3472274526
 20
-47.2916476
 30
0.0
  0
VERTEX
  5
887
  8
0
  6
CONTINUOUS
 62
     7
 10
423.1040157064
 20
-47.359120803
 30
0.0
  0
VERTEX
  5
888
  8
0
  6
CONTINUOUS
 62
     7
 10
423.8277353033
 20
-47.4163509477
 30
0.0
  0
VERTEX
  5
889
  8
0
  6
CONTINUOUS
 62
     7
 10
424.5143092855
 20
-47.4622778166
 30
0.0
  0
VERTEX
  5
88A
  8
0
  6
CONTINUOUS
 62
     7
 10
425.1624978765
 20
-47.4959127177
 30
0.0
  0
VERTEX
  5
88B
  8
0
  6
CONTINUOUS
 62
     7
 10
425.7805503591
 20
-47.5165426303
 30
0.0
  0
VERTEX
  5
88C
  8
0
  6
CONTINUOUS
 62
     7
 10
426.3735450491
 20
-47.5223861207
 30
0.0
  0
VERTEX
  5
88D
  8
0
  6
CONTINUOUS
 62
     7
 10
426.9499934896
 20
-47.5099764336
 30
0.0
  0
VERTEX
  5
88E
  8
0
  6
CONTINUOUS
 62
     7
 10
427.5319493993
 20
-47.471188711
 30
0.0
  0
VERTEX
  5
88F
  8
0
  6
CONTINUOUS
 62
     7
 10
428.0946887716
 20
-47.3955921401
 30
0.0
  0
VERTEX
  5
890
  8
0
  6
CONTINUOUS
 62
     7
 10
428.4606136068
 20
-47.3170026709
 30
0.0
  0
VERTEX
  5
891
  8
0
  6
CONTINUOUS
 62
     7
 10
428.7982619985
 20
-47.2163758744
 30
0.0
  0
VERTEX
  5
892
  8
0
  6
CONTINUOUS
 62
     7
 10
429.1111625417
 20
-47.0925725568
 30
0.0
  0
VERTEX
  5
893
  8
0
  6
CONTINUOUS
 62
     7
 10
429.4129289373
 20
-46.9384483565
 30
0.0
  0
VERTEX
  5
894
  8
0
  6
CONTINUOUS
 62
     7
 10
429.7058738455
 20
-46.7476889063
 30
0.0
  0
VERTEX
  5
895
  8
0
  6
CONTINUOUS
 62
     7
 10
429.9863971456
 20
-46.5153440405
 30
0.0
  0
VERTEX
  5
896
  8
0
  6
CONTINUOUS
 62
     7
 10
430.2458919271
 20
-46.2399713267
 30
0.0
  0
VERTEX
  5
897
  8
0
  6
CONTINUOUS
 62
     7
 10
430.4738677725
 20
-45.9242000748
 30
0.0
  0
VERTEX
  5
898
  8
0
  6
CONTINUOUS
 62
     7
 10
430.6606210455
 20
-45.5738938917
 30
0.0
  0
VERTEX
  5
899
  8
0
  6
CONTINUOUS
 62
     7
 10
430.8103955969
 20
-45.155195849
 30
0.0
  0
VERTEX
  5
89A
  8
0
  6
CONTINUOUS
 62
     7
 10
430.836216329
 20
-45.0213364829
 30
0.0
  0
SEQEND
  5
B6E
  8
0
  6
CONTINUOUS
 62
     7
  0
POLYLINE
  5
2D9
  8
0
  6
CONTINUOUS
 62
     7
 66
     1
 10
0.0
 20
0.0
 30
0.0
  0
VERTEX
  5
89B
  8
0
  6
CONTINUOUS
 62
     7
 10
350.862959741
 20
-45.0220100153
 30
0.0
  0
VERTEX
  5
89C
  8
0
  6
CONTINUOUS
 62
     7
 10
350.8639014944
 20
-45.0285203327
 30
0.0
  0
VERTEX
  5
89D
  8
0
  6
CONTINUOUS
 62
     7
 10
350.9867347463
 20
-45.4339369703
 30
0.0
  0
VERTEX
  5
89E
  8
0
  6
CONTINUOUS
 62
     7
 10
351.1598981603
 20
-45.8028479982
 30
0.0
  0
VERTEX
  5
89F
  8
0
  6
CONTINUOUS
 62
     7
 10
351.3734377607
 20
-46.1309082378
 30
0.0
  0
VERTEX
  5
8A0
  8
0
  6
CONTINUOUS
 62
     7
 10
351.6173876508
 20
-46.4158959259
 30
0.0
  0
VERTEX
  5
8A1
  8
0
  6
CONTINUOUS
 62
     7
 10
351.8820799574
 20
-46.6574951578
 30
0.0
  0
VERTEX
  5
8A2
  8
0
  6
CONTINUOUS
 62
     7
 10
352.1590627416
 20
-46.8576035965
 30
0.0
  0
VERTEX
  5
8A3
  8
0
  6
CONTINUOUS
 62
     7
 10
352.4428523763
 20
-47.020430075
 30
0.0
  0
VERTEX
  5
8A4
  8
0
  6
CONTINUOUS
 62
     7
 10
352.7328051313
 20
-47.151873963
 30
0.0
  0
VERTEX
  5
8A5
  8
0
  6
CONTINUOUS
 62
     7
 10
353.0360854849
 20
-47.258757757
 30
0.0
  0
VERTEX
  5
8A6
  8
0
  6
CONTINUOUS
 62
     7
 10
353.3696092352
 20
-47.3470016886
 30
0.0
  0
VERTEX
  5
8A7
  8
0
  6
CONTINUOUS
 62
     7
 10
353.7267841085
 20
-47.4147691895
 30
0.0
  0
VERTEX
  5
8A8
  8
0
  6
CONTINUOUS
 62
     7
 10
354.1923559889
 20
-47.4722504188
 30
0.0
  0
VERTEX
  5
8A9
  8
0
  6
CONTINUOUS
 62
     7
 10
354.8588312849
 20
-47.5129529406
 30
0.0
  0
VERTEX
  5
8AA
  8
0
  6
CONTINUOUS
 62
     7
 10
355.4321802839
 20
-47.52186458
 30
0.0
  0
VERTEX
  5
8AB
  8
0
  6
CONTINUOUS
 62
     7
 10
356.0128248914
 20
-47.5140079428
 30
0.0
  0
VERTEX
  5
8AC
  8
0
  6
CONTINUOUS
 62
     7
 10
356.6706336721
 20
-47.4900200535
 30
0.0
  0
VERTEX
  5
8AD
  8
0
  6
CONTINUOUS
 62
     7
 10
357.3445595487
 20
-47.4527693857
 30
0.0
  0
VERTEX
  5
8AE
  8
0
  6
CONTINUOUS
 62
     7
 10
358.047906278
 20
-47.4036424924
 30
0.0
  0
VERTEX
  5
8AF
  8
0
  6
CONTINUOUS
 62
     7
 10
358.7829865202
 20
-47.3437077869
 30
0.0
  0
VERTEX
  5
8B0
  8
0
  6
CONTINUOUS
 62
     7
 10
359.5482624754
 20
-47.2738444377
 30
0.0
  0
VERTEX
  5
8B1
  8
0
  6
CONTINUOUS
 62
     7
 10
360.3412903532
 20
-47.1948854197
 30
0.0
  0
VERTEX
  5
8B2
  8
0
  6
CONTINUOUS
 62
     7
 10
361.1587680563
 20
-47.1076875497
 30
0.0
  0
VERTEX
  5
8B3
  8
0
  6
CONTINUOUS
 62
     7
 10
361.9968570455
 20
-47.0131322313
 30
0.0
  0
VERTEX
  5
8B4
  8
0
  6
CONTINUOUS
 62
     7
 10
362.8514326795
 20
-46.9121194948
 30
0.0
  0
VERTEX
  5
8B5
  8
0
  6
CONTINUOUS
 62
     7
 10
363.7168205961
 20
-46.8057587315
 30
0.0
  0
VERTEX
  5
8B6
  8
0
  6
CONTINUOUS
 62
     7
 10
364.5883001074
 20
-46.6949998904
 30
0.0
  0
VERTEX
  5
8B7
  8
0
  6
CONTINUOUS
 62
     7
 10
365.4678739294
 20
-46.579603808
 30
0.0
  0
VERTEX
  5
8B8
  8
0
  6
CONTINUOUS
 62
     7
 10
365.9936822637
 20
-46.5084604491
 30
0.0
  0
SEQEND
  5
B6D
  8
0
  6
CONTINUOUS
 62
     7
  0
POLYLINE
  5
2DA
  8
0
  6
CONTINUOUS
 62
     7
 66
     1
 10
0.0
 20
0.0
 30
0.0
  0
VERTEX
  5
8B9
  8
0
  6
CONTINUOUS
 62
     7
 10
430.8497108206
 20
-44.9514030982
 30
0.0
  0
VERTEX
  5
8BA
  8
0
  6
CONTINUOUS
 62
     7
 10
430.8922208532
 20
-44.7311043311
 30
0.0
  0
VERTEX
  5
8BB
  8
0
  6
CONTINUOUS
 62
     7
 10
430.9062160238
 20
-44.40263878
 30
0.0
  0
SEQEND
  5
B6C
  8
0
  6
CONTINUOUS
 62
     7
  0
POLYLINE
  5
2DB
  8
0
  6
CONTINUOUS
 62
     7
 66
     1
 10
0.0
 20
0.0
 30
0.0
  0
VERTEX
  5
8BC
  8
0
  6
CONTINUOUS
 62
     7
 10
350.8015550359
 20
-44.3954191674
 30
0.0
  0
VERTEX
  5
8BD
  8
0
  6
CONTINUOUS
 62
     7
 10
350.8011378034
 20
-44.5952675808
 30
0.0
  0
VERTEX
  5
8BE
  8
0
  6
CONTINUOUS
 62
     7
 10
350.862959741
 20
-45.0220100153
 30
0.0
  0
SEQEND
  5
B6B
  8
0
  6
CONTINUOUS
 62
     7
  0
ARC
  5
2DC
  8
0
  6
CONTINUOUS
 62
     7
 10
390.8521569952
 20
-229.5190188315
 30
0.0
 40
184.6912691376442
 50
82.2647759192
 51
97.7352240808
  0
POLYLINE
  5
2DD
  8
0
  6
CONTINUOUS
 62
     7
 66
     1
 10
0.0
 20
0.0
 30
0.0
  0
VERTEX
  5
8BF
  8
0
  6
CONTINUOUS
 62
     7
 10
5.269399999
 20
-33.3035662342
 30
0.0
  0
VERTEX
  5
8C0
  8
0
  6
CONTINUOUS
 62
     7
 10
4.4732965215
 20
-33.41554101
 30
0.0
  0
VERTEX
  5
8C1
  8
0
  6
CONTINUOUS
 62
     7
 10
3.5666145071
 20
-33.5553377439
 30
0.0
  0
VERTEX
  5
8C2
  8
0
  6
CONTINUOUS
 62
     7
 10
2.6693738683
 20
-33.7061211039
 30
0.0
  0
VERTEX
  5
8C3
  8
0
  6
CONTINUOUS
 62
     7
 10
1.7861999258
 20
-33.867236929
 30
0.0
  0
VERTEX
  5
8C4
  8
0
  6
CONTINUOUS
 62
     7
 10
0.9316838964
 20
-34.0354948808
 30
0.0
  0
VERTEX
  5
8C5
  8
0
  6
CONTINUOUS
 62
     7
 10
0.0927366003
 20
-34.2127769757
 30
0.0
  0
VERTEX
  5
8C6
  8
0
  6
CONTINUOUS
 62
     7
 10
-0.7293306605
 20
-34.3986242581
 30
0.0
  0
VERTEX
  5
8C7
  8
0
  6
CONTINUOUS
 62
     7
 10
-1.528438212
 20
-34.5915793944
 30
0.0
  0
VERTEX
  5
8C8
  8
0
  6
CONTINUOUS
 62
     7
 10
-2.2987209574
 20
-34.7901850511
 30
0.0
  0
VERTEX
  5
8C9
  8
0
  6
CONTINUOUS
 62
     7
 10
-3.0349336878
 20
-34.9930971433
 30
0.0
  0
VERTEX
  5
8CA
  8
0
  6
CONTINUOUS
 62
     7
 10
-3.7328802363
 20
-35.1992889811
 30
0.0
  0
VERTEX
  5
8CB
  8
0
  6
CONTINUOUS
 62
     7
 10
-4.3871008173
 20
-35.4069307018
 30
0.0
  0
VERTEX
  5
8CC
  8
0
  6
CONTINUOUS
 62
     7
 10
-4.9862705485
 20
-35.6115042735
 30
0.0
  0
VERTEX
  5
8CD
  8
0
  6
CONTINUOUS
 62
     7
 10
-5.5704675928
 20
-35.827444451
 30
0.0
  0
VERTEX
  5
8CE
  8
0
  6
CONTINUOUS
 62
     7
 10
-6.1239086405
 20
-36.0514953304
 30
0.0
  0
VERTEX
  5
8CF
  8
0
  6
CONTINUOUS
 62
     7
 10
-6.654223086
 20
-36.2906232048
 30
0.0
  0
VERTEX
  5
8D0
  8
0
  6
CONTINUOUS
 62
     7
 10
-7.1801744715
 20
-36.5627303291
 30
0.0
  0
VERTEX
  5
8D1
  8
0
  6
CONTINUOUS
 62
     7
 10
-7.621892573
 20
-36.8335380722
 30
0.0
  0
VERTEX
  5
8D2
  8
0
  6
CONTINUOUS
 62
     7
 10
-7.9265199915
 20
-37.0555579234
 30
0.0
  0
VERTEX
  5
8D3
  8
0
  6
CONTINUOUS
 62
     7
 10
-8.1860386149
 20
-37.2785895635
 30
0.0
  0
VERTEX
  5
8D4
  8
0
  6
CONTINUOUS
 62
     7
 10
-8.4203563944
 20
-37.5187038947
 30
0.0
  0
VERTEX
  5
8D5
  8
0
  6
CONTINUOUS
 62
     7
 10
-8.6327873484
 20
-37.7834513355
 30
0.0
  0
VERTEX
  5
8D6
  8
0
  6
CONTINUOUS
 62
     7
 10
-8.8224016444
 20
-38.0794867445
 30
0.0
  0
VERTEX
  5
8D7
  8
0
  6
CONTINUOUS
 62
     7
 10
-8.9830242411
 20
-38.4090408255
 30
0.0
  0
VERTEX
  5
8D8
  8
0
  6
CONTINUOUS
 62
     7
 10
-9.1058813349
 20
-38.7691258956
 30
0.0
  0
VERTEX
  5
8D9
  8
0
  6
CONTINUOUS
 62
     7
 10
-9.1825090662
 20
-39.1525268127
 30
0.0
  0
VERTEX
  5
8DA
  8
0
  6
CONTINUOUS
 62
     7
 10
-9.2048965708
 20
-39.5184903909
 30
0.0
  0
SEQEND
  5
B6A
  8
0
  6
CONTINUOUS
 62
     7
  0
POLYLINE
  5
2DE
  8
0
  6
CONTINUOUS
 62
     7
 66
     1
 10
0.0
 20
0.0
 30
0.0
  0
VERTEX
  5
8DB
  8
0
  6
CONTINUOUS
 62
     7
 10
70.9053434118
 20
-39.5312785674
 30
0.0
  0
VERTEX
  5
8DC
  8
0
  6
CONTINUOUS
 62
     7
 10
70.9089316114
 20
-39.4580184985
 30
0.0
  0
VERTEX
  5
8DD
  8
0
  6
CONTINUOUS
 62
     7
 10
70.8717383131
 20
-39.059160607
 30
0.0
  0
VERTEX
  5
8DE
  8
0
  6
CONTINUOUS
 62
     7
 10
70.7848108991
 20
-38.6847495605
 30
0.0
  0
VERTEX
  5
8DF
  8
0
  6
CONTINUOUS
 62
     7
 10
70.6567085966
 20
-38.3400246073
 30
0.0
  0
VERTEX
  5
8E0
  8
0
  6
CONTINUOUS
 62
     7
 10
70.4962886556
 20
-38.0281418134
 30
0.0
  0
VERTEX
  5
8E1
  8
0
  6
CONTINUOUS
 62
     7
 10
70.3115857824
 20
-37.7493798305
 30
0.0
  0
VERTEX
  5
8E2
  8
0
  6
CONTINUOUS
 62
     7
 10
70.1080239996
 20
-37.5005289484
 30
0.0
  0
VERTEX
  5
8E3
  8
0
  6
CONTINUOUS
 62
     7
 10
69.8864377722
 20
-37.2750833202
 30
0.0
  0
VERTEX
  5
8E4
  8
0
  6
CONTINUOUS
 62
     7
 10
69.641319631
 20
-37.0638921429
 30
0.0
  0
VERTEX
  5
8E5
  8
0
  6
CONTINUOUS
 62
     7
 10
69.3550981268
 20
-36.8531927038
 30
0.0
  0
VERTEX
  5
8E6
  8
0
  6
CONTINUOUS
 62
     7
 10
68.9821041807
 20
-36.6189494301
 30
0.0
  0
VERTEX
  5
8E7
  8
0
  6
CONTINUOUS
 62
     7
 10
68.5022748693
 20
-36.3617017437
 30
0.0
  0
VERTEX
  5
8E8
  8
0
  6
CONTINUOUS
 62
     7
 10
67.9709590658
 20
-36.1141070295
 30
0.0
  0
VERTEX
  5
8E9
  8
0
  6
CONTINUOUS
 62
     7
 10
67.433813928
 20
-35.8904629518
 30
0.0
  0
VERTEX
  5
8EA
  8
0
  6
CONTINUOUS
 62
     7
 10
66.815654157
 20
-35.6567292977
 30
0.0
  0
VERTEX
  5
8EB
  8
0
  6
CONTINUOUS
 62
     7
 10
66.1774910673
 20
-35.4355722238
 30
0.0
  0
VERTEX
  5
8EC
  8
0
  6
CONTINUOUS
 62
     7
 10
65.5146278127
 20
-35.2231010366
 30
0.0
  0
VERTEX
  5
8ED
  8
0
  6
CONTINUOUS
 62
     7
 10
64.8274816259
 20
-35.0182354022
 30
0.0
  0
VERTEX
  5
8EE
  8
0
  6
CONTINUOUS
 62
     7
 10
64.0944040998
 20
-34.8142116834
 30
0.0
  0
VERTEX
  5
8EF
  8
0
  6
CONTINUOUS
 62
     7
 10
63.3281983122
 20
-34.6148326565
 30
0.0
  0
VERTEX
  5
8F0
  8
0
  6
CONTINUOUS
 62
     7
 10
62.5313557371
 20
-34.4208120872
 30
0.0
  0
VERTEX
  5
8F1
  8
0
  6
CONTINUOUS
 62
     7
 10
61.7070473417
 20
-34.2331006695
 30
0.0
  0
VERTEX
  5
8F2
  8
0
  6
CONTINUOUS
 62
     7
 10
60.8589209303
 20
-34.052783208
 30
0.0
  0
VERTEX
  5
8F3
  8
0
  6
CONTINUOUS
 62
     7
 10
59.9909461721
 20
-33.8809832502
 30
0.0
  0
VERTEX
  5
8F4
  8
0
  6
CONTINUOUS
 62
     7
 10
59.1072596296
 20
-33.718827324
 30
0.0
  0
VERTEX
  5
8F5
  8
0
  6
CONTINUOUS
 62
     7
 10
58.2174695715
 20
-33.5681482721
 30
0.0
  0
VERTEX
  5
8F6
  8
0
  6
CONTINUOUS
 62
     7
 10
57.3159254774
 20
-33.4278896023
 30
0.0
  0
VERTEX
  5
8F7
  8
0
  6
CONTINUOUS
 62
     7
 10
56.4350045904
 20
-33.302755611
 30
0.0
  0
SEQEND
  5
B69
  8
0
  6
CONTINUOUS
 62
     7
  0
ARC
  5
2DF
  8
0
  6
CONTINUOUS
 62
     7
 10
30.7297086141
 20
-220.3948940507
 30
0.0
 40
188.8172303875939
 50
90.2488982536
 51
97.7494271563
  0
ARC
  5
2E0
  8
0
  6
CONTINUOUS
 62
     7
 10
31.0590198
 20
-219.4862919565
 30
0.0
 40
187.905548792842
 50
82.2387174998
 51
89.7798336298
  0
POLYLINE
  5
2E1
  8
0
  6
CONTINUOUS
 62
     7
 66
     1
 10
0.0
 20
0.0
 30
0.0
  0
VERTEX
  5
8F8
  8
0
  6
CONTINUOUS
 62
     7
 10
-4.6117864863
 20
-41.2925660182
 30
0.0
  0
VERTEX
  5
8F9
  8
0
  6
CONTINUOUS
 62
     7
 10
-4.6132646815
 20
-41.2936955262
 30
0.0
  0
VERTEX
  5
8FA
  8
0
  6
CONTINUOUS
 62
     7
 10
-4.5728527323
 20
-41.269092219
 30
0.0
  0
VERTEX
  5
8FB
  8
0
  6
CONTINUOUS
 62
     7
 10
-4.4813953654
 20
-41.2186175157
 30
0.0
  0
VERTEX
  5
8FC
  8
0
  6
CONTINUOUS
 62
     7
 10
-4.3321930186
 20
-41.1437212993
 30
0.0
  0
VERTEX
  5
8FD
  8
0
  6
CONTINUOUS
 62
     7
 10
-4.1201435343
 20
-41.0464182068
 30
0.0
  0
VERTEX
  5
8FE
  8
0
  6
CONTINUOUS
 62
     7
 10
-3.8426004664
 20
-40.9293531943
 30
0.0
  0
VERTEX
  5
8FF
  8
0
  6
CONTINUOUS
 62
     7
 10
-3.4994207636
 20
-40.7956227232
 30
0.0
  0
VERTEX
  5
900
  8
0
  6
CONTINUOUS
 62
     7
 10
-3.0925594584
 20
-40.6484931279
 30
0.0
  0
VERTEX
  5
901
  8
0
  6
CONTINUOUS
 62
     7
 10
-2.6254736201
 20
-40.491178589
 30
0.0
  0
VERTEX
  5
902
  8
0
  6
CONTINUOUS
 62
     7
 10
-2.1028362528
 20
-40.3267785479
 30
0.0
  0
VERTEX
  5
903
  8
0
  6
CONTINUOUS
 62
     7
 10
-1.5275560633
 20
-40.1577293445
 30
0.0
  0
VERTEX
  5
904
  8
0
  6
CONTINUOUS
 62
     7
 10
-0.9186350123
 20
-39.9901642967
 30
0.0
  0
VERTEX
  5
905
  8
0
  6
CONTINUOUS
 62
     7
 10
-0.2580009714
 20
-39.8195415307
 30
0.0
  0
VERTEX
  5
906
  8
0
  6
CONTINUOUS
 62
     7
 10
0.4474796041
 20
-39.6485879589
 30
0.0
  0
VERTEX
  5
907
  8
0
  6
CONTINUOUS
 62
     7
 10
1.1904634222
 20
-39.4798889328
 30
0.0
  0
VERTEX
  5
908
  8
0
  6
CONTINUOUS
 62
     7
 10
1.9629157766
 20
-39.3159523178
 30
0.0
  0
VERTEX
  5
909
  8
0
  6
CONTINUOUS
 62
     7
 10
2.755013822
 20
-39.159409659
 30
0.0
  0
VERTEX
  5
90A
  8
0
  6
CONTINUOUS
 62
     7
 10
3.5582698568
 20
-39.0123426486
 30
0.0
  0
VERTEX
  5
90B
  8
0
  6
CONTINUOUS
 62
     7
 10
4.3689168676
 20
-38.8754739929
 30
0.0
  0
VERTEX
  5
90C
  8
0
  6
CONTINUOUS
 62
     7
 10
5.1979936346
 20
-38.7468784619
 30
0.0
  0
VERTEX
  5
90D
  8
0
  6
CONTINUOUS
 62
     7
 10
5.9938586935
 20
-38.6341660787
 30
0.0
  0
SEQEND
  5
B68
  8
0
  6
CONTINUOUS
 62
     7
  0
POLYLINE
  5
2E2
  8
0
  6
CONTINUOUS
 62
     7
 66
     1
 10
0.0
 20
0.0
 30
0.0
  0
VERTEX
  5
90E
  8
0
  6
CONTINUOUS
 62
     7
 10
55.7105220541
 20
-38.6345400978
 30
0.0
  0
VERTEX
  5
90F
  8
0
  6
CONTINUOUS
 62
     7
 10
56.370476602
 20
-38.7266352345
 30
0.0
  0
VERTEX
  5
910
  8
0
  6
CONTINUOUS
 62
     7
 10
57.2079099401
 20
-38.8548552562
 30
0.0
  0
VERTEX
  5
911
  8
0
  6
CONTINUOUS
 62
     7
 10
58.0370939954
 20
-38.9932795931
 30
0.0
  0
VERTEX
  5
912
  8
0
  6
CONTINUOUS
 62
     7
 10
58.8515437826
 20
-39.1408055593
 30
0.0
  0
VERTEX
  5
913
  8
0
  6
CONTINUOUS
 62
     7
 10
59.6403635725
 20
-39.2950027753
 30
0.0
  0
VERTEX
  5
914
  8
0
  6
CONTINUOUS
 62
     7
 10
60.4085005506
 20
-39.4562631417
 30
0.0
  0
VERTEX
  5
915
  8
0
  6
CONTINUOUS
 62
     7
 10
61.1521519407
 20
-39.6234079767
 30
0.0
  0
VERTEX
  5
916
  8
0
  6
CONTINUOUS
 62
     7
 10
61.8652857527
 20
-39.7946804334
 30
0.0
  0
VERTEX
  5
917
  8
0
  6
CONTINUOUS
 62
     7
 10
62.5418819174
 20
-39.9681493212
 30
0.0
  0
VERTEX
  5
918
  8
0
  6
CONTINUOUS
 62
     7
 10
63.1761826261
 20
-40.1417478491
 30
0.0
  0
VERTEX
  5
919
  8
0
  6
CONTINUOUS
 62
     7
 10
63.7625373586
 20
-40.3132348825
 30
0.0
  0
VERTEX
  5
91A
  8
0
  6
CONTINUOUS
 62
     7
 10
64.2959274038
 20
-40.4802664686
 30
0.0
  0
VERTEX
  5
91B
  8
0
  6
CONTINUOUS
 62
     7
 10
64.7752560362
 20
-40.641307788
 30
0.0
  0
VERTEX
  5
91C
  8
0
  6
CONTINUOUS
 62
     7
 10
65.2014173254
 20
-40.7954111267
 30
0.0
  0
VERTEX
  5
91D
  8
0
  6
CONTINUOUS
 62
     7
 10
65.5671991094
 20
-40.9384965468
 30
0.0
  0
VERTEX
  5
91E
  8
0
  6
CONTINUOUS
 62
     7
 10
65.8658064588
 20
-41.0657286216
 30
0.0
  0
VERTEX
  5
91F
  8
0
  6
CONTINUOUS
 62
     7
 10
66.0700238928
 20
-41.160836773
 30
0.0
  0
VERTEX
  5
920
  8
0
  6
CONTINUOUS
 62
     7
 10
66.2113941892
 20
-41.2329494525
 30
0.0
  0
VERTEX
  5
921
  8
0
  6
CONTINUOUS
 62
     7
 10
66.2935889944
 20
-41.2791475225
 30
0.0
  0
VERTEX
  5
922
  8
0
  6
CONTINUOUS
 62
     7
 10
66.3229979261
 20
-41.2973820735
 30
0.0
  0
VERTEX
  5
923
  8
0
  6
CONTINUOUS
 62
     7
 10
66.3208044752
 20
-41.2957801987
 30
0.0
  0
SEQEND
  5
B67
  8
0
  6
CONTINUOUS
 62
     7
  0
LINE
  5
2E3
  8
0
  6
CONTINUOUS
 62
     7
 10
29.8521674856
 20
-31.2372847963
 30
0.0
 11
29.8521674856
 21
-31.5952568818
 31
0.0
  0
LINE
  5
2E4
  8
0
  6
CONTINUOUS
 62
     7
 10
31.8521655782
 20
-31.5952568818
 30
0.0
 11
31.8521655782
 21
-31.2372847963
 31
0.0
  0
ARC
  5
2E5
  8
0
  6
CONTINUOUS
 62
     7
 10
30.8521665319
 20
-221.6439394408
 30
0.0
 40
184.6913860541055
 50
82.2647808458
 51
97.7352191542
  0
LINE
  5
2E6
  8
0
  6
CONTINUOUS
 62
     7
 10
-9.2065893427
 20
-39.5270108748
 30
0.0
 11
-9.2065893427
 21
-44.4017849434
 31
0.0
  0
LINE
  5
2E7
  8
0
  6
CONTINUOUS
 62
     7
 10
70.9109224066
 20
-44.4017849434
 30
0.0
 11
70.9109224066
 21
-39.5270108748
 31
0.0
  0
POLYLINE
  5
2E8
  8
0
  6
CONTINUOUS
 62
     7
 66
     1
 10
0.0
 20
0.0
 30
0.0
  0
VERTEX
  5
924
  8
0
  6
CONTINUOUS
 62
     7
 10
55.710700868
 20
-46.5086064805
 30
0.0
  0
VERTEX
  5
925
  8
0
  6
CONTINUOUS
 62
     7
 10
56.4873493894
 20
-46.6128117908
 30
0.0
  0
VERTEX
  5
926
  8
0
  6
CONTINUOUS
 62
     7
 10
57.3697723135
 20
-46.7275842596
 30
0.0
  0
VERTEX
  5
927
  8
0
  6
CONTINUOUS
 62
     7
 10
58.241716741
 20
-46.837384956
 30
0.0
  0
VERTEX
  5
928
  8
0
  6
CONTINUOUS
 62
     7
 10
59.0992010816
 20
-46.9416416753
 30
0.0
  0
VERTEX
  5
929
  8
0
  6
CONTINUOUS
 62
     7
 10
59.935084699
 20
-47.0391615797
 30
0.0
  0
VERTEX
  5
92A
  8
0
  6
CONTINUOUS
 62
     7
 10
60.7565201505
 20
-47.1304773856
 30
0.0
  0
VERTEX
  5
92B
  8
0
  6
CONTINUOUS
 62
     7
 10
61.5627087339
 20
-47.2150429655
 30
0.0
  0
VERTEX
  5
92C
  8
0
  6
CONTINUOUS
 62
     7
 10
62.3472250684
 20
-47.2916476
 30
0.0
  0
VERTEX
  5
92D
  8
0
  6
CONTINUOUS
 62
     7
 10
63.1040133222
 20
-47.359120803
 30
0.0
  0
VERTEX
  5
92E
  8
0
  6
CONTINUOUS
 62
     7
 10
63.8277329191
 20
-47.4163509477
 30
0.0
  0
VERTEX
  5
92F
  8
0
  6
CONTINUOUS
 62
     7
 10
64.5143188223
 20
-47.4622778166
 30
0.0
  0
VERTEX
  5
930
  8
0
  6
CONTINUOUS
 62
     7
 10
65.1625074133
 20
-47.4959127177
 30
0.0
  0
VERTEX
  5
931
  8
0
  6
CONTINUOUS
 62
     7
 10
65.7805479749
 20
-47.5165426303
 30
0.0
  0
VERTEX
  5
932
  8
0
  6
CONTINUOUS
 62
     7
 10
66.3735426649
 20
-47.5223861207
 30
0.0
  0
VERTEX
  5
933
  8
0
  6
CONTINUOUS
 62
     7
 10
66.9500030264
 20
-47.5099764336
 30
0.0
  0
VERTEX
  5
934
  8
0
  6
CONTINUOUS
 62
     7
 10
67.5319470152
 20
-47.471188711
 30
0.0
  0
VERTEX
  5
935
  8
0
  6
CONTINUOUS
 62
     7
 10
68.0946863874
 20
-47.3955921401
 30
0.0
  0
VERTEX
  5
936
  8
0
  6
CONTINUOUS
 62
     7
 10
68.4606231436
 20
-47.3170026709
 30
0.0
  0
VERTEX
  5
937
  8
0
  6
CONTINUOUS
 62
     7
 10
68.7982715353
 20
-47.2163758744
 30
0.0
  0
VERTEX
  5
938
  8
0
  6
CONTINUOUS
 62
     7
 10
69.1111720785
 20
-47.0925725568
 30
0.0
  0
VERTEX
  5
939
  8
0
  6
CONTINUOUS
 62
     7
 10
69.4129265531
 20
-46.9384483565
 30
0.0
  0
VERTEX
  5
93A
  8
0
  6
CONTINUOUS
 62
     7
 10
69.7058833822
 20
-46.7476889063
 30
0.0
  0
VERTEX
  5
93B
  8
0
  6
CONTINUOUS
 62
     7
 10
69.9863947614
 20
-46.5153440405
 30
0.0
  0
VERTEX
  5
93C
  8
0
  6
CONTINUOUS
 62
     7
 10
70.2458895429
 20
-46.2399713267
 30
0.0
  0
VERTEX
  5
93D
  8
0
  6
CONTINUOUS
 62
     7
 10
70.4738653883
 20
-45.9242000748
 30
0.0
  0
VERTEX
  5
93E
  8
0
  6
CONTINUOUS
 62
     7
 10
70.6606305822
 20
-45.5738938917
 30
0.0
  0
VERTEX
  5
93F
  8
0
  6
CONTINUOUS
 62
     7
 10
70.8104051336
 20
-45.155195849
 30
0.0
  0
VERTEX
  5
940
  8
0
  6
CONTINUOUS
 62
     7
 10
70.8362258657
 20
-45.0213364829
 30
0.0
  0
SEQEND
  5
B66
  8
0
  6
CONTINUOUS
 62
     7
  0
POLYLINE
  5
2E9
  8
0
  6
CONTINUOUS
 62
     7
 66
     1
 10
0.0
 20
0.0
 30
0.0
  0
VERTEX
  5
941
  8
0
  6
CONTINUOUS
 62
     7
 10
-9.1370426432
 20
-45.0220100153
 30
0.0
  0
VERTEX
  5
942
  8
0
  6
CONTINUOUS
 62
     7
 10
-9.1360889689
 20
-45.0285203327
 30
0.0
  0
VERTEX
  5
943
  8
0
  6
CONTINUOUS
 62
     7
 10
-9.0132557169
 20
-45.4339369703
 30
0.0
  0
VERTEX
  5
944
  8
0
  6
CONTINUOUS
 62
     7
 10
-8.8400923029
 20
-45.8028479982
 30
0.0
  0
VERTEX
  5
945
  8
0
  6
CONTINUOUS
 62
     7
 10
-8.6265646235
 20
-46.1309082378
 30
0.0
  0
VERTEX
  5
946
  8
0
  6
CONTINUOUS
 62
     7
 10
-8.3826147333
 20
-46.4158959259
 30
0.0
  0
VERTEX
  5
947
  8
0
  6
CONTINUOUS
 62
     7
 10
-8.1179224268
 20
-46.6574951578
 30
0.0
  0
VERTEX
  5
948
  8
0
  6
CONTINUOUS
 62
     7
 10
-7.8409277216
 20
-46.8576035965
 30
0.0
  0
VERTEX
  5
949
  8
0
  6
CONTINUOUS
 62
     7
 10
-7.5571380869
 20
-47.020430075
 30
0.0
  0
VERTEX
  5
94A
  8
0
  6
CONTINUOUS
 62
     7
 10
-7.2671972529
 20
-47.151873963
 30
0.0
  0
VERTEX
  5
94B
  8
0
  6
CONTINUOUS
 62
     7
 10
-6.9639288203
 20
-47.258757757
 30
0.0
  0
VERTEX
  5
94C
  8
0
  6
CONTINUOUS
 62
     7
 10
-6.6303812281
 20
-47.3470016886
 30
0.0
  0
VERTEX
  5
94D
  8
0
  6
CONTINUOUS
 62
     7
 10
-6.2732063547
 20
-47.4147691895
 30
0.0
  0
VERTEX
  5
94E
  8
0
  6
CONTINUOUS
 62
     7
 10
-5.8076463953
 20
-47.4722504188
 30
0.0
  0
VERTEX
  5
94F
  8
0
  6
CONTINUOUS
 62
     7
 10
-5.1411710993
 20
-47.5129529406
 30
0.0
  0
VERTEX
  5
950
  8
0
  6
CONTINUOUS
 62
     7
 10
-4.5678221003
 20
-47.52186458
 30
0.0
  0
VERTEX
  5
951
  8
0
  6
CONTINUOUS
 62
     7
 10
-3.9871774927
 20
-47.5140079428
 30
0.0
  0
VERTEX
  5
952
  8
0
  6
CONTINUOUS
 62
     7
 10
-3.329380633
 20
-47.4900200535
 30
0.0
  0
VERTEX
  5
953
  8
0
  6
CONTINUOUS
 62
     7
 10
-2.6554428355
 20
-47.4527693857
 30
0.0
  0
VERTEX
  5
954
  8
0
  6
CONTINUOUS
 62
     7
 10
-1.9520841852
 20
-47.4036424924
 30
0.0
  0
VERTEX
  5
955
  8
0
  6
CONTINUOUS
 62
     7
 10
-1.217015864
 20
-47.3437077869
 30
0.0
  0
VERTEX
  5
956
  8
0
  6
CONTINUOUS
 62
     7
 10
-0.4517399088
 20
-47.2738444377
 30
0.0
  0
VERTEX
  5
957
  8
0
  6
CONTINUOUS
 62
     7
 10
0.341287969
 20
-47.1948854197
 30
0.0
  0
VERTEX
  5
958
  8
0
  6
CONTINUOUS
 62
     7
 10
1.158777593
 20
-47.1076875497
 30
0.0
  0
VERTEX
  5
959
  8
0
  6
CONTINUOUS
 62
     7
 10
1.9968665823
 20
-47.0131322313
 30
0.0
  0
VERTEX
  5
95A
  8
0
  6
CONTINUOUS
 62
     7
 10
2.8514302953
 20
-46.9121194948
 30
0.0
  0
VERTEX
  5
95B
  8
0
  6
CONTINUOUS
 62
     7
 10
3.7168182119
 20
-46.8057587315
 30
0.0
  0
VERTEX
  5
95C
  8
0
  6
CONTINUOUS
 62
     7
 10
4.5882858022
 20
-46.6949998904
 30
0.0
  0
VERTEX
  5
95D
  8
0
  6
CONTINUOUS
 62
     7
 10
5.4678834661
 20
-46.579603808
 30
0.0
  0
VERTEX
  5
95E
  8
0
  6
CONTINUOUS
 62
     7
 10
5.9936918005
 20
-46.5084604491
 30
0.0
  0
SEQEND
  5
B65
  8
0
  6
CONTINUOUS
 62
     7
  0
POLYLINE
  5
2EA
  8
0
  6
CONTINUOUS
 62
     7
 66
     1
 10
0.0
 20
0.0
 30
0.0
  0
VERTEX
  5
95F
  8
0
  6
CONTINUOUS
 62
     7
 10
70.8497203573
 20
-44.9514030982
 30
0.0
  0
VERTEX
  5
960
  8
0
  6
CONTINUOUS
 62
     7
 10
70.8922065481
 20
-44.7311043311
 30
0.0
  0
VERTEX
  5
961
  8
0
  6
CONTINUOUS
 62
     7
 10
70.9062255605
 20
-44.40263878
 30
0.0
  0
SEQEND
  5
B64
  8
0
  6
CONTINUOUS
 62
     7
  0
POLYLINE
  5
2EB
  8
0
  6
CONTINUOUS
 62
     7
 66
     1
 10
0.0
 20
0.0
 30
0.0
  0
VERTEX
  5
962
  8
0
  6
CONTINUOUS
 62
     7
 10
-9.1984354273
 20
-44.3954191674
 30
0.0
  0
VERTEX
  5
963
  8
0
  6
CONTINUOUS
 62
     7
 10
-9.1988645808
 20
-44.5952675808
 30
0.0
  0
VERTEX
  5
964
  8
0
  6
CONTINUOUS
 62
     7
 10
-9.1370426432
 20
-45.0220100153
 30
0.0
  0
SEQEND
  5
B63
  8
0
  6
CONTINUOUS
 62
     7
  0
ARC
  5
2EC
  8
0
  6
CONTINUOUS
 62
     7
 10
30.8521665319
 20
-229.5190690109
 30
0.0
 40
184.6913188604284
 50
82.2647780144
 51
97.7352219856
  0
ARC
  5
2ED
  8
0
  6
CONTINUOUS
 62
     7
 10
296.0358289239
 20
-121.7824153757
 30
0.0
 40
14.86824528724584
 50
270.8244832704
 51
0.4742849259
  0
ARC
  5
2EE
  8
0
  6
CONTINUOUS
 62
     7
 10
245.6677153948
 20
-121.7858724247
 30
0.0
 40
14.86658015187284
 50
179.5129123301
 51
269.3234209822
  0
ARC
  5
2EF
  8
0
  6
CONTINUOUS
 62
     7
 10
296.0247156998
 20
-81.5708999059
 30
0.0
 40
14.87756166995693
 50
359.6597829379
 51
32.6991277419
  0
ARC
  5
2F0
  8
0
  6
CONTINUOUS
 62
     7
 10
245.7717316192
 20
-81.603485706
 30
0.0
 40
14.97538848031687
 50
147.3882403755
 51
180.2160451339
  0
ARC
  5
2F1
  8
0
  6
CONTINUOUS
 62
     7
 10
245.5958407599
 20
-81.3662841755
 30
0.0
 40
14.69880721282062
 50
90.699217633
 51
141.1138418288
  0
ARC
  5
2F2
  8
0
  6
CONTINUOUS
 62
     7
 10
296.1115304937
 20
-81.3429211826
 30
0.0
 40
14.67821447142593
 50
38.7741425168
 51
89.7632275192
  0
LINE
  5
2F3
  8
0
  6
CONTINUOUS
 62
     7
 10
230.7934052929
 20
-81.6592797209
 30
0.0
 11
230.7934052929
 21
-121.6592803169
 31
0.0
  0
LINE
  5
2F4
  8
0
  6
CONTINUOUS
 62
     7
 10
310.9109200224
 20
-121.6592803169
 30
0.0
 11
310.9109200224
 21
-81.6592797209
 31
0.0
  0
ARC
  5
2F5
  8
0
  6
CONTINUOUS
 62
     7
 10
416.0358031987
 20
-121.7823853954
 30
0.0
 40
14.86827553163721
 50
270.8245531713
 51
0.4741684266
  0
ARC
  5
2F6
  8
0
  6
CONTINUOUS
 62
     7
 10
365.6677151546
 20
-121.7858744123
 30
0.0
 40
14.86657814047845
 50
179.5129046037
 51
269.3234287085
  0
ARC
  5
2F7
  8
0
  6
CONTINUOUS
 62
     7
 10
416.0247054333
 20
-81.5709134519
 30
0.0
 40
14.8775766241389
 50
359.6598354482
 51
32.6991527625
  0
ARC
  5
2F8
  8
0
  6
CONTINUOUS
 62
     7
 10
365.7715944205
 20
-81.6034356483
 30
0.0
 40
14.97524819321561
 50
147.3881243277
 51
180.2162386816
  0
ARC
  5
2F9
  8
0
  6
CONTINUOUS
 62
     7
 10
365.5958466579
 20
-81.3662989683
 30
0.0
 40
14.69882201824259
 50
90.6992213323
 51
141.113814295
  0
ARC
  5
2FA
  8
0
  6
CONTINUOUS
 62
     7
 10
416.1115030167
 20
-81.3430005896
 30
0.0
 40
14.67829398635592
 50
38.7742907723
 51
89.7631261993
  0
LINE
  5
2FB
  8
0
  6
CONTINUOUS
 62
     7
 10
350.7934011205
 20
-81.6592797209
 30
0.0
 11
350.7934011205
 21
-121.6592803169
 31
0.0
  0
LINE
  5
2FC
  8
0
  6
CONTINUOUS
 62
     7
 10
430.9109128698
 20
-121.6592803169
 30
0.0
 11
430.9109128698
 21
-81.6592797209
 31
0.0
  0
ARC
  5
2FD
  8
0
  6
CONTINUOUS
 62
     7
 10
176.035824024
 20
-121.7824078996
 30
0.0
 40
14.86825280728342
 50
270.8244948462
 51
0.4742558757
  0
ARC
  5
2FE
  8
0
  6
CONTINUOUS
 62
     7
 10
125.6677143457
 20
-121.7858776109
 30
0.0
 40
14.86657497474982
 50
179.512892172
 51
269.323417898
  0
ARC
  5
2FF
  8
0
  6
CONTINUOUS
 62
     7
 10
176.0246478812
 20
-81.5709253852
 30
0.0
 40
14.87763350840299
 50
359.6598827063
 51
32.6990667389
  0
ARC
  5
300
  8
0
  6
CONTINUOUS
 62
     7
 10
125.7715968047
 20
-81.6034356483
 30
0.0
 40
14.97524819321562
 50
147.3881243277
 51
180.2162386816
  0
ARC
  5
301
  8
0
  6
CONTINUOUS
 62
     7
 10
125.5958345939
 20
-81.3662690267
 30
0.0
 40
14.69879197530861
 50
90.6991896742
 51
141.1138697876
  0
ARC
  5
302
  8
0
  6
CONTINUOUS
 62
     7
 10
176.1115274892
 20
-81.3429330317
 30
0.0
 40
14.67822632540672
 50
38.7741646745
 51
89.7632229624
  0
LINE
  5
303
  8
0
  6
CONTINUOUS
 62
     7
 10
110.7934035047
 20
-81.6592797209
 30
0.0
 11
110.7934035047
 21
-121.6592803169
 31
0.0
  0
LINE
  5
304
  8
0
  6
CONTINUOUS
 62
     7
 10
190.9109182342
 20
-121.6592803169
 30
0.0
 11
190.9109182342
 21
-81.6592797209
 31
0.0
  0
ARC
  5
305
  8
0
  6
CONTINUOUS
 62
     7
 10
56.0358186409
 20
-121.7824029923
 30
0.0
 40
14.86825785155795
 50
270.8245313927
 51
0.4742368036
  0
ARC
  5
306
  8
0
  6
CONTINUOUS
 62
     7
 10
5.6677180351
 20
-121.7858809347
 30
0.0
 40
14.86657153992474
 50
179.5128792492
 51
269.323454063
  0
ARC
  5
307
  8
0
  6
CONTINUOUS
 62
     7
 10
56.0246136068
 20
-81.5709394026
 30
0.0
 40
14.87766591083115
 50
359.6599374309
 51
32.6990507799
  0
ARC
  5
308
  8
0
  6
CONTINUOUS
 62
     7
 10
5.7719418875
 20
-81.6035592405
 30
0.0
 40
14.97560949673332
 50
147.3884474048
 51
180.2157606048
  0
ARC
  5
309
  8
0
  6
CONTINUOUS
 62
     7
 10
5.5958191256
 20
-81.3662218681
 30
0.0
 40
14.69874476241991
 50
90.6991734444
 51
141.1139575208
  0
ARC
  5
30A
  8
0
  6
CONTINUOUS
 62
     7
 10
56.1115211841
 20
-81.342957946
 30
0.0
 40
14.67825125822221
 50
38.7742112389
 51
89.7632057327
  0
LINE
  5
30B
  8
0
  6
CONTINUOUS
 62
     7
 10
-9.2065893427
 20
-81.6592797209
 30
0.0
 11
-9.2065893427
 21
-121.6592803169
 31
0.0
  0
LINE
  5
30C
  8
0
  6
CONTINUOUS
 62
     7
 10
70.9109224066
 20
-121.6592803169
 30
0.0
 11
70.9109224066
 21
-81.6592797209
 31
0.0
  0
LINE
  5
30D
  8
0
  6
CONTINUOUS
 62
     7
 10
459.6521533712
 20
-50.9592789728
 30
0.0
 11
459.6521533712
 21
-51.5592790712
 31
0.0
  0
ARC
  5
30E
  8
0
  6
CONTINUOUS
 62
     7
 10
459.2521617635
 20
-50.9592789818
 30
0.0
 40
0.4000000000000341
 50
0.0
 51
90.0
  0
LINE
  5
30F
  8
0
  6
CONTINUOUS
 62
     7
 10
-37.547834994
 20
-50.5592789073
 30
0.0
 11
-35.1478420512
 21
-50.5592789073
 31
0.0
  0
LINE
  5
310
  8
0
  6
CONTINUOUS
 62
     7
 10
-23.1478296534
 20
-50.5592789073
 30
0.0
 11
-11.6478286997
 21
-50.5592789073
 31
0.0
  0
LINE
  5
311
  8
0
  6
CONTINUOUS
 62
     7
 10
-1.6478382365
 20
-50.5592789073
 30
0.0
 11
12.8521598562
 21
-50.5592789073
 31
0.0
  0
LINE
  5
312
  8
0
  6
CONTINUOUS
 62
     7
 10
48.8521612867
 20
-50.5592789073
 30
0.0
 11
63.3521593794
 21
-50.5592789073
 31
0.0
  0
LINE
  5
313
  8
0
  6
CONTINUOUS
 62
     7
 10
73.3521617635
 20
-50.5592789073
 30
0.0
 11
84.8521627172
 21
-50.5592789073
 31
0.0
  0
LINE
  5
314
  8
0
  6
CONTINUOUS
 62
     7
 10
96.8521631941
 20
-50.5592789073
 30
0.0
 11
108.3521641477
 21
-50.5592789073
 31
0.0
  0
LINE
  5
315
  8
0
  6
CONTINUOUS
 62
     7
 10
118.3521605715
 20
-50.5592789073
 30
0.0
 11
132.8521646246
 21
-50.5592789073
 31
0.0
  0
LINE
  5
316
  8
0
  6
CONTINUOUS
 62
     7
 10
168.8521630748
 20
-50.5592789073
 30
0.0
 11
183.3521611675
 21
-50.5592789073
 31
0.0
  0
LINE
  5
317
  8
0
  6
CONTINUOUS
 62
     7
 10
193.3521620616
 20
-50.5592789073
 30
0.0
 11
204.8521618977
 21
-50.5592789073
 31
0.0
  0
LINE
  5
318
  8
0
  6
CONTINUOUS
 62
     7
 10
216.8521616294
 20
-50.5592789073
 30
0.0
 11
228.3521614655
 21
-50.5592789073
 31
0.0
  0
LINE
  5
319
  8
0
  6
CONTINUOUS
 62
     7
 10
238.3521623596
 20
-50.5592789073
 30
0.0
 11
252.8521604522
 21
-50.5592789073
 31
0.0
  0
LINE
  5
31A
  8
0
  6
CONTINUOUS
 62
     7
 10
288.8521589025
 20
-50.5592789073
 30
0.0
 11
303.3521629556
 21
-50.5592789073
 31
0.0
  0
LINE
  5
31B
  8
0
  6
CONTINUOUS
 62
     7
 10
313.3521593794
 20
-50.5592789073
 30
0.0
 11
324.852160333
 21
-50.5592789073
 31
0.0
  0
LINE
  5
31C
  8
0
  6
CONTINUOUS
 62
     7
 10
336.8521608099
 20
-50.5592789073
 30
0.0
 11
348.3521617635
 21
-50.5592789073
 31
0.0
  0
LINE
  5
31D
  8
0
  6
CONTINUOUS
 62
     7
 10
358.3521641477
 20
-50.5592789073
 30
0.0
 11
372.8521622404
 21
-50.5592789073
 31
0.0
  0
LINE
  5
31E
  8
0
  6
CONTINUOUS
 62
     7
 10
408.8521636709
 20
-50.5592789073
 30
0.0
 11
423.3521617635
 21
-50.5592789073
 31
0.0
  0
LINE
  5
31F
  8
0
  6
CONTINUOUS
 62
     7
 10
433.3521522268
 20
-50.5592789073
 30
0.0
 11
444.8521531805
 21
-50.5592789073
 31
0.0
  0
LINE
  5
320
  8
0
  6
CONTINUOUS
 62
     7
 10
456.8521655782
 20
-50.5592789073
 30
0.0
 11
459.2521585211
 21
-50.5592789073
 31
0.0
  0
LINE
  5
321
  8
0
  6
CONTINUOUS
 62
     7
 10
459.6521533712
 20
-51.5592790712
 30
0.0
 11
459.6521533712
 21
-59.5592788924
 31
0.0
  0
LINE
  5
322
  8
0
  6
CONTINUOUS
 62
     7
 10
-37.9478298441
 20
-51.5592790712
 30
0.0
 11
-37.9478298441
 21
-50.9592789728
 31
0.0
  0
ARC
  5
323
  8
0
  6
CONTINUOUS
 62
     7
 10
-37.5478382365
 20
-50.9592789818
 30
0.0
 40
0.4000000000000128
 50
90.0
 51
180.0
  0
LINE
  5
324
  8
0
  6
CONTINUOUS
 62
     7
 10
459.6521533712
 20
-59.5592788924
 30
0.0
 11
459.6521533712
 21
-60.1592789907
 31
0.0
  0
ARC
  5
325
  8
0
  6
CONTINUOUS
 62
     7
 10
459.2521617635
 20
-60.1592789818
 30
0.0
 40
0.4000000000000341
 50
270.0
 51
0.0
  0
LINE
  5
326
  8
0
  6
CONTINUOUS
 62
     7
 10
459.2521585211
 20
-60.5592790563
 30
0.0
 11
456.8521655782
 21
-60.5592790563
 31
0.0
  0
LINE
  5
327
  8
0
  6
CONTINUOUS
 62
     7
 10
444.8521531805
 20
-60.5592790563
 30
0.0
 11
433.3521522268
 21
-60.5592790563
 31
0.0
  0
LINE
  5
328
  8
0
  6
CONTINUOUS
 62
     7
 10
423.3521617635
 20
-60.5592790563
 30
0.0
 11
408.8521636709
 21
-60.5592790563
 31
0.0
  0
LINE
  5
329
  8
0
  6
CONTINUOUS
 62
     7
 10
372.8521622404
 20
-60.5592790563
 30
0.0
 11
358.3521641477
 21
-60.5592790563
 31
0.0
  0
LINE
  5
32A
  8
0
  6
CONTINUOUS
 62
     7
 10
348.3521617635
 20
-60.5592790563
 30
0.0
 11
336.8521608099
 21
-60.5592790563
 31
0.0
  0
LINE
  5
32B
  8
0
  6
CONTINUOUS
 62
     7
 10
324.852160333
 20
-60.5592790563
 30
0.0
 11
313.3521593794
 21
-60.5592790563
 31
0.0
  0
LINE
  5
32C
  8
0
  6
CONTINUOUS
 62
     7
 10
303.3521629556
 20
-60.5592790563
 30
0.0
 11
288.8521589025
 21
-60.5592790563
 31
0.0
  0
LINE
  5
32D
  8
0
  6
CONTINUOUS
 62
     7
 10
252.8521604522
 20
-60.5592790563
 30
0.0
 11
238.3521623596
 21
-60.5592790563
 31
0.0
  0
LINE
  5
32E
  8
0
  6
CONTINUOUS
 62
     7
 10
228.3521614655
 20
-60.5592790563
 30
0.0
 11
216.8521616294
 21
-60.5592790563
 31
0.0
  0
LINE
  5
32F
  8
0
  6
CONTINUOUS
 62
     7
 10
204.8521618977
 20
-60.5592790563
 30
0.0
 11
193.3521620616
 21
-60.5592790563
 31
0.0
  0
LINE
  5
330
  8
0
  6
CONTINUOUS
 62
     7
 10
183.3521611675
 20
-60.5592790563
 30
0.0
 11
168.8521630748
 21
-60.5592790563
 31
0.0
  0
LINE
  5
331
  8
0
  6
CONTINUOUS
 62
     7
 10
132.8521646246
 20
-60.5592790563
 30
0.0
 11
118.3521605715
 21
-60.5592790563
 31
0.0
  0
LINE
  5
332
  8
0
  6
CONTINUOUS
 62
     7
 10
108.3521641477
 20
-60.5592790563
 30
0.0
 11
96.8521631941
 21
-60.5592790563
 31
0.0
  0
LINE
  5
333
  8
0
  6
CONTINUOUS
 62
     7
 10
84.8521627172
 20
-60.5592790563
 30
0.0
 11
73.3521617635
 21
-60.5592790563
 31
0.0
  0
LINE
  5
334
  8
0
  6
CONTINUOUS
 62
     7
 10
63.3521593794
 20
-60.5592790563
 30
0.0
 11
48.8521612867
 21
-60.5592790563
 31
0.0
  0
LINE
  5
335
  8
0
  6
CONTINUOUS
 62
     7
 10
12.8521598562
 20
-60.5592790563
 30
0.0
 11
-1.6478382365
 21
-60.5592790563
 31
0.0
  0
LINE
  5
336
  8
0
  6
CONTINUOUS
 62
     7
 10
-11.6478286997
 20
-60.5592790563
 30
0.0
 11
-23.1478296534
 21
-60.5592790563
 31
0.0
  0
LINE
  5
337
  8
0
  6
CONTINUOUS
 62
     7
 10
-35.1478420512
 20
-60.5592790563
 30
0.0
 11
-37.547834994
 21
-60.5592790563
 31
0.0
  0
LINE
  5
338
  8
0
  6
CONTINUOUS
 62
     7
 10
-37.9478298441
 20
-59.5592788924
 30
0.0
 11
-37.9478298441
 21
-51.5592790712
 31
0.0
  0
ARC
  5
339
  8
0
  6
CONTINUOUS
 62
     7
 10
-37.5478382365
 20
-60.1592789818
 30
0.0
 40
0.4000000000000128
 50
180.0
 51
270.0
  0
LINE
  5
33A
  8
0
  6
CONTINUOUS
 62
     7
 10
-37.9478298441
 20
-60.1592789907
 30
0.0
 11
-37.9478298441
 21
-59.5592788924
 31
0.0
  0
ARC
  5
33B
  8
0
  6
CONTINUOUS
 62
     7
 10
98.8521617635
 20
-49.5592789818
 30
0.0
 40
80.00000000000003
 50
188.6269265587
 51
192.3422028872
  0
LINE
  5
33C
  8
0
  6
CONTINUOUS
 62
     7
 10
18.8531674131
 20
-49.9592788089
 30
0.0
 11
18.8521660551
 21
-49.5592791159
 31
0.0
  0
LINE
  5
33D
  8
0
  6
CONTINUOUS
 62
     7
 10
18.8521660551
 20
-47.5592791606
 30
0.0
 11
18.8521660551
 21
-49.5592791159
 31
0.0
  0
ARC
  5
33E
  8
0
  6
CONTINUOUS
 62
     7
 10
22.8521617635
 20
-47.5592789818
 30
0.0
 40
4.000000000000007
 50
143.0078465574
 51
180.0
  0
ARC
  5
33F
  8
0
  6
CONTINUOUS
 62
     7
 10
38.8521617635
 20
-47.5592789818
 30
0.0
 40
4.000000000000013
 50
0.0
 51
37.0933047126
  0
LINE
  5
340
  8
0
  6
CONTINUOUS
 62
     7
 10
42.8521670088
 20
-49.5592791159
 30
0.0
 11
42.8521670088
 21
-47.5592791606
 31
0.0
  0
LINE
  5
341
  8
0
  6
CONTINUOUS
 62
     7
 10
42.8521670088
 20
-49.5592791159
 30
0.0
 11
42.8511656507
 21
-49.9592788089
 31
0.0
  0
ARC
  5
342
  8
0
  6
CONTINUOUS
 62
     7
 10
-37.1478382365
 20
-49.5592789818
 30
0.0
 40
80.00000000000001
 50
347.6577971128
 51
351.3730734413
  0
CIRCLE
  5
343
  8
0
  6
CONTINUOUS
 62
     7
 10
22.8521617635
 20
-47.5592789818
 30
0.0
 40
1.500000000000014
  0
CIRCLE
  5
344
  8
0
  6
CONTINUOUS
 62
     7
 10
38.8521617635
 20
-47.5592789818
 30
0.0
 40
1.500000000000014
  0
ARC
  5
345
  8
0
  6
CONTINUOUS
 62
     7
 10
398.8521617635
 20
-47.5592789818
 30
0.0
 40
4.000000000000008
 50
0.0
 51
37.0933047126
  0
LINE
  5
346
  8
0
  6
CONTINUOUS
 62
     7
 10
402.852157472
 20
-49.5592791159
 30
0.0
 11
402.852157472
 21
-47.5592791606
 31
0.0
  0
LINE
  5
347
  8
0
  6
CONTINUOUS
 62
     7
 10
402.852157472
 20
-49.5592791159
 30
0.0
 11
402.851156114
 21
-49.9592788089
 31
0.0
  0
ARC
  5
348
  8
0
  6
CONTINUOUS
 62
     7
 10
322.8521617635
 20
-49.5592789818
 30
0.0
 40
80.00000000000003
 50
347.6577971128
 51
351.3730734413
  0
ARC
  5
349
  8
0
  6
CONTINUOUS
 62
     7
 10
458.8521617635
 20
-49.5592789818
 30
0.0
 40
80.0
 50
188.6269265587
 51
192.3422028872
  0
LINE
  5
34A
  8
0
  6
CONTINUOUS
 62
     7
 10
378.8531578764
 20
-49.9592788089
 30
0.0
 11
378.8521565183
 21
-49.5592791159
 31
0.0
  0
LINE
  5
34B
  8
0
  6
CONTINUOUS
 62
     7
 10
378.8521565183
 20
-47.5592791606
 30
0.0
 11
378.8521565183
 21
-49.5592791159
 31
0.0
  0
ARC
  5
34C
  8
0
  6
CONTINUOUS
 62
     7
 10
382.8521617635
 20
-47.5592789818
 30
0.0
 40
4.000000000000009
 50
143.0078465574
 51
180.0
  0
CIRCLE
  5
34D
  8
0
  6
CONTINUOUS
 62
     7
 10
398.8521617635
 20
-47.5592789818
 30
0.0
 40
1.500000000000014
  0
CIRCLE
  5
34E
  8
0
  6
CONTINUOUS
 62
     7
 10
382.8521617635
 20
-47.5592789818
 30
0.0
 40
1.500000000000021
  0
ARC
  5
34F
  8
0
  6
CONTINUOUS
 62
     7
 10
330.8521617635
 20
-55.7592789818
 30
0.0
 40
2.699999999999989
 50
0.0
 51
180.0
  0
ARC
  5
350
  8
0
  6
CONTINUOUS
 62
     7
 10
330.8521617635
 20
-105.7592789818
 30
0.0
 40
2.699999999999989
 50
180.0
 51
0.0
  0
LINE
  5
351
  8
0
  6
CONTINUOUS
 62
     7
 10
324.852160333
 20
-50.9592789728
 30
0.0
 11
324.852160333
 21
-49.7592791487
 31
0.0
  0
LINE
  5
352
  8
0
  6
CONTINUOUS
 62
     7
 10
324.852160333
 20
-49.7592791487
 30
0.0
 11
336.8521608099
 21
-49.7592791487
 31
0.0
  0
LINE
  5
353
  8
0
  6
CONTINUOUS
 62
     7
 10
336.8521608099
 20
-49.7592791487
 30
0.0
 11
336.8521608099
 21
-50.9592789728
 31
0.0
  0
LINE
  5
354
  8
0
  6
CONTINUOUS
 62
     7
 10
336.8521608099
 20
-50.9592789728
 30
0.0
 11
336.8521608099
 21
-60.5592790563
 31
0.0
  0
LINE
  5
355
  8
0
  6
CONTINUOUS
 62
     7
 10
324.852160333
 20
-50.9592789728
 30
0.0
 11
324.852160333
 21
-60.5592790563
 31
0.0
  0
LINE
  5
356
  8
0
  6
CONTINUOUS
 62
     7
 10
336.8521608099
 20
-61.7592788805
 30
0.0
 11
333.5521615728
 21
-61.7592788805
 31
0.0
  0
LINE
  5
357
  8
0
  6
CONTINUOUS
 62
     7
 10
328.1521595701
 20
-61.7592788805
 30
0.0
 11
324.852160333
 21
-61.7592788805
 31
0.0
  0
LINE
  5
358
  8
0
  6
CONTINUOUS
 62
     7
 10
336.8521608099
 20
-60.5592790563
 30
0.0
 11
336.8521608099
 21
-61.7592788805
 31
0.0
  0
LINE
  5
359
  8
0
  6
CONTINUOUS
 62
     7
 10
324.852160333
 20
-61.7592788805
 30
0.0
 11
324.852160333
 21
-60.5592790563
 31
0.0
  0
ARC
  5
35A
  8
0
  6
CONTINUOUS
 62
     7
 10
-29.1478382365
 20
-55.7592789818
 30
0.0
 40
2.700000000000035
 50
0.0
 51
180.0
  0
ARC
  5
35B
  8
0
  6
CONTINUOUS
 62
     7
 10
-29.1478382365
 20
-105.7592789818
 30
0.0
 40
2.700000000000035
 50
180.0
 51
0.0
  0
LINE
  5
35C
  8
0
  6
CONTINUOUS
 62
     7
 10
-35.1478420512
 20
-50.9592789728
 30
0.0
 11
-35.1478420512
 21
-49.7592791487
 31
0.0
  0
LINE
  5
35D
  8
0
  6
CONTINUOUS
 62
     7
 10
-35.1478420512
 20
-49.7592791487
 30
0.0
 11
-23.1478296534
 21
-49.7592791487
 31
0.0
  0
LINE
  5
35E
  8
0
  6
CONTINUOUS
 62
     7
 10
-23.1478296534
 20
-49.7592791487
 30
0.0
 11
-23.1478296534
 21
-50.9592789728
 31
0.0
  0
LINE
  5
35F
  8
0
  6
CONTINUOUS
 62
     7
 10
-35.1478420512
 20
-50.9592789728
 30
0.0
 11
-35.1478420512
 21
-60.5592790563
 31
0.0
  0
LINE
  5
360
  8
0
  6
CONTINUOUS
 62
     7
 10
-23.1478296534
 20
-50.9592789728
 30
0.0
 11
-23.1478296534
 21
-60.5592790563
 31
0.0
  0
LINE
  5
361
  8
0
  6
CONTINUOUS
 62
     7
 10
-23.1478296534
 20
-61.7592788805
 30
0.0
 11
-26.4478288904
 21
-61.7592788805
 31
0.0
  0
LINE
  5
362
  8
0
  6
CONTINUOUS
 62
     7
 10
-31.8478428141
 20
-61.7592788805
 30
0.0
 11
-35.1478420512
 21
-61.7592788805
 31
0.0
  0
LINE
  5
363
  8
0
  6
CONTINUOUS
 62
     7
 10
-35.1478420512
 20
-61.7592788805
 30
0.0
 11
-35.1478420512
 21
-60.5592790563
 31
0.0
  0
LINE
  5
364
  8
0
  6
CONTINUOUS
 62
     7
 10
-23.1478296534
 20
-60.5592790563
 30
0.0
 11
-23.1478296534
 21
-61.7592788805
 31
0.0
  0
ARC
  5
365
  8
0
  6
CONTINUOUS
 62
     7
 10
210.8521617635
 20
-55.7592789818
 30
0.0
 40
2.700000000000017
 50
0.0
 51
180.0
  0
ARC
  5
366
  8
0
  6
CONTINUOUS
 62
     7
 10
210.8521617635
 20
-105.7592789818
 30
0.0
 40
2.700000000000017
 50
180.0
 51
0.0
  0
LINE
  5
367
  8
0
  6
CONTINUOUS
 62
     7
 10
204.8521618977
 20
-49.7592791487
 30
0.0
 11
216.8521616294
 21
-49.7592791487
 31
0.0
  0
LINE
  5
368
  8
0
  6
CONTINUOUS
 62
     7
 10
204.8521618977
 20
-50.9592789728
 30
0.0
 11
204.8521618977
 21
-49.7592791487
 31
0.0
  0
LINE
  5
369
  8
0
  6
CONTINUOUS
 62
     7
 10
216.8521616294
 20
-49.7592791487
 30
0.0
 11
216.8521616294
 21
-50.9592789728
 31
0.0
  0
LINE
  5
36A
  8
0
  6
CONTINUOUS
 62
     7
 10
204.8521618977
 20
-50.9592789728
 30
0.0
 11
204.8521618977
 21
-60.5592790563
 31
0.0
  0
LINE
  5
36B
  8
0
  6
CONTINUOUS
 62
     7
 10
216.8521616294
 20
-50.9592789728
 30
0.0
 11
216.8521616294
 21
-60.5592790563
 31
0.0
  0
LINE
  5
36C
  8
0
  6
CONTINUOUS
 62
     7
 10
216.8521616294
 20
-61.7592788805
 30
0.0
 11
213.5521618336
 21
-61.7592788805
 31
0.0
  0
LINE
  5
36D
  8
0
  6
CONTINUOUS
 62
     7
 10
208.1521616935
 20
-61.7592788805
 30
0.0
 11
204.8521618977
 21
-61.7592788805
 31
0.0
  0
LINE
  5
36E
  8
0
  6
CONTINUOUS
 62
     7
 10
204.8521618977
 20
-61.7592788805
 30
0.0
 11
204.8521618977
 21
-60.5592790563
 31
0.0
  0
LINE
  5
36F
  8
0
  6
CONTINUOUS
 62
     7
 10
216.8521616294
 20
-60.5592790563
 30
0.0
 11
216.8521616294
 21
-61.7592788805
 31
0.0
  0
ARC
  5
370
  8
0
  6
CONTINUOUS
 62
     7
 10
450.8521617635
 20
-55.7592789818
 30
0.0
 40
2.700000000000045
 50
0.0
 51
180.0
  0
ARC
  5
371
  8
0
  6
CONTINUOUS
 62
     7
 10
450.8521617635
 20
-105.7592789818
 30
0.0
 40
2.700000000000045
 50
180.0
 51
0.0
  0
LINE
  5
372
  8
0
  6
CONTINUOUS
 62
     7
 10
444.8521531805
 20
-50.9592789728
 30
0.0
 11
444.8521531805
 21
-49.7592791487
 31
0.0
  0
LINE
  5
373
  8
0
  6
CONTINUOUS
 62
     7
 10
444.8521531805
 20
-49.7592791487
 30
0.0
 11
456.8521655782
 21
-49.7592791487
 31
0.0
  0
LINE
  5
374
  8
0
  6
CONTINUOUS
 62
     7
 10
456.8521655782
 20
-49.7592791487
 30
0.0
 11
456.8521655782
 21
-50.9592789728
 31
0.0
  0
LINE
  5
375
  8
0
  6
CONTINUOUS
 62
     7
 10
456.8521655782
 20
-50.9592789728
 30
0.0
 11
456.8521655782
 21
-60.5592790563
 31
0.0
  0
LINE
  5
376
  8
0
  6
CONTINUOUS
 62
     7
 10
444.8521531805
 20
-50.9592789728
 30
0.0
 11
444.8521531805
 21
-60.5592790563
 31
0.0
  0
LINE
  5
377
  8
0
  6
CONTINUOUS
 62
     7
 10
456.8521655782
 20
-61.7592788805
 30
0.0
 11
453.5521663412
 21
-61.7592788805
 31
0.0
  0
LINE
  5
378
  8
0
  6
CONTINUOUS
 62
     7
 10
448.1521524175
 20
-61.7592788805
 30
0.0
 11
444.8521531805
 21
-61.7592788805
 31
0.0
  0
LINE
  5
379
  8
0
  6
CONTINUOUS
 62
     7
 10
456.8521655782
 20
-60.5592790563
 30
0.0
 11
456.8521655782
 21
-61.7592788805
 31
0.0
  0
LINE
  5
37A
  8
0
  6
CONTINUOUS
 62
     7
 10
444.8521531805
 20
-61.7592788805
 30
0.0
 11
444.8521531805
 21
-60.5592790563
 31
0.0
  0
ARC
  5
37B
  8
0
  6
CONTINUOUS
 62
     7
 10
90.8521617635
 20
-55.7592789818
 30
0.0
 40
2.700000000000003
 50
0.0
 51
180.0
  0
ARC
  5
37C
  8
0
  6
CONTINUOUS
 62
     7
 10
90.8521617635
 20
-105.7592789818
 30
0.0
 40
2.700000000000003
 50
180.0
 51
0.0
  0
LINE
  5
37D
  8
0
  6
CONTINUOUS
 62
     7
 10
84.8521627172
 20
-49.7592791487
 30
0.0
 11
96.8521631941
 21
-49.7592791487
 31
0.0
  0
LINE
  5
37E
  8
0
  6
CONTINUOUS
 62
     7
 10
84.8521627172
 20
-50.9592789728
 30
0.0
 11
84.8521627172
 21
-49.7592791487
 31
0.0
  0
LINE
  5
37F
  8
0
  6
CONTINUOUS
 62
     7
 10
96.8521631941
 20
-49.7592791487
 30
0.0
 11
96.8521631941
 21
-50.9592789728
 31
0.0
  0
LINE
  5
380
  8
0
  6
CONTINUOUS
 62
     7
 10
84.8521627172
 20
-50.9592789728
 30
0.0
 11
84.8521627172
 21
-60.5592790563
 31
0.0
  0
LINE
  5
381
  8
0
  6
CONTINUOUS
 62
     7
 10
96.8521631941
 20
-50.9592789728
 30
0.0
 11
96.8521631941
 21
-60.5592790563
 31
0.0
  0
LINE
  5
382
  8
0
  6
CONTINUOUS
 62
     7
 10
96.8521631941
 20
-61.7592788805
 30
0.0
 11
93.552163957
 21
-61.7592788805
 31
0.0
  0
LINE
  5
383
  8
0
  6
CONTINUOUS
 62
     7
 10
88.1521619543
 20
-61.7592788805
 30
0.0
 11
84.8521627172
 21
-61.7592788805
 31
0.0
  0
LINE
  5
384
  8
0
  6
CONTINUOUS
 62
     7
 10
84.8521627172
 20
-61.7592788805
 30
0.0
 11
84.8521627172
 21
-60.5592790563
 31
0.0
  0
LINE
  5
385
  8
0
  6
CONTINUOUS
 62
     7
 10
96.8521631941
 20
-60.5592790563
 30
0.0
 11
96.8521631941
 21
-61.7592788805
 31
0.0
  0
ARC
  5
386
  8
0
  6
CONTINUOUS
 62
     7
 10
270.8597792765
 20
-25.3614569953
 30
0.0
 40
6.286210616522072
 50
261.3047148537
 51
278.4276105882
  0
LINE
  5
387
  8
0
  6
CONTINUOUS
 62
     7
 10
272.8521622404
 20
-30.9947639276
 30
0.0
 11
268.8521600946
 21
-30.9947639276
 31
0.0
  0
POLYLINE
  5
388
  8
0
  6
CONTINUOUS
 62
     7
 66
     1
 10
0.0
 20
0.0
 30
0.0
  0
VERTEX
  5
965
  8
0
  6
CONTINUOUS
 62
     7
 10
270.8521641477
 20
-31.1154156495
 30
0.0
  0
VERTEX
  5
966
  8
0
  6
CONTINUOUS
 62
     7
 10
270.5823637232
 20
-31.1199351717
 30
0.0
  0
VERTEX
  5
967
  8
0
  6
CONTINUOUS
 62
     7
 10
270.3325785383
 20
-31.133156972
 30
0.0
  0
VERTEX
  5
968
  8
0
  6
CONTINUOUS
 62
     7
 10
270.1213277563
 20
-31.1541020442
 30
0.0
  0
VERTEX
  5
969
  8
0
  6
CONTINUOUS
 62
     7
 10
269.9642754778
 20
-31.1812161971
 30
0.0
  0
VERTEX
  5
96A
  8
0
  6
CONTINUOUS
 62
     7
 10
269.8730803713
 20
-31.2124892641
 30
0.0
  0
VERTEX
  5
96B
  8
0
  6
CONTINUOUS
 62
     7
 10
269.8521591409
 20
-31.2372847963
 30
0.0
  0
SEQEND
  5
B62
  8
0
  6
CONTINUOUS
 62
     7
  0
POLYLINE
  5
389
  8
0
  6
CONTINUOUS
 62
     7
 66
     1
 10
0.0
 20
0.0
 30
0.0
  0
VERTEX
  5
96C
  8
0
  6
CONTINUOUS
 62
     7
 10
271.8521631941
 20
-31.2372847963
 30
0.0
  0
VERTEX
  5
96D
  8
0
  6
CONTINUOUS
 62
     7
 10
271.8312479242
 20
-31.2124892641
 30
0.0
  0
VERTEX
  5
96E
  8
0
  6
CONTINUOUS
 62
     7
 10
271.7400468572
 20
-31.1812161971
 30
0.0
  0
VERTEX
  5
96F
  8
0
  6
CONTINUOUS
 62
     7
 10
271.5830005392
 20
-31.1541020442
 30
0.0
  0
VERTEX
  5
970
  8
0
  6
CONTINUOUS
 62
     7
 10
271.3717437967
 20
-31.133156972
 30
0.0
  0
VERTEX
  5
971
  8
0
  6
CONTINUOUS
 62
     7
 10
271.1219586118
 20
-31.1199351717
 30
0.0
  0
VERTEX
  5
972
  8
0
  6
CONTINUOUS
 62
     7
 10
270.8521641477
 20
-31.1154156495
 30
0.0
  0
SEQEND
  5
B61
  8
0
  6
CONTINUOUS
 62
     7
  0
ARC
  5
38A
  8
0
  6
CONTINUOUS
 62
     7
 10
272.8558782577
 20
-29.9984808233
 30
0.0
 40
0.9962900343946064
 50
269.7862945601
 51
359.7851379638
  0
LINE
  5
38B
  8
0
  6
CONTINUOUS
 62
     7
 10
273.8521612867
 20
-30.0022169519
 30
0.0
 11
273.8521612867
 21
-31.5972595979
 31
0.0
  0
LINE
  5
38C
  8
0
  6
CONTINUOUS
 62
     7
 10
267.8521610483
 20
-31.6017880608
 30
0.0
 11
267.8521610483
 21
-30.0022169519
 31
0.0
  0
ARC
  5
38D
  8
0
  6
CONTINUOUS
 62
     7
 10
268.8484465464
 20
-29.9984783357
 30
0.0
 40
0.9962925127945053
 50
180.2150045634
 51
270.2135629127
  0
LINE
  5
38E
  8
0
  6
CONTINUOUS
 62
     7
 10
267.8521610483
 20
-30.0022169519
 30
0.0
 11
267.8521610483
 21
-26.03203501
 31
0.0
  0
ARC
  5
38F
  8
0
  6
CONTINUOUS
 62
     7
 10
268.8484501511
 20
-26.0357757623
 30
0.0
 40
0.9962961254760548
 50
89.7866451645
 51
179.7848733755
  0
LINE
  5
390
  8
0
  6
CONTINUOUS
 62
     7
 10
268.8521600946
 20
-25.0394865442
 30
0.0
 11
272.8521622404
 21
-25.0394865442
 31
0.0
  0
ARC
  5
391
  8
0
  6
CONTINUOUS
 62
     7
 10
272.855874653
 20
-26.0357732746
 30
0.0
 40
0.9962936469891643
 50
0.2149840936
 51
90.2134973664
  0
LINE
  5
392
  8
0
  6
CONTINUOUS
 62
     7
 10
273.8521612867
 20
-26.03203501
 30
0.0
 11
273.8521612867
 21
-30.0022169519
 31
0.0
  0
POLYLINE
  5
393
  8
0
  6
CONTINUOUS
 62
     7
 66
     1
 10
0.0
 20
0.0
 30
0.0
  0
VERTEX
  5
973
  8
0
  6
CONTINUOUS
 62
     7
 10
297.5527144655
 20
-45.3731633295
 30
0.0
  0
VERTEX
  5
974
  8
0
  6
CONTINUOUS
 62
     7
 10
298.6338711961
 20
-45.5025113691
 30
0.0
  0
VERTEX
  5
975
  8
0
  6
CONTINUOUS
 62
     7
 10
299.6826566442
 20
-45.6184111107
 30
0.0
  0
VERTEX
  5
976
  8
0
  6
CONTINUOUS
 62
     7
 10
300.6794966444
 20
-45.7179940809
 30
0.0
  0
VERTEX
  5
977
  8
0
  6
CONTINUOUS
 62
     7
 10
301.6144193395
 20
-45.7992896009
 30
0.0
  0
VERTEX
  5
978
  8
0
  6
CONTINUOUS
 62
     7
 10
302.4797357305
 20
-45.8607732822
 30
0.0
  0
VERTEX
  5
979
  8
0
  6
CONTINUOUS
 62
     7
 10
303.2597459539
 20
-45.9002933968
 30
0.0
  0
VERTEX
  5
97A
  8
0
  6
CONTINUOUS
 62
     7
 10
303.9500333055
 20
-45.9161400367
 30
0.0
  0
VERTEX
  5
97B
  8
0
  6
CONTINUOUS
 62
     7
 10
304.5412279352
 20
-45.9072157312
 30
0.0
  0
VERTEX
  5
97C
  8
0
  6
CONTINUOUS
 62
     7
 10
305.0229049906
 20
-45.8727649916
 30
0.0
  0
VERTEX
  5
97D
  8
0
  6
CONTINUOUS
 62
     7
 10
305.3924478277
 20
-45.8111673165
 30
0.0
  0
VERTEX
  5
97E
  8
0
  6
CONTINUOUS
 62
     7
 10
305.6432403311
 20
-45.7229949106
 30
0.0
  0
VERTEX
  5
97F
  8
0
  6
CONTINUOUS
 62
     7
 10
305.7708896383
 20
-45.6094257105
 30
0.0
  0
VERTEX
  5
980
  8
0
  6
CONTINUOUS
 62
     7
 10
305.7877696737
 20
-45.5403573383
 30
0.0
  0
SEQEND
  5
B60
  8
0
  6
CONTINUOUS
 62
     7
  0
ARC
  5
394
  8
0
  6
CONTINUOUS
 62
     7
 10
270.8521611675
 20
-229.2113864168
 30
0.0
 40
185.7670902348647
 50
81.7361790473
 51
98.2638209527
  0
POLYLINE
  5
395
  8
0
  6
CONTINUOUS
 62
     7
 66
     1
 10
0.0
 20
0.0
 30
0.0
  0
VERTEX
  5
981
  8
0
  6
CONTINUOUS
 62
     7
 10
235.9165526613
 20
-45.5403573383
 30
0.0
  0
VERTEX
  5
982
  8
0
  6
CONTINUOUS
 62
     7
 10
235.9806395754
 20
-45.6678904165
 30
0.0
  0
VERTEX
  5
983
  8
0
  6
CONTINUOUS
 62
     7
 10
236.1706591829
 20
-45.7701883782
 30
0.0
  0
VERTEX
  5
984
  8
0
  6
CONTINUOUS
 62
     7
 10
236.4832438215
 20
-45.845679896
 30
0.0
  0
VERTEX
  5
985
  8
0
  6
CONTINUOUS
 62
     7
 10
236.9173116668
 20
-45.8937413562
 30
0.0
  0
VERTEX
  5
986
  8
0
  6
CONTINUOUS
 62
     7
 10
237.4675579056
 20
-45.9151640106
 30
0.0
  0
VERTEX
  5
987
  8
0
  6
CONTINUOUS
 62
     7
 10
238.1239927992
 20
-45.9104515184
 30
0.0
  0
VERTEX
  5
988
  8
0
  6
CONTINUOUS
 62
     7
 10
238.8773597463
 20
-45.8805426527
 30
0.0
  0
VERTEX
  5
989
  8
0
  6
CONTINUOUS
 62
     7
 10
239.7231734976
 20
-45.8272203375
 30
0.0
  0
VERTEX
  5
98A
  8
0
  6
CONTINUOUS
 62
     7
 10
240.6456507429
 20
-45.7525826562
 30
0.0
  0
VERTEX
  5
98B
  8
0
  6
CONTINUOUS
 62
     7
 10
241.6274673923
 20
-45.6591389645
 30
0.0
  0
VERTEX
  5
98C
  8
0
  6
CONTINUOUS
 62
     7
 10
242.6669455751
 20
-45.5483078528
 30
0.0
  0
VERTEX
  5
98D
  8
0
  6
CONTINUOUS
 62
     7
 10
243.744421719
 20
-45.422973441
 30
0.0
  0
VERTEX
  5
98E
  8
0
  6
CONTINUOUS
 62
     7
 10
244.1516078695
 20
-45.3731633295
 30
0.0
  0
SEQEND
  5
B5F
  8
0
  6
CONTINUOUS
 62
     7
  0
LINE
  5
396
  8
0
  6
CONTINUOUS
 62
     7
 10
235.9165526613
 20
-41.0309433509
 30
0.0
 11
235.9165526613
 21
-45.5403573383
 31
0.0
  0
LINE
  5
397
  8
0
  6
CONTINUOUS
 62
     7
 10
305.7877696737
 20
-45.5403573383
 30
0.0
 11
305.7877696737
 21
-41.0324781705
 31
0.0
  0
POLYLINE
  5
398
  8
0
  6
CONTINUOUS
 62
     7
 66
     1
 10
0.0
 20
0.0
 30
0.0
  0
VERTEX
  5
98F
  8
0
  6
CONTINUOUS
 62
     7
 10
310.9109200224
 20
-44.4017849434
 30
0.0
  0
VERTEX
  5
990
  8
0
  6
CONTINUOUS
 62
     7
 10
310.9087027296
 20
-44.5101737548
 30
0.0
  0
VERTEX
  5
991
  8
0
  6
CONTINUOUS
 62
     7
 10
310.8479775175
 20
-44.9759676624
 30
0.0
  0
SEQEND
  5
B5E
  8
0
  6
CONTINUOUS
 62
     7
  0
ARC
  5
399
  8
0
  6
CONTINUOUS
 62
     7
 10
150.8597804731
 20
-25.3614550648
 30
0.0
 40
6.286212525477725
 50
261.3047174731
 51
278.4276079687
  0
LINE
  5
39A
  8
0
  6
CONTINUOUS
 62
     7
 10
147.8521622404
 20
-31.6017880608
 30
0.0
 11
147.8521622404
 21
-30.0022169519
 31
0.0
  0
ARC
  5
39B
  8
0
  6
CONTINUOUS
 62
     7
 10
148.8484452694
 20
-29.9984808233
 30
0.0
 40
0.9962900343946236
 50
180.2148620362
 51
270.2137054399
  0
ARC
  5
39C
  8
0
  6
CONTINUOUS
 62
     7
 10
152.8558769807
 20
-29.9984783357
 30
0.0
 40
0.9962925127944733
 50
269.7864370873
 51
359.7849954366
  0
LINE
  5
39D
  8
0
  6
CONTINUOUS
 62
     7
 10
153.8521624788
 20
-30.0022169519
 30
0.0
 11
153.8521624788
 21
-31.5972595979
 31
0.0
  0
LINE
  5
39E
  8
0
  6
CONTINUOUS
 62
     7
 10
152.8521634325
 20
-30.9947639276
 30
0.0
 11
148.8521612867
 21
-30.9947639276
 31
0.0
  0
POLYLINE
  5
39F
  8
0
  6
CONTINUOUS
 62
     7
 66
     1
 10
0.0
 20
0.0
 30
0.0
  0
VERTEX
  5
992
  8
0
  6
CONTINUOUS
 62
     7
 10
150.8521593794
 20
-31.1154156495
 30
0.0
  0
VERTEX
  5
993
  8
0
  6
CONTINUOUS
 62
     7
 10
150.5823649152
 20
-31.1199351717
 30
0.0
  0
VERTEX
  5
994
  8
0
  6
CONTINUOUS
 62
     7
 10
150.3325797304
 20
-31.133156972
 30
0.0
  0
VERTEX
  5
995
  8
0
  6
CONTINUOUS
 62
     7
 10
150.1213229879
 20
-31.1541020442
 30
0.0
  0
VERTEX
  5
996
  8
0
  6
CONTINUOUS
 62
     7
 10
149.9642766699
 20
-31.1812161971
 30
0.0
  0
VERTEX
  5
997
  8
0
  6
CONTINUOUS
 62
     7
 10
149.8730756029
 20
-31.2124892641
 30
0.0
  0
VERTEX
  5
998
  8
0
  6
CONTINUOUS
 62
     7
 10
149.852160333
 20
-31.2372847963
 30
0.0
  0
SEQEND
  5
B5D
  8
0
  6
CONTINUOUS
 62
     7
  0
POLYLINE
  5
3A0
  8
0
  6
CONTINUOUS
 62
     7
 66
     1
 10
0.0
 20
0.0
 30
0.0
  0
VERTEX
  5
999
  8
0
  6
CONTINUOUS
 62
     7
 10
151.8521643862
 20
-31.2372847963
 30
0.0
  0
VERTEX
  5
99A
  8
0
  6
CONTINUOUS
 62
     7
 10
151.8312431558
 20
-31.2124892641
 30
0.0
  0
VERTEX
  5
99B
  8
0
  6
CONTINUOUS
 62
     7
 10
151.7400480493
 20
-31.1812161971
 30
0.0
  0
VERTEX
  5
99C
  8
0
  6
CONTINUOUS
 62
     7
 10
151.5829957708
 20
-31.1541020442
 30
0.0
  0
VERTEX
  5
99D
  8
0
  6
CONTINUOUS
 62
     7
 10
151.3717449888
 20
-31.133156972
 30
0.0
  0
VERTEX
  5
99E
  8
0
  6
CONTINUOUS
 62
     7
 10
151.1219598039
 20
-31.1199351717
 30
0.0
  0
VERTEX
  5
99F
  8
0
  6
CONTINUOUS
 62
     7
 10
150.8521593794
 20
-31.1154156495
 30
0.0
  0
SEQEND
  5
B5C
  8
0
  6
CONTINUOUS
 62
     7
  0
LINE
  5
3A1
  8
0
  6
CONTINUOUS
 62
     7
 10
147.8521622404
 20
-30.0022169519
 30
0.0
 11
147.8521622404
 21
-26.03203501
 31
0.0
  0
ARC
  5
3A2
  8
0
  6
CONTINUOUS
 62
     7
 10
148.848448874
 20
-26.0357732746
 30
0.0
 40
0.9962936469892069
 50
89.7865026336
 51
179.7850159064
  0
LINE
  5
3A3
  8
0
  6
CONTINUOUS
 62
     7
 10
148.8521612867
 20
-25.0394865442
 30
0.0
 11
152.8521634325
 21
-25.0394865442
 31
0.0
  0
ARC
  5
3A4
  8
0
  6
CONTINUOUS
 62
     7
 10
152.855873376
 20
-26.0357757623
 30
0.0
 40
0.9962961254760265
 50
0.2151266245
 51
90.2133548355
  0
LINE
  5
3A5
  8
0
  6
CONTINUOUS
 62
     7
 10
153.8521624788
 20
-26.03203501
 30
0.0
 11
153.8521624788
 21
-30.0022169519
 31
0.0
  0
POLYLINE
  5
3A6
  8
0
  6
CONTINUOUS
 62
     7
 66
     1
 10
0.0
 20
0.0
 30
0.0
  0
VERTEX
  5
9A0
  8
0
  6
CONTINUOUS
 62
     7
 10
177.5527156576
 20
-45.3731633295
 30
0.0
  0
VERTEX
  5
9A1
  8
0
  6
CONTINUOUS
 62
     7
 10
178.633869408
 20
-45.5025113691
 30
0.0
  0
VERTEX
  5
9A2
  8
0
  6
CONTINUOUS
 62
     7
 10
179.6826578363
 20
-45.6184111107
 30
0.0
  0
VERTEX
  5
9A3
  8
0
  6
CONTINUOUS
 62
     7
 10
180.6794978365
 20
-45.7179940809
 30
0.0
  0
VERTEX
  5
9A4
  8
0
  6
CONTINUOUS
 62
     7
 10
181.6144205316
 20
-45.7992896009
 30
0.0
  0
VERTEX
  5
9A5
  8
0
  6
CONTINUOUS
 62
     7
 10
182.4797339424
 20
-45.8607732822
 30
0.0
  0
VERTEX
  5
9A6
  8
0
  6
CONTINUOUS
 62
     7
 10
183.259747146
 20
-45.9002933968
 30
0.0
  0
VERTEX
  5
9A7
  8
0
  6
CONTINUOUS
 62
     7
 10
183.9500344976
 20
-45.9161400367
 30
0.0
  0
VERTEX
  5
9A8
  8
0
  6
CONTINUOUS
 62
     7
 10
184.5412261471
 20
-45.9072157312
 30
0.0
  0
VERTEX
  5
9A9
  8
0
  6
CONTINUOUS
 62
     7
 10
185.0229032024
 20
-45.8727649916
 30
0.0
  0
VERTEX
  5
9AA
  8
0
  6
CONTINUOUS
 62
     7
 10
185.392452
 20
-45.8111673165
 30
0.0
  0
VERTEX
  5
9AB
  8
0
  6
CONTINUOUS
 62
     7
 10
185.6432385429
 20
-45.7229949106
 30
0.0
  0
VERTEX
  5
9AC
  8
0
  6
CONTINUOUS
 62
     7
 10
185.7708878502
 20
-45.6094257105
 30
0.0
  0
VERTEX
  5
9AD
  8
0
  6
CONTINUOUS
 62
     7
 10
185.7877708658
 20
-45.5403573383
 30
0.0
  0
SEQEND
  5
B5B
  8
0
  6
CONTINUOUS
 62
     7
  0
ARC
  5
3A7
  8
0
  6
CONTINUOUS
 62
     7
 10
150.8521623596
 20
-229.2113864168
 30
0.0
 40
185.767090234865
 50
81.7361790473
 51
98.2638209527
  0
POLYLINE
  5
3A8
  8
0
  6
CONTINUOUS
 62
     7
 66
     1
 10
0.0
 20
0.0
 30
0.0
  0
VERTEX
  5
9AE
  8
0
  6
CONTINUOUS
 62
     7
 10
115.9165538534
 20
-45.5403573383
 30
0.0
  0
VERTEX
  5
9AF
  8
0
  6
CONTINUOUS
 62
     7
 10
115.9806407675
 20
-45.6678904165
 30
0.0
  0
VERTEX
  5
9B0
  8
0
  6
CONTINUOUS
 62
     7
 10
116.170660375
 20
-45.7701883782
 30
0.0
  0
VERTEX
  5
9B1
  8
0
  6
CONTINUOUS
 62
     7
 10
116.4832450136
 20
-45.845679896
 30
0.0
  0
VERTEX
  5
9B2
  8
0
  6
CONTINUOUS
 62
     7
 10
116.9173098787
 20
-45.8937413562
 30
0.0
  0
VERTEX
  5
9B3
  8
0
  6
CONTINUOUS
 62
     7
 10
117.4675561174
 20
-45.9151640106
 30
0.0
  0
VERTEX
  5
9B4
  8
0
  6
CONTINUOUS
 62
     7
 10
118.1239939913
 20
-45.9104515184
 30
0.0
  0
VERTEX
  5
9B5
  8
0
  6
CONTINUOUS
 62
     7
 10
118.8773609384
 20
-45.8805426527
 30
0.0
  0
VERTEX
  5
9B6
  8
0
  6
CONTINUOUS
 62
     7
 10
119.7231746896
 20
-45.8272203375
 30
0.0
  0
VERTEX
  5
9B7
  8
0
  6
CONTINUOUS
 62
     7
 10
120.645651935
 20
-45.7525826562
 30
0.0
  0
VERTEX
  5
9B8
  8
0
  6
CONTINUOUS
 62
     7
 10
121.6274656042
 20
-45.6591389645
 30
0.0
  0
VERTEX
  5
9B9
  8
0
  6
CONTINUOUS
 62
     7
 10
122.6669467672
 20
-45.5483078528
 30
0.0
  0
VERTEX
  5
9BA
  8
0
  6
CONTINUOUS
 62
     7
 10
123.7444199308
 20
-45.422973441
 30
0.0
  0
VERTEX
  5
9BB
  8
0
  6
CONTINUOUS
 62
     7
 10
124.1516090616
 20
-45.3731633295
 30
0.0
  0
SEQEND
  5
B5A
  8
0
  6
CONTINUOUS
 62
     7
  0
LINE
  5
3A9
  8
0
  6
CONTINUOUS
 62
     7
 10
115.9165538534
 20
-41.0309433509
 30
0.0
 11
115.9165538534
 21
-45.5403573383
 31
0.0
  0
LINE
  5
3AA
  8
0
  6
CONTINUOUS
 62
     7
 10
185.7877708658
 20
-45.5403573383
 30
0.0
 11
185.7877708658
 21
-41.0324781705
 31
0.0
  0
POLYLINE
  5
3AB
  8
0
  6
CONTINUOUS
 62
     7
 66
     1
 10
0.0
 20
0.0
 30
0.0
  0
VERTEX
  5
9BC
  8
0
  6
CONTINUOUS
 62
     7
 10
190.9109182342
 20
-44.4017849434
 30
0.0
  0
VERTEX
  5
9BD
  8
0
  6
CONTINUOUS
 62
     7
 10
190.9087009414
 20
-44.5101737548
 30
0.0
  0
VERTEX
  5
9BE
  8
0
  6
CONTINUOUS
 62
     7
 10
190.8479787096
 20
-44.9759676624
 30
0.0
  0
SEQEND
  5
B59
  8
0
  6
CONTINUOUS
 62
     7
  0
ARC
  5
3AC
  8
0
  6
CONTINUOUS
 62
     7
 10
390.8597811524
 20
-25.3614392282
 30
0.0
 40
6.286227742112569
 50
261.304765396
 51
278.4275591935
  0
LINE
  5
3AD
  8
0
  6
CONTINUOUS
 62
     7
 10
387.8521598562
 20
-31.6017880608
 30
0.0
 11
387.8521598562
 21
-30.0022169519
 31
0.0
  0
ARC
  5
3AE
  8
0
  6
CONTINUOUS
 62
     7
 10
388.8484522098
 20
-29.9984714288
 30
0.0
 40
0.9962993941203967
 50
180.2154002875
 51
270.2131671886
  0
ARC
  5
3AF
  8
0
  6
CONTINUOUS
 62
     7
 10
392.8558687633
 20
-29.9984664535
 30
0.0
 40
0.9963043510304559
 50
269.7871178631
 51
359.7843146608
  0
LINE
  5
3B0
  8
0
  6
CONTINUOUS
 62
     7
 10
393.8521660551
 20
-30.0022169519
 30
0.0
 11
393.8521660551
 21
-31.5972595979
 31
0.0
  0
LINE
  5
3B1
  8
0
  6
CONTINUOUS
 62
     7
 10
387.8521598562
 20
-30.0022169519
 30
0.0
 11
387.8521598562
 21
-26.03203501
 31
0.0
  0
ARC
  5
3B2
  8
0
  6
CONTINUOUS
 62
     7
 10
388.8484558144
 20
-26.0357826691
 30
0.0
 40
0.9963030067544814
 50
89.7870408821
 51
179.7844776578
  0
LINE
  5
3B3
  8
0
  6
CONTINUOUS
 62
     7
 10
388.8521589025
 20
-25.0394865442
 30
0.0
 11
392.8521670088
 21
-25.0394865442
 31
0.0
  0
ARC
  5
3B4
  8
0
  6
CONTINUOUS
 62
     7
 10
392.8558651585
 20
-26.0357876446
 30
0.0
 40
0.996307963838458
 50
0.2158074012
 51
90.2126740589
  0
LINE
  5
3B5
  8
0
  6
CONTINUOUS
 62
     7
 10
393.8521660551
 20
-26.03203501
 30
0.0
 11
393.8521660551
 21
-30.0022169519
 31
0.0
  0
LINE
  5
3B6
  8
0
  6
CONTINUOUS
 62
     7
 10
392.8521670088
 20
-30.9947639276
 30
0.0
 11
388.8521589025
 21
-30.9947639276
 31
0.0
  0
POLYLINE
  5
3B7
  8
0
  6
CONTINUOUS
 62
     7
 66
     1
 10
0.0
 20
0.0
 30
0.0
  0
VERTEX
  5
9BF
  8
0
  6
CONTINUOUS
 62
     7
 10
390.8521569952
 20
-31.1154156495
 30
0.0
  0
VERTEX
  5
9C0
  8
0
  6
CONTINUOUS
 62
     7
 10
390.5823625311
 20
-31.1199351717
 30
0.0
  0
VERTEX
  5
9C1
  8
0
  6
CONTINUOUS
 62
     7
 10
390.3325833067
 20
-31.133156972
 30
0.0
  0
VERTEX
  5
9C2
  8
0
  6
CONTINUOUS
 62
     7
 10
390.1213206037
 20
-31.1541020442
 30
0.0
  0
VERTEX
  5
9C3
  8
0
  6
CONTINUOUS
 62
     7
 10
389.9642742857
 20
-31.1812161971
 30
0.0
  0
VERTEX
  5
9C4
  8
0
  6
CONTINUOUS
 62
     7
 10
389.8730791792
 20
-31.2124892641
 30
0.0
  0
VERTEX
  5
9C5
  8
0
  6
CONTINUOUS
 62
     7
 10
389.8521579488
 20
-31.2372847963
 30
0.0
  0
SEQEND
  5
B58
  8
0
  6
CONTINUOUS
 62
     7
  0
POLYLINE
  5
3B8
  8
0
  6
CONTINUOUS
 62
     7
 66
     1
 10
0.0
 20
0.0
 30
0.0
  0
VERTEX
  5
9C6
  8
0
  6
CONTINUOUS
 62
     7
 10
391.8521560415
 20
-31.2372847963
 30
0.0
  0
VERTEX
  5
9C7
  8
0
  6
CONTINUOUS
 62
     7
 10
391.8312467321
 20
-31.2124892641
 30
0.0
  0
VERTEX
  5
9C8
  8
0
  6
CONTINUOUS
 62
     7
 10
391.7400516256
 20
-31.1812161971
 30
0.0
  0
VERTEX
  5
9C9
  8
0
  6
CONTINUOUS
 62
     7
 10
391.5829933866
 20
-31.1541020442
 30
0.0
  0
VERTEX
  5
9CA
  8
0
  6
CONTINUOUS
 62
     7
 10
391.3717426046
 20
-31.133156972
 30
0.0
  0
VERTEX
  5
9CB
  8
0
  6
CONTINUOUS
 62
     7
 10
391.1219633802
 20
-31.1199351717
 30
0.0
  0
VERTEX
  5
9CC
  8
0
  6
CONTINUOUS
 62
     7
 10
390.8521569952
 20
-31.1154156495
 30
0.0
  0
SEQEND
  5
B57
  8
0
  6
CONTINUOUS
 62
     7
  0
POLYLINE
  5
3B9
  8
0
  6
CONTINUOUS
 62
     7
 66
     1
 10
0.0
 20
0.0
 30
0.0
  0
VERTEX
  5
9CD
  8
0
  6
CONTINUOUS
 62
     7
 10
417.5527251943
 20
-45.3731633295
 30
0.0
  0
VERTEX
  5
9CE
  8
0
  6
CONTINUOUS
 62
     7
 10
418.6338580831
 20
-45.5025113691
 30
0.0
  0
VERTEX
  5
9CF
  8
0
  6
CONTINUOUS
 62
     7
 10
419.6826614126
 20
-45.6184111107
 30
0.0
  0
VERTEX
  5
9D0
  8
0
  6
CONTINUOUS
 62
     7
 10
420.6794894918
 20
-45.7179940809
 30
0.0
  0
VERTEX
  5
9D1
  8
0
  6
CONTINUOUS
 62
     7
 10
421.6144241079
 20
-45.7992896009
 30
0.0
  0
VERTEX
  5
9D2
  8
0
  6
CONTINUOUS
 62
     7
 10
422.4797404989
 20
-45.8607732822
 30
0.0
  0
VERTEX
  5
9D3
  8
0
  6
CONTINUOUS
 62
     7
 10
423.2597507223
 20
-45.9002933968
 30
0.0
  0
VERTEX
  5
9D4
  8
0
  6
CONTINUOUS
 62
     7
 10
423.9500440344
 20
-45.9161400367
 30
0.0
  0
VERTEX
  5
9D5
  8
0
  6
CONTINUOUS
 62
     7
 10
424.5412267431
 20
-45.9072157312
 30
0.0
  0
VERTEX
  5
9D6
  8
0
  6
CONTINUOUS
 62
     7
 10
425.0229037985
 20
-45.8727649916
 30
0.0
  0
VERTEX
  5
9D7
  8
0
  6
CONTINUOUS
 62
     7
 10
425.3924525961
 20
-45.8111673165
 30
0.0
  0
VERTEX
  5
9D8
  8
0
  6
CONTINUOUS
 62
     7
 10
425.6432450994
 20
-45.7229949106
 30
0.0
  0
VERTEX
  5
9D9
  8
0
  6
CONTINUOUS
 62
     7
 10
425.7708944067
 20
-45.6094257105
 30
0.0
  0
VERTEX
  5
9DA
  8
0
  6
CONTINUOUS
 62
     7
 10
425.7877744421
 20
-45.5403573383
 30
0.0
  0
SEQEND
  5
B56
  8
0
  6
CONTINUOUS
 62
     7
  0
ARC
  5
3BA
  8
0
  6
CONTINUOUS
 62
     7
 10
390.8521689161
 20
-229.2114176251
 30
0.0
 40
185.7671215474735
 50
81.7361795211
 51
98.2638204789
  0
POLYLINE
  5
3BB
  8
0
  6
CONTINUOUS
 62
     7
 66
     1
 10
0.0
 20
0.0
 30
0.0
  0
VERTEX
  5
9DB
  8
0
  6
CONTINUOUS
 62
     7
 10
355.9165514692
 20
-45.5403573383
 30
0.0
  0
VERTEX
  5
9DC
  8
0
  6
CONTINUOUS
 62
     7
 10
355.9806383833
 20
-45.6678904165
 30
0.0
  0
VERTEX
  5
9DD
  8
0
  6
CONTINUOUS
 62
     7
 10
356.1706579908
 20
-45.7701883782
 30
0.0
  0
VERTEX
  5
9DE
  8
0
  6
CONTINUOUS
 62
     7
 10
356.4832485899
 20
-45.845679896
 30
0.0
  0
VERTEX
  5
9DF
  8
0
  6
CONTINUOUS
 62
     7
 10
356.917313455
 20
-45.8937413562
 30
0.0
  0
VERTEX
  5
9E0
  8
0
  6
CONTINUOUS
 62
     7
 10
357.4675596937
 20
-45.9151640106
 30
0.0
  0
VERTEX
  5
9E1
  8
0
  6
CONTINUOUS
 62
     7
 10
358.1239975675
 20
-45.9104515184
 30
0.0
  0
VERTEX
  5
9E2
  8
0
  6
CONTINUOUS
 62
     7
 10
358.8773645147
 20
-45.8805426527
 30
0.0
  0
VERTEX
  5
9E3
  8
0
  6
CONTINUOUS
 62
     7
 10
359.7231782659
 20
-45.8272203375
 30
0.0
  0
VERTEX
  5
9E4
  8
0
  6
CONTINUOUS
 62
     7
 10
360.6456435903
 20
-45.7525826562
 30
0.0
  0
VERTEX
  5
9E5
  8
0
  6
CONTINUOUS
 62
     7
 10
361.62746322
 20
-45.6591389645
 30
0.0
  0
VERTEX
  5
9E6
  8
0
  6
CONTINUOUS
 62
     7
 10
362.666944383
 20
-45.5483078528
 30
0.0
  0
VERTEX
  5
9E7
  8
0
  6
CONTINUOUS
 62
     7
 10
363.7444175466
 20
-45.422973441
 30
0.0
  0
VERTEX
  5
9E8
  8
0
  6
CONTINUOUS
 62
     7
 10
364.1516126379
 20
-45.3731633295
 30
0.0
  0
SEQEND
  5
B55
  8
0
  6
CONTINUOUS
 62
     7
  0
LINE
  5
3BC
  8
0
  6
CONTINUOUS
 62
     7
 10
355.9165514692
 20
-41.0309433509
 30
0.0
 11
355.9165514692
 21
-45.5403573383
 31
0.0
  0
LINE
  5
3BD
  8
0
  6
CONTINUOUS
 62
     7
 10
425.7877744421
 20
-45.5403573383
 30
0.0
 11
425.7877744421
 21
-41.0324781705
 31
0.0
  0
POLYLINE
  5
3BE
  8
0
  6
CONTINUOUS
 62
     7
 66
     1
 10
0.0
 20
0.0
 30
0.0
  0
VERTEX
  5
9E9
  8
0
  6
CONTINUOUS
 62
     7
 10
430.9109128698
 20
-44.4017849434
 30
0.0
  0
VERTEX
  5
9EA
  8
0
  6
CONTINUOUS
 62
     7
 10
430.908695577
 20
-44.5101737548
 30
0.0
  0
VERTEX
  5
9EB
  8
0
  6
CONTINUOUS
 62
     7
 10
430.8479703649
 20
-44.9759676624
 30
0.0
  0
SEQEND
  5
B54
  8
0
  6
CONTINUOUS
 62
     7
  0
ARC
  5
3BF
  8
0
  6
CONTINUOUS
 62
     7
 10
30.8597785563
 20
-25.3615299357
 30
0.0
 40
6.286138045188934
 50
261.304642316
 51
278.4276822735
  0
ARC
  5
3C0
  8
0
  6
CONTINUOUS
 62
     7
 10
32.8558713173
 20
-29.9984714288
 30
0.0
 40
0.9962993941203295
 50
269.7868328114
 51
359.7845997126
  0
LINE
  5
3C1
  8
0
  6
CONTINUOUS
 62
     7
 10
33.8521636709
 20
-30.0022169519
 30
0.0
 11
33.8521636709
 21
-31.5972595979
 31
0.0
  0
LINE
  5
3C2
  8
0
  6
CONTINUOUS
 62
     7
 10
32.8521646246
 20
-30.9947639276
 30
0.0
 11
28.8521565183
 21
-30.9947639276
 31
0.0
  0
POLYLINE
  5
3C3
  8
0
  6
CONTINUOUS
 62
     7
 66
     1
 10
0.0
 20
0.0
 30
0.0
  0
VERTEX
  5
9EC
  8
0
  6
CONTINUOUS
 62
     7
 10
30.8521665319
 20
-31.1154156495
 30
0.0
  0
VERTEX
  5
9ED
  8
0
  6
CONTINUOUS
 62
     7
 10
30.5823601469
 20
-31.1199351717
 30
0.0
  0
VERTEX
  5
9EE
  8
0
  6
CONTINUOUS
 62
     7
 10
30.3325809225
 20
-31.133156972
 30
0.0
  0
VERTEX
  5
9EF
  8
0
  6
CONTINUOUS
 62
     7
 10
30.1213301405
 20
-31.1541020442
 30
0.0
  0
VERTEX
  5
9F0
  8
0
  6
CONTINUOUS
 62
     7
 10
29.9642719015
 20
-31.1812161971
 30
0.0
  0
VERTEX
  5
9F1
  8
0
  6
CONTINUOUS
 62
     7
 10
29.873076795
 20
-31.2124892641
 30
0.0
  0
VERTEX
  5
9F2
  8
0
  6
CONTINUOUS
 62
     7
 10
29.8521674856
 20
-31.2372847963
 30
0.0
  0
SEQEND
  5
B53
  8
0
  6
CONTINUOUS
 62
     7
  0
POLYLINE
  5
3C4
  8
0
  6
CONTINUOUS
 62
     7
 66
     1
 10
0.0
 20
0.0
 30
0.0
  0
VERTEX
  5
9F3
  8
0
  6
CONTINUOUS
 62
     7
 10
31.8521655782
 20
-31.2372847963
 30
0.0
  0
VERTEX
  5
9F4
  8
0
  6
CONTINUOUS
 62
     7
 10
31.8312443479
 20
-31.2124892641
 30
0.0
  0
VERTEX
  5
9F5
  8
0
  6
CONTINUOUS
 62
     7
 10
31.7400492414
 20
-31.1812161971
 30
0.0
  0
VERTEX
  5
9F6
  8
0
  6
CONTINUOUS
 62
     7
 10
31.5830029234
 20
-31.1541020442
 30
0.0
  0
VERTEX
  5
9F7
  8
0
  6
CONTINUOUS
 62
     7
 10
31.3717402204
 20
-31.133156972
 30
0.0
  0
VERTEX
  5
9F8
  8
0
  6
CONTINUOUS
 62
     7
 10
31.121960996
 20
-31.1199351717
 30
0.0
  0
VERTEX
  5
9F9
  8
0
  6
CONTINUOUS
 62
     7
 10
30.8521665319
 20
-31.1154156495
 30
0.0
  0
SEQEND
  5
B52
  8
0
  6
CONTINUOUS
 62
     7
  0
ARC
  5
3C5
  8
0
  6
CONTINUOUS
 62
     7
 10
28.8484547638
 20
-29.9984664535
 30
0.0
 40
0.9963043510305029
 50
180.2156853392
 51
270.2128821369
  0
LINE
  5
3C6
  8
0
  6
CONTINUOUS
 62
     7
 10
27.852157472
 20
-30.0022169519
 30
0.0
 11
27.852157472
 21
-26.03203501
 31
0.0
  0
ARC
  5
3C7
  8
0
  6
CONTINUOUS
 62
     7
 10
28.8484583686
 20
-26.0357876446
 30
0.0
 40
0.9963079638385133
 50
89.7873259411
 51
179.7841925988
  0
LINE
  5
3C8
  8
0
  6
CONTINUOUS
 62
     7
 10
28.8521565183
 20
-25.0394865442
 30
0.0
 11
32.8521646246
 21
-25.0394865442
 31
0.0
  0
ARC
  5
3C9
  8
0
  6
CONTINUOUS
 62
     7
 10
32.8558677127
 20
-26.0357826691
 30
0.0
 40
0.996303006754414
 50
0.2155223422
 51
90.2129591179
  0
LINE
  5
3CA
  8
0
  6
CONTINUOUS
 62
     7
 10
33.8521636709
 20
-26.03203501
 30
0.0
 11
33.8521636709
 21
-30.0022169519
 31
0.0
  0
LINE
  5
3CB
  8
0
  6
CONTINUOUS
 62
     7
 10
27.852157472
 20
-31.6017880608
 30
0.0
 11
27.852157472
 21
-30.0022169519
 31
0.0
  0
POLYLINE
  5
3CC
  8
0
  6
CONTINUOUS
 62
     7
 66
     1
 10
0.0
 20
0.0
 30
0.0
  0
VERTEX
  5
9FA
  8
0
  6
CONTINUOUS
 62
     7
 10
57.5527108892
 20
-45.3731633295
 30
0.0
  0
VERTEX
  5
9FB
  8
0
  6
CONTINUOUS
 62
     7
 10
58.6338676199
 20
-45.5025113691
 30
0.0
  0
VERTEX
  5
9FC
  8
0
  6
CONTINUOUS
 62
     7
 10
59.6826590284
 20
-45.6184111107
 30
0.0
  0
VERTEX
  5
9FD
  8
0
  6
CONTINUOUS
 62
     7
 10
60.6794990286
 20
-45.7179940809
 30
0.0
  0
VERTEX
  5
9FE
  8
0
  6
CONTINUOUS
 62
     7
 10
61.6144217237
 20
-45.7992896009
 30
0.0
  0
VERTEX
  5
9FF
  8
0
  6
CONTINUOUS
 62
     7
 10
62.4797381147
 20
-45.8607732822
 30
0.0
  0
VERTEX
  5
A00
  8
0
  6
CONTINUOUS
 62
     7
 10
63.2597483381
 20
-45.9002933968
 30
0.0
  0
VERTEX
  5
A01
  8
0
  6
CONTINUOUS
 62
     7
 10
63.9500297292
 20
-45.9161400367
 30
0.0
  0
VERTEX
  5
A02
  8
0
  6
CONTINUOUS
 62
     7
 10
64.5412243589
 20
-45.9072157312
 30
0.0
  0
VERTEX
  5
A03
  8
0
  6
CONTINUOUS
 62
     7
 10
65.0229014143
 20
-45.8727649916
 30
0.0
  0
VERTEX
  5
A04
  8
0
  6
CONTINUOUS
 62
     7
 10
65.3924502119
 20
-45.8111673165
 30
0.0
  0
VERTEX
  5
A05
  8
0
  6
CONTINUOUS
 62
     7
 10
65.6432427152
 20
-45.7229949106
 30
0.0
  0
VERTEX
  5
A06
  8
0
  6
CONTINUOUS
 62
     7
 10
65.7708920225
 20
-45.6094257105
 30
0.0
  0
VERTEX
  5
A07
  8
0
  6
CONTINUOUS
 62
     7
 10
65.7877720579
 20
-45.5403573383
 30
0.0
  0
SEQEND
  5
B51
  8
0
  6
CONTINUOUS
 62
     7
  0
ARC
  5
3CD
  8
0
  6
CONTINUOUS
 62
     7
 10
30.852154611
 20
-229.2114176251
 30
0.0
 40
185.7671215474735
 50
81.7361795211
 51
98.2638204789
  0
POLYLINE
  5
3CE
  8
0
  6
CONTINUOUS
 62
     7
 66
     1
 10
0.0
 20
0.0
 30
0.0
  0
VERTEX
  5
A08
  8
0
  6
CONTINUOUS
 62
     7
 10
-4.083450915
 20
-45.5403573383
 30
0.0
  0
VERTEX
  5
A09
  8
0
  6
CONTINUOUS
 62
     7
 10
-4.0193640009
 20
-45.6678904165
 30
0.0
  0
VERTEX
  5
A0A
  8
0
  6
CONTINUOUS
 62
     7
 10
-3.8293443934
 20
-45.7701883782
 30
0.0
  0
VERTEX
  5
A0B
  8
0
  6
CONTINUOUS
 62
     7
 10
-3.5167537943
 20
-45.845679896
 30
0.0
  0
VERTEX
  5
A0C
  8
0
  6
CONTINUOUS
 62
     7
 10
-3.0826889292
 20
-45.8937413562
 30
0.0
  0
VERTEX
  5
A0D
  8
0
  6
CONTINUOUS
 62
     7
 10
-2.5324426905
 20
-45.9151640106
 30
0.0
  0
VERTEX
  5
A0E
  8
0
  6
CONTINUOUS
 62
     7
 10
-1.8760048167
 20
-45.9104515184
 30
0.0
  0
VERTEX
  5
A0F
  8
0
  6
CONTINUOUS
 62
     7
 10
-1.1226497904
 20
-45.8805426527
 30
0.0
  0
VERTEX
  5
A10
  8
0
  6
CONTINUOUS
 62
     7
 10
-0.2768360392
 20
-45.8272203375
 30
0.0
  0
VERTEX
  5
A11
  8
0
  6
CONTINUOUS
 62
     7
 10
0.6456531271
 20
-45.7525826562
 30
0.0
  0
VERTEX
  5
A12
  8
0
  6
CONTINUOUS
 62
     7
 10
1.6274608358
 20
-45.6591389645
 30
0.0
  0
VERTEX
  5
A13
  8
0
  6
CONTINUOUS
 62
     7
 10
2.6669419988
 20
-45.5483078528
 30
0.0
  0
VERTEX
  5
A14
  8
0
  6
CONTINUOUS
 62
     7
 10
3.7444270834
 20
-45.422973441
 30
0.0
  0
VERTEX
  5
A15
  8
0
  6
CONTINUOUS
 62
     7
 10
4.1515983328
 20
-45.3731633295
 30
0.0
  0
SEQEND
  5
B50
  8
0
  6
CONTINUOUS
 62
     7
  0
LINE
  5
3CF
  8
0
  6
CONTINUOUS
 62
     7
 10
-4.083450915
 20
-41.0309433509
 30
0.0
 11
-4.083450915
 21
-45.5403573383
 31
0.0
  0
LINE
  5
3D0
  8
0
  6
CONTINUOUS
 62
     7
 10
65.7877720579
 20
-45.5403573383
 30
0.0
 11
65.7877720579
 21
-41.0324781705
 31
0.0
  0
POLYLINE
  5
3D1
  8
0
  6
CONTINUOUS
 62
     7
 66
     1
 10
0.0
 20
0.0
 30
0.0
  0
VERTEX
  5
A16
  8
0
  6
CONTINUOUS
 62
     7
 10
70.9109224066
 20
-44.4017849434
 30
0.0
  0
VERTEX
  5
A17
  8
0
  6
CONTINUOUS
 62
     7
 10
70.9087051138
 20
-44.5101737548
 30
0.0
  0
VERTEX
  5
A18
  8
0
  6
CONTINUOUS
 62
     7
 10
70.8479799017
 20
-44.9759676624
 30
0.0
  0
SEQEND
  5
B4F
  8
0
  6
CONTINUOUS
 62
     7
  0
LINE
  5
3D2
  8
0
  6
CONTINUOUS
 62
     7
 10
273.8521612867
 20
-44.8588810433
 30
0.0
 11
273.8521612867
 21
-47.5283667017
 31
0.0
  0
LINE
  5
3D3
  8
0
  6
CONTINUOUS
 62
     7
 10
267.8521610483
 20
-44.8543525804
 30
0.0
 11
267.8521610483
 21
-47.5283667017
 31
0.0
  0
ARC
  5
3D4
  8
0
  6
CONTINUOUS
 62
     7
 10
272.8521617635
 20
-48.9592789818
 30
0.0
 40
1.0
 50
270.0
 51
0.0
  0
LINE
  5
3D5
  8
0
  6
CONTINUOUS
 62
     7
 10
273.8521612867
 20
-47.5283667017
 30
0.0
 11
273.8521612867
 21
-48.9592790175
 31
0.0
  0
ARC
  5
3D6
  8
0
  6
CONTINUOUS
 62
     7
 10
268.8521617635
 20
-48.9592789818
 30
0.0
 40
1.0
 50
180.0
 51
270.0
  0
LINE
  5
3D7
  8
0
  6
CONTINUOUS
 62
     7
 10
267.8521610483
 20
-47.5283667017
 30
0.0
 11
267.8521610483
 21
-48.9592790175
 31
0.0
  0
LINE
  5
3D8
  8
0
  6
CONTINUOUS
 62
     7
 10
272.8521622404
 20
-49.9592788089
 30
0.0
 11
268.8521600946
 21
-49.9592788089
 31
0.0
  0
LINE
  5
3D9
  8
0
  6
CONTINUOUS
 62
     7
 10
288.8521589025
 20
-50.9592789728
 30
0.0
 11
288.8521589025
 21
-60.5592790563
 31
0.0
  0
LINE
  5
3DA
  8
0
  6
CONTINUOUS
 62
     7
 10
252.8521604522
 20
-50.9592789728
 30
0.0
 11
252.8521604522
 21
-60.5592790563
 31
0.0
  0
LINE
  5
3DB
  8
0
  6
CONTINUOUS
 62
     7
 10
288.8521589025
 20
-61.5592788477
 30
0.0
 11
252.8521604522
 21
-61.5592788477
 31
0.0
  0
LINE
  5
3DC
  8
0
  6
CONTINUOUS
 62
     7
 10
288.8521589025
 20
-60.5592790563
 30
0.0
 11
288.8521589025
 21
-61.5592788477
 31
0.0
  0
LINE
  5
3DD
  8
0
  6
CONTINUOUS
 62
     7
 10
252.8521604522
 20
-60.5592790563
 30
0.0
 11
252.8521604522
 21
-61.5592788477
 31
0.0
  0
LINE
  5
3DE
  8
0
  6
CONTINUOUS
 62
     7
 10
268.8521600946
 20
-49.9592788089
 30
0.0
 11
252.8521604522
 21
-49.9592788089
 31
0.0
  0
LINE
  5
3DF
  8
0
  6
CONTINUOUS
 62
     7
 10
288.8521589025
 20
-49.9592788089
 30
0.0
 11
272.8521622404
 21
-49.9592788089
 31
0.0
  0
LINE
  5
3E0
  8
0
  6
CONTINUOUS
 62
     7
 10
288.8521589025
 20
-49.9592788089
 30
0.0
 11
288.8521589025
 21
-50.9592789728
 31
0.0
  0
LINE
  5
3E1
  8
0
  6
CONTINUOUS
 62
     7
 10
252.8521604522
 20
-49.9592788089
 30
0.0
 11
252.8521604522
 21
-50.9592789728
 31
0.0
  0
LINE
  5
3E2
  8
0
  6
CONTINUOUS
 62
     7
 10
153.8521624788
 20
-44.8588810433
 30
0.0
 11
153.8521624788
 21
-47.5283667017
 31
0.0
  0
LINE
  5
3E3
  8
0
  6
CONTINUOUS
 62
     7
 10
147.8521622404
 20
-44.8543525804
 30
0.0
 11
147.8521622404
 21
-47.5283667017
 31
0.0
  0
ARC
  5
3E4
  8
0
  6
CONTINUOUS
 62
     7
 10
152.8521617635
 20
-48.9592789818
 30
0.0
 40
1.0
 50
270.0
 51
0.0
  0
LINE
  5
3E5
  8
0
  6
CONTINUOUS
 62
     7
 10
153.8521624788
 20
-47.5283667017
 30
0.0
 11
153.8521624788
 21
-48.9592790175
 31
0.0
  0
ARC
  5
3E6
  8
0
  6
CONTINUOUS
 62
     7
 10
148.8521617635
 20
-48.9592789818
 30
0.0
 40
1.0
 50
180.0
 51
270.0
  0
LINE
  5
3E7
  8
0
  6
CONTINUOUS
 62
     7
 10
147.8521622404
 20
-47.5283667017
 30
0.0
 11
147.8521622404
 21
-48.9592790175
 31
0.0
  0
LINE
  5
3E8
  8
0
  6
CONTINUOUS
 62
     7
 10
152.8521634325
 20
-49.9592788089
 30
0.0
 11
148.8521612867
 21
-49.9592788089
 31
0.0
  0
LINE
  5
3E9
  8
0
  6
CONTINUOUS
 62
     7
 10
168.8521630748
 20
-50.9592789728
 30
0.0
 11
168.8521630748
 21
-60.5592790563
 31
0.0
  0
LINE
  5
3EA
  8
0
  6
CONTINUOUS
 62
     7
 10
132.8521646246
 20
-50.9592789728
 30
0.0
 11
132.8521646246
 21
-60.5592790563
 31
0.0
  0
LINE
  5
3EB
  8
0
  6
CONTINUOUS
 62
     7
 10
168.8521630748
 20
-61.5592788477
 30
0.0
 11
132.8521646246
 21
-61.5592788477
 31
0.0
  0
LINE
  5
3EC
  8
0
  6
CONTINUOUS
 62
     7
 10
168.8521630748
 20
-60.5592790563
 30
0.0
 11
168.8521630748
 21
-61.5592788477
 31
0.0
  0
LINE
  5
3ED
  8
0
  6
CONTINUOUS
 62
     7
 10
132.8521646246
 20
-60.5592790563
 30
0.0
 11
132.8521646246
 21
-61.5592788477
 31
0.0
  0
LINE
  5
3EE
  8
0
  6
CONTINUOUS
 62
     7
 10
148.8521612867
 20
-49.9592788089
 30
0.0
 11
132.8521646246
 21
-49.9592788089
 31
0.0
  0
LINE
  5
3EF
  8
0
  6
CONTINUOUS
 62
     7
 10
168.8521630748
 20
-49.9592788089
 30
0.0
 11
152.8521634325
 21
-49.9592788089
 31
0.0
  0
LINE
  5
3F0
  8
0
  6
CONTINUOUS
 62
     7
 10
168.8521630748
 20
-49.9592788089
 30
0.0
 11
168.8521630748
 21
-50.9592789728
 31
0.0
  0
LINE
  5
3F1
  8
0
  6
CONTINUOUS
 62
     7
 10
132.8521646246
 20
-49.9592788089
 30
0.0
 11
132.8521646246
 21
-50.9592789728
 31
0.0
  0
LINE
  5
3F2
  8
0
  6
CONTINUOUS
 62
     7
 10
393.8521660551
 20
-44.8588810433
 30
0.0
 11
393.8521660551
 21
-47.5283667017
 31
0.0
  0
LINE
  5
3F3
  8
0
  6
CONTINUOUS
 62
     7
 10
387.8521598562
 20
-44.8543525804
 30
0.0
 11
387.8521598562
 21
-47.5283667017
 31
0.0
  0
ARC
  5
3F4
  8
0
  6
CONTINUOUS
 62
     7
 10
388.8521617635
 20
-48.9592789818
 30
0.0
 40
1.0
 50
180.0
 51
270.0
  0
LINE
  5
3F5
  8
0
  6
CONTINUOUS
 62
     7
 10
387.8521598562
 20
-47.5283667017
 30
0.0
 11
387.8521598562
 21
-48.9592790175
 31
0.0
  0
LINE
  5
3F6
  8
0
  6
CONTINUOUS
 62
     7
 10
392.8521670088
 20
-49.9592788089
 30
0.0
 11
388.8521589025
 21
-49.9592788089
 31
0.0
  0
ARC
  5
3F7
  8
0
  6
CONTINUOUS
 62
     7
 10
392.8521617635
 20
-48.9592789818
 30
0.0
 40
1.0
 50
270.0
 51
0.0
  0
LINE
  5
3F8
  8
0
  6
CONTINUOUS
 62
     7
 10
393.8521660551
 20
-47.5283667017
 30
0.0
 11
393.8521660551
 21
-48.9592790175
 31
0.0
  0
LINE
  5
3F9
  8
0
  6
CONTINUOUS
 62
     7
 10
372.8521622404
 20
-50.9592789728
 30
0.0
 11
372.8521622404
 21
-60.5592790563
 31
0.0
  0
LINE
  5
3FA
  8
0
  6
CONTINUOUS
 62
     7
 10
408.8521636709
 20
-50.9592789728
 30
0.0
 11
408.8521636709
 21
-60.5592790563
 31
0.0
  0
LINE
  5
3FB
  8
0
  6
CONTINUOUS
 62
     7
 10
408.8521636709
 20
-61.5592788477
 30
0.0
 11
372.8521622404
 21
-61.5592788477
 31
0.0
  0
LINE
  5
3FC
  8
0
  6
CONTINUOUS
 62
     7
 10
372.8521622404
 20
-60.5592790563
 30
0.0
 11
372.8521622404
 21
-61.5592788477
 31
0.0
  0
LINE
  5
3FD
  8
0
  6
CONTINUOUS
 62
     7
 10
408.8521636709
 20
-60.5592790563
 30
0.0
 11
408.8521636709
 21
-61.5592788477
 31
0.0
  0
LINE
  5
3FE
  8
0
  6
CONTINUOUS
 62
     7
 10
388.8521589025
 20
-49.9592788089
 30
0.0
 11
372.8521622404
 21
-49.9592788089
 31
0.0
  0
LINE
  5
3FF
  8
0
  6
CONTINUOUS
 62
     7
 10
408.8521636709
 20
-49.9592788089
 30
0.0
 11
392.8521670088
 21
-49.9592788089
 31
0.0
  0
LINE
  5
400
  8
0
  6
CONTINUOUS
 62
     7
 10
372.8521622404
 20
-49.9592788089
 30
0.0
 11
372.8521622404
 21
-50.9592789728
 31
0.0
  0
LINE
  5
401
  8
0
  6
CONTINUOUS
 62
     7
 10
408.8521636709
 20
-49.9592788089
 30
0.0
 11
408.8521636709
 21
-50.9592789728
 31
0.0
  0
LINE
  5
402
  8
0
  6
CONTINUOUS
 62
     7
 10
33.8521636709
 20
-44.8588810433
 30
0.0
 11
33.8521636709
 21
-47.5283667017
 31
0.0
  0
LINE
  5
403
  8
0
  6
CONTINUOUS
 62
     7
 10
27.852157472
 20
-44.8543525804
 30
0.0
 11
27.852157472
 21
-47.5283667017
 31
0.0
  0
ARC
  5
404
  8
0
  6
CONTINUOUS
 62
     7
 10
28.8521617635
 20
-48.9592789818
 30
0.0
 40
1.0
 50
180.0
 51
270.0
  0
LINE
  5
405
  8
0
  6
CONTINUOUS
 62
     7
 10
27.852157472
 20
-47.5283667017
 30
0.0
 11
27.852157472
 21
-48.9592790175
 31
0.0
  0
LINE
  5
406
  8
0
  6
CONTINUOUS
 62
     7
 10
32.8521646246
 20
-49.9592788089
 30
0.0
 11
28.8521565183
 21
-49.9592788089
 31
0.0
  0
ARC
  5
407
  8
0
  6
CONTINUOUS
 62
     7
 10
32.8521617635
 20
-48.9592789818
 30
0.0
 40
1.0
 50
270.0
 51
0.0
  0
LINE
  5
408
  8
0
  6
CONTINUOUS
 62
     7
 10
33.8521636709
 20
-47.5283667017
 30
0.0
 11
33.8521636709
 21
-48.9592790175
 31
0.0
  0
LINE
  5
409
  8
0
  6
CONTINUOUS
 62
     7
 10
12.8521598562
 20
-50.9592789728
 30
0.0
 11
12.8521598562
 21
-60.5592790563
 31
0.0
  0
LINE
  5
40A
  8
0
  6
CONTINUOUS
 62
     7
 10
48.8521612867
 20
-50.9592789728
 30
0.0
 11
48.8521612867
 21
-60.5592790563
 31
0.0
  0
LINE
  5
40B
  8
0
  6
CONTINUOUS
 62
     7
 10
48.8521612867
 20
-61.5592788477
 30
0.0
 11
12.8521598562
 21
-61.5592788477
 31
0.0
  0
LINE
  5
40C
  8
0
  6
CONTINUOUS
 62
     7
 10
12.8521598562
 20
-60.5592790563
 30
0.0
 11
12.8521598562
 21
-61.5592788477
 31
0.0
  0
LINE
  5
40D
  8
0
  6
CONTINUOUS
 62
     7
 10
48.8521612867
 20
-60.5592790563
 30
0.0
 11
48.8521612867
 21
-61.5592788477
 31
0.0
  0
LINE
  5
40E
  8
0
  6
CONTINUOUS
 62
     7
 10
28.8521565183
 20
-49.9592788089
 30
0.0
 11
12.8521598562
 21
-49.9592788089
 31
0.0
  0
LINE
  5
40F
  8
0
  6
CONTINUOUS
 62
     7
 10
48.8521612867
 20
-49.9592788089
 30
0.0
 11
32.8521646246
 21
-49.9592788089
 31
0.0
  0
LINE
  5
410
  8
0
  6
CONTINUOUS
 62
     7
 10
12.8521598562
 20
-49.9592788089
 30
0.0
 11
12.8521598562
 21
-50.9592789728
 31
0.0
  0
LINE
  5
411
  8
0
  6
CONTINUOUS
 62
     7
 10
48.8521612867
 20
-49.9592788089
 30
0.0
 11
48.8521612867
 21
-50.9592789728
 31
0.0
  0
POLYLINE
  5
412
  8
0
  6
CONTINUOUS
 62
     7
 66
     1
 10
0.0
 20
0.0
 30
0.0
  0
VERTEX
  5
A19
  8
0
  6
CONTINUOUS
 62
     7
 10
234.1521612986
 20
-75.0160470177
 30
0.0
  0
VERTEX
  5
A1A
  8
0
  6
CONTINUOUS
 62
     7
 10
233.6165539607
 20
-75.720280366
 30
0.0
  0
VERTEX
  5
A1B
  8
0
  6
CONTINUOUS
 62
     7
 10
233.1521622523
 20
-76.4854698945
 30
0.0
  0
SEQEND
  5
B4E
  8
0
  6
CONTINUOUS
 62
     7
  0
LINE
  5
413
  8
0
  6
CONTINUOUS
 62
     7
 10
245.5079413637
 20
-66.6646182109
 30
0.0
 11
245.6314809307
 21
-66.6592791248
 31
0.0
  0
ARC
  5
414
  8
0
  6
CONTINUOUS
 62
     7
 10
245.9917407354
 20
-81.5654451235
 30
0.0
 40
10.07562502582515
 50
100.5231116577
 51
180.5336050231
  0
ARC
  5
415
  8
0
  6
CONTINUOUS
 62
     7
 10
295.7125825616
 20
-121.7531112782
 30
0.0
 40
10.07562402994016
 50
280.5231071452
 51
0.5335843978
  0
LINE
  5
416
  8
0
  6
CONTINUOUS
 62
     7
 10
296.1840904936
 20
-136.6528942753
 30
0.0
 11
296.0728443845
 21
-136.6592779327
 31
0.0
  0
POLYLINE
  5
417
  8
0
  6
CONTINUOUS
 62
     7
 66
     1
 10
0.0
 20
0.0
 30
0.0
  0
VERTEX
  5
A1C
  8
0
  6
CONTINUOUS
 62
     7
 10
307.5521625265
 20
-75.0160470177
 30
0.0
  0
VERTEX
  5
A1D
  8
0
  6
CONTINUOUS
 62
     7
 10
308.0877698644
 20
-75.720280366
 30
0.0
  0
VERTEX
  5
A1E
  8
0
  6
CONTINUOUS
 62
     7
 10
308.5521615728
 20
-76.4854698945
 30
0.0
  0
SEQEND
  5
B4D
  8
0
  6
CONTINUOUS
 62
     7
  0
ARC
  5
418
  8
0
  6
CONTINUOUS
 62
     7
 10
295.7303218899
 20
-81.5508358977
 30
0.0
 40
10.0580324113127
 50
359.3822356586
 51
79.5610476606
  0
ARC
  5
419
  8
0
  6
CONTINUOUS
 62
     7
 10
245.9739959348
 20
-121.7677234325
 30
0.0
 40
10.05802789364268
 50
179.3822394123
 51
259.5610690447
  0
LINE
  5
41A
  8
0
  6
CONTINUOUS
 62
     7
 10
245.6314809307
 20
-136.6592779327
 30
0.0
 11
245.5383427128
 21
-136.6540267635
 31
0.0
  0
LINE
  5
41B
  8
0
  6
CONTINUOUS
 62
     7
 10
235.9165526613
 20
-81.6592797209
 30
0.0
 11
235.9165526613
 21
-121.6592803169
 31
0.0
  0
LINE
  5
41C
  8
0
  6
CONTINUOUS
 62
     7
 10
305.7877696737
 20
-121.6592803169
 30
0.0
 11
305.7877696737
 21
-81.6592797209
 31
0.0
  0
LINE
  5
41D
  8
0
  6
CONTINUOUS
 62
     7
 10
307.5521625265
 20
-72.6471915413
 30
0.0
 11
308.5521615728
 21
-72.6471915413
 31
0.0
  0
LINE
  5
41E
  8
0
  6
CONTINUOUS
 62
     7
 10
308.5521615728
 20
-48.7987622191
 30
0.0
 11
308.5521615728
 21
-72.6471915413
 31
0.0
  0
LINE
  5
41F
  8
0
  6
CONTINUOUS
 62
     7
 10
307.5521625265
 20
-48.7987622191
 30
0.0
 11
307.5521625265
 21
-72.6471915413
 31
0.0
  0
LINE
  5
420
  8
0
  6
CONTINUOUS
 62
     7
 10
234.1521612986
 20
-72.6471915413
 30
0.0
 11
233.1521622523
 21
-72.6471915413
 31
0.0
  0
LINE
  5
421
  8
0
  6
CONTINUOUS
 62
     7
 10
233.1521622523
 20
-48.7987622191
 30
0.0
 11
233.1521622523
 21
-72.6471915413
 31
0.0
  0
LINE
  5
422
  8
0
  6
CONTINUOUS
 62
     7
 10
234.1521612986
 20
-48.7987622191
 30
0.0
 11
234.1521612986
 21
-72.6471915413
 31
0.0
  0
LINE
  5
423
  8
0
  6
CONTINUOUS
 62
     7
 10
308.5521615728
 20
-72.6471915413
 30
0.0
 11
308.5521615728
 21
-76.4854698945
 31
0.0
  0
LINE
  5
424
  8
0
  6
CONTINUOUS
 62
     7
 10
307.5521625265
 20
-72.6471915413
 30
0.0
 11
307.5521625265
 21
-75.0160470177
 31
0.0
  0
LINE
  5
425
  8
0
  6
CONTINUOUS
 62
     7
 10
233.1521622523
 20
-72.6471915413
 30
0.0
 11
233.1521622523
 21
-76.4854698945
 31
0.0
  0
LINE
  5
426
  8
0
  6
CONTINUOUS
 62
     7
 10
234.1521612986
 20
-72.6471915413
 30
0.0
 11
234.1521612986
 21
-75.0160470177
 31
0.0
  0
LINE
  5
427
  8
0
  6
CONTINUOUS
 62
     7
 10
244.1516078695
 20
-131.6592767407
 30
0.0
 11
297.5527144655
 21
-131.6592767407
 31
0.0
  0
LINE
  5
428
  8
0
  6
CONTINUOUS
 62
     7
 10
244.1516078695
 20
-71.6592788268
 30
0.0
 11
297.5527144655
 21
-71.6592788268
 31
0.0
  0
LINE
  5
429
  8
0
  6
CONTINUOUS
 62
     7
 10
245.6314809307
 20
-66.6592791248
 30
0.0
 11
296.0728443845
 21
-66.6592791248
 31
0.0
  0
LINE
  5
42A
  8
0
  6
CONTINUOUS
 62
     7
 10
296.0728443845
 20
-136.6592779327
 30
0.0
 11
245.6314809307
 21
-136.6592779327
 31
0.0
  0
LINE
  5
42B
  8
0
  6
CONTINUOUS
 62
     7
 10
308.5521615728
 20
-47.2562782038
 30
0.0
 11
308.5521615728
 21
-48.7987622191
 31
0.0
  0
LINE
  5
42C
  8
0
  6
CONTINUOUS
 62
     7
 10
307.5521625265
 20
-47.4556192328
 30
0.0
 11
307.5521625265
 21
-48.7987622191
 31
0.0
  0
LINE
  5
42D
  8
0
  6
CONTINUOUS
 62
     7
 10
233.1521622523
 20
-47.2560323347
 30
0.0
 11
233.1521622523
 21
-48.7987622191
 31
0.0
  0
LINE
  5
42E
  8
0
  6
CONTINUOUS
 62
     7
 10
234.1521612986
 20
-47.4541350771
 30
0.0
 11
234.1521612986
 21
-48.7987622191
 31
0.0
  0
LINE
  5
42F
  8
0
  6
CONTINUOUS
 62
     7
 10
238.3521623596
 20
-60.5592790563
 30
0.0
 11
238.3521623596
 21
-50.7592789401
 31
0.0
  0
LINE
  5
430
  8
0
  6
CONTINUOUS
 62
     7
 10
303.3521629556
 20
-60.5592790563
 30
0.0
 11
303.3521629556
 21
-50.7592789401
 31
0.0
  0
LINE
  5
431
  8
0
  6
CONTINUOUS
 62
     7
 10
238.3521623596
 20
-49.7592791487
 30
0.0
 11
234.1521612986
 21
-49.7592791487
 31
0.0
  0
LINE
  5
432
  8
0
  6
CONTINUOUS
 62
     7
 10
238.3521623596
 20
-49.7592791487
 30
0.0
 11
238.3521623596
 21
-50.7592789401
 31
0.0
  0
LINE
  5
433
  8
0
  6
CONTINUOUS
 62
     7
 10
307.5521625265
 20
-61.5592788477
 30
0.0
 11
303.3521629556
 21
-61.5592788477
 31
0.0
  0
LINE
  5
434
  8
0
  6
CONTINUOUS
 62
     7
 10
303.3521629556
 20
-61.5592788477
 30
0.0
 11
303.3521629556
 21
-60.5592790563
 31
0.0
  0
LINE
  5
435
  8
0
  6
CONTINUOUS
 62
     7
 10
238.3521623596
 20
-61.5592788477
 30
0.0
 11
234.1521612986
 21
-61.5592788477
 31
0.0
  0
LINE
  5
436
  8
0
  6
CONTINUOUS
 62
     7
 10
238.3521623596
 20
-60.5592790563
 30
0.0
 11
238.3521623596
 21
-61.5592788477
 31
0.0
  0
LINE
  5
437
  8
0
  6
CONTINUOUS
 62
     7
 10
307.5521625265
 20
-49.7592791487
 30
0.0
 11
303.3521629556
 21
-49.7592791487
 31
0.0
  0
LINE
  5
438
  8
0
  6
CONTINUOUS
 62
     7
 10
303.3521629556
 20
-50.7592789401
 30
0.0
 11
303.3521629556
 21
-49.7592791487
 31
0.0
  0
LINE
  5
439
  8
0
  6
CONTINUOUS
 62
     7
 10
228.3521614655
 20
-60.5592790563
 30
0.0
 11
228.3521614655
 21
-50.7592789401
 31
0.0
  0
LINE
  5
43A
  8
0
  6
CONTINUOUS
 62
     7
 10
228.3521614655
 20
-50.7592789401
 30
0.0
 11
228.3521614655
 21
-49.7592791487
 31
0.0
  0
LINE
  5
43B
  8
0
  6
CONTINUOUS
 62
     7
 10
233.1521622523
 20
-49.7592791487
 30
0.0
 11
228.3521614655
 21
-49.7592791487
 31
0.0
  0
LINE
  5
43C
  8
0
  6
CONTINUOUS
 62
     7
 10
313.3521593794
 20
-60.5592790563
 30
0.0
 11
313.3521593794
 21
-50.7592789401
 31
0.0
  0
LINE
  5
43D
  8
0
  6
CONTINUOUS
 62
     7
 10
313.3521593794
 20
-49.7592791487
 30
0.0
 11
308.5521615728
 21
-49.7592791487
 31
0.0
  0
LINE
  5
43E
  8
0
  6
CONTINUOUS
 62
     7
 10
313.3521593794
 20
-50.7592789401
 30
0.0
 11
313.3521593794
 21
-49.7592791487
 31
0.0
  0
LINE
  5
43F
  8
0
  6
CONTINUOUS
 62
     7
 10
313.3521593794
 20
-61.5592788477
 30
0.0
 11
308.5521615728
 21
-61.5592788477
 31
0.0
  0
LINE
  5
440
  8
0
  6
CONTINUOUS
 62
     7
 10
313.3521593794
 20
-61.5592788477
 30
0.0
 11
313.3521593794
 21
-60.5592790563
 31
0.0
  0
LINE
  5
441
  8
0
  6
CONTINUOUS
 62
     7
 10
233.1521622523
 20
-61.5592788477
 30
0.0
 11
228.3521614655
 21
-61.5592788477
 31
0.0
  0
LINE
  5
442
  8
0
  6
CONTINUOUS
 62
     7
 10
228.3521614655
 20
-61.5592788477
 30
0.0
 11
228.3521614655
 21
-60.5592790563
 31
0.0
  0
POLYLINE
  5
443
  8
0
  6
CONTINUOUS
 62
     7
 66
     1
 10
0.0
 20
0.0
 30
0.0
  0
VERTEX
  5
A1F
  8
0
  6
CONTINUOUS
 62
     7
 10
354.1521586164
 20
-75.0160470177
 30
0.0
  0
VERTEX
  5
A20
  8
0
  6
CONTINUOUS
 62
     7
 10
353.6165512785
 20
-75.720280366
 30
0.0
  0
VERTEX
  5
A21
  8
0
  6
CONTINUOUS
 62
     7
 10
353.1521595701
 20
-76.4854698945
 30
0.0
  0
SEQEND
  5
B4C
  8
0
  6
CONTINUOUS
 62
     7
  0
LINE
  5
444
  8
0
  6
CONTINUOUS
 62
     7
 10
365.5079401716
 20
-66.6646182109
 30
0.0
 11
365.6314767584
 21
-66.6592791248
 31
0.0
  0
ARC
  5
445
  8
0
  6
CONTINUOUS
 62
     7
 10
365.9917472766
 20
-81.5654525886
 30
0.0
 40
10.07563268922879
 50
100.5231138163
 51
180.5335621641
  0
LINE
  5
446
  8
0
  6
CONTINUOUS
 62
     7
 10
416.184083341
 20
-136.6528942753
 30
0.0
 11
416.072837232
 21
-136.6592779327
 31
0.0
  0
ARC
  5
447
  8
0
  6
CONTINUOUS
 62
     7
 10
415.7125812626
 20
-121.7531073785
 30
0.0
 40
10.07563006077308
 50
280.5231703422
 51
0.5335619013
  0
POLYLINE
  5
448
  8
0
  6
CONTINUOUS
 62
     7
 66
     1
 10
0.0
 20
0.0
 30
0.0
  0
VERTEX
  5
A22
  8
0
  6
CONTINUOUS
 62
     7
 10
427.5521672949
 20
-75.0160470177
 30
0.0
  0
VERTEX
  5
A23
  8
0
  6
CONTINUOUS
 62
     7
 10
428.0877746328
 20
-75.720280366
 30
0.0
  0
VERTEX
  5
A24
  8
0
  6
CONTINUOUS
 62
     7
 10
428.5521663412
 20
-76.4854698945
 30
0.0
  0
SEQEND
  5
B4B
  8
0
  6
CONTINUOUS
 62
     7
  0
ARC
  5
449
  8
0
  6
CONTINUOUS
 62
     7
 10
415.7303196331
 20
-81.5508405967
 30
0.0
 40
10.05803938536324
 50
359.3822628564
 51
79.5609797623
  0
LINE
  5
44A
  8
0
  6
CONTINUOUS
 62
     7
 10
365.6314767584
 20
-136.6592779327
 30
0.0
 11
365.5383385404
 21
-136.6540267635
 31
0.0
  0
ARC
  5
44B
  8
0
  6
CONTINUOUS
 62
     7
 10
365.9740025226
 20
-121.7677159395
 30
0.0
 40
10.05803559228834
 50
179.3822825717
 51
259.5610665857
  0
LINE
  5
44C
  8
0
  6
CONTINUOUS
 62
     7
 10
355.9165514692
 20
-81.6592797209
 30
0.0
 11
355.9165514692
 21
-121.6592803169
 31
0.0
  0
LINE
  5
44D
  8
0
  6
CONTINUOUS
 62
     7
 10
425.7877744421
 20
-121.6592803169
 30
0.0
 11
425.7877744421
 21
-81.6592797209
 31
0.0
  0
LINE
  5
44E
  8
0
  6
CONTINUOUS
 62
     7
 10
354.1521586164
 20
-72.6471915413
 30
0.0
 11
353.1521595701
 21
-72.6471915413
 31
0.0
  0
LINE
  5
44F
  8
0
  6
CONTINUOUS
 62
     7
 10
353.1521595701
 20
-48.7987622191
 30
0.0
 11
353.1521595701
 21
-72.6471915413
 31
0.0
  0
LINE
  5
450
  8
0
  6
CONTINUOUS
 62
     7
 10
354.1521586164
 20
-48.7987622191
 30
0.0
 11
354.1521586164
 21
-72.6471915413
 31
0.0
  0
LINE
  5
451
  8
0
  6
CONTINUOUS
 62
     7
 10
427.5521672949
 20
-72.6471915413
 30
0.0
 11
428.5521663412
 21
-72.6471915413
 31
0.0
  0
LINE
  5
452
  8
0
  6
CONTINUOUS
 62
     7
 10
427.5521672949
 20
-48.7987622191
 30
0.0
 11
427.5521672949
 21
-72.6471915413
 31
0.0
  0
LINE
  5
453
  8
0
  6
CONTINUOUS
 62
     7
 10
428.5521663412
 20
-48.7987622191
 30
0.0
 11
428.5521663412
 21
-72.6471915413
 31
0.0
  0
LINE
  5
454
  8
0
  6
CONTINUOUS
 62
     7
 10
427.5521672949
 20
-72.6471915413
 30
0.0
 11
427.5521672949
 21
-75.0160470177
 31
0.0
  0
LINE
  5
455
  8
0
  6
CONTINUOUS
 62
     7
 10
428.5521663412
 20
-72.6471915413
 30
0.0
 11
428.5521663412
 21
-76.4854698945
 31
0.0
  0
LINE
  5
456
  8
0
  6
CONTINUOUS
 62
     7
 10
353.1521595701
 20
-72.6471915413
 30
0.0
 11
353.1521595701
 21
-76.4854698945
 31
0.0
  0
LINE
  5
457
  8
0
  6
CONTINUOUS
 62
     7
 10
354.1521586164
 20
-72.6471915413
 30
0.0
 11
354.1521586164
 21
-75.0160470177
 31
0.0
  0
LINE
  5
458
  8
0
  6
CONTINUOUS
 62
     7
 10
364.1516126379
 20
-131.6592767407
 30
0.0
 11
417.5527251943
 21
-131.6592767407
 31
0.0
  0
LINE
  5
459
  8
0
  6
CONTINUOUS
 62
     7
 10
364.1516126379
 20
-71.6592788268
 30
0.0
 11
417.5527251943
 21
-71.6592788268
 31
0.0
  0
LINE
  5
45A
  8
0
  6
CONTINUOUS
 62
     7
 10
365.6314767584
 20
-66.6592791248
 30
0.0
 11
416.072837232
 21
-66.6592791248
 31
0.0
  0
LINE
  5
45B
  8
0
  6
CONTINUOUS
 62
     7
 10
416.072837232
 20
-136.6592779327
 30
0.0
 11
365.6314767584
 21
-136.6592779327
 31
0.0
  0
LINE
  5
45C
  8
0
  6
CONTINUOUS
 62
     7
 10
427.5521672949
 20
-47.4556192328
 30
0.0
 11
427.5521672949
 21
-48.7987622191
 31
0.0
  0
LINE
  5
45D
  8
0
  6
CONTINUOUS
 62
     7
 10
428.5521663412
 20
-47.2562782038
 30
0.0
 11
428.5521663412
 21
-48.7987622191
 31
0.0
  0
LINE
  5
45E
  8
0
  6
CONTINUOUS
 62
     7
 10
353.1521595701
 20
-47.2560323347
 30
0.0
 11
353.1521595701
 21
-48.7987622191
 31
0.0
  0
LINE
  5
45F
  8
0
  6
CONTINUOUS
 62
     7
 10
354.1521586164
 20
-47.4541350771
 30
0.0
 11
354.1521586164
 21
-48.7987622191
 31
0.0
  0
LINE
  5
460
  8
0
  6
CONTINUOUS
 62
     7
 10
423.3521617635
 20
-60.5592790563
 30
0.0
 11
423.3521617635
 21
-50.7592789401
 31
0.0
  0
LINE
  5
461
  8
0
  6
CONTINUOUS
 62
     7
 10
358.3521641477
 20
-60.5592790563
 30
0.0
 11
358.3521641477
 21
-50.7592789401
 31
0.0
  0
LINE
  5
462
  8
0
  6
CONTINUOUS
 62
     7
 10
427.5521672949
 20
-49.7592791487
 30
0.0
 11
423.3521617635
 21
-49.7592791487
 31
0.0
  0
LINE
  5
463
  8
0
  6
CONTINUOUS
 62
     7
 10
423.3521617635
 20
-50.7592789401
 30
0.0
 11
423.3521617635
 21
-49.7592791487
 31
0.0
  0
LINE
  5
464
  8
0
  6
CONTINUOUS
 62
     7
 10
427.5521672949
 20
-61.5592788477
 30
0.0
 11
423.3521617635
 21
-61.5592788477
 31
0.0
  0
LINE
  5
465
  8
0
  6
CONTINUOUS
 62
     7
 10
423.3521617635
 20
-61.5592788477
 30
0.0
 11
423.3521617635
 21
-60.5592790563
 31
0.0
  0
LINE
  5
466
  8
0
  6
CONTINUOUS
 62
     7
 10
358.3521641477
 20
-49.7592791487
 30
0.0
 11
354.1521586164
 21
-49.7592791487
 31
0.0
  0
LINE
  5
467
  8
0
  6
CONTINUOUS
 62
     7
 10
358.3521641477
 20
-49.7592791487
 30
0.0
 11
358.3521641477
 21
-50.7592789401
 31
0.0
  0
LINE
  5
468
  8
0
  6
CONTINUOUS
 62
     7
 10
358.3521641477
 20
-61.5592788477
 30
0.0
 11
354.1521586164
 21
-61.5592788477
 31
0.0
  0
LINE
  5
469
  8
0
  6
CONTINUOUS
 62
     7
 10
358.3521641477
 20
-60.5592790563
 30
0.0
 11
358.3521641477
 21
-61.5592788477
 31
0.0
  0
LINE
  5
46A
  8
0
  6
CONTINUOUS
 62
     7
 10
348.3521617635
 20
-50.7592789401
 30
0.0
 11
348.3521617635
 21
-49.7592791487
 31
0.0
  0
LINE
  5
46B
  8
0
  6
CONTINUOUS
 62
     7
 10
353.1521595701
 20
-49.7592791487
 30
0.0
 11
348.3521617635
 21
-49.7592791487
 31
0.0
  0
LINE
  5
46C
  8
0
  6
CONTINUOUS
 62
     7
 10
433.3521522268
 20
-50.7592789401
 30
0.0
 11
433.3521522268
 21
-49.7592791487
 31
0.0
  0
LINE
  5
46D
  8
0
  6
CONTINUOUS
 62
     7
 10
433.3521522268
 20
-49.7592791487
 30
0.0
 11
428.5521663412
 21
-49.7592791487
 31
0.0
  0
LINE
  5
46E
  8
0
  6
CONTINUOUS
 62
     7
 10
348.3521617635
 20
-60.5592790563
 30
0.0
 11
348.3521617635
 21
-50.7592789401
 31
0.0
  0
LINE
  5
46F
  8
0
  6
CONTINUOUS
 62
     7
 10
433.3521522268
 20
-60.5592790563
 30
0.0
 11
433.3521522268
 21
-50.7592789401
 31
0.0
  0
LINE
  5
470
  8
0
  6
CONTINUOUS
 62
     7
 10
353.1521595701
 20
-61.5592788477
 30
0.0
 11
348.3521617635
 21
-61.5592788477
 31
0.0
  0
LINE
  5
471
  8
0
  6
CONTINUOUS
 62
     7
 10
348.3521617635
 20
-61.5592788477
 30
0.0
 11
348.3521617635
 21
-60.5592790563
 31
0.0
  0
LINE
  5
472
  8
0
  6
CONTINUOUS
 62
     7
 10
433.3521522268
 20
-61.5592788477
 30
0.0
 11
428.5521663412
 21
-61.5592788477
 31
0.0
  0
LINE
  5
473
  8
0
  6
CONTINUOUS
 62
     7
 10
433.3521522268
 20
-61.5592788477
 30
0.0
 11
433.3521522268
 21
-60.5592790563
 31
0.0
  0
POLYLINE
  5
474
  8
0
  6
CONTINUOUS
 62
     7
 66
     1
 10
0.0
 20
0.0
 30
0.0
  0
VERTEX
  5
A25
  8
0
  6
CONTINUOUS
 62
     7
 10
114.1521610006
 20
-75.0160470177
 30
0.0
  0
VERTEX
  5
A26
  8
0
  6
CONTINUOUS
 62
     7
 10
113.6165536627
 20
-75.720280366
 30
0.0
  0
VERTEX
  5
A27
  8
0
  6
CONTINUOUS
 62
     7
 10
113.1521619543
 20
-76.4854698945
 30
0.0
  0
SEQEND
  5
B4A
  8
0
  6
CONTINUOUS
 62
     7
  0
LINE
  5
475
  8
0
  6
CONTINUOUS
 62
     7
 10
125.5079425558
 20
-66.6646182109
 30
0.0
 11
125.6314791425
 21
-66.6592791248
 31
0.0
  0
ARC
  5
476
  8
0
  6
CONTINUOUS
 62
     7
 10
125.9917469119
 20
-81.5654492281
 30
0.0
 40
10.07562997172435
 50
100.5231352619
 51
180.5335814189
  0
LINE
  5
477
  8
0
  6
CONTINUOUS
 62
     7
 10
176.1840887054
 20
-136.6528942753
 30
0.0
 11
176.0728425964
 21
-136.6592779327
 31
0.0
  0
ARC
  5
478
  8
0
  6
CONTINUOUS
 62
     7
 10
175.7125887381
 20
-121.7531153829
 30
0.0
 40
10.07561908403452
 50
280.5230835409
 51
0.5336080021
  0
POLYLINE
  5
479
  8
0
  6
CONTINUOUS
 62
     7
 66
     1
 10
0.0
 20
0.0
 30
0.0
  0
VERTEX
  5
A28
  8
0
  6
CONTINUOUS
 62
     7
 10
187.5521622285
 20
-75.0160470177
 30
0.0
  0
VERTEX
  5
A29
  8
0
  6
CONTINUOUS
 62
     7
 10
188.0877695664
 20
-75.720280366
 30
0.0
  0
VERTEX
  5
A2A
  8
0
  6
CONTINUOUS
 62
     7
 10
188.5521612748
 20
-76.4854698945
 30
0.0
  0
SEQEND
  5
B49
  8
0
  6
CONTINUOUS
 62
     7
  0
ARC
  5
47A
  8
0
  6
CONTINUOUS
 62
     7
 10
175.7303207938
 20
-81.5508377821
 30
0.0
 40
10.0580346790873
 50
359.3822465328
 51
79.5610367863
  0
ARC
  5
47B
  8
0
  6
CONTINUOUS
 62
     7
 10
125.9739948387
 20
-121.7677253168
 30
0.0
 40
10.05802562587859
 50
179.3822285381
 51
259.5610799189
  0
LINE
  5
47C
  8
0
  6
CONTINUOUS
 62
     7
 10
125.6314791425
 20
-136.6592779327
 30
0.0
 11
125.5383409246
 21
-136.6540267635
 31
0.0
  0
LINE
  5
47D
  8
0
  6
CONTINUOUS
 62
     7
 10
115.9165538534
 20
-81.6592797209
 30
0.0
 11
115.9165538534
 21
-121.6592803169
 31
0.0
  0
LINE
  5
47E
  8
0
  6
CONTINUOUS
 62
     7
 10
185.7877708658
 20
-121.6592803169
 30
0.0
 11
185.7877708658
 21
-81.6592797209
 31
0.0
  0
LINE
  5
47F
  8
0
  6
CONTINUOUS
 62
     7
 10
114.1521610006
 20
-72.6471915413
 30
0.0
 11
113.1521619543
 21
-72.6471915413
 31
0.0
  0
LINE
  5
480
  8
0
  6
CONTINUOUS
 62
     7
 10
113.1521619543
 20
-48.7987622191
 30
0.0
 11
113.1521619543
 21
-72.6471915413
 31
0.0
  0
LINE
  5
481
  8
0
  6
CONTINUOUS
 62
     7
 10
114.1521610006
 20
-48.7987622191
 30
0.0
 11
114.1521610006
 21
-72.6471915413
 31
0.0
  0
LINE
  5
482
  8
0
  6
CONTINUOUS
 62
     7
 10
187.5521622285
 20
-72.6471915413
 30
0.0
 11
188.5521612748
 21
-72.6471915413
 31
0.0
  0
LINE
  5
483
  8
0
  6
CONTINUOUS
 62
     7
 10
187.5521622285
 20
-48.7987622191
 30
0.0
 11
187.5521622285
 21
-72.6471915413
 31
0.0
  0
LINE
  5
484
  8
0
  6
CONTINUOUS
 62
     7
 10
188.5521612748
 20
-48.7987622191
 30
0.0
 11
188.5521612748
 21
-72.6471915413
 31
0.0
  0
LINE
  5
485
  8
0
  6
CONTINUOUS
 62
     7
 10
113.1521619543
 20
-72.6471915413
 30
0.0
 11
113.1521619543
 21
-76.4854698945
 31
0.0
  0
LINE
  5
486
  8
0
  6
CONTINUOUS
 62
     7
 10
114.1521610006
 20
-72.6471915413
 30
0.0
 11
114.1521610006
 21
-75.0160470177
 31
0.0
  0
LINE
  5
487
  8
0
  6
CONTINUOUS
 62
     7
 10
187.5521622285
 20
-72.6471915413
 30
0.0
 11
187.5521622285
 21
-75.0160470177
 31
0.0
  0
LINE
  5
488
  8
0
  6
CONTINUOUS
 62
     7
 10
188.5521612748
 20
-72.6471915413
 30
0.0
 11
188.5521612748
 21
-76.4854698945
 31
0.0
  0
LINE
  5
489
  8
0
  6
CONTINUOUS
 62
     7
 10
124.1516090616
 20
-131.6592767407
 30
0.0
 11
177.5527156576
 21
-131.6592767407
 31
0.0
  0
LINE
  5
48A
  8
0
  6
CONTINUOUS
 62
     7
 10
124.1516090616
 20
-71.6592788268
 30
0.0
 11
177.5527156576
 21
-71.6592788268
 31
0.0
  0
LINE
  5
48B
  8
0
  6
CONTINUOUS
 62
     7
 10
125.6314791425
 20
-66.6592791248
 30
0.0
 11
176.0728425964
 21
-66.6592791248
 31
0.0
  0
LINE
  5
48C
  8
0
  6
CONTINUOUS
 62
     7
 10
176.0728425964
 20
-136.6592779327
 30
0.0
 11
125.6314791425
 21
-136.6592779327
 31
0.0
  0
LINE
  5
48D
  8
0
  6
CONTINUOUS
 62
     7
 10
187.5521622285
 20
-47.4556192328
 30
0.0
 11
187.5521622285
 21
-48.7987622191
 31
0.0
  0
LINE
  5
48E
  8
0
  6
CONTINUOUS
 62
     7
 10
188.5521612748
 20
-47.2562782038
 30
0.0
 11
188.5521612748
 21
-48.7987622191
 31
0.0
  0
LINE
  5
48F
  8
0
  6
CONTINUOUS
 62
     7
 10
113.1521619543
 20
-47.2560323347
 30
0.0
 11
113.1521619543
 21
-48.7987622191
 31
0.0
  0
LINE
  5
490
  8
0
  6
CONTINUOUS
 62
     7
 10
114.1521610006
 20
-47.4541350771
 30
0.0
 11
114.1521610006
 21
-48.7987622191
 31
0.0
  0
LINE
  5
491
  8
0
  6
CONTINUOUS
 62
     7
 10
183.3521611675
 20
-60.5592790563
 30
0.0
 11
183.3521611675
 21
-50.7592789401
 31
0.0
  0
LINE
  5
492
  8
0
  6
CONTINUOUS
 62
     7
 10
118.3521605715
 20
-60.5592790563
 30
0.0
 11
118.3521605715
 21
-50.7592789401
 31
0.0
  0
LINE
  5
493
  8
0
  6
CONTINUOUS
 62
     7
 10
118.3521605715
 20
-61.5592788477
 30
0.0
 11
114.1521610006
 21
-61.5592788477
 31
0.0
  0
LINE
  5
494
  8
0
  6
CONTINUOUS
 62
     7
 10
118.3521605715
 20
-60.5592790563
 30
0.0
 11
118.3521605715
 21
-61.5592788477
 31
0.0
  0
LINE
  5
495
  8
0
  6
CONTINUOUS
 62
     7
 10
187.5521622285
 20
-61.5592788477
 30
0.0
 11
183.3521611675
 21
-61.5592788477
 31
0.0
  0
LINE
  5
496
  8
0
  6
CONTINUOUS
 62
     7
 10
183.3521611675
 20
-61.5592788477
 30
0.0
 11
183.3521611675
 21
-60.5592790563
 31
0.0
  0
LINE
  5
497
  8
0
  6
CONTINUOUS
 62
     7
 10
118.3521605715
 20
-49.7592791487
 30
0.0
 11
114.1521610006
 21
-49.7592791487
 31
0.0
  0
LINE
  5
498
  8
0
  6
CONTINUOUS
 62
     7
 10
118.3521605715
 20
-49.7592791487
 30
0.0
 11
118.3521605715
 21
-50.7592789401
 31
0.0
  0
LINE
  5
499
  8
0
  6
CONTINUOUS
 62
     7
 10
187.5521622285
 20
-49.7592791487
 30
0.0
 11
183.3521611675
 21
-49.7592791487
 31
0.0
  0
LINE
  5
49A
  8
0
  6
CONTINUOUS
 62
     7
 10
183.3521611675
 20
-50.7592789401
 30
0.0
 11
183.3521611675
 21
-49.7592791487
 31
0.0
  0
LINE
  5
49B
  8
0
  6
CONTINUOUS
 62
     7
 10
193.3521620616
 20
-60.5592790563
 30
0.0
 11
193.3521620616
 21
-50.7592789401
 31
0.0
  0
LINE
  5
49C
  8
0
  6
CONTINUOUS
 62
     7
 10
113.1521619543
 20
-49.7592791487
 30
0.0
 11
108.3521641477
 21
-49.7592791487
 31
0.0
  0
LINE
  5
49D
  8
0
  6
CONTINUOUS
 62
     7
 10
108.3521641477
 20
-50.7592789401
 30
0.0
 11
108.3521641477
 21
-49.7592791487
 31
0.0
  0
LINE
  5
49E
  8
0
  6
CONTINUOUS
 62
     7
 10
108.3521641477
 20
-60.5592790563
 30
0.0
 11
108.3521641477
 21
-50.7592789401
 31
0.0
  0
LINE
  5
49F
  8
0
  6
CONTINUOUS
 62
     7
 10
193.3521620616
 20
-49.7592791487
 30
0.0
 11
188.5521612748
 21
-49.7592791487
 31
0.0
  0
LINE
  5
4A0
  8
0
  6
CONTINUOUS
 62
     7
 10
193.3521620616
 20
-50.7592789401
 30
0.0
 11
193.3521620616
 21
-49.7592791487
 31
0.0
  0
LINE
  5
4A1
  8
0
  6
CONTINUOUS
 62
     7
 10
113.1521619543
 20
-61.5592788477
 30
0.0
 11
108.3521641477
 21
-61.5592788477
 31
0.0
  0
LINE
  5
4A2
  8
0
  6
CONTINUOUS
 62
     7
 10
108.3521641477
 20
-61.5592788477
 30
0.0
 11
108.3521641477
 21
-60.5592790563
 31
0.0
  0
LINE
  5
4A3
  8
0
  6
CONTINUOUS
 62
     7
 10
193.3521620616
 20
-61.5592788477
 30
0.0
 11
188.5521612748
 21
-61.5592788477
 31
0.0
  0
LINE
  5
4A4
  8
0
  6
CONTINUOUS
 62
     7
 10
193.3521620616
 20
-61.5592788477
 30
0.0
 11
193.3521620616
 21
-60.5592790563
 31
0.0
  0
POLYLINE
  5
4A5
  8
0
  6
CONTINUOUS
 62
     7
 66
     1
 10
0.0
 20
0.0
 30
0.0
  0
VERTEX
  5
A2B
  8
0
  6
CONTINUOUS
 62
     7
 10
-5.8478437678
 20
-75.0160470177
 30
0.0
  0
VERTEX
  5
A2C
  8
0
  6
CONTINUOUS
 62
     7
 10
-6.3834511057
 20
-75.720280366
 30
0.0
  0
VERTEX
  5
A2D
  8
0
  6
CONTINUOUS
 62
     7
 10
-6.8478428141
 20
-76.4854698945
 30
0.0
  0
SEQEND
  5
B48
  8
0
  6
CONTINUOUS
 62
     7
  0
LINE
  5
4A6
  8
0
  6
CONTINUOUS
 62
     7
 10
5.5079377874
 20
-66.6646182109
 30
0.0
 11
5.6314862951
 21
-66.6592791248
 31
0.0
  0
ARC
  5
4A7
  8
0
  6
CONTINUOUS
 62
     7
 10
5.991748211
 20
-81.5654531279
 30
0.0
 40
10.07563600262015
 50
100.5231984591
 51
180.5335589222
  0
ARC
  5
4A8
  8
0
  6
CONTINUOUS
 62
     7
 10
55.7125821969
 20
-121.7531079177
 30
0.0
 40
10.07562674746247
 50
280.5230856997
 51
0.533565143
  0
LINE
  5
4A9
  8
0
  6
CONTINUOUS
 62
     7
 10
56.1840928777
 20
-136.6528942753
 30
0.0
 11
56.0728467687
 21
-136.6592779327
 31
0.0
  0
POLYLINE
  5
4AA
  8
0
  6
CONTINUOUS
 62
     7
 66
     1
 10
0.0
 20
0.0
 30
0.0
  0
VERTEX
  5
A2E
  8
0
  6
CONTINUOUS
 62
     7
 10
67.5521649107
 20
-75.0160470177
 30
0.0
  0
VERTEX
  5
A2F
  8
0
  6
CONTINUOUS
 62
     7
 10
68.0877722486
 20
-75.720280366
 30
0.0
  0
VERTEX
  5
A30
  8
0
  6
CONTINUOUS
 62
     7
 10
68.552163957
 20
-76.4854698945
 30
0.0
  0
SEQEND
  5
B47
  8
0
  6
CONTINUOUS
 62
     7
  0
ARC
  5
4AB
  8
0
  6
CONTINUOUS
 62
     7
 10
55.730314206
 20
-81.5508452751
 30
0.0
 40
10.05804237770575
 50
359.3822896921
 51
79.5610343275
  0
LINE
  5
4AC
  8
0
  6
CONTINUOUS
 62
     7
 10
5.6314862951
 20
-136.6592779327
 30
0.0
 11
5.5383361562
 21
-136.6540267635
 31
0.0
  0
ARC
  5
4AD
  8
0
  6
CONTINUOUS
 62
     7
 10
5.9739970954
 20
-121.7677206178
 30
0.0
 40
10.05803259991567
 50
179.3822557359
 51
259.5610120207
  0
LINE
  5
4AE
  8
0
  6
CONTINUOUS
 62
     7
 10
-4.083450915
 20
-81.6592797209
 30
0.0
 11
-4.083450915
 21
-121.6592803169
 31
0.0
  0
LINE
  5
4AF
  8
0
  6
CONTINUOUS
 62
     7
 10
65.7877720579
 20
-121.6592803169
 30
0.0
 11
65.7877720579
 21
-81.6592797209
 31
0.0
  0
LINE
  5
4B0
  8
0
  6
CONTINUOUS
 62
     7
 10
-5.8478437678
 20
-72.6471915413
 30
0.0
 11
-6.8478428141
 21
-72.6471915413
 31
0.0
  0
LINE
  5
4B1
  8
0
  6
CONTINUOUS
 62
     7
 10
-6.8478428141
 20
-48.7987622191
 30
0.0
 11
-6.8478428141
 21
-72.6471915413
 31
0.0
  0
LINE
  5
4B2
  8
0
  6
CONTINUOUS
 62
     7
 10
-5.8478437678
 20
-48.7987622191
 30
0.0
 11
-5.8478437678
 21
-72.6471915413
 31
0.0
  0
LINE
  5
4B3
  8
0
  6
CONTINUOUS
 62
     7
 10
67.5521649107
 20
-72.6471915413
 30
0.0
 11
68.552163957
 21
-72.6471915413
 31
0.0
  0
LINE
  5
4B4
  8
0
  6
CONTINUOUS
 62
     7
 10
67.5521649107
 20
-48.7987622191
 30
0.0
 11
67.5521649107
 21
-72.6471915413
 31
0.0
  0
LINE
  5
4B5
  8
0
  6
CONTINUOUS
 62
     7
 10
68.552163957
 20
-48.7987622191
 30
0.0
 11
68.552163957
 21
-72.6471915413
 31
0.0
  0
LINE
  5
4B6
  8
0
  6
CONTINUOUS
 62
     7
 10
67.5521649107
 20
-72.6471915413
 30
0.0
 11
67.5521649107
 21
-75.0160470177
 31
0.0
  0
LINE
  5
4B7
  8
0
  6
CONTINUOUS
 62
     7
 10
68.552163957
 20
-72.6471915413
 30
0.0
 11
68.552163957
 21
-76.4854698945
 31
0.0
  0
LINE
  5
4B8
  8
0
  6
CONTINUOUS
 62
     7
 10
-6.8478428141
 20
-72.6471915413
 30
0.0
 11
-6.8478428141
 21
-76.4854698945
 31
0.0
  0
LINE
  5
4B9
  8
0
  6
CONTINUOUS
 62
     7
 10
-5.8478437678
 20
-72.6471915413
 30
0.0
 11
-5.8478437678
 21
-75.0160470177
 31
0.0
  0
LINE
  5
4BA
  8
0
  6
CONTINUOUS
 62
     7
 10
4.1515983328
 20
-131.6592767407
 30
0.0
 11
57.5527108892
 21
-131.6592767407
 31
0.0
  0
LINE
  5
4BB
  8
0
  6
CONTINUOUS
 62
     7
 10
4.1515983328
 20
-71.6592788268
 30
0.0
 11
57.5527108892
 21
-71.6592788268
 31
0.0
  0
LINE
  5
4BC
  8
0
  6
CONTINUOUS
 62
     7
 10
5.6314862951
 20
-66.6592791248
 30
0.0
 11
56.0728467687
 21
-66.6592791248
 31
0.0
  0
LINE
  5
4BD
  8
0
  6
CONTINUOUS
 62
     7
 10
56.0728467687
 20
-136.6592779327
 30
0.0
 11
5.6314862951
 21
-136.6592779327
 31
0.0
  0
LINE
  5
4BE
  8
0
  6
CONTINUOUS
 62
     7
 10
67.5521649107
 20
-47.4556192328
 30
0.0
 11
67.5521649107
 21
-48.7987622191
 31
0.0
  0
LINE
  5
4BF
  8
0
  6
CONTINUOUS
 62
     7
 10
68.552163957
 20
-47.2562782038
 30
0.0
 11
68.552163957
 21
-48.7987622191
 31
0.0
  0
LINE
  5
4C0
  8
0
  6
CONTINUOUS
 62
     7
 10
-6.8478428141
 20
-47.2560323347
 30
0.0
 11
-6.8478428141
 21
-48.7987622191
 31
0.0
  0
LINE
  5
4C1
  8
0
  6
CONTINUOUS
 62
     7
 10
-5.8478437678
 20
-47.4541350771
 30
0.0
 11
-5.8478437678
 21
-48.7987622191
 31
0.0
  0
LINE
  5
4C2
  8
0
  6
CONTINUOUS
 62
     7
 10
-1.6478382365
 20
-60.5592790563
 30
0.0
 11
-1.6478382365
 21
-50.7592789401
 31
0.0
  0
LINE
  5
4C3
  8
0
  6
CONTINUOUS
 62
     7
 10
63.3521593794
 20
-60.5592790563
 30
0.0
 11
63.3521593794
 21
-50.7592789401
 31
0.0
  0
LINE
  5
4C4
  8
0
  6
CONTINUOUS
 62
     7
 10
-1.6478382365
 20
-49.7592791487
 30
0.0
 11
-5.8478437678
 21
-49.7592791487
 31
0.0
  0
LINE
  5
4C5
  8
0
  6
CONTINUOUS
 62
     7
 10
-1.6478382365
 20
-49.7592791487
 30
0.0
 11
-1.6478382365
 21
-50.7592789401
 31
0.0
  0
LINE
  5
4C6
  8
0
  6
CONTINUOUS
 62
     7
 10
67.5521649107
 20
-61.5592788477
 30
0.0
 11
63.3521593794
 21
-61.5592788477
 31
0.0
  0
LINE
  5
4C7
  8
0
  6
CONTINUOUS
 62
     7
 10
63.3521593794
 20
-61.5592788477
 30
0.0
 11
63.3521593794
 21
-60.5592790563
 31
0.0
  0
LINE
  5
4C8
  8
0
  6
CONTINUOUS
 62
     7
 10
67.5521649107
 20
-49.7592791487
 30
0.0
 11
63.3521593794
 21
-49.7592791487
 31
0.0
  0
LINE
  5
4C9
  8
0
  6
CONTINUOUS
 62
     7
 10
63.3521593794
 20
-50.7592789401
 30
0.0
 11
63.3521593794
 21
-49.7592791487
 31
0.0
  0
LINE
  5
4CA
  8
0
  6
CONTINUOUS
 62
     7
 10
-1.6478382365
 20
-61.5592788477
 30
0.0
 11
-5.8478437678
 21
-61.5592788477
 31
0.0
  0
LINE
  5
4CB
  8
0
  6
CONTINUOUS
 62
     7
 10
-1.6478382365
 20
-60.5592790563
 30
0.0
 11
-1.6478382365
 21
-61.5592788477
 31
0.0
  0
LINE
  5
4CC
  8
0
  6
CONTINUOUS
 62
     7
 10
-11.6478286997
 20
-50.7592789401
 30
0.0
 11
-11.6478286997
 21
-49.7592791487
 31
0.0
  0
LINE
  5
4CD
  8
0
  6
CONTINUOUS
 62
     7
 10
-6.8478428141
 20
-49.7592791487
 30
0.0
 11
-11.6478286997
 21
-49.7592791487
 31
0.0
  0
LINE
  5
4CE
  8
0
  6
CONTINUOUS
 62
     7
 10
-11.6478286997
 20
-60.5592790563
 30
0.0
 11
-11.6478286997
 21
-50.7592789401
 31
0.0
  0
LINE
  5
4CF
  8
0
  6
CONTINUOUS
 62
     7
 10
73.3521617635
 20
-60.5592790563
 30
0.0
 11
73.3521617635
 21
-50.7592789401
 31
0.0
  0
LINE
  5
4D0
  8
0
  6
CONTINUOUS
 62
     7
 10
73.3521617635
 20
-49.7592791487
 30
0.0
 11
68.552163957
 21
-49.7592791487
 31
0.0
  0
LINE
  5
4D1
  8
0
  6
CONTINUOUS
 62
     7
 10
73.3521617635
 20
-50.7592789401
 30
0.0
 11
73.3521617635
 21
-49.7592791487
 31
0.0
  0
LINE
  5
4D2
  8
0
  6
CONTINUOUS
 62
     7
 10
73.3521617635
 20
-61.5592788477
 30
0.0
 11
68.552163957
 21
-61.5592788477
 31
0.0
  0
LINE
  5
4D3
  8
0
  6
CONTINUOUS
 62
     7
 10
73.3521617635
 20
-61.5592788477
 30
0.0
 11
73.3521617635
 21
-60.5592790563
 31
0.0
  0
LINE
  5
4D4
  8
0
  6
CONTINUOUS
 62
     7
 10
-6.8478428141
 20
-61.5592788477
 30
0.0
 11
-11.6478286997
 21
-61.5592788477
 31
0.0
  0
LINE
  5
4D5
  8
0
  6
CONTINUOUS
 62
     7
 10
-11.6478286997
 20
-61.5592788477
 30
0.0
 11
-11.6478286997
 21
-60.5592790563
 31
0.0
  0
LINE
  5
4D6
  8
0
  6
CONTINUOUS
 62
     7
 10
555.5439231083
 20
127.4318670203
 30
0.0
 11
555.5439231083
 21
152.4318670203
 31
0.0
  0
LINE
  5
4D7
  8
0
  6
CONTINUOUS
 62
     7
 10
550.1439231545
 20
152.4318670203
 30
0.0
 11
550.1439231545
 21
127.4318670203
 31
0.0
  0
ARC
  5
4D8
  8
0
  6
CONTINUOUS
 62
     7
 10
567.8439231918
 20
152.4318679739
 30
0.0
 40
12.30000000000018
 50
90.0
 51
180.0
  0
ARC
  5
4D9
  8
0
  6
CONTINUOUS
 62
     7
 10
567.8439231918
 20
152.4318679739
 30
0.0
 40
17.70000000000005
 50
90.0
 51
180.0
  0
LINE
  5
4DA
  8
0
  6
CONTINUOUS
 62
     7
 10
558.8439230904
 20
118.1318675448
 30
0.0
 11
587.843923001
 21
118.1318675448
 31
0.0
  0
LINE
  5
4DB
  8
0
  6
CONTINUOUS
 62
     7
 10
587.843923001
 20
123.5318695475
 30
0.0
 11
558.8439230904
 21
123.5318695475
 31
0.0
  0
LINE
  5
4DC
  8
0
  6
CONTINUOUS
 62
     7
 10
587.843923001
 20
170.1318715979
 30
0.0
 11
567.843922703
 21
170.1318715979
 31
0.0
  0
LINE
  5
4DD
  8
0
  6
CONTINUOUS
 62
     7
 10
567.843922703
 20
164.7318695952
 30
0.0
 11
587.843923001
 21
164.7318695952
 31
0.0
  0
ARC
  5
4DE
  8
0
  6
CONTINUOUS
 62
     7
 10
587.8439231918
 20
135.8318679739
 30
0.0
 40
12.3
 50
270.0
 51
0.0
  0
ARC
  5
4DF
  8
0
  6
CONTINUOUS
 62
     7
 10
587.8439231918
 20
135.8318679739
 30
0.0
 40
17.69999999999999
 50
270.0
 51
0.0
  0
ARC
  5
4E0
  8
0
  6
CONTINUOUS
 62
     7
 10
587.8439231918
 20
152.4318679739
 30
0.0
 40
12.29999999999998
 50
360.0
 51
90.0
  0
ARC
  5
4E1
  8
0
  6
CONTINUOUS
 62
     7
 10
587.8439231918
 20
152.4318679739
 30
0.0
 40
17.69999999999999
 50
360.0
 51
90.0
  0
LINE
  5
4E2
  8
0
  6
CONTINUOUS
 62
     7
 10
605.5439216182
 20
135.831866162
 30
0.0
 11
605.5439216182
 21
152.4318670203
 31
0.0
  0
LINE
  5
4E3
  8
0
  6
CONTINUOUS
 62
     7
 10
600.1439225957
 20
152.4318670203
 30
0.0
 11
600.1439225957
 21
135.831866162
 31
0.0
  0
POLYLINE
  5
4E4
  8
0
  6
CONTINUOUS
 62
     7
 66
     1
 10
0.0
 20
0.0
 30
0.0
  0
VERTEX
  5
A31
  8
0
  6
CONTINUOUS
 62
     7
 10
539.2800671146
 20
222.8503440787
 30
0.0
  0
VERTEX
  5
A32
  8
0
  6
CONTINUOUS
 62
     7
 10
539.1859662816
 20
223.5902999808
 30
0.0
  0
VERTEX
  5
A33
  8
0
  6
CONTINUOUS
 62
     7
 10
539.0571561739
 20
224.4988893439
 30
0.0
  0
VERTEX
  5
A34
  8
0
  6
CONTINUOUS
 62
     7
 10
538.9159319088
 20
225.4001711775
 30
0.0
  0
VERTEX
  5
A35
  8
0
  6
CONTINUOUS
 62
     7
 10
538.7631130502
 20
226.2883161475
 30
0.0
  0
VERTEX
  5
A36
  8
0
  6
CONTINUOUS
 62
     7
 10
538.6015665815
 20
227.1491383482
 30
0.0
  0
VERTEX
  5
A37
  8
0
  6
CONTINUOUS
 62
     7
 10
538.4304699585
 20
227.9900406767
 30
0.0
  0
VERTEX
  5
A38
  8
0
  6
CONTINUOUS
 62
     7
 10
538.2503328011
 20
228.8096045424
 30
0.0
  0
VERTEX
  5
A39
  8
0
  6
CONTINUOUS
 62
     7
 10
538.0621192143
 20
229.604015248
 30
0.0
  0
VERTEX
  5
A3A
  8
0
  6
CONTINUOUS
 62
     7
 10
537.86675158
 20
230.369660752
 30
0.0
  0
VERTEX
  5
A3B
  8
0
  6
CONTINUOUS
 62
     7
 10
537.6650241301
 20
231.1033104826
 30
0.0
  0
VERTEX
  5
A3C
  8
0
  6
CONTINUOUS
 62
     7
 10
537.4574643657
 20
231.8023895194
 30
0.0
  0
VERTEX
  5
A3D
  8
0
  6
CONTINUOUS
 62
     7
 10
537.2443226263
 20
232.4647163321
 30
0.0
  0
VERTEX
  5
A3E
  8
0
  6
CONTINUOUS
 62
     7
 10
537.0285016582
 20
233.0810998847
 30
0.0
  0
VERTEX
  5
A3F
  8
0
  6
CONTINUOUS
 62
     7
 10
536.8049842403
 20
233.6643909384
 30
0.0
  0
VERTEX
  5
A40
  8
0
  6
CONTINUOUS
 62
     7
 10
536.5679648802
 20
234.2232083251
 30
0.0
  0
VERTEX
  5
A41
  8
0
  6
CONTINUOUS
 62
     7
 10
536.3082093284
 20
234.7658013274
 30
0.0
  0
VERTEX
  5
A42
  8
0
  6
CONTINUOUS
 62
     7
 10
536.0010874555
 20
235.314211743
 30
0.0
  0
VERTEX
  5
A43
  8
0
  6
CONTINUOUS
 62
     7
 10
535.7493248865
 20
235.6912230422
 30
0.0
  0
VERTEX
  5
A44
  8
0
  6
CONTINUOUS
 62
     7
 10
535.4958159015
 20
236.0103105475
 30
0.0
  0
VERTEX
  5
A45
  8
0
  6
CONTINUOUS
 62
     7
 10
535.247203438
 20
236.2716292311
 30
0.0
  0
VERTEX
  5
A46
  8
0
  6
CONTINUOUS
 62
     7
 10
534.9784907982
 20
236.5052913596
 30
0.0
  0
VERTEX
  5
A47
  8
0
  6
CONTINUOUS
 62
     7
 10
534.6839648769
 20
236.7120956351
 30
0.0
  0
VERTEX
  5
A48
  8
0
  6
CONTINUOUS
 62
     7
 10
534.3592044995
 20
236.8894194533
 30
0.0
  0
VERTEX
  5
A49
  8
0
  6
CONTINUOUS
 62
     7
 10
534.0044600055
 20
237.0306824614
 30
0.0
  0
VERTEX
  5
A4A
  8
0
  6
CONTINUOUS
 62
     7
 10
533.62454447
 20
237.128076451
 30
0.0
  0
VERTEX
  5
A4B
  8
0
  6
CONTINUOUS
 62
     7
 10
533.2275045202
 20
237.1749733855
 30
0.0
  0
VERTEX
  5
A4C
  8
0
  6
CONTINUOUS
 62
     7
 10
532.7790302322
 20
237.1628617217
 30
0.0
  0
VERTEX
  5
A4D
  8
0
  6
CONTINUOUS
 62
     7
 10
532.7260715053
 20
237.1532892157
 30
0.0
  0
SEQEND
  5
B46
  8
0
  6
CONTINUOUS
 62
     7
  0
POLYLINE
  5
4E5
  8
0
  6
CONTINUOUS
 62
     7
 66
     1
 10
0.0
 20
0.0
 30
0.0
  0
VERTEX
  5
A4E
  8
0
  6
CONTINUOUS
 62
     7
 10
541.2573163495
 20
167.6869367529
 30
0.0
  0
VERTEX
  5
A4F
  8
0
  6
CONTINUOUS
 62
     7
 10
541.5240031764
 20
167.7250718047
 30
0.0
  0
VERTEX
  5
A50
  8
0
  6
CONTINUOUS
 62
     7
 10
541.9196848855
 20
167.8413604666
 30
0.0
  0
VERTEX
  5
A51
  8
0
  6
CONTINUOUS
 62
     7
 10
542.2813412831
 20
168.004224198
 30
0.0
  0
VERTEX
  5
A52
  8
0
  6
CONTINUOUS
 62
     7
 10
542.6053700135
 20
168.2043169905
 30
0.0
  0
VERTEX
  5
A53
  8
0
  6
CONTINUOUS
 62
     7
 10
542.890312253
 20
168.4324954916
 30
0.0
  0
VERTEX
  5
A54
  8
0
  6
CONTINUOUS
 62
     7
 10
543.1372140631
 20
168.6809038092
 30
0.0
  0
VERTEX
  5
A55
  8
0
  6
CONTINUOUS
 62
     7
 10
543.3498111651
 20
168.9446901251
 30
0.0
  0
VERTEX
  5
A56
  8
0
  6
CONTINUOUS
 62
     7
 10
543.5340640232
 20
169.2237948348
 30
0.0
  0
VERTEX
  5
A57
  8
0
  6
CONTINUOUS
 62
     7
 10
543.6974314139
 20
169.5250963141
 30
0.0
  0
VERTEX
  5
A58
  8
0
  6
CONTINUOUS
 62
     7
 10
543.8490857467
 20
169.8680614401
 30
0.0
  0
VERTEX
  5
A59
  8
0
  6
CONTINUOUS
 62
     7
 10
543.9931755051
 20
170.2740763594
 30
0.0
  0
VERTEX
  5
A5A
  8
0
  6
CONTINUOUS
 62
     7
 10
544.1406038687
 20
170.8076690604
 30
0.0
  0
VERTEX
  5
A5B
  8
0
  6
CONTINUOUS
 62
     7
 10
544.2656857059
 20
171.4018320014
 30
0.0
  0
VERTEX
  5
A5C
  8
0
  6
CONTINUOUS
 62
     7
 10
544.3613086924
 20
171.9928478171
 30
0.0
  0
VERTEX
  5
A5D
  8
0
  6
CONTINUOUS
 62
     7
 10
544.4442597315
 20
172.6634835173
 30
0.0
  0
VERTEX
  5
A5E
  8
0
  6
CONTINUOUS
 62
     7
 10
544.5074853585
 20
173.3504747321
 30
0.0
  0
VERTEX
  5
A5F
  8
0
  6
CONTINUOUS
 62
     7
 10
544.5543077872
 20
174.061772721
 30
0.0
  0
VERTEX
  5
A60
  8
0
  6
CONTINUOUS
 62
     7
 10
544.5852731452
 20
174.7832631041
 30
0.0
  0
VERTEX
  5
A61
  8
0
  6
CONTINUOUS
 62
     7
 10
544.6027171895
 20
175.5545710494
 30
0.0
  0
VERTEX
  5
A62
  8
0
  6
CONTINUOUS
 62
     7
 10
544.6060073659
 20
176.3575886656
 30
0.0
  0
VERTEX
  5
A63
  8
0
  6
CONTINUOUS
 62
     7
 10
544.5951578305
 20
177.1886919905
 30
0.0
  0
VERTEX
  5
A64
  8
0
  6
CONTINUOUS
 62
     7
 10
544.5701208994
 20
178.0429338385
 30
0.0
  0
VERTEX
  5
A65
  8
0
  6
CONTINUOUS
 62
     7
 10
544.5308853969
 20
178.9145683218
 30
0.0
  0
VERTEX
  5
A66
  8
0
  6
CONTINUOUS
 62
     7
 10
544.4775213585
 20
179.7973727156
 30
0.0
  0
VERTEX
  5
A67
  8
0
  6
CONTINUOUS
 62
     7
 10
544.4102612421
 20
180.6847189833
 30
0.0
  0
VERTEX
  5
A68
  8
0
  6
CONTINUOUS
 62
     7
 10
544.3291840241
 20
181.5780733992
 30
0.0
  0
VERTEX
  5
A69
  8
0
  6
CONTINUOUS
 62
     7
 10
544.2332913265
 20
182.4884389807
 30
0.0
  0
VERTEX
  5
A6A
  8
0
  6
CONTINUOUS
 62
     7
 10
544.1542630181
 20
183.1482385565
 30
0.0
  0
SEQEND
  5
B45
  8
0
  6
CONTINUOUS
 62
     7
  0
LINE
  5
4E6
  8
0
  6
CONTINUOUS
 62
     7
 10
544.1563782379
 20
183.1485723425
 30
0.0
 11
539.2816049144
 21
222.8504275252
 31
0.0
  0
POLYLINE
  5
4E7
  8
0
  6
CONTINUOUS
 62
     7
 66
     1
 10
0.0
 20
0.0
 30
0.0
  0
VERTEX
  5
A6B
  8
0
  6
CONTINUOUS
 62
     7
 10
538.8149258778
 20
182.4928616454
 30
0.0
  0
VERTEX
  5
A6C
  8
0
  6
CONTINUOUS
 62
     7
 10
538.9000770733
 20
181.7699288298
 30
0.0
  0
VERTEX
  5
A6D
  8
0
  6
CONTINUOUS
 62
     7
 10
538.9864531443
 20
180.9335564543
 30
0.0
  0
VERTEX
  5
A6E
  8
0
  6
CONTINUOUS
 62
     7
 10
539.0596014545
 20
180.1070188452
 30
0.0
  0
VERTEX
  5
A6F
  8
0
  6
CONTINUOUS
 62
     7
 10
539.1190123842
 20
179.2963003088
 30
0.0
  0
VERTEX
  5
A70
  8
0
  6
CONTINUOUS
 62
     7
 10
539.1647559688
 20
178.5069559981
 30
0.0
  0
VERTEX
  5
A71
  8
0
  6
CONTINUOUS
 62
     7
 10
539.1978439972
 20
177.7319644858
 30
0.0
  0
VERTEX
  5
A72
  8
0
  6
CONTINUOUS
 62
     7
 10
539.2183494851
 20
176.976523297
 30
0.0
  0
VERTEX
  5
A73
  8
0
  6
CONTINUOUS
 62
     7
 10
539.2263663099
 20
176.2496446539
 30
0.0
  0
VERTEX
  5
A74
  8
0
  6
CONTINUOUS
 62
     7
 10
539.2222893522
 20
175.5616043974
 30
0.0
  0
VERTEX
  5
A75
  8
0
  6
CONTINUOUS
 62
     7
 10
539.2068845317
 20
174.9209736754
 30
0.0
  0
VERTEX
  5
A76
  8
0
  6
CONTINUOUS
 62
     7
 10
539.181261985
 20
174.3357871939
 30
0.0
  0
VERTEX
  5
A77
  8
0
  6
CONTINUOUS
 62
     7
 10
539.1468879864
 20
173.8090132643
 30
0.0
  0
VERTEX
  5
A78
  8
0
  6
CONTINUOUS
 62
     7
 10
539.1038370416
 20
173.3227347304
 30
0.0
  0
VERTEX
  5
A79
  8
0
  6
CONTINUOUS
 62
     7
 10
539.0550551102
 20
172.8986476828
 30
0.0
  0
VERTEX
  5
A7A
  8
0
  6
CONTINUOUS
 62
     7
 10
539.0029308483
 20
172.5401257445
 30
0.0
  0
VERTEX
  5
A7B
  8
0
  6
CONTINUOUS
 62
     7
 10
538.9510017917
 20
172.2530220915
 30
0.0
  0
VERTEX
  5
A7C
  8
0
  6
CONTINUOUS
 62
     7
 10
538.9089685962
 20
172.0624541213
 30
0.0
  0
VERTEX
  5
A7D
  8
0
  6
CONTINUOUS
 62
     7
 10
538.8755542323
 20
171.9358896185
 30
0.0
  0
VERTEX
  5
A7E
  8
0
  6
CONTINUOUS
 62
     7
 10
538.8548326776
 20
171.8697880675
 30
0.0
  0
VERTEX
  5
A7F
  8
0
  6
CONTINUOUS
 62
     7
 10
538.85191205
 20
171.8615268637
 30
0.0
  0
SEQEND
  5
B44
  8
0
  6
CONTINUOUS
 62
     7
  0
POLYLINE
  5
4E8
  8
0
  6
CONTINUOUS
 62
     7
 66
     1
 10
0.0
 20
0.0
 30
0.0
  0
VERTEX
  5
A80
  8
0
  6
CONTINUOUS
 62
     7
 10
531.4021465466
 20
232.5215672423
 30
0.0
  0
VERTEX
  5
A81
  8
0
  6
CONTINUOUS
 62
     7
 10
531.4008710072
 20
232.5231646468
 30
0.0
  0
VERTEX
  5
A82
  8
0
  6
CONTINUOUS
 62
     7
 10
531.4262178824
 20
232.4830030371
 30
0.0
  0
VERTEX
  5
A83
  8
0
  6
CONTINUOUS
 62
     7
 10
531.4781618402
 20
232.3919390608
 30
0.0
  0
VERTEX
  5
A84
  8
0
  6
CONTINUOUS
 62
     7
 10
531.5551159069
 20
232.2430108954
 30
0.0
  0
VERTEX
  5
A85
  8
0
  6
CONTINUOUS
 62
     7
 10
531.6548985526
 20
232.0308660437
 30
0.0
  0
VERTEX
  5
A86
  8
0
  6
CONTINUOUS
 62
     7
 10
531.7745593474
 20
231.7526673247
 30
0.0
  0
VERTEX
  5
A87
  8
0
  6
CONTINUOUS
 62
     7
 10
531.9105384037
 20
231.4084505011
 30
0.0
  0
VERTEX
  5
A88
  8
0
  6
CONTINUOUS
 62
     7
 10
532.0589644
 20
231.0008143355
 30
0.0
  0
VERTEX
  5
A89
  8
0
  6
CONTINUOUS
 62
     7
 10
532.2159555838
 20
230.5343960692
 30
0.0
  0
VERTEX
  5
A8A
  8
0
  6
CONTINUOUS
 62
     7
 10
532.3779624984
 20
230.0147985388
 30
0.0
  0
VERTEX
  5
A8B
  8
0
  6
CONTINUOUS
 62
     7
 10
532.5418976233
 20
229.4487689902
 30
0.0
  0
VERTEX
  5
A8C
  8
0
  6
CONTINUOUS
 62
     7
 10
532.7083525345
 20
228.8311218192
 30
0.0
  0
VERTEX
  5
A8D
  8
0
  6
CONTINUOUS
 62
     7
 10
532.8748700306
 20
228.1671499182
 30
0.0
  0
VERTEX
  5
A8E
  8
0
  6
CONTINUOUS
 62
     7
 10
533.0392372892
 20
227.4622415473
 30
0.0
  0
VERTEX
  5
A8F
  8
0
  6
CONTINUOUS
 62
     7
 10
533.1993875191
 20
226.7220472266
 30
0.0
  0
VERTEX
  5
A90
  8
0
  6
CONTINUOUS
 62
     7
 10
533.3534059212
 20
225.9524201323
 30
0.0
  0
VERTEX
  5
A91
  8
0
  6
CONTINUOUS
 62
     7
 10
533.4995162771
 20
225.1594995429
 30
0.0
  0
VERTEX
  5
A92
  8
0
  6
CONTINUOUS
 62
     7
 10
533.6359855816
 20
224.3503903319
 30
0.0
  0
VERTEX
  5
A93
  8
0
  6
CONTINUOUS
 62
     7
 10
533.7615174339
 20
223.5325073172
 30
0.0
  0
VERTEX
  5
A94
  8
0
  6
CONTINUOUS
 62
     7
 10
533.8766318843
 20
222.7027510573
 30
0.0
  0
VERTEX
  5
A95
  8
0
  6
CONTINUOUS
 62
     7
 10
533.9397651241
 20
222.1944903304
 30
0.0
  0
SEQEND
  5
B43
  8
0
  6
CONTINUOUS
 62
     7
  0
LINE
  5
4E9
  8
0
  6
CONTINUOUS
 62
     7
 10
533.9417067454
 20
222.1947645117
 30
0.0
 11
538.8164800689
 21
182.49292125
 31
0.0
  0
LINE
  5
4EA
  8
0
  6
CONTINUOUS
 62
     7
 10
533.424304156
 20
225.5676721503
 30
0.0
 11
539.1308975503
 21
179.0911888052
 31
0.0
  0
ARC
  5
4EB
  8
0
  6
CONTINUOUS
 62
     7
 10
531.3472206548
 20
234.2786496261
 30
0.0
 40
2.690000000000055
 50
208.5742842993
 51
277.0
  0
ARC
  5
4EC
  8
0
  6
CONTINUOUS
 62
     7
 10
531.3472206548
 20
234.2786496261
 30
0.0
 40
2.689999999999996
 50
97.0
 51
165.4352045702
  0
ARC
  5
4ED
  8
0
  6
CONTINUOUS
 62
     7
 10
539.2224176256
 20
170.140317307
 30
0.0
 40
2.69000000000001
 50
208.5742842993
 51
277.0
  0
ARC
  5
4EE
  8
0
  6
CONTINUOUS
 62
     7
 10
539.2224176256
 20
170.140317307
 30
0.0
 40
2.690000000000105
 50
97.0
 51
165.4352045702
  0
LINE
  5
4EF
  8
0
  6
CONTINUOUS
 62
     7
 10
528.4437981531
 20
232.9146479537
 30
0.0
 11
528.9863673136
 21
232.9812621047
 31
0.0
  0
LINE
  5
4F0
  8
0
  6
CONTINUOUS
 62
     7
 10
528.74262902
 20
234.9663590361
 30
0.0
 11
528.2000598595
 21
234.8997329642
 31
0.0
  0
LINE
  5
4F1
  8
0
  6
CONTINUOUS
 62
     7
 10
536.3189947889
 20
168.7763070036
 30
0.0
 11
536.8615654394
 21
168.8429330756
 31
0.0
  0
LINE
  5
4F2
  8
0
  6
CONTINUOUS
 62
     7
 10
536.6178256557
 20
170.8280180861
 30
0.0
 11
536.0752564952
 21
170.7614039351
 31
0.0
  0
POLYLINE
  5
4F3
  8
0
  6
CONTINUOUS
 62
     7
 66
     1
 10
0.0
 20
0.0
 30
0.0
  0
VERTEX
  5
A96
  8
0
  6
CONTINUOUS
 62
     7
 10
633.7370080039
 20
140.6406198908
 30
0.0
  0
VERTEX
  5
A97
  8
0
  6
CONTINUOUS
 62
     7
 10
633.7316555068
 20
140.9099673201
 30
0.0
  0
VERTEX
  5
A98
  8
0
  6
CONTINUOUS
 62
     7
 10
633.6644572303
 20
141.3168703486
 30
0.0
  0
VERTEX
  5
A99
  8
0
  6
CONTINUOUS
 62
     7
 10
633.5468751476
 20
141.6956757475
 30
0.0
  0
VERTEX
  5
A9A
  8
0
  6
CONTINUOUS
 62
     7
 10
633.3877724693
 20
142.04167475
 30
0.0
  0
VERTEX
  5
A9B
  8
0
  6
CONTINUOUS
 62
     7
 10
633.1960183666
 20
142.3523043562
 30
0.0
  0
VERTEX
  5
A9C
  8
0
  6
CONTINUOUS
 62
     7
 10
632.9795462177
 20
142.6276360919
 30
0.0
  0
VERTEX
  5
A9D
  8
0
  6
CONTINUOUS
 62
     7
 10
632.7436429546
 20
142.8707992007
 30
0.0
  0
VERTEX
  5
A9E
  8
0
  6
CONTINUOUS
 62
     7
 10
632.4890715167
 20
143.0876885821
 30
0.0
  0
VERTEX
  5
A9F
  8
0
  6
CONTINUOUS
 62
     7
 10
632.2099310443
 20
143.2865594794
 30
0.0
  0
VERTEX
  5
AA0
  8
0
  6
CONTINUOUS
 62
     7
 10
631.8880003974
 20
143.4788798262
 30
0.0
  0
VERTEX
  5
AA1
  8
0
  6
CONTINUOUS
 62
     7
 10
631.502566962
 20
143.671378987
 30
0.0
  0
VERTEX
  5
AA2
  8
0
  6
CONTINUOUS
 62
     7
 10
630.9909206912
 20
143.8827370574
 30
0.0
  0
VERTEX
  5
AA3
  8
0
  6
CONTINUOUS
 62
     7
 10
630.4164332435
 20
144.0792952944
 30
0.0
  0
VERTEX
  5
AA4
  8
0
  6
CONTINUOUS
 62
     7
 10
629.8414808795
 20
144.246230023
 30
0.0
  0
VERTEX
  5
AA5
  8
0
  6
CONTINUOUS
 62
     7
 10
629.1859430358
 20
144.4102977683
 30
0.0
  0
VERTEX
  5
AA6
  8
0
  6
CONTINUOUS
 62
     7
 10
628.5117847011
 20
144.5567702223
 30
0.0
  0
VERTEX
  5
AA7
  8
0
  6
CONTINUOUS
 62
     7
 10
627.8114897296
 20
144.6899329592
 30
0.0
  0
VERTEX
  5
AA8
  8
0
  6
CONTINUOUS
 62
     7
 10
627.0991546199
 20
144.808593886
 30
0.0
  0
VERTEX
  5
AA9
  8
0
  6
CONTINUOUS
 62
     7
 10
626.3357204482
 20
144.9199055602
 30
0.0
  0
VERTEX
  5
AAA
  8
0
  6
CONTINUOUS
 62
     7
 10
625.5390924499
 20
145.0210367609
 30
0.0
  0
VERTEX
  5
AAB
  8
0
  6
CONTINUOUS
 62
     7
 10
624.7128647849
 20
145.1115523745
 30
0.0
  0
VERTEX
  5
AAC
  8
0
  6
CONTINUOUS
 62
     7
 10
623.8619250343
 20
145.1908086707
 30
0.0
  0
VERTEX
  5
AAD
  8
0
  6
CONTINUOUS
 62
     7
 10
622.9920190856
 20
145.2580903937
 30
0.0
  0
VERTEX
  5
AAE
  8
0
  6
CONTINUOUS
 62
     7
 10
622.109280257
 20
145.3127120902
 30
0.0
  0
VERTEX
  5
AAF
  8
0
  6
CONTINUOUS
 62
     7
 10
621.2203604266
 20
145.3540896346
 30
0.0
  0
VERTEX
  5
AB0
  8
0
  6
CONTINUOUS
 62
     7
 10
620.3237813995
 20
145.3824912478
 30
0.0
  0
VERTEX
  5
AB1
  8
0
  6
CONTINUOUS
 62
     7
 10
619.4085103557
 20
145.3982626368
 30
0.0
  0
VERTEX
  5
AB2
  8
0
  6
CONTINUOUS
 62
     7
 10
618.7439960525
 20
145.4002295901
 30
0.0
  0
SEQEND
  5
B42
  8
0
  6
CONTINUOUS
 62
     7
  0
ARC
  5
4F4
  8
0
  6
CONTINUOUS
 62
     7
 10
578.4453258072
 20
90.2473878296
 30
0.0
 40
55.1542574230114
 50
89.689920985
 51
97.9477118465
  0
LINE
  5
4F5
  8
0
  6
CONTINUOUS
 62
     7
 10
618.7439245269
 20
145.4023693968
 30
0.0
 11
605.5439216182
 21
145.4023693968
 31
0.0
  0
LINE
  5
4F6
  8
0
  6
CONTINUOUS
 62
     7
 10
600.1439225957
 20
145.4023693968
 30
0.0
 11
578.7439239309
 21
145.4023693968
 31
0.0
  0
POLYLINE
  5
4F7
  8
0
  6
CONTINUOUS
 62
     7
 66
     1
 10
0.0
 20
0.0
 30
0.0
  0
VERTEX
  5
AB3
  8
0
  6
CONTINUOUS
 62
     7
 10
618.7437933967
 20
140.0208209921
 30
0.0
  0
VERTEX
  5
AB4
  8
0
  6
CONTINUOUS
 62
     7
 10
619.471715121
 20
140.0172327925
 30
0.0
  0
VERTEX
  5
AB5
  8
0
  6
CONTINUOUS
 62
     7
 10
620.3123849914
 20
140.0010382105
 30
0.0
  0
VERTEX
  5
AB6
  8
0
  6
CONTINUOUS
 62
     7
 10
621.1416703746
 20
139.9729107787
 30
0.0
  0
VERTEX
  5
AB7
  8
0
  6
CONTINUOUS
 62
     7
 10
621.9535869643
 20
139.9330769946
 30
0.0
  0
VERTEX
  5
AB8
  8
0
  6
CONTINUOUS
 62
     7
 10
622.742621331
 20
139.8822819163
 30
0.0
  0
VERTEX
  5
AB9
  8
0
  6
CONTINUOUS
 62
     7
 10
623.5158664272
 20
139.8206805159
 30
0.0
  0
VERTEX
  5
ABA
  8
0
  6
CONTINUOUS
 62
     7
 10
624.2681783721
 20
139.7489642073
 30
0.0
  0
VERTEX
  5
ABB
  8
0
  6
CONTINUOUS
 62
     7
 10
624.9906164691
 20
139.6683370043
 30
0.0
  0
VERTEX
  5
ABC
  8
0
  6
CONTINUOUS
 62
     7
 10
625.6730360076
 20
139.5804380347
 30
0.0
  0
VERTEX
  5
ABD
  8
0
  6
CONTINUOUS
 62
     7
 10
626.3070029304
 20
139.4870792796
 30
0.0
  0
VERTEX
  5
ABE
  8
0
  6
CONTINUOUS
 62
     7
 10
626.8847090289
 20
139.3903290202
 30
0.0
  0
VERTEX
  5
ABF
  8
0
  6
CONTINUOUS
 62
     7
 10
627.4033707664
 20
139.2920111586
 30
0.0
  0
VERTEX
  5
AC0
  8
0
  6
CONTINUOUS
 62
     7
 10
627.8807682082
 20
139.1900216509
 30
0.0
  0
VERTEX
  5
AC1
  8
0
  6
CONTINUOUS
 62
     7
 10
628.2957536266
 20
139.0899216105
 30
0.0
  0
VERTEX
  5
AC2
  8
0
  6
CONTINUOUS
 62
     7
 10
628.6452514217
 20
138.9944886137
 30
0.0
  0
VERTEX
  5
AC3
  8
0
  6
CONTINUOUS
 62
     7
 10
628.9238912151
 20
138.9079605509
 30
0.0
  0
VERTEX
  5
AC4
  8
0
  6
CONTINUOUS
 62
     7
 10
629.1079145953
 20
138.84301533
 30
0.0
  0
VERTEX
  5
AC5
  8
0
  6
CONTINUOUS
 62
     7
 10
629.229460387
 20
138.7944256236
 30
0.0
  0
VERTEX
  5
AC6
  8
0
  6
CONTINUOUS
 62
     7
 10
629.2925399825
 20
138.7658034731
 30
0.0
  0
VERTEX
  5
AC7
  8
0
  6
CONTINUOUS
 62
     7
 10
629.3003899142
 20
138.7618993689
 30
0.0
  0
SEQEND
  5
B41
  8
0
  6
CONTINUOUS
 62
     7
  0
LINE
  5
4F8
  8
0
  6
CONTINUOUS
 62
     7
 10
589.7439223811
 20
140.0223707129
 30
0.0
 11
600.1439225957
 21
140.0223707129
 31
0.0
  0
LINE
  5
4F9
  8
0
  6
CONTINUOUS
 62
     7
 10
605.5439216182
 20
140.0223707129
 30
0.0
 11
618.7439245269
 21
140.0223707129
 31
0.0
  0
LINE
  5
4FA
  8
0
  6
CONTINUOUS
 62
     7
 10
589.7439223811
 20
139.9198805262
 30
0.0
 11
600.1439225957
 21
139.9198805262
 31
0.0
  0
LINE
  5
4FB
  8
0
  6
CONTINUOUS
 62
     7
 10
605.5439216182
 20
139.9198805262
 30
0.0
 11
622.1586150214
 21
139.9198805262
 31
0.0
  0
ARC
  5
4FC
  8
0
  6
CONTINUOUS
 62
     7
 10
631.0539231918
 20
138.9198792485
 30
0.0
 40
2.689999999999998
 50
270.0
 51
0.0
  0
ARC
  5
4FD
  8
0
  6
CONTINUOUS
 62
     7
 10
631.0539231918
 20
138.9198792485
 30
0.0
 40
2.689999999999998
 50
180.0
 51
270.0
  0
ARC
  5
4FE
  8
0
  6
CONTINUOUS
 62
     7
 10
556.6439231918
 20
117.6318679739
 30
0.0
 40
1.0
 50
270.0
 51
0.0
  0
LINE
  5
4FF
  8
0
  6
CONTINUOUS
 62
     7
 10
557.6439232663
 20
125.6318663527
 30
0.0
 11
557.6439232663
 21
117.6318680216
 31
0.0
  0
ARC
  5
500
  8
0
  6
CONTINUOUS
 62
     7
 10
548.6439231918
 20
117.6318679739
 30
0.0
 40
1.0
 50
180.0
 51
270.0
  0
ARC
  5
501
  8
0
  6
CONTINUOUS
 62
     7
 10
556.6439231918
 20
125.6318679739
 30
0.0
 40
1.0
 50
0.0
 51
90.0
  0
ARC
  5
502
  8
0
  6
CONTINUOUS
 62
     7
 10
548.6439231918
 20
125.6318679739
 30
0.0
 40
1.0
 50
90.0
 51
180.0
  0
LINE
  5
503
  8
0
  6
CONTINUOUS
 62
     7
 10
547.6439231173
 20
117.6318680216
 30
0.0
 11
547.6439231173
 21
125.6318663527
 31
0.0
  0
LINE
  5
504
  8
0
  6
CONTINUOUS
 62
     7
 10
548.6439232812
 20
126.631865399
 30
0.0
 11
556.6439231024
 21
126.631865399
 31
0.0
  0
LINE
  5
505
  8
0
  6
CONTINUOUS
 62
     7
 10
556.6439231024
 20
116.6318689753
 30
0.0
 11
548.6439232812
 21
116.6318689753
 31
0.0
  0
LINE
  5
506
  8
0
  6
CONTINUOUS
 62
     7
 10
540.64392346
 20
51.4318679739
 30
0.0
 11
540.64392346
 21
52.6318679844
 31
0.0
  0
LINE
  5
507
  8
0
  6
CONTINUOUS
 62
     7
 10
540.64392346
 20
52.6318679844
 30
0.0
 11
544.6439233706
 21
52.6318679844
 31
0.0
  0
LINE
  5
508
  8
0
  6
CONTINUOUS
 62
     7
 10
544.6439233706
 20
51.4318679739
 30
0.0
 11
540.64392346
 21
51.4318679739
 31
0.0
  0
LINE
  5
509
  8
0
  6
CONTINUOUS
 62
     7
 10
544.6439233706
 20
52.6318679844
 30
0.0
 11
546.6439233259
 21
52.6318679844
 31
0.0
  0
LINE
  5
50A
  8
0
  6
CONTINUOUS
 62
     7
 10
544.6439233706
 20
51.4318679739
 30
0.0
 11
546.6439233259
 21
51.4318679739
 31
0.0
  0
LINE
  5
50B
  8
0
  6
CONTINUOUS
 62
     7
 10
574.0123448059
 20
52.6318679844
 30
0.0
 11
546.6439233259
 21
52.6318679844
 31
0.0
  0
LINE
  5
50C
  8
0
  6
CONTINUOUS
 62
     7
 10
546.6439233259
 20
51.4318679739
 30
0.0
 11
574.0123448059
 21
51.4318679739
 31
0.0
  0
LINE
  5
50D
  8
0
  6
CONTINUOUS
 62
     7
 10
576.6439226553
 20
52.6318679844
 30
0.0
 11
576.6439226553
 21
51.4318679739
 31
0.0
  0
LINE
  5
50E
  8
0
  6
CONTINUOUS
 62
     7
 10
574.0123448059
 20
52.6318679844
 30
0.0
 11
576.6439226553
 21
52.6318679844
 31
0.0
  0
LINE
  5
50F
  8
0
  6
CONTINUOUS
 62
     7
 10
576.6439226553
 20
51.4318679739
 30
0.0
 11
574.0123448059
 21
51.4318679739
 31
0.0
  0
LINE
  5
510
  8
0
  6
CONTINUOUS
 62
     7
 10
547.6439231173
 20
52.6318679844
 30
0.0
 11
547.6439231173
 21
116.4318655898
 31
0.0
  0
LINE
  5
511
  8
0
  6
CONTINUOUS
 62
     7
 10
557.6439232663
 20
117.6318680216
 30
0.0
 11
557.6439232663
 21
52.6318679844
 31
0.0
  0
LINE
  5
512
  8
0
  6
CONTINUOUS
 62
     7
 10
558.0439233318
 20
126.2318705489
 30
0.0
 11
558.0439233318
 21
119.6318661143
 31
0.0
  0
ARC
  5
513
  8
0
  6
CONTINUOUS
 62
     7
 10
557.6439231918
 20
126.2318679739
 30
0.0
 40
0.4000000000000199
 50
0.0
 51
90.0
  0
ARC
  5
514
  8
0
  6
CONTINUOUS
 62
     7
 10
548.0439231918
 20
126.2318679739
 30
0.0
 40
0.4000000000000199
 50
90.0
 51
180.0
  0
LINE
  5
515
  8
0
  6
CONTINUOUS
 62
     7
 10
546.8439233587
 20
119.6318661143
 30
0.0
 11
546.8439233587
 21
126.2318705489
 31
0.0
  0
ARC
  5
516
  8
0
  6
CONTINUOUS
 62
     7
 10
548.0439231918
 20
126.2318679739
 30
0.0
 40
1.200000000000045
 50
90.0
 51
180.0
  0
LINE
  5
517
  8
0
  6
CONTINUOUS
 62
     7
 10
548.0439231828
 20
127.4318670203
 30
0.0
 11
557.6439232663
 21
127.4318670203
 31
0.0
  0
ARC
  5
518
  8
0
  6
CONTINUOUS
 62
     7
 10
557.6439231918
 20
126.2318679739
 30
0.0
 40
1.200000000000045
 50
0.0
 51
90.0
  0
LINE
  5
519
  8
0
  6
CONTINUOUS
 62
     7
 10
558.8439230904
 20
126.2318705489
 30
0.0
 11
558.8439230904
 21
119.6318661143
 31
0.0
  0
LINE
  5
51A
  8
0
  6
CONTINUOUS
 62
     7
 10
548.0439231828
 20
126.631865399
 30
0.0
 11
548.6439232812
 21
126.631865399
 31
0.0
  0
LINE
  5
51B
  8
0
  6
CONTINUOUS
 62
     7
 10
556.6439231024
 20
126.631865399
 30
0.0
 11
557.6439232663
 21
126.631865399
 31
0.0
  0
LINE
  5
51C
  8
0
  6
CONTINUOUS
 62
     7
 10
547.6439231173
 20
125.6318663527
 30
0.0
 11
547.6439231173
 21
126.2318705489
 31
0.0
  0
LINE
  5
51D
  8
0
  6
CONTINUOUS
 62
     7
 10
547.6439231173
 20
117.6318680216
 30
0.0
 11
546.8439233587
 21
117.6318680216
 31
0.0
  0
LINE
  5
51E
  8
0
  6
CONTINUOUS
 62
     7
 10
546.8439233587
 20
117.6318680216
 30
0.0
 11
546.8439233587
 21
119.6318661143
 31
0.0
  0
LINE
  5
51F
  8
0
  6
CONTINUOUS
 62
     7
 10
558.8439230904
 20
117.6318680216
 30
0.0
 11
558.0439233318
 21
117.6318680216
 31
0.0
  0
LINE
  5
520
  8
0
  6
CONTINUOUS
 62
     7
 10
558.8439230904
 20
119.6318661143
 30
0.0
 11
558.8439230904
 21
117.6318680216
 31
0.0
  0
LINE
  5
521
  8
0
  6
CONTINUOUS
 62
     7
 10
558.0439233318
 20
117.6318680216
 30
0.0
 11
558.0439233318
 21
119.6318661143
 31
0.0
  0
POLYLINE
  5
522
  8
0
  6
CONTINUOUS
 62
     7
 66
     1
 10
0.0
 20
0.0
 30
0.0
  0
VERTEX
  5
AC8
  8
0
  6
CONTINUOUS
 62
     7
 10
531.6750493929
 20
231.6086982657
 30
0.0
  0
VERTEX
  5
AC9
  8
0
  6
CONTINUOUS
 62
     7
 10
531.7098987386
 20
231.6129778792
 30
0.0
  0
VERTEX
  5
ACA
  8
0
  6
CONTINUOUS
 62
     7
 10
531.7904424951
 20
231.6228722502
 30
0.0
  0
SEQEND
  5
B40
  8
0
  6
CONTINUOUS
 62
     7
  0
POLYLINE
  5
523
  8
0
  6
CONTINUOUS
 62
     7
 66
     1
 10
0.0
 20
0.0
 30
0.0
  0
VERTEX
  5
ACB
  8
0
  6
CONTINUOUS
 62
     7
 10
528.9850321696
 20
232.9918955733
 30
0.0
  0
VERTEX
  5
ACC
  8
0
  6
CONTINUOUS
 62
     7
 10
528.988580136
 20
232.9852794577
 30
0.0
  0
VERTEX
  5
ACD
  8
0
  6
CONTINUOUS
 62
     7
 10
528.9511901424
 20
233.0567215849
 30
0.0
  0
VERTEX
  5
ACE
  8
0
  6
CONTINUOUS
 62
     7
 10
528.8770270631
 20
233.2164262702
 30
0.0
  0
VERTEX
  5
ACF
  8
0
  6
CONTINUOUS
 62
     7
 10
528.7846756265
 20
233.4669445921
 30
0.0
  0
VERTEX
  5
AD0
  8
0
  6
CONTINUOUS
 62
     7
 10
528.7058991477
 20
233.7829564978
 30
0.0
  0
VERTEX
  5
AD1
  8
0
  6
CONTINUOUS
 62
     7
 10
528.6799010918
 20
233.9511488844
 30
0.0
  0
SEQEND
  5
B3F
  8
0
  6
CONTINUOUS
 62
     7
  0
POLYLINE
  5
524
  8
0
  6
CONTINUOUS
 62
     7
 66
     1
 10
0.0
 20
0.0
 30
0.0
  0
VERTEX
  5
AD2
  8
0
  6
CONTINUOUS
 62
     7
 10
532.7244204566
 20
237.1579502989
 30
0.0
  0
VERTEX
  5
AD3
  8
0
  6
CONTINUOUS
 62
     7
 10
532.2725785062
 20
237.1024702956
 30
0.0
  0
VERTEX
  5
AD4
  8
0
  6
CONTINUOUS
 62
     7
 10
531.8899613902
 20
237.0554899146
 30
0.0
  0
VERTEX
  5
AD5
  8
0
  6
CONTINUOUS
 62
     7
 10
531.5767151401
 20
237.0170329978
 30
0.0
  0
VERTEX
  5
AD6
  8
0
  6
CONTINUOUS
 62
     7
 10
531.3329544947
 20
236.9870995451
 30
0.0
  0
VERTEX
  5
AD7
  8
0
  6
CONTINUOUS
 62
     7
 10
531.1587748215
 20
236.9657133986
 30
0.0
  0
VERTEX
  5
AD8
  8
0
  6
CONTINUOUS
 62
     7
 10
531.0542416856
 20
236.9528745581
 30
0.0
  0
VERTEX
  5
AD9
  8
0
  6
CONTINUOUS
 62
     7
 10
531.0193923399
 20
236.9485949446
 30
0.0
  0
SEQEND
  5
B3E
  8
0
  6
CONTINUOUS
 62
     7
  0
ARC
  5
525
  8
0
  6
CONTINUOUS
 62
     7
 10
531.3712761742
 20
234.2839876121
 30
0.0
 40
2.711877846180879
 50
165.6589414935
 51
187.0498969926
  0
POLYLINE
  5
526
  8
0
  6
CONTINUOUS
 62
     7
 66
     1
 10
0.0
 20
0.0
 30
0.0
  0
VERTEX
  5
ADA
  8
0
  6
CONTINUOUS
 62
     7
 10
539.5502460286
 20
167.4703692366
 30
0.0
  0
VERTEX
  5
ADB
  8
0
  6
CONTINUOUS
 62
     7
 10
539.5850953743
 20
167.4746488501
 30
0.0
  0
VERTEX
  5
ADC
  8
0
  6
CONTINUOUS
 62
     7
 10
539.6896300003
 20
167.4874876906
 30
0.0
  0
VERTEX
  5
ADD
  8
0
  6
CONTINUOUS
 62
     7
 10
539.8638096735
 20
167.5088738371
 30
0.0
  0
VERTEX
  5
ADE
  8
0
  6
CONTINUOUS
 62
     7
 10
540.1075688288
 20
167.5387953688
 30
0.0
  0
VERTEX
  5
ADF
  8
0
  6
CONTINUOUS
 62
     7
 10
540.420815824
 20
167.5772642066
 30
0.0
  0
VERTEX
  5
AE0
  8
0
  6
CONTINUOUS
 62
     7
 10
540.8034321949
 20
167.6242445876
 30
0.0
  0
VERTEX
  5
AE1
  8
0
  6
CONTINUOUS
 62
     7
 10
541.2552741453
 20
167.6797245909
 30
0.0
  0
SEQEND
  5
B3D
  8
0
  6
CONTINUOUS
 62
     7
  0
POLYLINE
  5
527
  8
0
  6
CONTINUOUS
 62
     7
 66
     1
 10
0.0
 20
0.0
 30
0.0
  0
VERTEX
  5
AE2
  8
0
  6
CONTINUOUS
 62
     7
 10
536.8602302954
 20
168.8535665442
 30
0.0
  0
VERTEX
  5
AE3
  8
0
  6
CONTINUOUS
 62
     7
 10
536.8637767718
 20
168.8469385077
 30
0.0
  0
VERTEX
  5
AE4
  8
0
  6
CONTINUOUS
 62
     7
 10
536.8263867781
 20
168.9183925559
 30
0.0
  0
VERTEX
  5
AE5
  8
0
  6
CONTINUOUS
 62
     7
 10
536.7522251889
 20
169.0780972411
 30
0.0
  0
VERTEX
  5
AE6
  8
0
  6
CONTINUOUS
 62
     7
 10
536.6598722622
 20
169.3286155631
 30
0.0
  0
VERTEX
  5
AE7
  8
0
  6
CONTINUOUS
 62
     7
 10
536.5810957834
 20
169.6446274687
 30
0.0
  0
VERTEX
  5
AE8
  8
0
  6
CONTINUOUS
 62
     7
 10
536.5550992176
 20
169.8128079344
 30
0.0
  0
SEQEND
  5
B3C
  8
0
  6
CONTINUOUS
 62
     7
  0
POLYLINE
  5
528
  8
0
  6
CONTINUOUS
 62
     7
 66
     1
 10
0.0
 20
0.0
 30
0.0
  0
VERTEX
  5
AE9
  8
0
  6
CONTINUOUS
 62
     7
 10
539.010369508
 20
172.8244875838
 30
0.0
  0
VERTEX
  5
AEA
  8
0
  6
CONTINUOUS
 62
     7
 10
538.9294383213
 20
172.814545529
 30
0.0
  0
VERTEX
  5
AEB
  8
0
  6
CONTINUOUS
 62
     7
 10
538.8945889756
 20
172.8102659155
 30
0.0
  0
SEQEND
  5
B3B
  8
0
  6
CONTINUOUS
 62
     7
  0
ARC
  5
529
  8
0
  6
CONTINUOUS
 62
     7
 10
539.247537869
 20
170.1455907693
 30
0.0
 40
2.712926520704083
 50
165.6631254353
 51
187.0459686316
  0
LINE
  5
52A
  8
0
  6
CONTINUOUS
 62
     7
 10
541.2552741453
 20
167.6797245909
 30
0.0
 11
541.3031187937
 21
167.6860426833
 31
0.0
  0
LINE
  5
52B
  8
0
  6
CONTINUOUS
 62
     7
 10
530.4843691275
 20
167.0624708106
 30
0.0
 11
522.1241307542
 21
235.1511453558
 31
0.0
  0
POLYLINE
  5
52C
  8
0
  6
CONTINUOUS
 62
     7
 66
     1
 10
0.0
 20
0.0
 30
0.0
  0
VERTEX
  5
AEC
  8
0
  6
CONTINUOUS
 62
     7
 10
522.1241307542
 20
235.1511453558
 30
0.0
  0
VERTEX
  5
AED
  8
0
  6
CONTINUOUS
 62
     7
 10
522.1432042405
 20
235.1534818579
 30
0.0
  0
VERTEX
  5
AEE
  8
0
  6
CONTINUOUS
 62
     7
 10
522.1996856019
 20
235.1604198386
 30
0.0
  0
VERTEX
  5
AEF
  8
0
  6
CONTINUOUS
 62
     7
 10
522.2914052293
 20
235.1716851164
 30
0.0
  0
VERTEX
  5
AF0
  8
0
  6
CONTINUOUS
 62
     7
 10
522.4148404882
 20
235.1868366171
 30
0.0
  0
VERTEX
  5
AF1
  8
0
  6
CONTINUOUS
 62
     7
 10
522.565249829
 20
235.2053021361
 30
0.0
  0
VERTEX
  5
AF2
  8
0
  6
CONTINUOUS
 62
     7
 10
522.7368456409
 20
235.2263783385
 30
0.0
  0
VERTEX
  5
AF3
  8
0
  6
CONTINUOUS
 62
     7
 10
522.9230416105
 20
235.2492307593
 30
0.0
  0
VERTEX
  5
AF4
  8
0
  6
CONTINUOUS
 62
     7
 10
523.1166792199
 20
235.2730130126
 30
0.0
  0
SEQEND
  5
B3A
  8
0
  6
CONTINUOUS
 62
     7
  0
POLYLINE
  5
52D
  8
0
  6
CONTINUOUS
 62
     7
 66
     1
 10
0.0
 20
0.0
 30
0.0
  0
VERTEX
  5
AF5
  8
0
  6
CONTINUOUS
 62
     7
 10
531.476914613
 20
167.1843503882
 30
0.0
  0
VERTEX
  5
AF6
  8
0
  6
CONTINUOUS
 62
     7
 10
531.2832784936
 20
167.1605681349
 30
0.0
  0
VERTEX
  5
AF7
  8
0
  6
CONTINUOUS
 62
     7
 10
531.0970840142
 20
167.1377037932
 30
0.0
  0
VERTEX
  5
AF8
  8
0
  6
CONTINUOUS
 62
     7
 10
530.9254852221
 20
167.1166395117
 30
0.0
  0
VERTEX
  5
AF9
  8
0
  6
CONTINUOUS
 62
     7
 10
530.7750788615
 20
167.0981739928
 30
0.0
  0
VERTEX
  5
AFA
  8
0
  6
CONTINUOUS
 62
     7
 10
530.6516436026
 20
167.0830105711
 30
0.0
  0
VERTEX
  5
AFB
  8
0
  6
CONTINUOUS
 62
     7
 10
530.5599224851
 20
167.0717572142
 30
0.0
  0
VERTEX
  5
AFC
  8
0
  6
CONTINUOUS
 62
     7
 10
530.5034396336
 20
167.0648192336
 30
0.0
  0
VERTEX
  5
AFD
  8
0
  6
CONTINUOUS
 62
     7
 10
530.4843691275
 20
167.0624708106
 30
0.0
  0
SEQEND
  5
B39
  8
0
  6
CONTINUOUS
 62
     7
  0
LINE
  5
52E
  8
0
  6
CONTINUOUS
 62
     7
 10
535.4470995352
 20
167.671821015
 30
0.0
 11
531.476914613
 21
167.1843503882
 31
0.0
  0
LINE
  5
52F
  8
0
  6
CONTINUOUS
 62
     7
 10
527.0868611619
 20
235.7604836394
 30
0.0
 11
523.1166792199
 21
235.2730130126
 31
0.0
  0
LINE
  5
530
  8
0
  6
CONTINUOUS
 62
     7
 10
528.0794081375
 20
235.882363217
 30
0.0
 11
536.4396450207
 21
167.7936886717
 31
0.0
  0
POLYLINE
  5
531
  8
0
  6
CONTINUOUS
 62
     7
 66
     1
 10
0.0
 20
0.0
 30
0.0
  0
VERTEX
  5
AFE
  8
0
  6
CONTINUOUS
 62
     7
 10
536.4396450207
 20
167.7936886717
 30
0.0
  0
VERTEX
  5
AFF
  8
0
  6
CONTINUOUS
 62
     7
 10
536.4205745146
 20
167.7913521697
 30
0.0
  0
VERTEX
  5
B00
  8
0
  6
CONTINUOUS
 62
     7
 10
536.3640931532
 20
167.784414189
 30
0.0
  0
VERTEX
  5
B01
  8
0
  6
CONTINUOUS
 62
     7
 10
536.2723720357
 20
167.7731489111
 30
0.0
  0
VERTEX
  5
B02
  8
0
  6
CONTINUOUS
 62
     7
 10
536.1489352867
 20
167.7579974104
 30
0.0
  0
VERTEX
  5
B03
  8
0
  6
CONTINUOUS
 62
     7
 10
535.9985289261
 20
167.7395318915
 30
0.0
  0
VERTEX
  5
B04
  8
0
  6
CONTINUOUS
 62
     7
 10
535.826930134
 20
167.7184556891
 30
0.0
  0
VERTEX
  5
B05
  8
0
  6
CONTINUOUS
 62
     7
 10
535.6407356546
 20
167.6956032683
 30
0.0
  0
VERTEX
  5
B06
  8
0
  6
CONTINUOUS
 62
     7
 10
535.4470995352
 20
167.671821015
 30
0.0
  0
SEQEND
  5
B38
  8
0
  6
CONTINUOUS
 62
     7
  0
POLYLINE
  5
532
  8
0
  6
CONTINUOUS
 62
     7
 66
     1
 10
0.0
 20
0.0
 30
0.0
  0
VERTEX
  5
B07
  8
0
  6
CONTINUOUS
 62
     7
 10
527.0868611619
 20
235.7604836394
 30
0.0
  0
VERTEX
  5
B08
  8
0
  6
CONTINUOUS
 62
     7
 10
527.2804987714
 20
235.7842658926
 30
0.0
  0
VERTEX
  5
B09
  8
0
  6
CONTINUOUS
 62
     7
 10
527.466694741
 20
235.8071302344
 30
0.0
  0
VERTEX
  5
B0A
  8
0
  6
CONTINUOUS
 62
     7
 10
527.6382905528
 20
235.8281945158
 30
0.0
  0
VERTEX
  5
B0B
  8
0
  6
CONTINUOUS
 62
     7
 10
527.7886984036
 20
235.8466600348
 30
0.0
  0
VERTEX
  5
B0C
  8
0
  6
CONTINUOUS
 62
     7
 10
527.9121351526
 20
235.8618234564
 30
0.0
  0
VERTEX
  5
B0D
  8
0
  6
CONTINUOUS
 62
     7
 10
528.0038562701
 20
235.8730768134
 30
0.0
  0
VERTEX
  5
B0E
  8
0
  6
CONTINUOUS
 62
     7
 10
528.0603376314
 20
235.880014794
 30
0.0
  0
VERTEX
  5
B0F
  8
0
  6
CONTINUOUS
 62
     7
 10
528.0794081375
 20
235.882363217
 30
0.0
  0
SEQEND
  5
B37
  8
0
  6
CONTINUOUS
 62
     7
  0
LINE
  5
533
  8
0
  6
CONTINUOUS
 62
     7
 10
547.6439231173
 20
116.4318655898
 30
0.0
 11
547.0439230189
 21
116.4318655898
 31
0.0
  0
LINE
  5
534
  8
0
  6
CONTINUOUS
 62
     7
 10
547.6439231173
 20
117.4318705966
 30
0.0
 11
547.6439231173
 21
116.4318655898
 31
0.0
  0
LINE
  5
535
  8
0
  6
CONTINUOUS
 62
     7
 10
547.0439230189
 20
116.4318655898
 30
0.0
 11
547.0439230189
 21
117.4318705966
 31
0.0
  0
LINE
  5
536
  8
0
  6
CONTINUOUS
 62
     7
 10
558.6439230577
 20
117.4318705966
 30
0.0
 11
558.6439230577
 21
116.4318655898
 31
0.0
  0
LINE
  5
537
  8
0
  6
CONTINUOUS
 62
     7
 10
558.6439230577
 20
116.4318655898
 30
0.0
 11
558.0439233318
 21
116.4318655898
 31
0.0
  0
LINE
  5
538
  8
0
  6
CONTINUOUS
 62
     7
 10
558.0439233318
 20
116.4318655898
 30
0.0
 11
558.0439233318
 21
117.4318705966
 31
0.0
  0
LINE
  5
539
  8
0
  6
CONTINUOUS
 62
     7
 10
531.2584039852
 20
160.7584690024
 30
0.0
 11
530.4843691275
 21
167.0624708106
 31
0.0
  0
POLYLINE
  5
53A
  8
0
  6
CONTINUOUS
 62
     7
 66
     1
 10
0.0
 20
0.0
 30
0.0
  0
VERTEX
  5
B10
  8
0
  6
CONTINUOUS
 62
     7
 10
531.476914613
 20
167.1843503882
 30
0.0
  0
VERTEX
  5
B11
  8
0
  6
CONTINUOUS
 62
     7
 10
531.2832784936
 20
167.1605681349
 30
0.0
  0
VERTEX
  5
B12
  8
0
  6
CONTINUOUS
 62
     7
 10
531.0970840142
 20
167.1377037932
 30
0.0
  0
VERTEX
  5
B13
  8
0
  6
CONTINUOUS
 62
     7
 10
530.9254852221
 20
167.1166395117
 30
0.0
  0
VERTEX
  5
B14
  8
0
  6
CONTINUOUS
 62
     7
 10
530.7750788615
 20
167.0981739928
 30
0.0
  0
VERTEX
  5
B15
  8
0
  6
CONTINUOUS
 62
     7
 10
530.6516436026
 20
167.0830105711
 30
0.0
  0
VERTEX
  5
B16
  8
0
  6
CONTINUOUS
 62
     7
 10
530.5599224851
 20
167.0717572142
 30
0.0
  0
VERTEX
  5
B17
  8
0
  6
CONTINUOUS
 62
     7
 10
530.5034396336
 20
167.0648192336
 30
0.0
  0
VERTEX
  5
B18
  8
0
  6
CONTINUOUS
 62
     7
 10
530.4843691275
 20
167.0624708106
 30
0.0
  0
SEQEND
  5
B36
  8
0
  6
CONTINUOUS
 62
     7
  0
ARC
  5
53B
  8
0
  6
CONTINUOUS
 62
     7
 10
550.1167801749
 20
163.0739881268
 30
0.0
 40
18.99999999999999
 50
187.0
 51
203.0
  0
LINE
  5
53C
  8
0
  6
CONTINUOUS
 62
     7
 10
532.6271873996
 20
155.6501006056
 30
0.0
 11
540.0104862735
 21
138.2561360766
 31
0.0
  0
ARC
  5
53D
  8
0
  6
CONTINUOUS
 62
     7
 10
550.1167801749
 20
163.0739881268
 30
0.0
 40
12.99999999999996
 50
187.0
 51
203.0
  0
LINE
  5
53E
  8
0
  6
CONTINUOUS
 62
     7
 10
546.0439232275
 20
116.4318655898
 30
0.0
 11
542.0439233169
 21
116.4318655898
 31
0.0
  0
LINE
  5
53F
  8
0
  6
CONTINUOUS
 62
     7
 10
537.2136798784
 20
161.4896868636
 30
0.0
 11
536.4396450207
 21
167.7936886717
 31
0.0
  0
POLYLINE
  5
540
  8
0
  6
CONTINUOUS
 62
     7
 66
     1
 10
0.0
 20
0.0
 30
0.0
  0
VERTEX
  5
B19
  8
0
  6
CONTINUOUS
 62
     7
 10
536.4396450207
 20
167.7936886717
 30
0.0
  0
VERTEX
  5
B1A
  8
0
  6
CONTINUOUS
 62
     7
 10
536.4205745146
 20
167.7913521697
 30
0.0
  0
VERTEX
  5
B1B
  8
0
  6
CONTINUOUS
 62
     7
 10
536.3640931532
 20
167.784414189
 30
0.0
  0
VERTEX
  5
B1C
  8
0
  6
CONTINUOUS
 62
     7
 10
536.2723720357
 20
167.7731489111
 30
0.0
  0
VERTEX
  5
B1D
  8
0
  6
CONTINUOUS
 62
     7
 10
536.1489352867
 20
167.7579974104
 30
0.0
  0
VERTEX
  5
B1E
  8
0
  6
CONTINUOUS
 62
     7
 10
535.9985289261
 20
167.7395318915
 30
0.0
  0
VERTEX
  5
B1F
  8
0
  6
CONTINUOUS
 62
     7
 10
535.826930134
 20
167.7184556891
 30
0.0
  0
VERTEX
  5
B20
  8
0
  6
CONTINUOUS
 62
     7
 10
535.6407356546
 20
167.6956032683
 30
0.0
  0
VERTEX
  5
B21
  8
0
  6
CONTINUOUS
 62
     7
 10
535.4470995352
 20
167.671821015
 30
0.0
  0
SEQEND
  5
B35
  8
0
  6
CONTINUOUS
 62
     7
  0
ARC
  5
541
  8
0
  6
CONTINUOUS
 62
     7
 10
528.0439231918
 20
133.1766311832
 30
0.0
 40
13.00000000000003
 50
0.0
 51
23.0
  0
LINE
  5
542
  8
0
  6
CONTINUOUS
 62
     7
 10
541.0439235255
 20
133.1766282488
 30
0.0
 11
541.0439235255
 21
116.4318655898
 31
0.0
  0
LINE
  5
543
  8
0
  6
CONTINUOUS
 62
     7
 10
542.0439233169
 20
116.4318655898
 30
0.0
 11
541.0439235255
 21
116.4318655898
 31
0.0
  0
LINE
  5
544
  8
0
  6
CONTINUOUS
 62
     7
 10
538.1502163694
 20
157.9944824149
 30
0.0
 11
545.5335152433
 21
140.6005238463
 31
0.0
  0
LINE
  5
545
  8
0
  6
CONTINUOUS
 62
     7
 10
547.0439230189
 20
116.4318655898
 30
0.0
 11
546.0439232275
 21
116.4318655898
 31
0.0
  0
ARC
  5
546
  8
0
  6
CONTINUOUS
 62
     7
 10
528.0439231918
 20
133.1766311832
 30
0.0
 40
18.99999999999998
 50
4.1945718162
 51
23.0
  0
ARC
  5
547
  8
0
  6
CONTINUOUS
 62
     7
 10
557.6439231918
 20
126.4318679739
 30
0.0
 40
0.2000000000000455
 50
0.0
 51
90.0
  0
LINE
  5
548
  8
0
  6
CONTINUOUS
 62
     7
 10
557.843923299
 20
119.4318686892
 30
0.0
 11
557.843923299
 21
126.4318679739
 31
0.0
  0
ARC
  5
549
  8
0
  6
CONTINUOUS
 62
     7
 10
547.8439231918
 20
126.4318679739
 30
0.0
 40
1.0
 50
90.0
 51
180.0
  0
LINE
  5
54A
  8
0
  6
CONTINUOUS
 62
     7
 10
547.6439231173
 20
117.4318705966
 30
0.0
 11
546.8439233587
 21
117.4318705966
 31
0.0
  0
LINE
  5
54B
  8
0
  6
CONTINUOUS
 62
     7
 10
546.8439233587
 20
117.4318705966
 30
0.0
 11
546.8439233587
 21
117.6318680216
 31
0.0
  0
LINE
  5
54C
  8
0
  6
CONTINUOUS
 62
     7
 10
547.6439231173
 20
117.6318680216
 30
0.0
 11
547.6439231173
 21
117.4318705966
 31
0.0
  0
LINE
  5
54D
  8
0
  6
CONTINUOUS
 62
     7
 10
558.6439230577
 20
117.4318705966
 30
0.0
 11
557.843923299
 21
117.4318705966
 31
0.0
  0
LINE
  5
54E
  8
0
  6
CONTINUOUS
 62
     7
 10
557.843923299
 20
117.4318705966
 30
0.0
 11
557.843923299
 21
119.4318686892
 31
0.0
  0
LINE
  5
54F
  8
0
  6
CONTINUOUS
 62
     7
 10
558.6439230577
 20
117.6318680216
 30
0.0
 11
558.6439230577
 21
117.4318705966
 31
0.0
  0
POLYLINE
  5
550
  8
0
  6
CONTINUOUS
 62
     7
 66
     1
 10
0.0
 20
0.0
 30
0.0
  0
VERTEX
  5
B22
  8
0
  6
CONTINUOUS
 62
     7
 10
576.4773828075
 20
140.0344406535
 30
0.0
  0
VERTEX
  5
B23
  8
0
  6
CONTINUOUS
 62
     7
 10
574.4459909484
 20
140.0912081172
 30
0.0
  0
VERTEX
  5
B24
  8
0
  6
CONTINUOUS
 62
     7
 10
573.3551350519
 20
140.219340222
 30
0.0
  0
VERTEX
  5
B25
  8
0
  6
CONTINUOUS
 62
     7
 10
572.2951662824
 20
140.4925857951
 30
0.0
  0
VERTEX
  5
B26
  8
0
  6
CONTINUOUS
 62
     7
 10
571.6038954541
 20
140.8162568976
 30
0.0
  0
VERTEX
  5
B27
  8
0
  6
CONTINUOUS
 62
     7
 10
571.2881890223
 20
141.0376881529
 30
0.0
  0
VERTEX
  5
B28
  8
0
  6
CONTINUOUS
 62
     7
 10
571.0113507793
 20
141.3050984313
 30
0.0
  0
VERTEX
  5
B29
  8
0
  6
CONTINUOUS
 62
     7
 10
570.7223457381
 20
141.7675112654
 30
0.0
  0
VERTEX
  5
B2A
  8
0
  6
CONTINUOUS
 62
     7
 10
570.610686867
 20
142.3045371939
 30
0.0
  0
VERTEX
  5
B2B
  8
0
  6
CONTINUOUS
 62
     7
 10
570.6948292539
 20
142.8239618708
 30
0.0
  0
SEQEND
  5
B34
  8
0
  6
CONTINUOUS
 62
     7
  0
POLYLINE
  5
551
  8
0
  6
CONTINUOUS
 62
     7
 66
     1
 10
0.0
 20
0.0
 30
0.0
  0
VERTEX
  5
B2C
  8
0
  6
CONTINUOUS
 62
     7
 10
570.6948292539
 20
142.8239618708
 30
0.0
  0
VERTEX
  5
B2D
  8
0
  6
CONTINUOUS
 62
     7
 10
570.8647963688
 20
143.1884323527
 30
0.0
  0
VERTEX
  5
B2E
  8
0
  6
CONTINUOUS
 62
     7
 10
571.1123210475
 20
143.5266708304
 30
0.0
  0
VERTEX
  5
B2F
  8
0
  6
CONTINUOUS
 62
     7
 10
571.5043318555
 20
143.8996945788
 30
0.0
  0
VERTEX
  5
B30
  8
0
  6
CONTINUOUS
 62
     7
 10
571.9619480059
 20
144.2154799868
 30
0.0
  0
VERTEX
  5
B31
  8
0
  6
CONTINUOUS
 62
     7
 10
572.7359426305
 20
144.5940946509
 30
0.0
  0
VERTEX
  5
B32
  8
0
  6
CONTINUOUS
 62
     7
 10
573.5701141045
 20
144.8718701769
 30
0.0
  0
SEQEND
  5
B33
  8
0
  6
CONTINUOUS
 62
     7
  0
LINE
  5
552
  8
0
  6
CONTINUOUS
 62
     7
 10
578.7439239309
 20
140.0428449084
 30
0.0
 11
576.4773828075
 21
140.0344406535
 31
0.0
  0
LINE
  5
553
  8
0
  6
CONTINUOUS
 62
     7
 10
589.7439223811
 20
140.0428449084
 30
0.0
 11
578.7439239309
 21
140.0428449084
 31
0.0
  0
ARC
  5
554
  8
0
  6
CONTINUOUS
 62
     7
 10
550.3499049495
 20
252.9213775747
 30
0.0
 40
120.0
 50
280.9468409701
 51
289.1646231125
  0
LINE
  5
555
  8
0
  6
CONTINUOUS
 62
     7
 10
573.1376838968
 20
135.1049219538
 30
0.0
 11
568.7247377918
 21
134.2513834406
 31
0.0
  0
ARC
  5
556
  8
0
  6
CONTINUOUS
 62
     7
 10
570.2439231918
 20
126.3969504255
 30
0.0
 40
8.0
 50
100.9468409701
 51
180.0
  0
LINE
  5
557
  8
0
  6
CONTINUOUS
 62
     7
 10
562.2439232752
 20
126.396951573
 30
0.0
 11
562.2439232752
 21
125.6318663527
 31
0.0
  0
ARC
  5
558
  8
0
  6
CONTINUOUS
 62
     7
 10
560.2439231918
 20
125.6318679739
 30
0.0
 40
2.0
 50
270.0
 51
0.0
  0
LINE
  5
559
  8
0
  6
CONTINUOUS
 62
     7
 10
560.2439229474
 20
123.63186826
 30
0.0
 11
558.8439230904
 21
123.63186826
 31
0.0
  0
ARC
  5
55A
  8
0
  6
CONTINUOUS
 62
     7
 10
552.0439231918
 20
128.1928924243
 30
0.0
 40
8.0
 50
140.3596923241
 51
180.0
  0
ARC
  5
55B
  8
0
  6
CONTINUOUS
 62
     7
 10
570.5254741512
 20
112.8817110808
 30
0.0
 40
31.99999999999999
 50
129.5627908875
 51
140.3596923241
  0
ARC
  5
55C
  8
0
  6
CONTINUOUS
 62
     7
 10
570.5254741512
 20
112.8817110808
 30
0.0
 40
32.00000000000001
 50
91.4211498515
 51
117.9157975373
  0
LINE
  5
55D
  8
0
  6
CONTINUOUS
 62
     7
 10
569.7318357513
 20
144.8718701769
 30
0.0
 11
573.5701141045
 21
144.8718701769
 31
0.0
  0
LINE
  5
55E
  8
0
  6
CONTINUOUS
 62
     7
 10
589.7439223811
 20
140.0428449084
 30
0.0
 11
589.7439223811
 21
139.5718668868
 31
0.0
  0
LINE
  5
55F
  8
0
  6
CONTINUOUS
 62
     7
 10
544.0439228997
 20
125.6318663527
 30
0.0
 11
544.0439228997
 21
128.1928931643
 31
0.0
  0
ARC
  5
560
  8
0
  6
CONTINUOUS
 62
     7
 10
546.0439231918
 20
125.6318679739
 30
0.0
 40
2.0
 50
180.0
 51
270.0
  0
LINE
  5
561
  8
0
  6
CONTINUOUS
 62
     7
 10
546.8439233587
 20
123.63186826
 30
0.0
 11
546.0439232275
 21
123.63186826
 31
0.0
  0
LINE
  5
562
  8
0
  6
CONTINUOUS
 62
     7
 10
633.7439221427
 20
138.9198814799
 30
0.0
 11
633.7439221427
 21
140.6377111842
 31
0.0
  0
LINE
  5
563
  8
0
  6
CONTINUOUS
 62
     7
 10
628.3639234588
 20
139.0365277697
 30
0.0
 11
628.3639234588
 21
138.9198814799
 31
0.0
  0
LINE
  5
564
  8
0
  6
CONTINUOUS
 62
     7
 10
633.7439221427
 20
140.6377111842
 30
0.0
 11
633.7434810683
 21
140.6859671046
 31
0.0
  0
ENDSEC
  0
EOF
