  0
SECTION
  2
HEADER
  9
$ACADVER
  1
AC1009
  9
$DWGCODEPAGE
  3
ansi_1252
  9
$INSBASE
 10
0.0
 20
0.0
 30
0.0
  9
$EXTMIN
 10
0.0
 20
0.0
 30
0.0
  9
$EXTMAX
 10
420.0
 20
297.0
 30
0.0
  9
$LIMMIN
 10
0.0
 20
0.0
  9
$LIMMAX
 10
420.0
 20
297.0
  9
$ORTHOMODE
 70
     0
  9
$REGENMODE
 70
     1
  9
$FILLMODE
 70
     1
  9
$QTEXTMODE
 70
     0
  9
$MIRRTEXT
 70
     1
  9
$DRAGMODE
 70
     2
  9
$LTSCALE
 40
1.0
  9
$OSMODE
 70
    37
  9
$ATTMODE
 70
     1
  9
$TEXTSIZE
 40
3.5
  9
$TRACEWID
 40
1.0
  9
$TEXTSTYLE
  7
STANDARD
  9
$CLAYER
  8
0
  9
$CELTYPE
  6
BYLAYER
  9
$CECOLOR
 62
   256
  9
$DIMSCALE
 40
1.0
  9
$DIMASZ
 40
4.0
  9
$DIMEXO
 40
0.0
  9
$DIMDLI
 40
3.75
  9
$DIMRND
 40
0.0
  9
$DIMDLE
 40
0.0
  9
$DIMEXE
 40
2.0
  9
$DIMTP
 40
0.0
  9
$DIMTM
 40
0.0
  9
$DIMTXT
 40
3.5
  9
$DIMCEN
 40
2.5
  9
$DIMTSZ
 40
0.0
  9
$DIMTOL
 70
     0
  9
$DIMLIM
 70
     0
  9
$DIMTIH
 70
     1
  9
$DIMTOH
 70
     1
  9
$DIMSE1
 70
     0
  9
$DIMSE2
 70
     0
  9
$DIMTAD
 70
     1
  9
$DIMZIN
 70
     0
  9
$DIMBLK
  1

  9
$DIMASO
 70
     1
  9
$DIMSHO
 70
     1
  9
$DIMPOST
  1

  9
$DIMAPOST
  1

  9
$DIMALT
 70
     0
  9
$DIMALTD
 70
     3
  9
$DIMALTF
 40
0.0393700787
  9
$DIMLFAC
 40
5.0
  9
$DIMTOFL
 70
     1
  9
$DIMTVP
 40
0.0
  9
$DIMTIX
 70
     0
  9
$DIMSOXD
 70
     0
  9
$DIMSAH
 70
     0
  9
$DIMBLK1
  1

  9
$DIMBLK2
  1

  9
$DIMSTYLE
  2
ISO-25
  9
$DIMCLRD
 70
     0
  9
$DIMCLRE
 70
     0
  9
$DIMCLRT
 70
     0
  9
$DIMTFAC
 40
1.0
  9
$DIMGAP
 40
1.524
  9
$LUNITS
 70
     2
  9
$LUPREC
 70
     2
  9
$SKETCHINC
 40
1.0
  9
$FILLETRAD
 40
10.0
  9
$AUNITS
 70
     0
  9
$AUPREC
 70
     2
  9
$MENU
  1
.
  9
$ELEVATION
 40
0.0
  9
$PELEVATION
 40
0.0
  9
$THICKNESS
 40
0.0
  9
$LIMCHECK
 70
     0
  9
$CHAMFERA
 40
10.0
  9
$CHAMFERB
 40
10.0
  9
$SKPOLY
 70
     0
  9
$TDCREATE
 40
2457802.588341968
  9
$TDUPDATE
 40
2457802.588342257
  9
$TDINDWG
 40
0.0000000116
  9
$TDUSRTIMER
 40
0.0000000116
  9
$USRTIMER
 70
     1
  9
$ANGBASE
 50
0.0
  9
$ANGDIR
 70
     0
  9
$PDMODE
 70
     0
  9
$PDSIZE
 40
-1.0
  9
$PLINEWID
 40
0.0
  9
$COORDS
 70
     1
  9
$SPLFRAME
 70
     0
  9
$SPLINETYPE
 70
     6
  9
$SPLINESEGS
 70
     8
  9
$ATTDIA
 70
     0
  9
$ATTREQ
 70
     1
  9
$HANDLING
 70
     1
  9
$HANDSEED
  5
3AC
  9
$SURFTAB1
 70
     6
  9
$SURFTAB2
 70
     6
  9
$SURFTYPE
 70
     6
  9
$SURFU
 70
     6
  9
$SURFV
 70
     6
  9
$UCSNAME
  2

  9
$UCSORG
 10
0.0
 20
0.0
 30
0.0
  9
$UCSXDIR
 10
1.0
 20
0.0
 30
0.0
  9
$UCSYDIR
 10
0.0
 20
1.0
 30
0.0
  9
$PUCSNAME
  2

  9
$PUCSORG
 10
0.0
 20
0.0
 30
0.0
  9
$PUCSXDIR
 10
1.0
 20
0.0
 30
0.0
  9
$PUCSYDIR
 10
0.0
 20
1.0
 30
0.0
  9
$USERI1
 70
     0
  9
$USERI2
 70
     0
  9
$USERI3
 70
     0
  9
$USERI4
 70
     0
  9
$USERI5
 70
     0
  9
$USERR1
 40
0.0
  9
$USERR2
 40
0.0
  9
$USERR3
 40
0.0
  9
$USERR4
 40
0.0
  9
$USERR5
 40
0.0
  9
$WORLDVIEW
 70
     1
  9
$SHADEDGE
 70
     3
  9
$SHADEDIF
 70
    70
  9
$TILEMODE
 70
     1
  9
$MAXACTVP
 70
    64
  9
$PLIMCHECK
 70
     0
  9
$PEXTMIN
 10
1.0000000000E+20
 20
1.0000000000E+20
 30
1.0000000000E+20
  9
$PEXTMAX
 10
-1.0000000000E+20
 20
-1.0000000000E+20
 30
-1.0000000000E+20
  9
$PLIMMIN
 10
0.0
 20
0.0
  9
$PLIMMAX
 10
420.0
 20
297.0
  9
$UNITMODE
 70
     0
  9
$VISRETAIN
 70
     1
  9
$PLINEGEN
 70
     0
  9
$PSLTSCALE
 70
     1
  0
ENDSEC
  0
SECTION
  2
TABLES
  0
TABLE
  2
VPORT
 70
     1
  0
VPORT
  2
*ACTIVE
 70
     0
 10
0.0
 20
0.0
 11
1.0
 21
1.0
 12
210.0
 22
148.5
 13
0.0
 23
0.0
 14
10.0
 24
10.0
 15
10.0
 25
10.0
 16
0.0
 26
0.0
 36
1.0
 17
0.0
 27
0.0
 37
0.0
 40
297.0
 41
1.4141414141
 42
50.0
 43
0.0
 44
0.0
 50
0.0
 51
0.0
 71
     0
 72
  2000
 73
     1
 74
     3
 75
     0
 76
     0
 77
     0
 78
     0
  0
ENDTAB
  0
TABLE
  2
LTYPE
 70
     6
  0
LTYPE
  2
CONTINUOUS
 70
     0
  3
Solid line
 72
    65
 73
     0
 40
0.0
  0
LTYPE
  2
HIDDEN
 70
     0
  3
Hidden __ __ __ __ __ __ __ __ __ __ __ __ __ __
 72
    65
 73
     2
 40
1.905
 49
1.27
 49
-0.635
  0
LTYPE
  2
PHANTOM
 70
     0
  3
Phantom ______  __  __  ______  __  __  ______
 72
    65
 73
     6
 40
12.7
 49
6.35
 49
-1.27
 49
1.27
 49
-1.27
 49
1.27
 49
-1.27
  0
LTYPE
  2
CENTER
 70
     0
  3
Center ____ _ ____ _ ____ _ ____ _ ____ _ ____
 72
    65
 73
     4
 40
10.16
 49
6.35
 49
-1.27
 49
1.27
 49
-1.27
  0
LTYPE
  2
CENTERX2
 70
     0
  3
Center (2x) ________  __  ________  __  _____
 72
    65
 73
     4
 40
20.32
 49
12.7
 49
-2.54
 49
2.54
 49
-2.54
  0
LTYPE
  2
DOT2
 70
     0
  3
Dot (.5x) ........................................
 72
    65
 73
     2
 40
0.635
 49
0.0
 49
-0.635
  0
ENDTAB
  0
TABLE
  2
LAYER
 70
     2
  0
LAYER
  2
0
 70
     0
 62
     7
  6
CONTINUOUS
  0
LAYER
  2
FORMAT
 70
     0
 62
     7
  6
CONTINUOUS
  0
ENDTAB
  0
TABLE
  2
STYLE
 70
     1
  0
STYLE
  2
STANDARD
 70
     0
 40
0.0
 41
1.0
 50
0.0
 71
     0
 42
3.5
  3
txt
  4

  0
ENDTAB
  0
TABLE
  2
VIEW
 70
     0
  0
ENDTAB
  0
TABLE
  2
UCS
 70
     0
  0
ENDTAB
  0
TABLE
  2
APPID
 70
     1
  0
APPID
  2
ACAD
 70
     0
  0
ENDTAB
  0
TABLE
  2
DIMSTYLE
 70
     1
  0
DIMSTYLE
  2
ISO-25
 70
     0
  3

  4

  5

  6

  7

 40
1.0
 41
2.5
 42
0.625
 43
3.75
 44
1.25
 45
0.0
 46
0.0
 47
0.0
 48
0.0
140
2.5
141
2.5
142
0.0
143
0.0393700787
144
1.0
145
0.0
146
1.0
147
0.625
 71
     0
 72
     0
 73
     0
 74
     0
 75
     0
 76
     0
 77
     1
 78
     8
170
     0
171
     3
172
     1
173
     0
174
     0
175
     0
176
     0
177
     0
178
     0
  0
ENDTAB
  0
ENDSEC
  0
SECTION
  2
BLOCKS
  0
BLOCK
  8
0
  2
$MODEL_SPACE
 70
     0
 10
0.0
 20
0.0
 30
0.0
  3
$MODEL_SPACE
  1

  0
ENDBLK
  5
21
  8
0
  0
BLOCK
 67
     1
  8
0
  2
$PAPER_SPACE
 70
     0
 10
0.0
 20
0.0
 30
0.0
  3
$PAPER_SPACE
  1

  0
ENDBLK
  5
1D
 67
     1
  8
0
  0
ENDSEC
  0
SECTION
  2
ENTITIES
  0
LINE
  5
45
  8
0
  6
CONTINUOUS
 62
     7
 10
26.6767328412
 20
264.126968219
 30
0.0
 11
26.6767328412
 21
249.1269706032
 31
0.0
  0
LINE
  5
46
  8
0
  6
CONTINUOUS
 62
     7
 10
32.0767348439
 20
249.1269706032
 30
0.0
 11
32.0767348439
 21
264.126968219
 31
0.0
  0
LINE
  5
47
  8
0
  6
CONTINUOUS
 62
     7
 10
32.0767348439
 20
232.5269697449
 30
0.0
 11
32.0767348439
 21
249.1269706032
 31
0.0
  0
LINE
  5
48
  8
0
  6
CONTINUOUS
 62
     7
 10
26.6767328412
 20
249.1269706032
 30
0.0
 11
26.6767328412
 21
232.5269697449
 31
0.0
  0
LINE
  5
49
  8
0
  6
CONTINUOUS
 62
     7
 10
26.6767328412
 20
232.5269697449
 30
0.0
 11
26.6767328412
 21
217.5269721291
 31
0.0
  0
LINE
  5
4A
  8
0
  6
CONTINUOUS
 62
     7
 10
32.0767348439
 20
217.5269721291
 30
0.0
 11
32.0767348439
 21
232.5269697449
 31
0.0
  0
LINE
  5
4B
  8
0
  6
CONTINUOUS
 62
     7
 10
266.6767364175
 20
264.126968219
 30
0.0
 11
266.6767364175
 21
249.1269706032
 31
0.0
  0
LINE
  5
4C
  8
0
  6
CONTINUOUS
 62
     7
 10
272.0767324598
 20
249.1269706032
 30
0.0
 11
272.0767324598
 21
264.126968219
 31
0.0
  0
LINE
  5
4D
  8
0
  6
CONTINUOUS
 62
     7
 10
272.0767324598
 20
232.5269697449
 30
0.0
 11
272.0767324598
 21
249.1269706032
 31
0.0
  0
LINE
  5
4E
  8
0
  6
CONTINUOUS
 62
     7
 10
266.6767364175
 20
249.1269706032
 30
0.0
 11
266.6767364175
 21
232.5269697449
 31
0.0
  0
LINE
  5
4F
  8
0
  6
CONTINUOUS
 62
     7
 10
266.6767364175
 20
232.5269697449
 30
0.0
 11
266.6767364175
 21
217.5269721291
 31
0.0
  0
LINE
  5
50
  8
0
  6
CONTINUOUS
 62
     7
 10
272.0767324598
 20
217.5269721291
 30
0.0
 11
272.0767324598
 21
232.5269697449
 31
0.0
  0
LINE
  5
51
  8
0
  6
CONTINUOUS
 62
     7
 10
392.0767372281
 20
232.5269697449
 30
0.0
 11
392.0767372281
 21
249.1269706032
 31
0.0
  0
LINE
  5
52
  8
0
  6
CONTINUOUS
 62
     7
 10
386.6767352254
 20
249.1269706032
 30
0.0
 11
386.6767352254
 21
232.5269697449
 31
0.0
  0
LINE
  5
53
  8
0
  6
CONTINUOUS
 62
     7
 10
386.6767352254
 20
264.126968219
 30
0.0
 11
386.6767352254
 21
249.1269706032
 31
0.0
  0
LINE
  5
54
  8
0
  6
CONTINUOUS
 62
     7
 10
392.0767372281
 20
249.1269706032
 30
0.0
 11
392.0767372281
 21
264.126968219
 31
0.0
  0
LINE
  5
55
  8
0
  6
CONTINUOUS
 62
     7
 10
386.6767352254
 20
232.5269697449
 30
0.0
 11
386.6767352254
 21
217.5269721291
 31
0.0
  0
LINE
  5
56
  8
0
  6
CONTINUOUS
 62
     7
 10
392.0767372281
 20
217.5269721291
 30
0.0
 11
392.0767372281
 21
232.5269697449
 31
0.0
  0
LINE
  5
57
  8
0
  6
CONTINUOUS
 62
     7
 10
152.0767336519
 20
232.5269697449
 30
0.0
 11
152.0767336519
 21
249.1269706032
 31
0.0
  0
LINE
  5
58
  8
0
  6
CONTINUOUS
 62
     7
 10
146.6767376096
 20
249.1269706032
 30
0.0
 11
146.6767376096
 21
232.5269697449
 31
0.0
  0
LINE
  5
59
  8
0
  6
CONTINUOUS
 62
     7
 10
146.6767376096
 20
264.126968219
 30
0.0
 11
146.6767376096
 21
249.1269706032
 31
0.0
  0
LINE
  5
5A
  8
0
  6
CONTINUOUS
 62
     7
 10
152.0767336519
 20
249.1269706032
 30
0.0
 11
152.0767336519
 21
264.126968219
 31
0.0
  0
LINE
  5
5B
  8
0
  6
CONTINUOUS
 62
     7
 10
146.6767376096
 20
232.5269697449
 30
0.0
 11
146.6767376096
 21
217.5269721291
 31
0.0
  0
LINE
  5
5C
  8
0
  6
CONTINUOUS
 62
     7
 10
152.0767336519
 20
217.5269721291
 30
0.0
 11
152.0767336519
 21
232.5269697449
 31
0.0
  0
POLYLINE
  5
5D
  8
0
  6
CONTINUOUS
 62
     7
 66
     1
 10
0.0
 20
0.0
 30
0.0
  0
VERTEX
  5
30D
  8
0
  6
CONTINUOUS
 62
     7
 10
366.276556793
 20
242.0556782028
 30
0.0
  0
VERTEX
  5
30E
  8
0
  6
CONTINUOUS
 62
     7
 10
366.2710016401
 20
242.0547126076
 30
0.0
  0
VERTEX
  5
30F
  8
0
  6
CONTINUOUS
 62
     7
 10
366.2699406774
 20
242.0545218727
 30
0.0
  0
SEQEND
  5
3AB
  8
0
  6
CONTINUOUS
 62
     7
  0
POLYLINE
  5
5E
  8
0
  6
CONTINUOUS
 62
     7
 66
     1
 10
0.0
 20
0.0
 30
0.0
  0
VERTEX
  5
310
  8
0
  6
CONTINUOUS
 62
     7
 10
292.4838488729
 20
242.0544324657
 30
0.0
  0
VERTEX
  5
311
  8
0
  6
CONTINUOUS
 62
     7
 10
292.4828594358
 20
242.0546172401
 30
0.0
  0
VERTEX
  5
312
  8
0
  6
CONTINUOUS
 62
     7
 10
292.4719398649
 20
242.0565007469
 30
0.0
  0
SEQEND
  5
3AA
  8
0
  6
CONTINUOUS
 62
     7
  0
LINE
  5
5F
  8
0
  6
CONTINUOUS
 62
     7
 10
292.4835985334
 20
242.0544920704
 30
0.0
 11
292.4762194783
 21
242.0558033726
 31
0.0
  0
ARC
  5
60
  8
0
  6
CONTINUOUS
 62
     7
 10
275.4419484836
 20
156.9509829789
 30
0.0
 40
81.41361840334257
 50
78.4974998085
 51
78.6268720826
  0
LINE
  5
61
  8
0
  6
CONTINUOUS
 62
     7
 10
291.4910441072
 20
236.7670355579
 30
0.0
 11
291.4955144555
 21
236.7661474487
 31
0.0
  0
LINE
  5
62
  8
0
  6
CONTINUOUS
 62
     7
 10
367.1942656667
 20
236.7533086082
 30
0.0
 11
367.2509020002
 21
236.7647348186
 31
0.0
  0
POLYLINE
  5
63
  8
0
  6
CONTINUOUS
 62
     7
 66
     1
 10
0.0
 20
0.0
 30
0.0
  0
VERTEX
  5
313
  8
0
  6
CONTINUOUS
 62
     7
 10
246.276557985
 20
242.0556782028
 30
0.0
  0
VERTEX
  5
314
  8
0
  6
CONTINUOUS
 62
     7
 10
246.2709998519
 20
242.0547126076
 30
0.0
  0
VERTEX
  5
315
  8
0
  6
CONTINUOUS
 62
     7
 10
246.2699448497
 20
242.0545218727
 30
0.0
  0
SEQEND
  5
3A9
  8
0
  6
CONTINUOUS
 62
     7
  0
POLYLINE
  5
64
  8
0
  6
CONTINUOUS
 62
     7
 66
     1
 10
0.0
 20
0.0
 30
0.0
  0
VERTEX
  5
316
  8
0
  6
CONTINUOUS
 62
     7
 10
172.483850065
 20
242.0544324657
 30
0.0
  0
VERTEX
  5
317
  8
0
  6
CONTINUOUS
 62
     7
 10
172.4828576476
 20
242.0546172401
 30
0.0
  0
VERTEX
  5
318
  8
0
  6
CONTINUOUS
 62
     7
 10
172.4719410569
 20
242.0565007469
 30
0.0
  0
SEQEND
  5
3A8
  8
0
  6
CONTINUOUS
 62
     7
  0
LINE
  5
65
  8
0
  6
CONTINUOUS
 62
     7
 10
172.4835997255
 20
242.0544920704
 30
0.0
 11
172.4762206704
 21
242.0558033726
 31
0.0
  0
ARC
  5
66
  8
0
  6
CONTINUOUS
 62
     7
 10
155.2929908868
 20
156.2134131633
 30
0.0
 40
82.16607885281374
 50
78.4982753699
 51
78.6264649151
  0
LINE
  5
67
  8
0
  6
CONTINUOUS
 62
     7
 10
171.4910452993
 20
236.7670355579
 30
0.0
 11
171.4955126674
 21
236.7661474487
 31
0.0
  0
LINE
  5
68
  8
0
  6
CONTINUOUS
 62
     7
 10
247.1942638786
 20
236.7533086082
 30
0.0
 11
247.2509061725
 21
236.7647348186
 31
0.0
  0
POLYLINE
  5
69
  8
0
  6
CONTINUOUS
 62
     7
 66
     1
 10
0.0
 20
0.0
 30
0.0
  0
VERTEX
  5
319
  8
0
  6
CONTINUOUS
 62
     7
 10
126.2765591771
 20
242.0556782028
 30
0.0
  0
VERTEX
  5
31A
  8
0
  6
CONTINUOUS
 62
     7
 10
126.2709980638
 20
242.0547126076
 30
0.0
  0
VERTEX
  5
31B
  8
0
  6
CONTINUOUS
 62
     7
 10
126.2699430616
 20
242.0545218727
 30
0.0
  0
SEQEND
  5
3A7
  8
0
  6
CONTINUOUS
 62
     7
  0
POLYLINE
  5
6A
  8
0
  6
CONTINUOUS
 62
     7
 66
     1
 10
0.0
 20
0.0
 30
0.0
  0
VERTEX
  5
31C
  8
0
  6
CONTINUOUS
 62
     7
 10
52.4838512571
 20
242.0544324657
 30
0.0
  0
VERTEX
  5
31D
  8
0
  6
CONTINUOUS
 62
     7
 10
52.48286182
 20
242.0546172401
 30
0.0
  0
VERTEX
  5
31E
  8
0
  6
CONTINUOUS
 62
     7
 10
52.471942249
 20
242.0565007469
 30
0.0
  0
SEQEND
  5
3A6
  8
0
  6
CONTINUOUS
 62
     7
  0
LINE
  5
6B
  8
0
  6
CONTINUOUS
 62
     7
 10
52.4836009176
 20
242.0544920704
 30
0.0
 11
52.4762218625
 21
242.0558033726
 31
0.0
  0
LINE
  5
6C
  8
0
  6
CONTINUOUS
 62
     7
 10
127.1942680509
 20
236.7533086082
 30
0.0
 11
127.2509103448
 21
236.7647348186
 31
0.0
  0
ARC
  5
6D
  8
0
  6
CONTINUOUS
 62
     7
 10
35.4536526863
 20
157.0061974017
 30
0.0
 40
81.35717944035365
 50
78.4978212654
 51
78.6272874017
  0
LINE
  5
6E
  8
0
  6
CONTINUOUS
 62
     7
 10
51.4910405309
 20
236.7670355579
 30
0.0
 11
51.4955108793
 21
236.7661474487
 31
0.0
  0
ARC
  5
6F
  8
0
  6
CONTINUOUS
 62
     7
 10
29.3767350347
 20
264.1269715569
 30
0.0
 40
2.699999999999982
 50
0.0
 51
180.0
  0
ARC
  5
70
  8
0
  6
CONTINUOUS
 62
     7
 10
29.3767350347
 20
217.5269715569
 30
0.0
 40
2.699999999999982
 50
180.0
 51
0.0
  0
ARC
  5
71
  8
0
  6
CONTINUOUS
 62
     7
 10
33.3767350347
 20
216.3269715569
 30
0.0
 40
2.0
 50
270.0
 51
0.0
  0
LINE
  5
72
  8
0
  6
CONTINUOUS
 62
     7
 10
33.3767359884
 20
214.3269716045
 30
0.0
 11
25.3767316968
 21
214.3269716045
 31
0.0
  0
ARC
  5
73
  8
0
  6
CONTINUOUS
 62
     7
 10
25.3767350347
 20
216.3269715569
 30
0.0
 40
2.000000000000004
 50
180.0
 51
270.0
  0
LINE
  5
74
  8
0
  6
CONTINUOUS
 62
     7
 10
23.3767336042
 20
222.9269741318
 30
0.0
 11
23.3767336042
 21
216.3269696972
 31
0.0
  0
LINE
  5
75
  8
0
  6
CONTINUOUS
 62
     7
 10
35.376734081
 20
222.9269741318
 30
0.0
 11
35.376734081
 21
216.3269696972
 31
0.0
  0
LINE
  5
76
  8
0
  6
CONTINUOUS
 62
     7
 10
23.3767336042
 20
222.9269741318
 30
0.0
 11
23.3767336042
 21
224.1269706032
 31
0.0
  0
LINE
  5
77
  8
0
  6
CONTINUOUS
 62
     7
 10
23.3767336042
 20
224.1269706032
 30
0.0
 11
26.6767328412
 21
224.1269706032
 31
0.0
  0
LINE
  5
78
  8
0
  6
CONTINUOUS
 62
     7
 10
32.0767348439
 20
224.1269706032
 30
0.0
 11
35.376734081
 21
224.1269706032
 31
0.0
  0
LINE
  5
79
  8
0
  6
CONTINUOUS
 62
     7
 10
35.376734081
 20
224.1269706032
 30
0.0
 11
35.376734081
 21
222.9269741318
 31
0.0
  0
ARC
  5
7A
  8
0
  6
CONTINUOUS
 62
     7
 10
269.3767350347
 20
264.1269715569
 30
0.0
 40
2.700000000000045
 50
0.0
 51
180.0
  0
ARC
  5
7B
  8
0
  6
CONTINUOUS
 62
     7
 10
269.3767350347
 20
217.5269715569
 30
0.0
 40
2.700000000000045
 50
180.0
 51
0.0
  0
ARC
  5
7C
  8
0
  6
CONTINUOUS
 62
     7
 10
273.3767350347
 20
216.3269715569
 30
0.0
 40
2.0
 50
270.0
 51
0.0
  0
LINE
  5
7D
  8
0
  6
CONTINUOUS
 62
     7
 10
273.3767336042
 20
214.3269716045
 30
0.0
 11
265.3767352731
 21
214.3269716045
 31
0.0
  0
ARC
  5
7E
  8
0
  6
CONTINUOUS
 62
     7
 10
265.3767350347
 20
216.3269715569
 30
0.0
 40
2.0
 50
180.0
 51
270.0
  0
LINE
  5
7F
  8
0
  6
CONTINUOUS
 62
     7
 10
263.3767371805
 20
222.9269741318
 30
0.0
 11
263.3767371805
 21
216.3269696972
 31
0.0
  0
LINE
  5
80
  8
0
  6
CONTINUOUS
 62
     7
 10
275.3767376573
 20
222.9269741318
 30
0.0
 11
275.3767376573
 21
216.3269696972
 31
0.0
  0
LINE
  5
81
  8
0
  6
CONTINUOUS
 62
     7
 10
263.3767371805
 20
222.9269741318
 30
0.0
 11
263.3767371805
 21
224.1269706032
 31
0.0
  0
LINE
  5
82
  8
0
  6
CONTINUOUS
 62
     7
 10
263.3767371805
 20
224.1269706032
 30
0.0
 11
266.6767364175
 21
224.1269706032
 31
0.0
  0
LINE
  5
83
  8
0
  6
CONTINUOUS
 62
     7
 10
272.0767324598
 20
224.1269706032
 30
0.0
 11
275.3767376573
 21
224.1269706032
 31
0.0
  0
LINE
  5
84
  8
0
  6
CONTINUOUS
 62
     7
 10
275.3767376573
 20
224.1269706032
 30
0.0
 11
275.3767376573
 21
222.9269741318
 31
0.0
  0
ARC
  5
85
  8
0
  6
CONTINUOUS
 62
     7
 10
389.3767350347
 20
264.1269715569
 30
0.0
 40
2.699999999999989
 50
0.0
 51
180.0
  0
ARC
  5
86
  8
0
  6
CONTINUOUS
 62
     7
 10
389.3767350347
 20
217.5269715569
 30
0.0
 40
2.699999999999989
 50
180.0
 51
0.0
  0
ARC
  5
87
  8
0
  6
CONTINUOUS
 62
     7
 10
393.3767350347
 20
216.3269715569
 30
0.0
 40
2.0
 50
270.0
 51
0.0
  0
LINE
  5
88
  8
0
  6
CONTINUOUS
 62
     7
 10
393.3767383725
 20
214.3269716045
 30
0.0
 11
385.376734081
 21
214.3269716045
 31
0.0
  0
ARC
  5
89
  8
0
  6
CONTINUOUS
 62
     7
 10
385.3767350347
 20
216.3269715569
 30
0.0
 40
2.0
 50
180.0
 51
270.0
  0
LINE
  5
8A
  8
0
  6
CONTINUOUS
 62
     7
 10
383.3767359884
 20
222.9269741318
 30
0.0
 11
383.3767359884
 21
216.3269696972
 31
0.0
  0
LINE
  5
8B
  8
0
  6
CONTINUOUS
 62
     7
 10
395.3767364652
 20
222.9269741318
 30
0.0
 11
395.3767364652
 21
216.3269696972
 31
0.0
  0
LINE
  5
8C
  8
0
  6
CONTINUOUS
 62
     7
 10
383.3767359884
 20
224.1269706032
 30
0.0
 11
386.6767352254
 21
224.1269706032
 31
0.0
  0
LINE
  5
8D
  8
0
  6
CONTINUOUS
 62
     7
 10
392.0767372281
 20
224.1269706032
 30
0.0
 11
395.3767364652
 21
224.1269706032
 31
0.0
  0
LINE
  5
8E
  8
0
  6
CONTINUOUS
 62
     7
 10
395.3767364652
 20
224.1269706032
 30
0.0
 11
395.3767364652
 21
222.9269741318
 31
0.0
  0
LINE
  5
8F
  8
0
  6
CONTINUOUS
 62
     7
 10
383.3767359884
 20
222.9269741318
 30
0.0
 11
383.3767359884
 21
224.1269706032
 31
0.0
  0
ARC
  5
90
  8
0
  6
CONTINUOUS
 62
     7
 10
149.3767350347
 20
264.1269715569
 30
0.0
 40
2.699999999999989
 50
0.0
 51
180.0
  0
ARC
  5
91
  8
0
  6
CONTINUOUS
 62
     7
 10
149.3767350347
 20
217.5269715569
 30
0.0
 40
2.699999999999989
 50
180.0
 51
0.0
  0
ARC
  5
92
  8
0
  6
CONTINUOUS
 62
     7
 10
153.3767350347
 20
216.3269715569
 30
0.0
 40
2.0
 50
270.0
 51
0.0
  0
LINE
  5
93
  8
0
  6
CONTINUOUS
 62
     7
 10
153.3767347963
 20
214.3269716045
 30
0.0
 11
145.3767364652
 21
214.3269716045
 31
0.0
  0
ARC
  5
94
  8
0
  6
CONTINUOUS
 62
     7
 10
145.3767350347
 20
216.3269715569
 30
0.0
 40
2.0
 50
180.0
 51
270.0
  0
LINE
  5
95
  8
0
  6
CONTINUOUS
 62
     7
 10
143.3767324121
 20
222.9269741318
 30
0.0
 11
143.3767324121
 21
216.3269696972
 31
0.0
  0
LINE
  5
96
  8
0
  6
CONTINUOUS
 62
     7
 10
155.3767328889
 20
222.9269741318
 30
0.0
 11
155.3767328889
 21
216.3269696972
 31
0.0
  0
LINE
  5
97
  8
0
  6
CONTINUOUS
 62
     7
 10
143.3767324121
 20
224.1269706032
 30
0.0
 11
146.6767376096
 21
224.1269706032
 31
0.0
  0
LINE
  5
98
  8
0
  6
CONTINUOUS
 62
     7
 10
152.0767336519
 20
224.1269706032
 30
0.0
 11
155.3767328889
 21
224.1269706032
 31
0.0
  0
LINE
  5
99
  8
0
  6
CONTINUOUS
 62
     7
 10
155.3767328889
 20
224.1269706032
 30
0.0
 11
155.3767328889
 21
222.9269741318
 31
0.0
  0
LINE
  5
9A
  8
0
  6
CONTINUOUS
 62
     7
 10
143.3767324121
 20
222.9269741318
 30
0.0
 11
143.3767324121
 21
224.1269706032
 31
0.0
  0
ARC
  5
9B
  8
0
  6
CONTINUOUS
 62
     7
 10
329.3772289896
 20
421.6120166471
 30
0.0
 40
183.3069945137199
 50
277.7930028174
 51
281.5888278678
  0
ARC
  5
9C
  8
0
  6
CONTINUOUS
 62
     7
 10
366.7454916675
 20
239.4074746773
 30
0.0
 40
2.690000000000023
 50
12.4186815058
 51
100.0467259555
  0
ARC
  5
9D
  8
0
  6
CONTINUOUS
 62
     7
 10
329.3904597416
 20
421.5347069228
 30
0.0
 40
188.6086048625135
 50
277.792205894
 51
281.5895835726
  0
ARC
  5
9E
  8
0
  6
CONTINUOUS
 62
     7
 10
366.7454916675
 20
239.4074746773
 30
0.0
 40
2.69000000000003
 50
281.5900201068
 51
12.4186815058
  0
ARC
  5
9F
  8
0
  6
CONTINUOUS
 62
     7
 10
329.3960577308
 20
421.7281637475
 30
0.0
 40
188.8047563924581
 50
258.4125131129
 51
262.2058168492
  0
ARC
  5
A0
  8
0
  6
CONTINUOUS
 62
     7
 10
292.0079784018
 20
239.4074746773
 30
0.0
 40
2.689999999999987
 50
167.5813184942
 51
258.4099798932
  0
ARC
  5
A1
  8
0
  6
CONTINUOUS
 62
     7
 10
292.0079784018
 20
239.4074746773
 30
0.0
 40
2.690000000000006
 50
80.0567778886
 51
167.5813184942
  0
ARC
  5
A2
  8
0
  6
CONTINUOUS
 62
     7
 10
329.3962670734
 20
421.7297855579
 30
0.0
 40
183.4263915391522
 50
258.4125364803
 51
262.2057869043
  0
ARC
  5
A3
  8
0
  6
CONTINUOUS
 62
     7
 10
329.3767350347
 20
421.6149828314
 30
0.0
 40
183.31
 50
262.2069690737
 51
277.7930309263
  0
ARC
  5
A4
  8
0
  6
CONTINUOUS
 62
     7
 10
329.3767350347
 20
421.6149828314
 30
0.0
 40
188.69
 50
262.2069690737
 51
277.7930309263
  0
LINE
  5
A5
  8
0
  6
CONTINUOUS
 62
     7
 10
366.0767381818
 20
236.2669704697
 30
0.0
 11
367.0767372281
 21
236.2669704697
 31
0.0
  0
LINE
  5
A6
  8
0
  6
CONTINUOUS
 62
     7
 10
366.0767381818
 20
236.5284202835
 30
0.0
 11
366.0767381818
 21
236.2669704697
 31
0.0
  0
LINE
  5
A7
  8
0
  6
CONTINUOUS
 62
     7
 10
367.0767372281
 20
236.7379484913
 30
0.0
 11
367.0767372281
 21
236.2669704697
 31
0.0
  0
LINE
  5
A8
  8
0
  6
CONTINUOUS
 62
     7
 10
292.6767354638
 20
236.5284441254
 30
0.0
 11
292.6767354638
 21
236.2669704697
 31
0.0
  0
LINE
  5
A9
  8
0
  6
CONTINUOUS
 62
     7
 10
292.6767354638
 20
236.2669704697
 30
0.0
 11
291.6767364175
 21
236.2669704697
 31
0.0
  0
LINE
  5
AA
  8
0
  6
CONTINUOUS
 62
     7
 10
291.6767364175
 20
236.7379484913
 30
0.0
 11
291.6767364175
 21
236.2669704697
 31
0.0
  0
LINE
  5
AB
  8
0
  6
CONTINUOUS
 62
     7
 10
292.6767354638
 20
236.2669704697
 30
0.0
 11
292.6767354638
 21
231.8000255367
 31
0.0
  0
LINE
  5
AC
  8
0
  6
CONTINUOUS
 62
     7
 10
291.6767364175
 20
236.2669704697
 30
0.0
 11
291.6767364175
 21
231.8000255367
 31
0.0
  0
LINE
  5
AD
  8
0
  6
CONTINUOUS
 62
     7
 10
367.0767372281
 20
236.2669704697
 30
0.0
 11
367.0767372281
 21
231.8000255367
 31
0.0
  0
LINE
  5
AE
  8
0
  6
CONTINUOUS
 62
     7
 10
366.0767381818
 20
236.2669704697
 30
0.0
 11
366.0767381818
 21
231.8000255367
 31
0.0
  0
LINE
  5
AF
  8
0
  6
CONTINUOUS
 62
     7
 10
292.5484185846
 20
242.0426247856
 30
0.0
 11
292.5523405702
 21
242.0418201229
 31
0.0
  0
LINE
  5
B0
  8
0
  6
CONTINUOUS
 62
     7
 10
366.2008231313
 20
242.0417545578
 30
0.0
 11
366.2050550611
 21
242.0426247856
 31
0.0
  0
LINE
  5
B1
  8
0
  6
CONTINUOUS
 62
     7
 10
367.0767372281
 20
231.8000255367
 30
0.0
 11
367.0767372281
 21
230.9464870235
 31
0.0
  0
LINE
  5
B2
  8
0
  6
CONTINUOUS
 62
     7
 10
366.0767381818
 20
231.8000255367
 30
0.0
 11
366.0767381818
 21
230.9464870235
 31
0.0
  0
LINE
  5
B3
  8
0
  6
CONTINUOUS
 62
     7
 10
292.6767354638
 20
231.8000255367
 30
0.0
 11
292.6767354638
 21
230.9464870235
 31
0.0
  0
LINE
  5
B4
  8
0
  6
CONTINUOUS
 62
     7
 10
291.6767364175
 20
231.8000255367
 30
0.0
 11
291.6767364175
 21
230.9464870235
 31
0.0
  0
LINE
  5
B5
  8
0
  6
CONTINUOUS
 62
     7
 10
367.0767372281
 20
230.9464870235
 30
0.0
 11
367.0767372281
 21
223.0920551559
 31
0.0
  0
LINE
  5
B6
  8
0
  6
CONTINUOUS
 62
     7
 10
366.0767381818
 20
230.9464870235
 30
0.0
 11
366.0767381818
 21
223.0920551559
 31
0.0
  0
LINE
  5
B7
  8
0
  6
CONTINUOUS
 62
     7
 10
292.6767354638
 20
230.9464870235
 30
0.0
 11
292.6767354638
 21
223.0920551559
 31
0.0
  0
LINE
  5
B8
  8
0
  6
CONTINUOUS
 62
     7
 10
291.6767364175
 20
230.9464870235
 30
0.0
 11
291.6767364175
 21
223.0920551559
 31
0.0
  0
LINE
  5
B9
  8
0
  6
CONTINUOUS
 62
     7
 10
367.0767372281
 20
223.0920551559
 30
0.0
 11
367.0767372281
 21
222.3269699356
 31
0.0
  0
LINE
  5
BA
  8
0
  6
CONTINUOUS
 62
     7
 10
366.0767381818
 20
223.0920551559
 30
0.0
 11
366.0767381818
 21
222.3269699356
 31
0.0
  0
LINE
  5
BB
  8
0
  6
CONTINUOUS
 62
     7
 10
292.6767354638
 20
220.326971843
 30
0.0
 11
291.6767364175
 21
220.326971843
 31
0.0
  0
LINE
  5
BC
  8
0
  6
CONTINUOUS
 62
     7
 10
292.6767354638
 20
222.3269699356
 30
0.0
 11
292.6767354638
 21
220.326971843
 31
0.0
  0
LINE
  5
BD
  8
0
  6
CONTINUOUS
 62
     7
 10
291.6767364175
 20
222.3269699356
 30
0.0
 11
291.6767364175
 21
220.326971843
 31
0.0
  0
LINE
  5
BE
  8
0
  6
CONTINUOUS
 62
     7
 10
292.6767354638
 20
223.0920551559
 30
0.0
 11
292.6767354638
 21
222.3269699356
 31
0.0
  0
LINE
  5
BF
  8
0
  6
CONTINUOUS
 62
     7
 10
291.6767364175
 20
223.0920551559
 30
0.0
 11
291.6767364175
 21
222.3269699356
 31
0.0
  0
LINE
  5
C0
  8
0
  6
CONTINUOUS
 62
     7
 10
366.0767381818
 20
220.326971843
 30
0.0
 11
367.0767372281
 21
220.326971843
 31
0.0
  0
LINE
  5
C1
  8
0
  6
CONTINUOUS
 62
     7
 10
367.0767372281
 20
222.3269699356
 30
0.0
 11
367.0767372281
 21
220.326971843
 31
0.0
  0
LINE
  5
C2
  8
0
  6
CONTINUOUS
 62
     7
 10
366.0767381818
 20
222.3269699356
 30
0.0
 11
366.0767381818
 21
220.326971843
 31
0.0
  0
LINE
  5
C3
  8
0
  6
CONTINUOUS
 62
     7
 10
371.8767350347
 20
216.1269722721
 30
0.0
 11
371.8767350347
 21
223.1269715569
 31
0.0
  0
ARC
  5
C4
  8
0
  6
CONTINUOUS
 62
     7
 10
369.8767350347
 20
216.1269715569
 30
0.0
 40
2.0
 50
270.0
 51
0.0
  0
LINE
  5
C5
  8
0
  6
CONTINUOUS
 62
     7
 10
369.876736942
 20
214.1269741795
 30
0.0
 11
363.8767307431
 21
214.1269741795
 31
0.0
  0
ARC
  5
C6
  8
0
  6
CONTINUOUS
 62
     7
 10
363.8767350347
 20
216.1269715569
 30
0.0
 40
2.0
 50
180.0
 51
270.0
  0
LINE
  5
C7
  8
0
  6
CONTINUOUS
 62
     7
 10
361.8767326505
 20
223.1269715569
 30
0.0
 11
361.8767326505
 21
216.1269722721
 31
0.0
  0
CIRCLE
  5
C8
  8
0
  6
CONTINUOUS
 62
     7
 10
366.8767350347
 20
217.5269715569
 30
0.0
 40
1.0
  0
LINE
  5
C9
  8
0
  6
CONTINUOUS
 62
     7
 10
366.0767381818
 20
224.1269706032
 30
0.0
 11
361.8767326505
 21
224.1269706032
 31
0.0
  0
LINE
  5
CA
  8
0
  6
CONTINUOUS
 62
     7
 10
361.8767326505
 20
223.1269715569
 30
0.0
 11
361.8767326505
 21
224.1269706032
 31
0.0
  0
LINE
  5
CB
  8
0
  6
CONTINUOUS
 62
     7
 10
371.8767350347
 20
223.1269715569
 30
0.0
 11
371.8767350347
 21
224.1269706032
 31
0.0
  0
LINE
  5
CC
  8
0
  6
CONTINUOUS
 62
     7
 10
371.8767350347
 20
224.1269706032
 30
0.0
 11
367.0767372281
 21
224.1269706032
 31
0.0
  0
LINE
  5
CD
  8
0
  6
CONTINUOUS
 62
     7
 10
286.8767326505
 20
216.1269722721
 30
0.0
 11
286.8767326505
 21
223.1269715569
 31
0.0
  0
ARC
  5
CE
  8
0
  6
CONTINUOUS
 62
     7
 10
294.8767350347
 20
216.1269715569
 30
0.0
 40
2.0
 50
270.0
 51
0.0
  0
LINE
  5
CF
  8
0
  6
CONTINUOUS
 62
     7
 10
294.876736942
 20
214.1269741795
 30
0.0
 11
288.8767367036
 21
214.1269741795
 31
0.0
  0
CIRCLE
  5
D0
  8
0
  6
CONTINUOUS
 62
     7
 10
291.8767350347
 20
217.5269715569
 30
0.0
 40
1.0
  0
LINE
  5
D1
  8
0
  6
CONTINUOUS
 62
     7
 10
296.8767350347
 20
216.1269722721
 30
0.0
 11
296.8767350347
 21
223.1269715569
 31
0.0
  0
ARC
  5
D2
  8
0
  6
CONTINUOUS
 62
     7
 10
288.8767350347
 20
216.1269715569
 30
0.0
 40
2.0
 50
180.0
 51
270.0
  0
LINE
  5
D3
  8
0
  6
CONTINUOUS
 62
     7
 10
286.8767326505
 20
223.1269715569
 30
0.0
 11
286.8767326505
 21
224.1269706032
 31
0.0
  0
LINE
  5
D4
  8
0
  6
CONTINUOUS
 62
     7
 10
291.6767364175
 20
224.1269706032
 30
0.0
 11
286.8767326505
 21
224.1269706032
 31
0.0
  0
LINE
  5
D5
  8
0
  6
CONTINUOUS
 62
     7
 10
296.8767350347
 20
224.1269706032
 30
0.0
 11
292.6767354638
 21
224.1269706032
 31
0.0
  0
LINE
  5
D6
  8
0
  6
CONTINUOUS
 62
     7
 10
296.8767350347
 20
224.1269706032
 30
0.0
 11
296.8767350347
 21
223.1269715569
 31
0.0
  0
ARC
  5
D7
  8
0
  6
CONTINUOUS
 62
     7
 10
209.3767978938
 20
421.6145299308
 30
0.0
 40
183.3095434037166
 50
277.7930306306
 51
281.588802422
  0
ARC
  5
D8
  8
0
  6
CONTINUOUS
 62
     7
 10
246.7454916675
 20
239.4074746773
 30
0.0
 40
2.689999999999996
 50
12.4186815058
 51
100.0467259555
  0
ARC
  5
D9
  8
0
  6
CONTINUOUS
 62
     7
 10
209.3898101625
 20
421.5384815124
 30
0.0
 40
188.6124332348083
 50
277.7922471931
 51
281.5895468731
  0
ARC
  5
DA
  8
0
  6
CONTINUOUS
 62
     7
 10
246.7454916675
 20
239.4074746773
 30
0.0
 40
2.690000000000002
 50
281.5900201068
 51
12.4186815058
  0
ARC
  5
DB
  8
0
  6
CONTINUOUS
 62
     7
 10
172.0079784018
 20
239.4074746773
 30
0.0
 40
2.690000000000011
 50
80.0567778886
 51
167.5813184942
  0
ARC
  5
DC
  8
0
  6
CONTINUOUS
 62
     7
 10
209.3961785046
 20
421.729241793
 30
0.0
 40
183.4258408269317
 50
258.4125298297
 51
262.2057911876
  0
ARC
  5
DD
  8
0
  6
CONTINUOUS
 62
     7
 10
209.3957828834
 20
421.7265110215
 30
0.0
 40
188.8030819041152
 50
258.4124944315
 51
262.2058309307
  0
ARC
  5
DE
  8
0
  6
CONTINUOUS
 62
     7
 10
172.0079784018
 20
239.4074746773
 30
0.0
 40
2.690000000000002
 50
167.5813184942
 51
258.4099798932
  0
ARC
  5
DF
  8
0
  6
CONTINUOUS
 62
     7
 10
209.3767350347
 20
421.6149828314
 30
0.0
 40
183.31
 50
262.2069690737
 51
277.7930309263
  0
ARC
  5
E0
  8
0
  6
CONTINUOUS
 62
     7
 10
209.3767350347
 20
421.6149828314
 30
0.0
 40
188.69
 50
262.2069690737
 51
277.7930309263
  0
LINE
  5
E1
  8
0
  6
CONTINUOUS
 62
     7
 10
246.0767363937
 20
236.2669704697
 30
0.0
 11
247.07673544
 21
236.2669704697
 31
0.0
  0
LINE
  5
E2
  8
0
  6
CONTINUOUS
 62
     7
 10
246.0767363937
 20
236.5284202835
 30
0.0
 11
246.0767363937
 21
236.2669704697
 31
0.0
  0
LINE
  5
E3
  8
0
  6
CONTINUOUS
 62
     7
 10
247.07673544
 20
236.7379484913
 30
0.0
 11
247.07673544
 21
236.2669704697
 31
0.0
  0
LINE
  5
E4
  8
0
  6
CONTINUOUS
 62
     7
 10
172.6767336757
 20
236.2669704697
 30
0.0
 11
171.6767346294
 21
236.2669704697
 31
0.0
  0
LINE
  5
E5
  8
0
  6
CONTINUOUS
 62
     7
 10
172.6767336757
 20
236.2669704697
 30
0.0
 11
172.6767336757
 21
231.8000255367
 31
0.0
  0
LINE
  5
E6
  8
0
  6
CONTINUOUS
 62
     7
 10
171.6767346294
 20
236.2669704697
 30
0.0
 11
171.6767346294
 21
231.8000255367
 31
0.0
  0
LINE
  5
E7
  8
0
  6
CONTINUOUS
 62
     7
 10
172.6767336757
 20
236.5284441254
 30
0.0
 11
172.6767336757
 21
236.2669704697
 31
0.0
  0
LINE
  5
E8
  8
0
  6
CONTINUOUS
 62
     7
 10
171.6767346294
 20
236.7379484913
 30
0.0
 11
171.6767346294
 21
236.2669704697
 31
0.0
  0
LINE
  5
E9
  8
0
  6
CONTINUOUS
 62
     7
 10
246.0767363937
 20
236.2669704697
 30
0.0
 11
246.0767363937
 21
231.8000255367
 31
0.0
  0
LINE
  5
EA
  8
0
  6
CONTINUOUS
 62
     7
 10
247.07673544
 20
236.2669704697
 30
0.0
 11
247.07673544
 21
231.8000255367
 31
0.0
  0
LINE
  5
EB
  8
0
  6
CONTINUOUS
 62
     7
 10
172.5484197767
 20
242.0426247856
 30
0.0
 11
172.5523417623
 21
242.0418201229
 31
0.0
  0
LINE
  5
EC
  8
0
  6
CONTINUOUS
 62
     7
 10
246.2008183629
 20
242.0417545578
 30
0.0
 11
246.2050502927
 21
242.0426247856
 31
0.0
  0
LINE
  5
ED
  8
0
  6
CONTINUOUS
 62
     7
 10
172.6767336757
 20
231.8000255367
 30
0.0
 11
172.6767336757
 21
230.9464870235
 31
0.0
  0
LINE
  5
EE
  8
0
  6
CONTINUOUS
 62
     7
 10
171.6767346294
 20
231.8000255367
 30
0.0
 11
171.6767346294
 21
230.9464870235
 31
0.0
  0
LINE
  5
EF
  8
0
  6
CONTINUOUS
 62
     7
 10
246.0767363937
 20
231.8000255367
 30
0.0
 11
246.0767363937
 21
230.9464870235
 31
0.0
  0
LINE
  5
F0
  8
0
  6
CONTINUOUS
 62
     7
 10
247.07673544
 20
231.8000255367
 30
0.0
 11
247.07673544
 21
230.9464870235
 31
0.0
  0
LINE
  5
F1
  8
0
  6
CONTINUOUS
 62
     7
 10
246.0767363937
 20
230.9464870235
 30
0.0
 11
246.0767363937
 21
223.0920551559
 31
0.0
  0
LINE
  5
F2
  8
0
  6
CONTINUOUS
 62
     7
 10
247.07673544
 20
230.9464870235
 30
0.0
 11
247.07673544
 21
223.0920551559
 31
0.0
  0
LINE
  5
F3
  8
0
  6
CONTINUOUS
 62
     7
 10
172.6767336757
 20
230.9464870235
 30
0.0
 11
172.6767336757
 21
223.0920551559
 31
0.0
  0
LINE
  5
F4
  8
0
  6
CONTINUOUS
 62
     7
 10
171.6767346294
 20
230.9464870235
 30
0.0
 11
171.6767346294
 21
223.0920551559
 31
0.0
  0
LINE
  5
F5
  8
0
  6
CONTINUOUS
 62
     7
 10
172.6767336757
 20
223.0920551559
 30
0.0
 11
172.6767336757
 21
222.3269699356
 31
0.0
  0
LINE
  5
F6
  8
0
  6
CONTINUOUS
 62
     7
 10
171.6767346294
 20
223.0920551559
 30
0.0
 11
171.6767346294
 21
222.3269699356
 31
0.0
  0
LINE
  5
F7
  8
0
  6
CONTINUOUS
 62
     7
 10
246.0767363937
 20
223.0920551559
 30
0.0
 11
246.0767363937
 21
222.3269699356
 31
0.0
  0
LINE
  5
F8
  8
0
  6
CONTINUOUS
 62
     7
 10
247.07673544
 20
223.0920551559
 30
0.0
 11
247.07673544
 21
222.3269699356
 31
0.0
  0
LINE
  5
F9
  8
0
  6
CONTINUOUS
 62
     7
 10
172.6767336757
 20
220.326971843
 30
0.0
 11
171.6767346294
 21
220.326971843
 31
0.0
  0
LINE
  5
FA
  8
0
  6
CONTINUOUS
 62
     7
 10
172.6767336757
 20
222.3269699356
 30
0.0
 11
172.6767336757
 21
220.326971843
 31
0.0
  0
LINE
  5
FB
  8
0
  6
CONTINUOUS
 62
     7
 10
171.6767346294
 20
222.3269699356
 30
0.0
 11
171.6767346294
 21
220.326971843
 31
0.0
  0
LINE
  5
FC
  8
0
  6
CONTINUOUS
 62
     7
 10
246.0767363937
 20
220.326971843
 30
0.0
 11
247.07673544
 21
220.326971843
 31
0.0
  0
LINE
  5
FD
  8
0
  6
CONTINUOUS
 62
     7
 10
246.0767363937
 20
222.3269699356
 30
0.0
 11
246.0767363937
 21
220.326971843
 31
0.0
  0
LINE
  5
FE
  8
0
  6
CONTINUOUS
 62
     7
 10
247.07673544
 20
222.3269699356
 30
0.0
 11
247.07673544
 21
220.326971843
 31
0.0
  0
LINE
  5
FF
  8
0
  6
CONTINUOUS
 62
     7
 10
251.8767362268
 20
216.1269722721
 30
0.0
 11
251.8767362268
 21
223.1269715569
 31
0.0
  0
ARC
  5
100
  8
0
  6
CONTINUOUS
 62
     7
 10
249.8767350347
 20
216.1269715569
 30
0.0
 40
2.0
 50
270.0
 51
0.0
  0
LINE
  5
101
  8
0
  6
CONTINUOUS
 62
     7
 10
249.8767351539
 20
214.1269741795
 30
0.0
 11
243.8767349155
 21
214.1269741795
 31
0.0
  0
ARC
  5
102
  8
0
  6
CONTINUOUS
 62
     7
 10
243.8767350347
 20
216.1269715569
 30
0.0
 40
2.0
 50
180.0
 51
270.0
  0
LINE
  5
103
  8
0
  6
CONTINUOUS
 62
     7
 10
241.8767338426
 20
223.1269715569
 30
0.0
 11
241.8767338426
 21
216.1269722721
 31
0.0
  0
CIRCLE
  5
104
  8
0
  6
CONTINUOUS
 62
     7
 10
246.8767350347
 20
217.5269715569
 30
0.0
 40
1.0
  0
LINE
  5
105
  8
0
  6
CONTINUOUS
 62
     7
 10
251.8767362268
 20
223.1269715569
 30
0.0
 11
251.8767362268
 21
224.1269706032
 31
0.0
  0
LINE
  5
106
  8
0
  6
CONTINUOUS
 62
     7
 10
251.8767362268
 20
224.1269706032
 30
0.0
 11
247.07673544
 21
224.1269706032
 31
0.0
  0
LINE
  5
107
  8
0
  6
CONTINUOUS
 62
     7
 10
246.0767363937
 20
224.1269706032
 30
0.0
 11
241.8767338426
 21
224.1269706032
 31
0.0
  0
LINE
  5
108
  8
0
  6
CONTINUOUS
 62
     7
 10
241.8767338426
 20
223.1269715569
 30
0.0
 11
241.8767338426
 21
224.1269706032
 31
0.0
  0
LINE
  5
109
  8
0
  6
CONTINUOUS
 62
     7
 10
171.6767346294
 20
224.1269706032
 30
0.0
 11
166.8767338426
 21
224.1269706032
 31
0.0
  0
LINE
  5
10A
  8
0
  6
CONTINUOUS
 62
     7
 10
166.8767338426
 20
223.1269715569
 30
0.0
 11
166.8767338426
 21
224.1269706032
 31
0.0
  0
CIRCLE
  5
10B
  8
0
  6
CONTINUOUS
 62
     7
 10
171.8767350347
 20
217.5269715569
 30
0.0
 40
1.0
  0
LINE
  5
10C
  8
0
  6
CONTINUOUS
 62
     7
 10
176.8767362268
 20
216.1269722721
 30
0.0
 11
176.8767362268
 21
223.1269715569
 31
0.0
  0
LINE
  5
10D
  8
0
  6
CONTINUOUS
 62
     7
 10
166.8767338426
 20
216.1269722721
 30
0.0
 11
166.8767338426
 21
223.1269715569
 31
0.0
  0
ARC
  5
10E
  8
0
  6
CONTINUOUS
 62
     7
 10
168.8767350347
 20
216.1269715569
 30
0.0
 40
2.0
 50
180.0
 51
270.0
  0
LINE
  5
10F
  8
0
  6
CONTINUOUS
 62
     7
 10
174.8767351539
 20
214.1269741795
 30
0.0
 11
168.8767349155
 21
214.1269741795
 31
0.0
  0
ARC
  5
110
  8
0
  6
CONTINUOUS
 62
     7
 10
174.8767350347
 20
216.1269715569
 30
0.0
 40
2.0
 50
270.0
 51
0.0
  0
LINE
  5
111
  8
0
  6
CONTINUOUS
 62
     7
 10
176.8767362268
 20
224.1269706032
 30
0.0
 11
172.6767336757
 21
224.1269706032
 31
0.0
  0
LINE
  5
112
  8
0
  6
CONTINUOUS
 62
     7
 10
176.8767362268
 20
224.1269706032
 30
0.0
 11
176.8767362268
 21
223.1269715569
 31
0.0
  0
ARC
  5
113
  8
0
  6
CONTINUOUS
 62
     7
 10
89.3765587968
 20
421.6159551446
 30
0.0
 40
183.3109878346549
 50
277.7930441774
 51
281.5887865078
  0
ARC
  5
114
  8
0
  6
CONTINUOUS
 62
     7
 10
126.7454916675
 20
239.4074746773
 30
0.0
 40
2.69000000000001
 50
12.4186815058
 51
100.0467259555
  0
ARC
  5
115
  8
0
  6
CONTINUOUS
 62
     7
 10
89.3897527978
 20
421.5388606371
 30
0.0
 40
188.6128163939145
 50
277.7922483053
 51
281.5895411613
  0
ARC
  5
116
  8
0
  6
CONTINUOUS
 62
     7
 10
126.7454916675
 20
239.4074746773
 30
0.0
 40
2.690000000000016
 50
281.5900201068
 51
12.4186815058
  0
ARC
  5
117
  8
0
  6
CONTINUOUS
 62
     7
 10
52.0079784018
 20
239.4074746773
 30
0.0
 40
2.690000000000015
 50
80.0567778886
 51
167.5813184942
  0
ARC
  5
118
  8
0
  6
CONTINUOUS
 62
     7
 10
89.3961606806
 20
421.7291485735
 30
0.0
 40
183.4257456875929
 50
258.4125297998
 51
262.2057935849
  0
ARC
  5
119
  8
0
  6
CONTINUOUS
 62
     7
 10
89.3966312493
 20
421.7316156925
 30
0.0
 40
188.8082539014905
 50
258.4125519674
 51
262.2057871943
  0
ARC
  5
11A
  8
0
  6
CONTINUOUS
 62
     7
 10
52.0079784018
 20
239.4074746773
 30
0.0
 40
2.690000000000009
 50
167.5813184942
 51
258.4099798932
  0
ARC
  5
11B
  8
0
  6
CONTINUOUS
 62
     7
 10
89.3767350347
 20
421.6149828314
 30
0.0
 40
188.69
 50
262.2069690737
 51
277.7930309263
  0
ARC
  5
11C
  8
0
  6
CONTINUOUS
 62
     7
 10
89.3767350347
 20
421.6149828314
 30
0.0
 40
183.31
 50
262.2069690737
 51
277.7930309263
  0
LINE
  5
11D
  8
0
  6
CONTINUOUS
 62
     7
 10
126.0767346055
 20
236.2669704697
 30
0.0
 11
127.0767336519
 21
236.2669704697
 31
0.0
  0
LINE
  5
11E
  8
0
  6
CONTINUOUS
 62
     7
 10
126.0767346055
 20
236.5284202835
 30
0.0
 11
126.0767346055
 21
236.2669704697
 31
0.0
  0
LINE
  5
11F
  8
0
  6
CONTINUOUS
 62
     7
 10
127.0767336519
 20
236.7379484913
 30
0.0
 11
127.0767336519
 21
236.2669704697
 31
0.0
  0
LINE
  5
120
  8
0
  6
CONTINUOUS
 62
     7
 10
52.6767318876
 20
236.5284441254
 30
0.0
 11
52.6767318876
 21
236.2669704697
 31
0.0
  0
LINE
  5
121
  8
0
  6
CONTINUOUS
 62
     7
 10
52.6767318876
 20
236.2669704697
 30
0.0
 11
51.6767328412
 21
236.2669704697
 31
0.0
  0
LINE
  5
122
  8
0
  6
CONTINUOUS
 62
     7
 10
51.6767328412
 20
236.7379484913
 30
0.0
 11
51.6767328412
 21
236.2669704697
 31
0.0
  0
LINE
  5
123
  8
0
  6
CONTINUOUS
 62
     7
 10
52.6767318876
 20
236.2669704697
 30
0.0
 11
52.6767318876
 21
231.8000255367
 31
0.0
  0
LINE
  5
124
  8
0
  6
CONTINUOUS
 62
     7
 10
51.6767328412
 20
236.2669704697
 30
0.0
 11
51.6767328412
 21
231.8000255367
 31
0.0
  0
LINE
  5
125
  8
0
  6
CONTINUOUS
 62
     7
 10
126.0767346055
 20
236.2669704697
 30
0.0
 11
126.0767346055
 21
231.8000255367
 31
0.0
  0
LINE
  5
126
  8
0
  6
CONTINUOUS
 62
     7
 10
127.0767336519
 20
236.2669704697
 30
0.0
 11
127.0767336519
 21
231.8000255367
 31
0.0
  0
LINE
  5
127
  8
0
  6
CONTINUOUS
 62
     7
 10
52.5484150083
 20
242.0426247856
 30
0.0
 11
52.5523369939
 21
242.0418201229
 31
0.0
  0
LINE
  5
128
  8
0
  6
CONTINUOUS
 62
     7
 10
126.200819555
 20
242.0417545578
 30
0.0
 11
126.2050514848
 21
242.0426247856
 31
0.0
  0
LINE
  5
129
  8
0
  6
CONTINUOUS
 62
     7
 10
126.0767346055
 20
231.8000255367
 30
0.0
 11
126.0767346055
 21
230.9464870235
 31
0.0
  0
LINE
  5
12A
  8
0
  6
CONTINUOUS
 62
     7
 10
127.0767336519
 20
231.8000255367
 30
0.0
 11
127.0767336519
 21
230.9464870235
 31
0.0
  0
LINE
  5
12B
  8
0
  6
CONTINUOUS
 62
     7
 10
52.6767318876
 20
231.8000255367
 30
0.0
 11
52.6767318876
 21
230.9464870235
 31
0.0
  0
LINE
  5
12C
  8
0
  6
CONTINUOUS
 62
     7
 10
51.6767328412
 20
231.8000255367
 30
0.0
 11
51.6767328412
 21
230.9464870235
 31
0.0
  0
LINE
  5
12D
  8
0
  6
CONTINUOUS
 62
     7
 10
126.0767346055
 20
230.9464870235
 30
0.0
 11
126.0767346055
 21
223.0920551559
 31
0.0
  0
LINE
  5
12E
  8
0
  6
CONTINUOUS
 62
     7
 10
127.0767336519
 20
230.9464870235
 30
0.0
 11
127.0767336519
 21
223.0920551559
 31
0.0
  0
LINE
  5
12F
  8
0
  6
CONTINUOUS
 62
     7
 10
52.6767318876
 20
230.9464870235
 30
0.0
 11
52.6767318876
 21
223.0920551559
 31
0.0
  0
LINE
  5
130
  8
0
  6
CONTINUOUS
 62
     7
 10
51.6767328412
 20
230.9464870235
 30
0.0
 11
51.6767328412
 21
223.0920551559
 31
0.0
  0
LINE
  5
131
  8
0
  6
CONTINUOUS
 62
     7
 10
126.0767346055
 20
220.326971843
 30
0.0
 11
127.0767336519
 21
220.326971843
 31
0.0
  0
LINE
  5
132
  8
0
  6
CONTINUOUS
 62
     7
 10
126.0767346055
 20
222.3269699356
 30
0.0
 11
126.0767346055
 21
220.326971843
 31
0.0
  0
LINE
  5
133
  8
0
  6
CONTINUOUS
 62
     7
 10
127.0767336519
 20
222.3269699356
 30
0.0
 11
127.0767336519
 21
220.326971843
 31
0.0
  0
LINE
  5
134
  8
0
  6
CONTINUOUS
 62
     7
 10
126.0767346055
 20
223.0920551559
 30
0.0
 11
126.0767346055
 21
222.3269699356
 31
0.0
  0
LINE
  5
135
  8
0
  6
CONTINUOUS
 62
     7
 10
127.0767336519
 20
223.0920551559
 30
0.0
 11
127.0767336519
 21
222.3269699356
 31
0.0
  0
LINE
  5
136
  8
0
  6
CONTINUOUS
 62
     7
 10
52.6767318876
 20
223.0920551559
 30
0.0
 11
52.6767318876
 21
222.3269699356
 31
0.0
  0
LINE
  5
137
  8
0
  6
CONTINUOUS
 62
     7
 10
51.6767328412
 20
223.0920551559
 30
0.0
 11
51.6767328412
 21
222.3269699356
 31
0.0
  0
LINE
  5
138
  8
0
  6
CONTINUOUS
 62
     7
 10
52.6767318876
 20
220.326971843
 30
0.0
 11
51.6767328412
 21
220.326971843
 31
0.0
  0
LINE
  5
139
  8
0
  6
CONTINUOUS
 62
     7
 10
52.6767318876
 20
222.3269699356
 30
0.0
 11
52.6767318876
 21
220.326971843
 31
0.0
  0
LINE
  5
13A
  8
0
  6
CONTINUOUS
 62
     7
 10
51.6767328412
 20
222.3269699356
 30
0.0
 11
51.6767328412
 21
220.326971843
 31
0.0
  0
LINE
  5
13B
  8
0
  6
CONTINUOUS
 62
     7
 10
131.8767374189
 20
223.1269715569
 30
0.0
 11
131.8767374189
 21
224.1269706032
 31
0.0
  0
LINE
  5
13C
  8
0
  6
CONTINUOUS
 62
     7
 10
131.8767374189
 20
224.1269706032
 30
0.0
 11
127.0767336519
 21
224.1269706032
 31
0.0
  0
LINE
  5
13D
  8
0
  6
CONTINUOUS
 62
     7
 10
126.0767346055
 20
224.1269706032
 30
0.0
 11
121.8767350347
 21
224.1269706032
 31
0.0
  0
LINE
  5
13E
  8
0
  6
CONTINUOUS
 62
     7
 10
121.8767350347
 20
223.1269715569
 30
0.0
 11
121.8767350347
 21
224.1269706032
 31
0.0
  0
ARC
  5
13F
  8
0
  6
CONTINUOUS
 62
     7
 10
129.8767350347
 20
216.1269715569
 30
0.0
 40
2.0
 50
270.0
 51
0.0
  0
LINE
  5
140
  8
0
  6
CONTINUOUS
 62
     7
 10
129.8767333658
 20
214.1269741795
 30
0.0
 11
123.8767331273
 21
214.1269741795
 31
0.0
  0
ARC
  5
141
  8
0
  6
CONTINUOUS
 62
     7
 10
123.8767350347
 20
216.1269715569
 30
0.0
 40
2.000000000000014
 50
180.0
 51
270.0
  0
LINE
  5
142
  8
0
  6
CONTINUOUS
 62
     7
 10
121.8767350347
 20
223.1269715569
 30
0.0
 11
121.8767350347
 21
216.1269722721
 31
0.0
  0
CIRCLE
  5
143
  8
0
  6
CONTINUOUS
 62
     7
 10
126.8767350347
 20
217.5269715569
 30
0.0
 40
1.000000000000028
  0
LINE
  5
144
  8
0
  6
CONTINUOUS
 62
     7
 10
131.8767374189
 20
216.1269722721
 30
0.0
 11
131.8767374189
 21
223.1269715569
 31
0.0
  0
LINE
  5
145
  8
0
  6
CONTINUOUS
 62
     7
 10
56.8767374189
 20
216.1269722721
 30
0.0
 11
56.8767374189
 21
223.1269715569
 31
0.0
  0
ARC
  5
146
  8
0
  6
CONTINUOUS
 62
     7
 10
54.8767350347
 20
216.1269715569
 30
0.0
 40
2.000000000000007
 50
270.0
 51
0.0
  0
LINE
  5
147
  8
0
  6
CONTINUOUS
 62
     7
 10
46.8767350347
 20
216.1269722721
 30
0.0
 11
46.8767350347
 21
223.1269715569
 31
0.0
  0
ARC
  5
148
  8
0
  6
CONTINUOUS
 62
     7
 10
48.8767350347
 20
216.1269715569
 30
0.0
 40
2.000000000000007
 50
180.0
 51
270.0
  0
LINE
  5
149
  8
0
  6
CONTINUOUS
 62
     7
 10
54.8767393262
 20
214.1269741795
 30
0.0
 11
48.8767331273
 21
214.1269741795
 31
0.0
  0
CIRCLE
  5
14A
  8
0
  6
CONTINUOUS
 62
     7
 10
51.8767350347
 20
217.5269715569
 30
0.0
 40
1.0
  0
LINE
  5
14B
  8
0
  6
CONTINUOUS
 62
     7
 10
56.8767374189
 20
224.1269706032
 30
0.0
 11
52.6767318876
 21
224.1269706032
 31
0.0
  0
LINE
  5
14C
  8
0
  6
CONTINUOUS
 62
     7
 10
56.8767374189
 20
224.1269706032
 30
0.0
 11
56.8767374189
 21
223.1269715569
 31
0.0
  0
LINE
  5
14D
  8
0
  6
CONTINUOUS
 62
     7
 10
51.6767328412
 20
224.1269706032
 30
0.0
 11
46.8767350347
 21
224.1269706032
 31
0.0
  0
LINE
  5
14E
  8
0
  6
CONTINUOUS
 62
     7
 10
46.8767350347
 20
223.1269715569
 30
0.0
 11
46.8767350347
 21
224.1269706032
 31
0.0
  0
LINE
  5
14F
  8
0
  6
CONTINUOUS
 62
     7
 10
70.9624474675
 20
149.3269715673
 30
0.0
 11
77.7910178335
 21
149.3269715673
 31
0.0
  0
LINE
  5
150
  8
0
  6
CONTINUOUS
 62
     7
 10
70.9624474675
 20
148.1269715569
 30
0.0
 11
77.7910178335
 21
148.1269715569
 31
0.0
  0
LINE
  5
151
  8
0
  6
CONTINUOUS
 62
     7
 10
77.7910178335
 20
149.3269715673
 30
0.0
 11
81.5496628911
 21
149.3269715673
 31
0.0
  0
LINE
  5
152
  8
0
  6
CONTINUOUS
 62
     7
 10
81.5496628911
 20
148.1269715569
 30
0.0
 11
77.7910178335
 21
148.1269715569
 31
0.0
  0
LINE
  5
153
  8
0
  6
CONTINUOUS
 62
     7
 10
67.2038024099
 20
149.3269715673
 30
0.0
 11
70.9624474675
 21
149.3269715673
 31
0.0
  0
LINE
  5
154
  8
0
  6
CONTINUOUS
 62
     7
 10
70.9624474675
 20
148.1269715569
 30
0.0
 11
67.2038024099
 21
148.1269715569
 31
0.0
  0
LINE
  5
155
  8
0
  6
CONTINUOUS
 62
     7
 10
340.9624522359
 20
149.3269715673
 30
0.0
 11
347.7910226018
 21
149.3269715673
 31
0.0
  0
LINE
  5
156
  8
0
  6
CONTINUOUS
 62
     7
 10
340.9624522359
 20
148.1269715569
 30
0.0
 11
347.7910226018
 21
148.1269715569
 31
0.0
  0
LINE
  5
157
  8
0
  6
CONTINUOUS
 62
     7
 10
351.5496676595
 20
148.1269715569
 30
0.0
 11
347.7910226018
 21
148.1269715569
 31
0.0
  0
LINE
  5
158
  8
0
  6
CONTINUOUS
 62
     7
 10
347.7910226018
 20
149.3269715673
 30
0.0
 11
351.5496676595
 21
149.3269715673
 31
0.0
  0
LINE
  5
159
  8
0
  6
CONTINUOUS
 62
     7
 10
340.9624522359
 20
148.1269715569
 30
0.0
 11
337.2038071782
 21
148.1269715569
 31
0.0
  0
LINE
  5
15A
  8
0
  6
CONTINUOUS
 62
     7
 10
337.2038071782
 20
149.3269715673
 30
0.0
 11
340.9624522359
 21
149.3269715673
 31
0.0
  0
LINE
  5
15B
  8
0
  6
CONTINUOUS
 62
     7
 10
86.3767331273
 20
148.1269715569
 30
0.0
 11
86.3767331273
 21
149.3269715673
 31
0.0
  0
LINE
  5
15C
  8
0
  6
CONTINUOUS
 62
     7
 10
86.3767331273
 20
149.3269715673
 30
0.0
 11
81.5496628911
 21
149.3269715673
 31
0.0
  0
LINE
  5
15D
  8
0
  6
CONTINUOUS
 62
     7
 10
81.5496628911
 20
148.1269715569
 30
0.0
 11
86.3767331273
 21
148.1269715569
 31
0.0
  0
LINE
  5
15E
  8
0
  6
CONTINUOUS
 62
     7
 10
62.3767321737
 20
148.1269715569
 30
0.0
 11
62.3767321737
 21
149.3269715673
 31
0.0
  0
LINE
  5
15F
  8
0
  6
CONTINUOUS
 62
     7
 10
67.2038024099
 20
149.3269715673
 30
0.0
 11
62.3767321737
 21
149.3269715673
 31
0.0
  0
LINE
  5
160
  8
0
  6
CONTINUOUS
 62
     7
 10
62.3767321737
 20
148.1269715569
 30
0.0
 11
67.2038024099
 21
148.1269715569
 31
0.0
  0
LINE
  5
161
  8
0
  6
CONTINUOUS
 62
     7
 10
356.3767378957
 20
148.1269715569
 30
0.0
 11
356.3767378957
 21
149.3269715673
 31
0.0
  0
LINE
  5
162
  8
0
  6
CONTINUOUS
 62
     7
 10
351.5496676595
 20
148.1269715569
 30
0.0
 11
356.3767378957
 21
148.1269715569
 31
0.0
  0
LINE
  5
163
  8
0
  6
CONTINUOUS
 62
     7
 10
356.3767378957
 20
149.3269715673
 30
0.0
 11
351.5496676595
 21
149.3269715673
 31
0.0
  0
LINE
  5
164
  8
0
  6
CONTINUOUS
 62
     7
 10
332.376736942
 20
148.1269715569
 30
0.0
 11
332.376736942
 21
149.3269715673
 31
0.0
  0
LINE
  5
165
  8
0
  6
CONTINUOUS
 62
     7
 10
332.376736942
 20
148.1269715569
 30
0.0
 11
337.2038071782
 21
148.1269715569
 31
0.0
  0
LINE
  5
166
  8
0
  6
CONTINUOUS
 62
     7
 10
337.2038071782
 20
149.3269715673
 30
0.0
 11
332.376736942
 21
149.3269715673
 31
0.0
  0
POLYLINE
  5
167
  8
0
  6
CONTINUOUS
 62
     7
 66
     1
 10
0.0
 20
0.0
 30
0.0
  0
VERTEX
  5
31F
  8
0
  6
CONTINUOUS
 62
     7
 10
340.3767293126
 20
214.3269716045
 30
0.0
  0
VERTEX
  5
320
  8
0
  6
CONTINUOUS
 62
     7
 10
340.1816433103
 20
214.1318796417
 30
0.0
  0
VERTEX
  5
321
  8
0
  6
CONTINUOUS
 62
     7
 10
339.9940555723
 20
213.9442859432
 30
0.0
  0
VERTEX
  5
322
  8
0
  6
CONTINUOUS
 62
     7
 10
339.8211663396
 20
213.771402671
 30
0.0
  0
VERTEX
  5
323
  8
0
  6
CONTINUOUS
 62
     7
 10
339.6696274907
 20
213.6198638222
 30
0.0
  0
VERTEX
  5
324
  8
0
  6
CONTINUOUS
 62
     7
 10
339.5452683599
 20
213.4955046913
 30
0.0
  0
VERTEX
  5
325
  8
0
  6
CONTINUOUS
 62
     7
 10
339.4528573186
 20
213.4030936501
 30
0.0
  0
VERTEX
  5
326
  8
0
  6
CONTINUOUS
 62
     7
 10
339.3959468038
 20
213.3461890957
 30
0.0
  0
VERTEX
  5
327
  8
0
  6
CONTINUOUS
 62
     7
 10
339.3767302663
 20
213.3269725582
 30
0.0
  0
SEQEND
  5
3A5
  8
0
  6
CONTINUOUS
 62
     7
  0
LINE
  5
168
  8
0
  6
CONTINUOUS
 62
     7
 10
339.3767302663
 20
213.3269725582
 30
0.0
 11
79.3767398031
 21
213.3269725582
 31
0.0
  0
POLYLINE
  5
169
  8
0
  6
CONTINUOUS
 62
     7
 66
     1
 10
0.0
 20
0.0
 30
0.0
  0
VERTEX
  5
328
  8
0
  6
CONTINUOUS
 62
     7
 10
78.3767407567
 20
214.3269716045
 30
0.0
  0
VERTEX
  5
329
  8
0
  6
CONTINUOUS
 62
     7
 10
78.5718267591
 20
214.1318796417
 30
0.0
  0
VERTEX
  5
32A
  8
0
  6
CONTINUOUS
 62
     7
 10
78.7594144971
 20
213.9442859432
 30
0.0
  0
VERTEX
  5
32B
  8
0
  6
CONTINUOUS
 62
     7
 10
78.9323037298
 20
213.771402671
 30
0.0
  0
VERTEX
  5
32C
  8
0
  6
CONTINUOUS
 62
     7
 10
79.0838425786
 20
213.6198638222
 30
0.0
  0
VERTEX
  5
32D
  8
0
  6
CONTINUOUS
 62
     7
 10
79.2082017095
 20
213.4955046913
 30
0.0
  0
VERTEX
  5
32E
  8
0
  6
CONTINUOUS
 62
     7
 10
79.3006127507
 20
213.4030936501
 30
0.0
  0
VERTEX
  5
32F
  8
0
  6
CONTINUOUS
 62
     7
 10
79.3575232656
 20
213.3461890957
 30
0.0
  0
VERTEX
  5
330
  8
0
  6
CONTINUOUS
 62
     7
 10
79.3767398031
 20
213.3269725582
 30
0.0
  0
SEQEND
  5
3A4
  8
0
  6
CONTINUOUS
 62
     7
  0
LINE
  5
16A
  8
0
  6
CONTINUOUS
 62
     7
 10
20.5767338903
 20
213.7269733688
 30
0.0
 11
20.5767338903
 21
214.3269716045
 31
0.0
  0
ARC
  5
16B
  8
0
  6
CONTINUOUS
 62
     7
 10
20.9767350347
 20
213.7269715569
 30
0.0
 40
0.4000000000000057
 50
180.0
 51
270.0
  0
LINE
  5
16C
  8
0
  6
CONTINUOUS
 62
     7
 10
79.3767398031
 20
213.3269725582
 30
0.0
 11
79.3767398031
 21
149.3269715673
 31
0.0
  0
LINE
  5
16D
  8
0
  6
CONTINUOUS
 62
     7
 10
339.3767302663
 20
149.3269715673
 30
0.0
 11
339.3767302663
 21
213.3269725582
 31
0.0
  0
LINE
  5
16E
  8
0
  6
CONTINUOUS
 62
     7
 10
20.5767338903
 20
222.3269699356
 30
0.0
 11
20.5767338903
 21
222.9269741318
 31
0.0
  0
ARC
  5
16F
  8
0
  6
CONTINUOUS
 62
     7
 10
20.9767350347
 20
222.9269715569
 30
0.0
 40
0.4000000000000057
 50
90.0
 51
180.0
  0
POLYLINE
  5
170
  8
0
  6
CONTINUOUS
 62
     7
 66
     1
 10
0.0
 20
0.0
 30
0.0
  0
VERTEX
  5
331
  8
0
  6
CONTINUOUS
 62
     7
 10
349.3767326505
 20
213.3269725582
 30
0.0
  0
VERTEX
  5
332
  8
0
  6
CONTINUOUS
 62
     7
 10
349.357516113
 20
213.3461890957
 30
0.0
  0
VERTEX
  5
333
  8
0
  6
CONTINUOUS
 62
     7
 10
349.3006175191
 20
213.4030936501
 30
0.0
  0
VERTEX
  5
334
  8
0
  6
CONTINUOUS
 62
     7
 10
349.2082064779
 20
213.4955046913
 30
0.0
  0
VERTEX
  5
335
  8
0
  6
CONTINUOUS
 62
     7
 10
349.083847347
 20
213.6198638222
 30
0.0
  0
VERTEX
  5
336
  8
0
  6
CONTINUOUS
 62
     7
 10
348.9323084981
 20
213.771402671
 30
0.0
  0
VERTEX
  5
337
  8
0
  6
CONTINUOUS
 62
     7
 10
348.7594192655
 20
213.9442859432
 30
0.0
  0
VERTEX
  5
338
  8
0
  6
CONTINUOUS
 62
     7
 10
348.5718196065
 20
214.1318796417
 30
0.0
  0
VERTEX
  5
339
  8
0
  6
CONTINUOUS
 62
     7
 10
348.3767336042
 20
214.3269716045
 30
0.0
  0
SEQEND
  5
3A3
  8
0
  6
CONTINUOUS
 62
     7
  0
LINE
  5
171
  8
0
  6
CONTINUOUS
 62
     7
 10
397.776729408
 20
213.3269725582
 30
0.0
 11
349.3767326505
 21
213.3269725582
 31
0.0
  0
LINE
  5
172
  8
0
  6
CONTINUOUS
 62
     7
 10
20.9767406614
 20
223.3269689819
 30
0.0
 11
23.3767336042
 21
223.3269689819
 31
0.0
  0
LINE
  5
173
  8
0
  6
CONTINUOUS
 62
     7
 10
35.376734081
 20
223.3269689819
 30
0.0
 11
46.8767350347
 21
223.3269689819
 31
0.0
  0
LINE
  5
174
  8
0
  6
CONTINUOUS
 62
     7
 10
56.8767374189
 20
223.3269689819
 30
0.0
 11
121.8767350347
 21
223.3269689819
 31
0.0
  0
LINE
  5
175
  8
0
  6
CONTINUOUS
 62
     7
 10
131.8767374189
 20
223.3269689819
 30
0.0
 11
143.3767324121
 21
223.3269689819
 31
0.0
  0
LINE
  5
176
  8
0
  6
CONTINUOUS
 62
     7
 10
155.3767328889
 20
223.3269689819
 30
0.0
 11
166.8767338426
 21
223.3269689819
 31
0.0
  0
LINE
  5
177
  8
0
  6
CONTINUOUS
 62
     7
 10
176.8767362268
 20
223.3269689819
 30
0.0
 11
241.8767338426
 21
223.3269689819
 31
0.0
  0
LINE
  5
178
  8
0
  6
CONTINUOUS
 62
     7
 10
251.8767362268
 20
223.3269689819
 30
0.0
 11
263.3767371805
 21
223.3269689819
 31
0.0
  0
LINE
  5
179
  8
0
  6
CONTINUOUS
 62
     7
 10
275.3767376573
 20
223.3269689819
 30
0.0
 11
286.8767326505
 21
223.3269689819
 31
0.0
  0
LINE
  5
17A
  8
0
  6
CONTINUOUS
 62
     7
 10
296.8767350347
 20
223.3269689819
 30
0.0
 11
361.8767326505
 21
223.3269689819
 31
0.0
  0
LINE
  5
17B
  8
0
  6
CONTINUOUS
 62
     7
 10
371.8767350347
 20
223.3269689819
 30
0.0
 11
383.3767359884
 21
223.3269689819
 31
0.0
  0
LINE
  5
17C
  8
0
  6
CONTINUOUS
 62
     7
 10
395.3767364652
 20
223.3269689819
 30
0.0
 11
397.776729408
 21
223.3269689819
 31
0.0
  0
LINE
  5
17D
  8
0
  6
CONTINUOUS
 62
     7
 10
398.1767361791
 20
222.3269699356
 30
0.0
 11
398.1767361791
 21
214.3269716045
 31
0.0
  0
LINE
  5
17E
  8
0
  6
CONTINUOUS
 62
     7
 10
20.5767338903
 20
214.3269716045
 30
0.0
 11
20.5767338903
 21
222.3269699356
 31
0.0
  0
LINE
  5
17F
  8
0
  6
CONTINUOUS
 62
     7
 10
349.3767326505
 20
213.3269725582
 30
0.0
 11
349.3767326505
 21
149.3269715673
 31
0.0
  0
LINE
  5
180
  8
0
  6
CONTINUOUS
 62
     7
 10
398.1767361791
 20
214.3269716045
 30
0.0
 11
398.1767361791
 21
213.7269733688
 31
0.0
  0
ARC
  5
181
  8
0
  6
CONTINUOUS
 62
     7
 10
397.7767350347
 20
213.7269715569
 30
0.0
 40
0.4000000000000341
 50
270.0
 51
0.0
  0
ARC
  5
182
  8
0
  6
CONTINUOUS
 62
     7
 10
397.7767350347
 20
222.9269715569
 30
0.0
 40
0.4000000000000341
 50
0.0
 51
90.0
  0
LINE
  5
183
  8
0
  6
CONTINUOUS
 62
     7
 10
398.1767361791
 20
222.9269741318
 30
0.0
 11
398.1767361791
 21
222.3269699356
 31
0.0
  0
LINE
  5
184
  8
0
  6
CONTINUOUS
 62
     7
 10
69.3767374189
 20
149.3269715673
 30
0.0
 11
69.3767374189
 21
213.3269725582
 31
0.0
  0
POLYLINE
  5
185
  8
0
  6
CONTINUOUS
 62
     7
 66
     1
 10
0.0
 20
0.0
 30
0.0
  0
VERTEX
  5
33A
  8
0
  6
CONTINUOUS
 62
     7
 10
69.3767374189
 20
213.3269725582
 30
0.0
  0
VERTEX
  5
33B
  8
0
  6
CONTINUOUS
 62
     7
 10
69.3959539563
 20
213.3461890957
 30
0.0
  0
VERTEX
  5
33C
  8
0
  6
CONTINUOUS
 62
     7
 10
69.4528525502
 20
213.4030936501
 30
0.0
  0
VERTEX
  5
33D
  8
0
  6
CONTINUOUS
 62
     7
 10
69.5452635915
 20
213.4955046913
 30
0.0
  0
VERTEX
  5
33E
  8
0
  6
CONTINUOUS
 62
     7
 10
69.6696227224
 20
213.6198638222
 30
0.0
  0
VERTEX
  5
33F
  8
0
  6
CONTINUOUS
 62
     7
 10
69.8211615712
 20
213.771402671
 30
0.0
  0
VERTEX
  5
340
  8
0
  6
CONTINUOUS
 62
     7
 10
69.9940508039
 20
213.9442859432
 30
0.0
  0
VERTEX
  5
341
  8
0
  6
CONTINUOUS
 62
     7
 10
70.1816504628
 20
214.1318796417
 30
0.0
  0
VERTEX
  5
342
  8
0
  6
CONTINUOUS
 62
     7
 10
70.3767364652
 20
214.3269716045
 30
0.0
  0
SEQEND
  5
3A2
  8
0
  6
CONTINUOUS
 62
     7
  0
LINE
  5
186
  8
0
  6
CONTINUOUS
 62
     7
 10
69.3767374189
 20
213.3269725582
 30
0.0
 11
20.9767406614
 21
213.3269725582
 31
0.0
  0
LINE
  5
187
  8
0
  6
CONTINUOUS
 62
     7
 10
475.8652179273
 20
224.1269706032
 30
0.0
 11
475.8652179273
 21
249.1269706032
 31
0.0
  0
LINE
  5
188
  8
0
  6
CONTINUOUS
 62
     7
 10
470.4652179735
 20
249.1269706032
 30
0.0
 11
470.4652179735
 21
224.1269706032
 31
0.0
  0
ARC
  5
189
  8
0
  6
CONTINUOUS
 62
     7
 10
488.1652180108
 20
249.1269715569
 30
0.0
 40
12.30000000000001
 50
90.0
 51
180.0
  0
ARC
  5
18A
  8
0
  6
CONTINUOUS
 62
     7
 10
488.1652180108
 20
249.1269715569
 30
0.0
 40
17.70000000000005
 50
90.0
 51
180.0
  0
LINE
  5
18B
  8
0
  6
CONTINUOUS
 62
     7
 10
479.1652179095
 20
214.8269711277
 30
0.0
 11
508.1652178201
 21
214.8269711277
 31
0.0
  0
LINE
  5
18C
  8
0
  6
CONTINUOUS
 62
     7
 10
508.1652178201
 20
220.2269731304
 30
0.0
 11
479.1652179095
 21
220.2269731304
 31
0.0
  0
LINE
  5
18D
  8
0
  6
CONTINUOUS
 62
     7
 10
508.1652178201
 20
266.8269751808
 30
0.0
 11
488.165217522
 21
266.8269751808
 31
0.0
  0
LINE
  5
18E
  8
0
  6
CONTINUOUS
 62
     7
 10
488.165217522
 20
261.4269731781
 30
0.0
 11
508.1652178201
 21
261.4269731781
 31
0.0
  0
ARC
  5
18F
  8
0
  6
CONTINUOUS
 62
     7
 10
508.1652180108
 20
232.5269715569
 30
0.0
 40
12.30000000000001
 50
270.0
 51
0.0
  0
ARC
  5
190
  8
0
  6
CONTINUOUS
 62
     7
 10
508.1652180108
 20
232.5269715569
 30
0.0
 40
17.7000000000001
 50
270.0
 51
0.0
  0
ARC
  5
191
  8
0
  6
CONTINUOUS
 62
     7
 10
508.1652180108
 20
249.1269715569
 30
0.0
 40
12.30000000000001
 50
360.0
 51
90.0
  0
ARC
  5
192
  8
0
  6
CONTINUOUS
 62
     7
 10
508.1652180108
 20
249.1269715569
 30
0.0
 40
17.7000000000001
 50
360.0
 51
90.0
  0
LINE
  5
193
  8
0
  6
CONTINUOUS
 62
     7
 10
525.8652164372
 20
232.5269697449
 30
0.0
 11
525.8652164372
 21
249.1269706032
 31
0.0
  0
LINE
  5
194
  8
0
  6
CONTINUOUS
 62
     7
 10
520.4652174147
 20
249.1269706032
 30
0.0
 11
520.4652174147
 21
232.5269697449
 31
0.0
  0
POLYLINE
  5
195
  8
0
  6
CONTINUOUS
 62
     7
 66
     1
 10
0.0
 20
0.0
 30
0.0
  0
VERTEX
  5
343
  8
0
  6
CONTINUOUS
 62
     7
 10
554.058302823
 20
237.3357234737
 30
0.0
  0
VERTEX
  5
344
  8
0
  6
CONTINUOUS
 62
     7
 10
554.0529503259
 20
237.605070903
 30
0.0
  0
VERTEX
  5
345
  8
0
  6
CONTINUOUS
 62
     7
 10
553.9857520493
 20
238.0119739315
 30
0.0
  0
VERTEX
  5
346
  8
0
  6
CONTINUOUS
 62
     7
 10
553.8681699666
 20
238.3907793304
 30
0.0
  0
VERTEX
  5
347
  8
0
  6
CONTINUOUS
 62
     7
 10
553.7090672883
 20
238.7367783329
 30
0.0
  0
VERTEX
  5
348
  8
0
  6
CONTINUOUS
 62
     7
 10
553.5173131856
 20
239.0474079391
 30
0.0
  0
VERTEX
  5
349
  8
0
  6
CONTINUOUS
 62
     7
 10
553.3008410367
 20
239.3227396748
 30
0.0
  0
VERTEX
  5
34A
  8
0
  6
CONTINUOUS
 62
     7
 10
553.0649377736
 20
239.5659027836
 30
0.0
  0
VERTEX
  5
34B
  8
0
  6
CONTINUOUS
 62
     7
 10
552.8103663358
 20
239.782792165
 30
0.0
  0
VERTEX
  5
34C
  8
0
  6
CONTINUOUS
 62
     7
 10
552.5312258633
 20
239.9816630623
 30
0.0
  0
VERTEX
  5
34D
  8
0
  6
CONTINUOUS
 62
     7
 10
552.2092952164
 20
240.1739834091
 30
0.0
  0
VERTEX
  5
34E
  8
0
  6
CONTINUOUS
 62
     7
 10
551.823861781
 20
240.3664825699
 30
0.0
  0
VERTEX
  5
34F
  8
0
  6
CONTINUOUS
 62
     7
 10
551.3122155103
 20
240.5778406403
 30
0.0
  0
VERTEX
  5
350
  8
0
  6
CONTINUOUS
 62
     7
 10
550.7377280625
 20
240.7743988773
 30
0.0
  0
VERTEX
  5
351
  8
0
  6
CONTINUOUS
 62
     7
 10
550.1627756985
 20
240.941333606
 30
0.0
  0
VERTEX
  5
352
  8
0
  6
CONTINUOUS
 62
     7
 10
549.5072378548
 20
241.1054013512
 30
0.0
  0
VERTEX
  5
353
  8
0
  6
CONTINUOUS
 62
     7
 10
548.8330795201
 20
241.2518738052
 30
0.0
  0
VERTEX
  5
354
  8
0
  6
CONTINUOUS
 62
     7
 10
548.1327845486
 20
241.3850365421
 30
0.0
  0
VERTEX
  5
355
  8
0
  6
CONTINUOUS
 62
     7
 10
547.4204494389
 20
241.5036974689
 30
0.0
  0
VERTEX
  5
356
  8
0
  6
CONTINUOUS
 62
     7
 10
546.6570152673
 20
241.6150091431
 30
0.0
  0
VERTEX
  5
357
  8
0
  6
CONTINUOUS
 62
     7
 10
545.8603872689
 20
241.7161403439
 30
0.0
  0
VERTEX
  5
358
  8
0
  6
CONTINUOUS
 62
     7
 10
545.034159604
 20
241.8066559574
 30
0.0
  0
VERTEX
  5
359
  8
0
  6
CONTINUOUS
 62
     7
 10
544.1832198533
 20
241.8859122536
 30
0.0
  0
VERTEX
  5
35A
  8
0
  6
CONTINUOUS
 62
     7
 10
543.3133139046
 20
241.9531939766
 30
0.0
  0
VERTEX
  5
35B
  8
0
  6
CONTINUOUS
 62
     7
 10
542.430575076
 20
242.0078156731
 30
0.0
  0
VERTEX
  5
35C
  8
0
  6
CONTINUOUS
 62
     7
 10
541.5416552457
 20
242.0491932175
 30
0.0
  0
VERTEX
  5
35D
  8
0
  6
CONTINUOUS
 62
     7
 10
540.6450762185
 20
242.0775948307
 30
0.0
  0
VERTEX
  5
35E
  8
0
  6
CONTINUOUS
 62
     7
 10
539.7298051747
 20
242.0933662197
 30
0.0
  0
VERTEX
  5
35F
  8
0
  6
CONTINUOUS
 62
     7
 10
539.0652908715
 20
242.095333173
 30
0.0
  0
SEQEND
  5
3A1
  8
0
  6
CONTINUOUS
 62
     7
  0
ARC
  5
196
  8
0
  6
CONTINUOUS
 62
     7
 10
498.7666206262
 20
186.9424914125
 30
0.0
 40
55.15425742298896
 50
89.689920985
 51
97.9477118465
  0
LINE
  5
197
  8
0
  6
CONTINUOUS
 62
     7
 10
539.0652193459
 20
242.0974729797
 30
0.0
 11
525.8652164372
 21
242.0974729797
 31
0.0
  0
LINE
  5
198
  8
0
  6
CONTINUOUS
 62
     7
 10
520.4652174147
 20
242.0974729797
 30
0.0
 11
499.0652187499
 21
242.0974729797
 31
0.0
  0
POLYLINE
  5
199
  8
0
  6
CONTINUOUS
 62
     7
 66
     1
 10
0.0
 20
0.0
 30
0.0
  0
VERTEX
  5
360
  8
0
  6
CONTINUOUS
 62
     7
 10
539.0650882157
 20
236.715924575
 30
0.0
  0
VERTEX
  5
361
  8
0
  6
CONTINUOUS
 62
     7
 10
539.79300994
 20
236.7123363754
 30
0.0
  0
VERTEX
  5
362
  8
0
  6
CONTINUOUS
 62
     7
 10
540.6336798104
 20
236.6961417934
 30
0.0
  0
VERTEX
  5
363
  8
0
  6
CONTINUOUS
 62
     7
 10
541.4629651936
 20
236.6680143616
 30
0.0
  0
VERTEX
  5
364
  8
0
  6
CONTINUOUS
 62
     7
 10
542.2748817834
 20
236.6281805775
 30
0.0
  0
VERTEX
  5
365
  8
0
  6
CONTINUOUS
 62
     7
 10
543.06391615
 20
236.5773854992
 30
0.0
  0
VERTEX
  5
366
  8
0
  6
CONTINUOUS
 62
     7
 10
543.8371612462
 20
236.5157840988
 30
0.0
  0
VERTEX
  5
367
  8
0
  6
CONTINUOUS
 62
     7
 10
544.5894731911
 20
236.4440677902
 30
0.0
  0
VERTEX
  5
368
  8
0
  6
CONTINUOUS
 62
     7
 10
545.3119112881
 20
236.3634405872
 30
0.0
  0
VERTEX
  5
369
  8
0
  6
CONTINUOUS
 62
     7
 10
545.9943308266
 20
236.2755416176
 30
0.0
  0
VERTEX
  5
36A
  8
0
  6
CONTINUOUS
 62
     7
 10
546.6282977494
 20
236.1821828625
 30
0.0
  0
VERTEX
  5
36B
  8
0
  6
CONTINUOUS
 62
     7
 10
547.206003848
 20
236.0854326031
 30
0.0
  0
VERTEX
  5
36C
  8
0
  6
CONTINUOUS
 62
     7
 10
547.7246655854
 20
235.9871147415
 30
0.0
  0
VERTEX
  5
36D
  8
0
  6
CONTINUOUS
 62
     7
 10
548.2020630273
 20
235.8851252338
 30
0.0
  0
VERTEX
  5
36E
  8
0
  6
CONTINUOUS
 62
     7
 10
548.6170484456
 20
235.7850251934
 30
0.0
  0
VERTEX
  5
36F
  8
0
  6
CONTINUOUS
 62
     7
 10
548.9665462407
 20
235.6895921967
 30
0.0
  0
VERTEX
  5
370
  8
0
  6
CONTINUOUS
 62
     7
 10
549.2451860341
 20
235.6030641338
 30
0.0
  0
VERTEX
  5
371
  8
0
  6
CONTINUOUS
 62
     7
 10
549.4292094144
 20
235.5381189129
 30
0.0
  0
VERTEX
  5
372
  8
0
  6
CONTINUOUS
 62
     7
 10
549.550755206
 20
235.4895292065
 30
0.0
  0
VERTEX
  5
373
  8
0
  6
CONTINUOUS
 62
     7
 10
549.6138348016
 20
235.460907056
 30
0.0
  0
VERTEX
  5
374
  8
0
  6
CONTINUOUS
 62
     7
 10
549.6216847333
 20
235.4570029518
 30
0.0
  0
SEQEND
  5
3A0
  8
0
  6
CONTINUOUS
 62
     7
  0
LINE
  5
19A
  8
0
  6
CONTINUOUS
 62
     7
 10
510.0652172002
 20
236.7174742958
 30
0.0
 11
520.4652174147
 21
236.7174742958
 31
0.0
  0
LINE
  5
19B
  8
0
  6
CONTINUOUS
 62
     7
 10
525.8652164372
 20
236.7174742958
 30
0.0
 11
539.0652193459
 21
236.7174742958
 31
0.0
  0
LINE
  5
19C
  8
0
  6
CONTINUOUS
 62
     7
 10
510.0652172002
 20
236.6149841091
 30
0.0
 11
520.4652174147
 21
236.6149841091
 31
0.0
  0
LINE
  5
19D
  8
0
  6
CONTINUOUS
 62
     7
 10
525.8652164372
 20
236.6149841091
 30
0.0
 11
542.4799098405
 21
236.6149841091
 31
0.0
  0
ARC
  5
19E
  8
0
  6
CONTINUOUS
 62
     7
 10
551.3752180108
 20
235.6149828314
 30
0.0
 40
2.690000000000055
 50
180.0
 51
270.0
  0
ARC
  5
19F
  8
0
  6
CONTINUOUS
 62
     7
 10
551.3752180108
 20
235.6149828314
 30
0.0
 40
2.689999999999998
 50
270.0
 51
0.0
  0
LINE
  5
1A0
  8
0
  6
CONTINUOUS
 62
     7
 10
478.3652181509
 20
222.9269741318
 30
0.0
 11
478.3652181509
 21
216.3269696972
 31
0.0
  0
ARC
  5
1A1
  8
0
  6
CONTINUOUS
 62
     7
 10
477.9652180108
 20
222.9269715569
 30
0.0
 40
0.4000000000000341
 50
0.0
 51
90.0
  0
LINE
  5
1A2
  8
0
  6
CONTINUOUS
 62
     7
 10
468.3652180018
 20
223.3269689819
 30
0.0
 11
468.9652181002
 21
223.3269689819
 31
0.0
  0
LINE
  5
1A3
  8
0
  6
CONTINUOUS
 62
     7
 10
476.9652179214
 20
223.3269689819
 30
0.0
 11
477.9652180853
 21
223.3269689819
 31
0.0
  0
LINE
  5
1A4
  8
0
  6
CONTINUOUS
 62
     7
 10
467.9652179363
 20
222.3269699356
 30
0.0
 11
467.9652179363
 21
222.9269741318
 31
0.0
  0
LINE
  5
1A5
  8
0
  6
CONTINUOUS
 62
     7
 10
467.1652181777
 20
216.3269696972
 30
0.0
 11
467.1652181777
 21
222.9269741318
 31
0.0
  0
ARC
  5
1A6
  8
0
  6
CONTINUOUS
 62
     7
 10
468.3652180108
 20
222.9269715569
 30
0.0
 40
1.199999999999989
 50
90.0
 51
180.0
  0
ARC
  5
1A7
  8
0
  6
CONTINUOUS
 62
     7
 10
477.9652180108
 20
222.9269715569
 30
0.0
 40
1.200000000000045
 50
0.0
 51
90.0
  0
LINE
  5
1A8
  8
0
  6
CONTINUOUS
 62
     7
 10
479.1652179095
 20
222.9269741318
 30
0.0
 11
479.1652179095
 21
216.3269696972
 31
0.0
  0
ARC
  5
1A9
  8
0
  6
CONTINUOUS
 62
     7
 10
468.3652180108
 20
222.9269715569
 30
0.0
 40
0.4000000000000057
 50
90.0
 51
180.0
  0
LINE
  5
1AA
  8
0
  6
CONTINUOUS
 62
     7
 10
468.3652180018
 20
224.1269706032
 30
0.0
 11
477.9652180853
 21
224.1269706032
 31
0.0
  0
LINE
  5
1AB
  8
0
  6
CONTINUOUS
 62
     7
 10
467.9652179363
 20
214.3269716045
 30
0.0
 11
467.1652181777
 21
214.3269716045
 31
0.0
  0
LINE
  5
1AC
  8
0
  6
CONTINUOUS
 62
     7
 10
467.1652181777
 20
214.3269716045
 30
0.0
 11
467.1652181777
 21
216.3269696972
 31
0.0
  0
LINE
  5
1AD
  8
0
  6
CONTINUOUS
 62
     7
 10
479.1652179095
 20
214.3269716045
 30
0.0
 11
478.3652181509
 21
214.3269716045
 31
0.0
  0
LINE
  5
1AE
  8
0
  6
CONTINUOUS
 62
     7
 10
478.3652181509
 20
214.3269716045
 30
0.0
 11
478.3652181509
 21
216.3269696972
 31
0.0
  0
LINE
  5
1AF
  8
0
  6
CONTINUOUS
 62
     7
 10
479.1652179095
 20
216.3269696972
 30
0.0
 11
479.1652179095
 21
214.3269716045
 31
0.0
  0
LINE
  5
1B0
  8
0
  6
CONTINUOUS
 62
     7
 10
467.9652179363
 20
214.3269716045
 30
0.0
 11
467.9652179363
 21
214.1269741795
 31
0.0
  0
LINE
  5
1B1
  8
0
  6
CONTINUOUS
 62
     7
 10
467.9652179363
 20
214.1269741795
 30
0.0
 11
467.1652181777
 21
214.1269741795
 31
0.0
  0
LINE
  5
1B2
  8
0
  6
CONTINUOUS
 62
     7
 10
467.1652181777
 20
214.1269741795
 30
0.0
 11
467.1652181777
 21
214.3269716045
 31
0.0
  0
ARC
  5
1B3
  8
0
  6
CONTINUOUS
 62
     7
 10
477.9652180108
 20
223.1269715569
 30
0.0
 40
0.2000000000000455
 50
0.0
 51
90.0
  0
LINE
  5
1B4
  8
0
  6
CONTINUOUS
 62
     7
 10
478.1652181181
 20
216.1269722721
 30
0.0
 11
478.1652181181
 21
223.1269715569
 31
0.0
  0
ARC
  5
1B5
  8
0
  6
CONTINUOUS
 62
     7
 10
468.1652180108
 20
223.1269715569
 30
0.0
 40
1.0
 50
90.0
 51
180.0
  0
LINE
  5
1B6
  8
0
  6
CONTINUOUS
 62
     7
 10
478.9652178767
 20
214.3269716045
 30
0.0
 11
478.9652178767
 21
214.1269741795
 31
0.0
  0
LINE
  5
1B7
  8
0
  6
CONTINUOUS
 62
     7
 10
478.9652178767
 20
214.1269741795
 30
0.0
 11
478.1652181181
 21
214.1269741795
 31
0.0
  0
LINE
  5
1B8
  8
0
  6
CONTINUOUS
 62
     7
 10
478.1652181181
 20
214.1269741795
 30
0.0
 11
478.1652181181
 21
216.1269722721
 31
0.0
  0
POLYLINE
  5
1B9
  8
0
  6
CONTINUOUS
 62
     7
 66
     1
 10
0.0
 20
0.0
 30
0.0
  0
VERTEX
  5
375
  8
0
  6
CONTINUOUS
 62
     7
 10
491.0161240729
 20
239.5190654537
 30
0.0
  0
VERTEX
  5
376
  8
0
  6
CONTINUOUS
 62
     7
 10
491.1860911878
 20
239.8835359356
 30
0.0
  0
VERTEX
  5
377
  8
0
  6
CONTINUOUS
 62
     7
 10
491.4336158665
 20
240.2217744133
 30
0.0
  0
VERTEX
  5
378
  8
0
  6
CONTINUOUS
 62
     7
 10
491.8256266745
 20
240.5947981617
 30
0.0
  0
VERTEX
  5
379
  8
0
  6
CONTINUOUS
 62
     7
 10
492.2832428249
 20
240.9105835697
 30
0.0
  0
VERTEX
  5
37A
  8
0
  6
CONTINUOUS
 62
     7
 10
493.0572374495
 20
241.2891982338
 30
0.0
  0
VERTEX
  5
37B
  8
0
  6
CONTINUOUS
 62
     7
 10
493.8914089235
 20
241.5669737598
 30
0.0
  0
SEQEND
  5
39F
  8
0
  6
CONTINUOUS
 62
     7
  0
POLYLINE
  5
1BA
  8
0
  6
CONTINUOUS
 62
     7
 66
     1
 10
0.0
 20
0.0
 30
0.0
  0
VERTEX
  5
37C
  8
0
  6
CONTINUOUS
 62
     7
 10
496.7986776265
 20
236.7295442364
 30
0.0
  0
VERTEX
  5
37D
  8
0
  6
CONTINUOUS
 62
     7
 10
494.7672857674
 20
236.7863117001
 30
0.0
  0
VERTEX
  5
37E
  8
0
  6
CONTINUOUS
 62
     7
 10
493.676429871
 20
236.9144438049
 30
0.0
  0
VERTEX
  5
37F
  8
0
  6
CONTINUOUS
 62
     7
 10
492.6164611014
 20
237.187689378
 30
0.0
  0
VERTEX
  5
380
  8
0
  6
CONTINUOUS
 62
     7
 10
491.9251902732
 20
237.5113604805
 30
0.0
  0
VERTEX
  5
381
  8
0
  6
CONTINUOUS
 62
     7
 10
491.6094838413
 20
237.7327917358
 30
0.0
  0
VERTEX
  5
382
  8
0
  6
CONTINUOUS
 62
     7
 10
491.3326455983
 20
238.0002020142
 30
0.0
  0
VERTEX
  5
383
  8
0
  6
CONTINUOUS
 62
     7
 10
491.0436405572
 20
238.4626148483
 30
0.0
  0
VERTEX
  5
384
  8
0
  6
CONTINUOUS
 62
     7
 10
490.931981686
 20
238.9996407768
 30
0.0
  0
VERTEX
  5
385
  8
0
  6
CONTINUOUS
 62
     7
 10
491.0161240729
 20
239.5190654537
 30
0.0
  0
SEQEND
  5
39E
  8
0
  6
CONTINUOUS
 62
     7
  0
LINE
  5
1BB
  8
0
  6
CONTINUOUS
 62
     7
 10
499.0652187499
 20
236.7379484913
 30
0.0
 11
496.7986776265
 21
236.7295442364
 31
0.0
  0
LINE
  5
1BC
  8
0
  6
CONTINUOUS
 62
     7
 10
510.0652172002
 20
236.7379484913
 30
0.0
 11
499.0652187499
 21
236.7379484913
 31
0.0
  0
ARC
  5
1BD
  8
0
  6
CONTINUOUS
 62
     7
 10
470.6711997686
 20
349.6164811576
 30
0.0
 40
120.0
 50
280.9468409701
 51
289.1646231125
  0
LINE
  5
1BE
  8
0
  6
CONTINUOUS
 62
     7
 10
493.4589787158
 20
231.8000255367
 30
0.0
 11
489.0460326108
 21
230.9464870235
 31
0.0
  0
ARC
  5
1BF
  8
0
  6
CONTINUOUS
 62
     7
 10
490.5652180108
 20
223.0920540084
 30
0.0
 40
8.000000000000057
 50
100.9468409701
 51
180.0
  0
LINE
  5
1C0
  8
0
  6
CONTINUOUS
 62
     7
 10
482.5652180942
 20
223.0920551559
 30
0.0
 11
482.5652180942
 21
222.3269699356
 31
0.0
  0
ARC
  5
1C1
  8
0
  6
CONTINUOUS
 62
     7
 10
480.5652180108
 20
222.3269715569
 30
0.0
 40
2.0
 50
270.0
 51
0.0
  0
LINE
  5
1C2
  8
0
  6
CONTINUOUS
 62
     7
 10
480.5652177664
 20
220.326971843
 30
0.0
 11
479.1652179095
 21
220.326971843
 31
0.0
  0
LINE
  5
1C3
  8
0
  6
CONTINUOUS
 62
     7
 10
467.1652181777
 20
220.326971843
 30
0.0
 11
466.3652180466
 21
220.326971843
 31
0.0
  0
ARC
  5
1C4
  8
0
  6
CONTINUOUS
 62
     7
 10
466.3652180108
 20
222.3269715569
 30
0.0
 40
2.0
 50
180.0
 51
270.0
  0
LINE
  5
1C5
  8
0
  6
CONTINUOUS
 62
     7
 10
464.3652177187
 20
222.3269699356
 30
0.0
 11
464.3652177187
 21
224.8879967472
 31
0.0
  0
ARC
  5
1C6
  8
0
  6
CONTINUOUS
 62
     7
 10
472.3652180108
 20
224.8879960072
 30
0.0
 40
8.000000000000007
 50
140.3596923241
 51
180.0
  0
ARC
  5
1C7
  8
0
  6
CONTINUOUS
 62
     7
 10
490.8467689702
 20
209.5768146637
 30
0.0
 40
31.99999999999999
 50
129.5627908875
 51
140.3596923241
  0
ARC
  5
1C8
  8
0
  6
CONTINUOUS
 62
     7
 10
490.8467689702
 20
209.5768146637
 30
0.0
 40
32.00000000000001
 50
91.4211498515
 51
117.9157975373
  0
LINE
  5
1C9
  8
0
  6
CONTINUOUS
 62
     7
 10
490.0531305703
 20
241.5669737598
 30
0.0
 11
493.8914089235
 21
241.5669737598
 31
0.0
  0
LINE
  5
1CA
  8
0
  6
CONTINUOUS
 62
     7
 10
510.0652172002
 20
236.7379484913
 30
0.0
 11
510.0652172002
 21
236.2669704697
 31
0.0
  0
LINE
  5
1CB
  8
0
  6
CONTINUOUS
 62
     7
 10
548.6852182778
 20
235.7316313526
 30
0.0
 11
548.6852182778
 21
235.6149850628
 31
0.0
  0
LINE
  5
1CC
  8
0
  6
CONTINUOUS
 62
     7
 10
554.0652169617
 20
235.6149850628
 30
0.0
 11
554.0652169617
 21
237.3328147671
 31
0.0
  0
LINE
  5
1CD
  8
0
  6
CONTINUOUS
 62
     7
 10
554.0652169617
 20
237.3328147671
 30
0.0
 11
554.0647758874
 21
237.3810706875
 31
0.0
  0
LINE
  5
1CE
  8
0
  6
CONTINUOUS
 62
     7
 10
468.9652181002
 20
223.3269689819
 30
0.0
 11
476.9652179214
 21
223.3269689819
 31
0.0
  0
LINE
  5
1CF
  8
0
  6
CONTINUOUS
 62
     7
 10
467.9652179363
 20
214.3269716045
 30
0.0
 11
467.9652179363
 21
222.3269699356
 31
0.0
  0
LINE
  5
1D0
  8
0
  6
CONTINUOUS
 62
     7
 10
476.9652179214
 20
213.3269725582
 30
0.0
 11
468.9652181002
 21
213.3269725582
 31
0.0
  0
ARC
  5
1D1
  8
0
  6
CONTINUOUS
 62
     7
 10
468.9652180108
 20
214.3269715569
 30
0.0
 40
1.0
 50
180.0
 51
270.0
  0
ARC
  5
1D2
  8
0
  6
CONTINUOUS
 62
     7
 10
468.9652180108
 20
222.3269715569
 30
0.0
 40
1.0
 50
90.0
 51
180.0
  0
ARC
  5
1D3
  8
0
  6
CONTINUOUS
 62
     7
 10
476.9652180108
 20
222.3269715569
 30
0.0
 40
1.0
 50
0.0
 51
90.0
  0
ARC
  5
1D4
  8
0
  6
CONTINUOUS
 62
     7
 10
476.9652180108
 20
214.3269715569
 30
0.0
 40
1.0
 50
270.0
 51
0.0
  0
LINE
  5
1D5
  8
0
  6
CONTINUOUS
 62
     7
 10
477.9652180853
 20
222.3269699356
 30
0.0
 11
477.9652180853
 21
214.3269716045
 31
0.0
  0
LINE
  5
1D6
  8
0
  6
CONTINUOUS
 62
     7
 10
460.965218279
 20
148.1269715569
 30
0.0
 11
460.965218279
 21
149.3269715673
 31
0.0
  0
LINE
  5
1D7
  8
0
  6
CONTINUOUS
 62
     7
 10
460.965218279
 20
149.3269715673
 30
0.0
 11
464.9652181896
 21
149.3269715673
 31
0.0
  0
LINE
  5
1D8
  8
0
  6
CONTINUOUS
 62
     7
 10
464.9652181896
 20
148.1269715569
 30
0.0
 11
460.965218279
 21
148.1269715569
 31
0.0
  0
LINE
  5
1D9
  8
0
  6
CONTINUOUS
 62
     7
 10
494.333639625
 20
149.3269715673
 30
0.0
 11
466.9652181449
 21
149.3269715673
 31
0.0
  0
LINE
  5
1DA
  8
0
  6
CONTINUOUS
 62
     7
 10
466.9652181449
 20
148.1269715569
 30
0.0
 11
494.333639625
 21
148.1269715569
 31
0.0
  0
LINE
  5
1DB
  8
0
  6
CONTINUOUS
 62
     7
 10
464.9652181896
 20
149.3269715673
 30
0.0
 11
466.9652181449
 21
149.3269715673
 31
0.0
  0
LINE
  5
1DC
  8
0
  6
CONTINUOUS
 62
     7
 10
464.9652181896
 20
148.1269715569
 30
0.0
 11
466.9652181449
 21
148.1269715569
 31
0.0
  0
LINE
  5
1DD
  8
0
  6
CONTINUOUS
 62
     7
 10
496.9652174743
 20
149.3269715673
 30
0.0
 11
496.9652174743
 21
148.1269715569
 31
0.0
  0
LINE
  5
1DE
  8
0
  6
CONTINUOUS
 62
     7
 10
494.333639625
 20
149.3269715673
 30
0.0
 11
496.9652174743
 21
149.3269715673
 31
0.0
  0
LINE
  5
1DF
  8
0
  6
CONTINUOUS
 62
     7
 10
496.9652174743
 20
148.1269715569
 30
0.0
 11
494.333639625
 21
148.1269715569
 31
0.0
  0
LINE
  5
1E0
  8
0
  6
CONTINUOUS
 62
     7
 10
467.9652179363
 20
149.3269715673
 30
0.0
 11
467.9652179363
 21
214.1269741795
 31
0.0
  0
LINE
  5
1E1
  8
0
  6
CONTINUOUS
 62
     7
 10
477.9652180853
 20
214.3269716045
 30
0.0
 11
477.9652180853
 21
149.3269715673
 31
0.0
  0
LINE
  5
1E2
  8
0
  6
CONTINUOUS
 62
     7
 10
26.6767328412
 20
101.0612351692
 30
0.0
 11
26.6767328412
 21
86.0612356675
 31
0.0
  0
LINE
  5
1E3
  8
0
  6
CONTINUOUS
 62
     7
 10
32.0767348439
 20
86.0612356675
 30
0.0
 11
32.0767348439
 21
101.0612351692
 31
0.0
  0
LINE
  5
1E4
  8
0
  6
CONTINUOUS
 62
     7
 10
32.0767348439
 20
66.0612353695
 30
0.0
 11
32.0767348439
 21
86.0612356675
 31
0.0
  0
LINE
  5
1E5
  8
0
  6
CONTINUOUS
 62
     7
 10
26.6767328412
 20
86.0612356675
 30
0.0
 11
26.6767328412
 21
66.0612353695
 31
0.0
  0
LINE
  5
1E6
  8
0
  6
CONTINUOUS
 62
     7
 10
26.6767328412
 20
66.0612353695
 30
0.0
 11
26.6767328412
 21
51.0612377536
 31
0.0
  0
LINE
  5
1E7
  8
0
  6
CONTINUOUS
 62
     7
 10
32.0767348439
 20
51.0612377536
 30
0.0
 11
32.0767348439
 21
66.0612353695
 31
0.0
  0
LINE
  5
1E8
  8
0
  6
CONTINUOUS
 62
     7
 10
266.6767364175
 20
101.0612351692
 30
0.0
 11
266.6767364175
 21
86.0612356675
 31
0.0
  0
LINE
  5
1E9
  8
0
  6
CONTINUOUS
 62
     7
 10
272.0767324598
 20
86.0612356675
 30
0.0
 11
272.0767324598
 21
101.0612351692
 31
0.0
  0
LINE
  5
1EA
  8
0
  6
CONTINUOUS
 62
     7
 10
272.0767324598
 20
66.0612353695
 30
0.0
 11
272.0767324598
 21
86.0612356675
 31
0.0
  0
LINE
  5
1EB
  8
0
  6
CONTINUOUS
 62
     7
 10
266.6767364175
 20
86.0612356675
 30
0.0
 11
266.6767364175
 21
66.0612353695
 31
0.0
  0
LINE
  5
1EC
  8
0
  6
CONTINUOUS
 62
     7
 10
266.6767364175
 20
66.0612353695
 30
0.0
 11
266.6767364175
 21
51.0612377536
 31
0.0
  0
LINE
  5
1ED
  8
0
  6
CONTINUOUS
 62
     7
 10
272.0767324598
 20
51.0612377536
 30
0.0
 11
272.0767324598
 21
66.0612353695
 31
0.0
  0
LINE
  5
1EE
  8
0
  6
CONTINUOUS
 62
     7
 10
386.6767352254
 20
101.0612351692
 30
0.0
 11
386.6767352254
 21
86.0612356675
 31
0.0
  0
LINE
  5
1EF
  8
0
  6
CONTINUOUS
 62
     7
 10
392.0767372281
 20
86.0612356675
 30
0.0
 11
392.0767372281
 21
101.0612351692
 31
0.0
  0
LINE
  5
1F0
  8
0
  6
CONTINUOUS
 62
     7
 10
392.0767372281
 20
66.0612353695
 30
0.0
 11
392.0767372281
 21
86.0612356675
 31
0.0
  0
LINE
  5
1F1
  8
0
  6
CONTINUOUS
 62
     7
 10
386.6767352254
 20
86.0612356675
 30
0.0
 11
386.6767352254
 21
66.0612353695
 31
0.0
  0
LINE
  5
1F2
  8
0
  6
CONTINUOUS
 62
     7
 10
386.6767352254
 20
66.0612353695
 30
0.0
 11
386.6767352254
 21
51.0612377536
 31
0.0
  0
LINE
  5
1F3
  8
0
  6
CONTINUOUS
 62
     7
 10
392.0767372281
 20
51.0612377536
 30
0.0
 11
392.0767372281
 21
66.0612353695
 31
0.0
  0
LINE
  5
1F4
  8
0
  6
CONTINUOUS
 62
     7
 10
146.6767376096
 20
101.0612351692
 30
0.0
 11
146.6767376096
 21
86.0612356675
 31
0.0
  0
LINE
  5
1F5
  8
0
  6
CONTINUOUS
 62
     7
 10
152.0767336519
 20
86.0612356675
 30
0.0
 11
152.0767336519
 21
101.0612351692
 31
0.0
  0
LINE
  5
1F6
  8
0
  6
CONTINUOUS
 62
     7
 10
152.0767336519
 20
66.0612353695
 30
0.0
 11
152.0767336519
 21
86.0612356675
 31
0.0
  0
LINE
  5
1F7
  8
0
  6
CONTINUOUS
 62
     7
 10
146.6767376096
 20
86.0612356675
 30
0.0
 11
146.6767376096
 21
66.0612353695
 31
0.0
  0
LINE
  5
1F8
  8
0
  6
CONTINUOUS
 62
     7
 10
146.6767376096
 20
66.0612353695
 30
0.0
 11
146.6767376096
 21
51.0612377536
 31
0.0
  0
LINE
  5
1F9
  8
0
  6
CONTINUOUS
 62
     7
 10
152.0767336519
 20
51.0612377536
 30
0.0
 11
152.0767336519
 21
66.0612353695
 31
0.0
  0
ARC
  5
1FA
  8
0
  6
CONTINUOUS
 62
     7
 10
354.560391912
 20
35.0381111682
 30
0.0
 40
14.86825785155792
 50
270.8245313927
 51
0.4742368036
  0
ARC
  5
1FB
  8
0
  6
CONTINUOUS
 62
     7
 10
304.1922885333
 20
35.0346421899
 30
0.0
 40
14.86658061143145
 50
179.5129140953
 51
269.3234192169
  0
ARC
  5
1FC
  8
0
  6
CONTINUOUS
 62
     7
 10
354.549186878
 20
75.2495747579
 30
0.0
 40
14.87766591083189
 50
359.6599374309
 51
32.6990507799
  0
ARC
  5
1FD
  8
0
  6
CONTINUOUS
 62
     7
 10
304.2963004169
 20
75.2170300137
 30
0.0
 40
14.97538311868281
 50
147.3882343326
 51
180.2160511768
  0
ARC
  5
1FE
  8
0
  6
CONTINUOUS
 62
     7
 10
304.1204093251
 20
75.4542447777
 30
0.0
 40
14.69879240743534
 50
90.6992139336
 51
141.1138693626
  0
ARC
  5
1FF
  8
0
  6
CONTINUOUS
 62
     7
 10
354.6360944553
 20
75.4775562145
 30
0.0
 40
14.67825125822221
 50
38.7742112389
 51
89.7632057327
  0
LINE
  5
200
  8
0
  6
CONTINUOUS
 62
     7
 10
289.317977968
 20
75.1612344396
 30
0.0
 11
289.317977968
 21
35.1612338436
 31
0.0
  0
LINE
  5
201
  8
0
  6
CONTINUOUS
 62
     7
 10
369.4354956777
 20
35.1612338436
 30
0.0
 11
369.4354956777
 21
75.1612344396
 31
0.0
  0
ARC
  5
202
  8
0
  6
CONTINUOUS
 62
     7
 10
234.5603950636
 20
35.0381093377
 30
0.0
 40
14.8682559073178
 50
270.8245009774
 51
0.4742439197
  0
ARC
  5
203
  8
0
  6
CONTINUOUS
 62
     7
 10
184.1922868154
 20
35.0346393385
 30
0.0
 40
14.86657772581381
 50
179.5129030109
 51
269.3234303013
  0
ARC
  5
204
  8
0
  6
CONTINUOUS
 62
     7
 10
234.5492403089
 20
75.2495945063
 30
0.0
 40
14.87761379013489
 50
359.6598601843
 51
32.699089261
  0
ARC
  5
205
  8
0
  6
CONTINUOUS
 62
     7
 10
184.2962676756
 20
75.2170444964
 30
0.0
 40
14.97534924019667
 50
147.3882171823
 51
180.2161070771
  0
ARC
  5
206
  8
0
  6
CONTINUOUS
 62
     7
 10
184.120414627
 20
75.454229985
 30
0.0
 40
14.69880721282091
 50
90.699217633
 51
141.1138418288
  0
ARC
  5
207
  8
0
  6
CONTINUOUS
 62
     7
 10
234.6360991103
 20
75.4775758335
 30
0.0
 40
14.67823162505252
 50
38.7741745702
 51
89.7632189336
  0
LINE
  5
208
  8
0
  6
CONTINUOUS
 62
     7
 10
169.3179791601
 20
75.1612344396
 30
0.0
 11
169.3179791601
 21
35.1612338436
 31
0.0
  0
LINE
  5
209
  8
0
  6
CONTINUOUS
 62
     7
 10
249.4354909093
 20
35.1612338436
 30
0.0
 11
249.4354909093
 21
75.1612344396
 31
0.0
  0
ARC
  5
20A
  8
0
  6
CONTINUOUS
 62
     7
 10
114.560394461
 20
35.0381110921
 30
0.0
 40
14.86825768737828
 50
270.8245077952
 51
0.4742371019
  0
ARC
  5
20B
  8
0
  6
CONTINUOUS
 62
     7
 10
64.1922884257
 20
35.0346397482
 30
0.0
 40
14.86657814047842
 50
179.5129046037
 51
269.3234287085
  0
ARC
  5
20C
  8
0
  6
CONTINUOUS
 62
     7
 10
114.5491892621
 20
75.2495747579
 30
0.0
 40
14.87766591083281
 50
359.6599374309
 51
32.6990507799
  0
ARC
  5
20D
  8
0
  6
CONTINUOUS
 62
     7
 10
64.2961676917
 20
75.2170785122
 30
0.0
 40
14.9752481932159
 50
147.3881243277
 51
180.2162386816
  0
ARC
  5
20E
  8
0
  6
CONTINUOUS
 62
     7
 10
64.120419929
 20
75.4542151923
 30
0.0
 40
14.69882201824263
 50
90.6992213323
 51
141.113814295
  0
ARC
  5
20F
  8
0
  6
CONTINUOUS
 62
     7
 10
114.6360958311
 20
75.4775665558
 30
0.0
 40
14.67824092118782
 50
38.7741918739
 51
89.7632016299
  0
LINE
  5
210
  8
0
  6
CONTINUOUS
 62
     7
 10
49.3179743917
 20
75.1612344396
 30
0.0
 11
49.3179743917
 21
35.1612338436
 31
0.0
  0
LINE
  5
211
  8
0
  6
CONTINUOUS
 62
     7
 10
129.4354921014
 20
35.1612338436
 30
0.0
 11
129.4354921014
 21
75.1612344396
 31
0.0
  0
ARC
  5
212
  8
0
  6
CONTINUOUS
 62
     7
 10
29.3767350347
 20
101.0612351787
 30
0.0
 40
2.699999999999982
 50
0.0
 51
180.0
  0
ARC
  5
213
  8
0
  6
CONTINUOUS
 62
     7
 10
29.3767350347
 20
51.0612351787
 30
0.0
 40
2.699999999999982
 50
180.0
 51
0.0
  0
LINE
  5
214
  8
0
  6
CONTINUOUS
 62
     7
 10
23.3767336042
 20
105.8612351877
 30
0.0
 11
23.3767336042
 21
107.0612350118
 31
0.0
  0
LINE
  5
215
  8
0
  6
CONTINUOUS
 62
     7
 10
23.3767336042
 20
107.0612350118
 30
0.0
 11
35.376734081
 21
107.0612350118
 31
0.0
  0
LINE
  5
216
  8
0
  6
CONTINUOUS
 62
     7
 10
35.376734081
 20
107.0612350118
 30
0.0
 11
35.376734081
 21
105.8612351877
 31
0.0
  0
LINE
  5
217
  8
0
  6
CONTINUOUS
 62
     7
 10
35.376734081
 20
105.8612351877
 30
0.0
 11
35.376734081
 21
96.2612351042
 31
0.0
  0
LINE
  5
218
  8
0
  6
CONTINUOUS
 62
     7
 10
23.3767336042
 20
105.8612351877
 30
0.0
 11
23.3767336042
 21
96.2612351042
 31
0.0
  0
LINE
  5
219
  8
0
  6
CONTINUOUS
 62
     7
 10
35.376734081
 20
95.06123528
 30
0.0
 11
32.0767348439
 21
95.06123528
 31
0.0
  0
LINE
  5
21A
  8
0
  6
CONTINUOUS
 62
     7
 10
26.6767328412
 20
95.06123528
 30
0.0
 11
23.3767336042
 21
95.06123528
 31
0.0
  0
LINE
  5
21B
  8
0
  6
CONTINUOUS
 62
     7
 10
35.376734081
 20
96.2612351042
 30
0.0
 11
35.376734081
 21
95.06123528
 31
0.0
  0
LINE
  5
21C
  8
0
  6
CONTINUOUS
 62
     7
 10
23.3767336042
 20
95.06123528
 30
0.0
 11
23.3767336042
 21
96.2612351042
 31
0.0
  0
ARC
  5
21D
  8
0
  6
CONTINUOUS
 62
     7
 10
269.3767350347
 20
101.0612351787
 30
0.0
 40
2.700000000000045
 50
0.0
 51
180.0
  0
ARC
  5
21E
  8
0
  6
CONTINUOUS
 62
     7
 10
269.3767350347
 20
51.0612351787
 30
0.0
 40
2.700000000000045
 50
180.0
 51
0.0
  0
LINE
  5
21F
  8
0
  6
CONTINUOUS
 62
     7
 10
263.3767371805
 20
105.8612351877
 30
0.0
 11
263.3767371805
 21
107.0612350118
 31
0.0
  0
LINE
  5
220
  8
0
  6
CONTINUOUS
 62
     7
 10
263.3767371805
 20
107.0612350118
 30
0.0
 11
275.3767376573
 21
107.0612350118
 31
0.0
  0
LINE
  5
221
  8
0
  6
CONTINUOUS
 62
     7
 10
275.3767376573
 20
107.0612350118
 30
0.0
 11
275.3767376573
 21
105.8612351877
 31
0.0
  0
LINE
  5
222
  8
0
  6
CONTINUOUS
 62
     7
 10
263.3767371805
 20
105.8612351877
 30
0.0
 11
263.3767371805
 21
96.2612351042
 31
0.0
  0
LINE
  5
223
  8
0
  6
CONTINUOUS
 62
     7
 10
275.3767376573
 20
105.8612351877
 30
0.0
 11
275.3767376573
 21
96.2612351042
 31
0.0
  0
LINE
  5
224
  8
0
  6
CONTINUOUS
 62
     7
 10
275.3767376573
 20
95.06123528
 30
0.0
 11
272.0767324598
 21
95.06123528
 31
0.0
  0
LINE
  5
225
  8
0
  6
CONTINUOUS
 62
     7
 10
266.6767364175
 20
95.06123528
 30
0.0
 11
263.3767371805
 21
95.06123528
 31
0.0
  0
LINE
  5
226
  8
0
  6
CONTINUOUS
 62
     7
 10
263.3767371805
 20
95.06123528
 30
0.0
 11
263.3767371805
 21
96.2612351042
 31
0.0
  0
LINE
  5
227
  8
0
  6
CONTINUOUS
 62
     7
 10
275.3767376573
 20
96.2612351042
 30
0.0
 11
275.3767376573
 21
95.06123528
 31
0.0
  0
ARC
  5
228
  8
0
  6
CONTINUOUS
 62
     7
 10
389.3767350347
 20
101.0612351787
 30
0.0
 40
2.699999999999989
 50
0.0
 51
180.0
  0
ARC
  5
229
  8
0
  6
CONTINUOUS
 62
     7
 10
389.3767350347
 20
51.0612351787
 30
0.0
 40
2.699999999999989
 50
180.0
 51
0.0
  0
LINE
  5
22A
  8
0
  6
CONTINUOUS
 62
     7
 10
383.3767359884
 20
105.8612351877
 30
0.0
 11
383.3767359884
 21
107.0612350118
 31
0.0
  0
LINE
  5
22B
  8
0
  6
CONTINUOUS
 62
     7
 10
383.3767359884
 20
107.0612350118
 30
0.0
 11
395.3767364652
 21
107.0612350118
 31
0.0
  0
LINE
  5
22C
  8
0
  6
CONTINUOUS
 62
     7
 10
395.3767364652
 20
107.0612350118
 30
0.0
 11
395.3767364652
 21
105.8612351877
 31
0.0
  0
LINE
  5
22D
  8
0
  6
CONTINUOUS
 62
     7
 10
395.3767364652
 20
105.8612351877
 30
0.0
 11
395.3767364652
 21
96.2612351042
 31
0.0
  0
LINE
  5
22E
  8
0
  6
CONTINUOUS
 62
     7
 10
383.3767359884
 20
105.8612351877
 30
0.0
 11
383.3767359884
 21
96.2612351042
 31
0.0
  0
LINE
  5
22F
  8
0
  6
CONTINUOUS
 62
     7
 10
395.3767364652
 20
95.06123528
 30
0.0
 11
392.0767372281
 21
95.06123528
 31
0.0
  0
LINE
  5
230
  8
0
  6
CONTINUOUS
 62
     7
 10
386.6767352254
 20
95.06123528
 30
0.0
 11
383.3767359884
 21
95.06123528
 31
0.0
  0
LINE
  5
231
  8
0
  6
CONTINUOUS
 62
     7
 10
395.3767364652
 20
96.2612351042
 30
0.0
 11
395.3767364652
 21
95.06123528
 31
0.0
  0
LINE
  5
232
  8
0
  6
CONTINUOUS
 62
     7
 10
383.3767359884
 20
95.06123528
 30
0.0
 11
383.3767359884
 21
96.2612351042
 31
0.0
  0
ARC
  5
233
  8
0
  6
CONTINUOUS
 62
     7
 10
149.3767350347
 20
101.0612351787
 30
0.0
 40
2.699999999999989
 50
0.0
 51
180.0
  0
ARC
  5
234
  8
0
  6
CONTINUOUS
 62
     7
 10
149.3767350347
 20
51.0612351787
 30
0.0
 40
2.699999999999989
 50
180.0
 51
0.0
  0
LINE
  5
235
  8
0
  6
CONTINUOUS
 62
     7
 10
143.3767324121
 20
105.8612351877
 30
0.0
 11
143.3767324121
 21
107.0612350118
 31
0.0
  0
LINE
  5
236
  8
0
  6
CONTINUOUS
 62
     7
 10
143.3767324121
 20
107.0612350118
 30
0.0
 11
155.3767328889
 21
107.0612350118
 31
0.0
  0
LINE
  5
237
  8
0
  6
CONTINUOUS
 62
     7
 10
155.3767328889
 20
107.0612350118
 30
0.0
 11
155.3767328889
 21
105.8612351877
 31
0.0
  0
LINE
  5
238
  8
0
  6
CONTINUOUS
 62
     7
 10
143.3767324121
 20
105.8612351877
 30
0.0
 11
143.3767324121
 21
96.2612351042
 31
0.0
  0
LINE
  5
239
  8
0
  6
CONTINUOUS
 62
     7
 10
155.3767328889
 20
105.8612351877
 30
0.0
 11
155.3767328889
 21
96.2612351042
 31
0.0
  0
LINE
  5
23A
  8
0
  6
CONTINUOUS
 62
     7
 10
155.3767328889
 20
95.06123528
 30
0.0
 11
152.0767336519
 21
95.06123528
 31
0.0
  0
LINE
  5
23B
  8
0
  6
CONTINUOUS
 62
     7
 10
146.6767376096
 20
95.06123528
 30
0.0
 11
143.3767324121
 21
95.06123528
 31
0.0
  0
LINE
  5
23C
  8
0
  6
CONTINUOUS
 62
     7
 10
143.3767324121
 20
95.06123528
 30
0.0
 11
143.3767324121
 21
96.2612351042
 31
0.0
  0
LINE
  5
23D
  8
0
  6
CONTINUOUS
 62
     7
 10
155.3767328889
 20
96.2612351042
 30
0.0
 11
155.3767328889
 21
95.06123528
 31
0.0
  0
POLYLINE
  5
23E
  8
0
  6
CONTINUOUS
 62
     7
 66
     1
 10
0.0
 20
0.0
 30
0.0
  0
VERTEX
  5
386
  8
0
  6
CONTINUOUS
 62
     7
 10
292.6767354638
 20
81.8044671428
 30
0.0
  0
VERTEX
  5
387
  8
0
  6
CONTINUOUS
 62
     7
 10
292.1411281259
 20
81.1002337945
 30
0.0
  0
VERTEX
  5
388
  8
0
  6
CONTINUOUS
 62
     7
 10
291.6767364175
 20
80.335044266
 30
0.0
  0
SEQEND
  5
39D
  8
0
  6
CONTINUOUS
 62
     7
  0
LINE
  5
23F
  8
0
  6
CONTINUOUS
 62
     7
 10
304.032517019
 20
90.1558959496
 30
0.0
 11
304.1560536058
 21
90.1612350357
 31
0.0
  0
ARC
  5
240
  8
0
  6
CONTINUOUS
 62
     7
 10
304.5163059745
 20
75.2550776149
 30
0.0
 40
10.07561468985369
 50
100.5230623293
 51
180.5336543515
  0
ARC
  5
241
  8
0
  6
CONTINUOUS
 62
     7
 10
354.237155468
 20
35.0674062429
 30
0.0
 40
10.07562674746246
 50
280.5230856997
 51
0.533565143
  0
LINE
  5
242
  8
0
  6
CONTINUOUS
 62
     7
 10
354.7086661489
 20
20.1676198852
 30
0.0
 11
354.5974200399
 21
20.1612362278
 31
0.0
  0
POLYLINE
  5
243
  8
0
  6
CONTINUOUS
 62
     7
 66
     1
 10
0.0
 20
0.0
 30
0.0
  0
VERTEX
  5
389
  8
0
  6
CONTINUOUS
 62
     7
 10
366.0767381818
 20
81.8044671428
 30
0.0
  0
VERTEX
  5
38A
  8
0
  6
CONTINUOUS
 62
     7
 10
366.6123455198
 20
81.1002337945
 30
0.0
  0
VERTEX
  5
38B
  8
0
  6
CONTINUOUS
 62
     7
 10
367.0767372281
 20
80.335044266
 30
0.0
  0
SEQEND
  5
39C
  8
0
  6
CONTINUOUS
 62
     7
  0
ARC
  5
244
  8
0
  6
CONTINUOUS
 62
     7
 10
354.2548874771
 20
75.2696688854
 30
0.0
 40
10.05804237770568
 50
359.3822896921
 51
79.5610343275
  0
ARC
  5
245
  8
0
  6
CONTINUOUS
 62
     7
 10
304.4985693019
 20
35.0527888437
 30
0.0
 40
10.0580256258786
 50
179.3822285381
 51
259.5610799189
  0
LINE
  5
246
  8
0
  6
CONTINUOUS
 62
     7
 10
304.1560536058
 20
20.1612362278
 30
0.0
 11
304.0629153878
 21
20.166487397
 31
0.0
  0
LINE
  5
247
  8
0
  6
CONTINUOUS
 62
     7
 10
294.4411283166
 20
75.1612344396
 30
0.0
 11
294.4411283166
 21
35.1612338436
 31
0.0
  0
LINE
  5
248
  8
0
  6
CONTINUOUS
 62
     7
 10
364.312345329
 20
35.1612338436
 30
0.0
 11
364.312345329
 21
75.1612344396
 31
0.0
  0
LINE
  5
249
  8
0
  6
CONTINUOUS
 62
     7
 10
366.0767381818
 20
84.1733226192
 30
0.0
 11
367.0767372281
 21
84.1733226192
 31
0.0
  0
LINE
  5
24A
  8
0
  6
CONTINUOUS
 62
     7
 10
367.0767372281
 20
108.0217519415
 30
0.0
 11
367.0767372281
 21
84.1733226192
 31
0.0
  0
LINE
  5
24B
  8
0
  6
CONTINUOUS
 62
     7
 10
366.0767381818
 20
108.0217519415
 30
0.0
 11
366.0767381818
 21
84.1733226192
 31
0.0
  0
LINE
  5
24C
  8
0
  6
CONTINUOUS
 62
     7
 10
292.6767354638
 20
84.1733226192
 30
0.0
 11
291.6767364175
 21
84.1733226192
 31
0.0
  0
LINE
  5
24D
  8
0
  6
CONTINUOUS
 62
     7
 10
291.6767364175
 20
108.0217519415
 30
0.0
 11
291.6767364175
 21
84.1733226192
 31
0.0
  0
LINE
  5
24E
  8
0
  6
CONTINUOUS
 62
     7
 10
292.6767354638
 20
108.0217519415
 30
0.0
 11
292.6767354638
 21
84.1733226192
 31
0.0
  0
LINE
  5
24F
  8
0
  6
CONTINUOUS
 62
     7
 10
291.6767364175
 20
84.1733226192
 30
0.0
 11
291.6767364175
 21
80.335044266
 31
0.0
  0
LINE
  5
250
  8
0
  6
CONTINUOUS
 62
     7
 10
292.6767354638
 20
84.1733226192
 30
0.0
 11
292.6767354638
 21
81.8044671428
 31
0.0
  0
LINE
  5
251
  8
0
  6
CONTINUOUS
 62
     7
 10
367.0767372281
 20
84.1733226192
 30
0.0
 11
367.0767372281
 21
80.335044266
 31
0.0
  0
LINE
  5
252
  8
0
  6
CONTINUOUS
 62
     7
 10
366.0767381818
 20
84.1733226192
 30
0.0
 11
366.0767381818
 21
81.8044671428
 31
0.0
  0
LINE
  5
253
  8
0
  6
CONTINUOUS
 62
     7
 10
302.6761835248
 20
25.1612374199
 30
0.0
 11
356.0772841604
 21
25.1612374199
 31
0.0
  0
LINE
  5
254
  8
0
  6
CONTINUOUS
 62
     7
 10
302.6761835248
 20
85.1612353337
 30
0.0
 11
356.0772841604
 21
85.1612353337
 31
0.0
  0
LINE
  5
255
  8
0
  6
CONTINUOUS
 62
     7
 10
304.1560536058
 20
90.1612350357
 30
0.0
 11
354.5974200399
 21
90.1612350357
 31
0.0
  0
LINE
  5
256
  8
0
  6
CONTINUOUS
 62
     7
 10
354.5974200399
 20
20.1612362278
 30
0.0
 11
304.1560536058
 21
20.1612362278
 31
0.0
  0
LINE
  5
257
  8
0
  6
CONTINUOUS
 62
     7
 10
366.0767381818
 20
109.8612354708
 30
0.0
 11
367.0767372281
 21
109.8612354708
 31
0.0
  0
LINE
  5
258
  8
0
  6
CONTINUOUS
 62
     7
 10
367.0767372281
 20
109.8612354708
 30
0.0
 11
367.0767372281
 21
108.0217519415
 31
0.0
  0
LINE
  5
259
  8
0
  6
CONTINUOUS
 62
     7
 10
366.0767381818
 20
109.8612354708
 30
0.0
 11
366.0767381818
 21
108.0217519415
 31
0.0
  0
LINE
  5
25A
  8
0
  6
CONTINUOUS
 62
     7
 10
292.6767354638
 20
109.8612354708
 30
0.0
 11
291.6767364175
 21
109.8612354708
 31
0.0
  0
LINE
  5
25B
  8
0
  6
CONTINUOUS
 62
     7
 10
291.6767364175
 20
109.8612354708
 30
0.0
 11
291.6767364175
 21
108.0217519415
 31
0.0
  0
LINE
  5
25C
  8
0
  6
CONTINUOUS
 62
     7
 10
292.6767354638
 20
109.8612354708
 30
0.0
 11
292.6767354638
 21
108.0217519415
 31
0.0
  0
LINE
  5
25D
  8
0
  6
CONTINUOUS
 62
     7
 10
361.8767326505
 20
96.2612351042
 30
0.0
 11
361.8767326505
 21
106.0612352204
 31
0.0
  0
LINE
  5
25E
  8
0
  6
CONTINUOUS
 62
     7
 10
296.8767350347
 20
96.2612351042
 30
0.0
 11
296.8767350347
 21
106.0612352204
 31
0.0
  0
LINE
  5
25F
  8
0
  6
CONTINUOUS
 62
     7
 10
366.0767381818
 20
107.0612350118
 30
0.0
 11
361.8767326505
 21
107.0612350118
 31
0.0
  0
LINE
  5
260
  8
0
  6
CONTINUOUS
 62
     7
 10
361.8767326505
 20
106.0612352204
 30
0.0
 11
361.8767326505
 21
107.0612350118
 31
0.0
  0
LINE
  5
261
  8
0
  6
CONTINUOUS
 62
     7
 10
296.8767350347
 20
107.0612350118
 30
0.0
 11
292.6767354638
 21
107.0612350118
 31
0.0
  0
LINE
  5
262
  8
0
  6
CONTINUOUS
 62
     7
 10
296.8767350347
 20
107.0612350118
 30
0.0
 11
296.8767350347
 21
106.0612352204
 31
0.0
  0
LINE
  5
263
  8
0
  6
CONTINUOUS
 62
     7
 10
366.0767381818
 20
95.2612353128
 30
0.0
 11
361.8767326505
 21
95.2612353128
 31
0.0
  0
LINE
  5
264
  8
0
  6
CONTINUOUS
 62
     7
 10
361.8767326505
 20
95.2612353128
 30
0.0
 11
361.8767326505
 21
96.2612351042
 31
0.0
  0
LINE
  5
265
  8
0
  6
CONTINUOUS
 62
     7
 10
296.8767350347
 20
95.2612353128
 30
0.0
 11
292.6767354638
 21
95.2612353128
 31
0.0
  0
LINE
  5
266
  8
0
  6
CONTINUOUS
 62
     7
 10
296.8767350347
 20
96.2612351042
 30
0.0
 11
296.8767350347
 21
95.2612353128
 31
0.0
  0
LINE
  5
267
  8
0
  6
CONTINUOUS
 62
     7
 10
286.8767326505
 20
96.2612351042
 30
0.0
 11
286.8767326505
 21
106.0612352204
 31
0.0
  0
LINE
  5
268
  8
0
  6
CONTINUOUS
 62
     7
 10
291.6767364175
 20
107.0612350118
 30
0.0
 11
286.8767326505
 21
107.0612350118
 31
0.0
  0
LINE
  5
269
  8
0
  6
CONTINUOUS
 62
     7
 10
286.8767326505
 20
106.0612352204
 30
0.0
 11
286.8767326505
 21
107.0612350118
 31
0.0
  0
LINE
  5
26A
  8
0
  6
CONTINUOUS
 62
     7
 10
371.8767350347
 20
96.2612351042
 30
0.0
 11
371.8767350347
 21
106.0612352204
 31
0.0
  0
LINE
  5
26B
  8
0
  6
CONTINUOUS
 62
     7
 10
371.8767350347
 20
106.0612352204
 30
0.0
 11
371.8767350347
 21
107.0612350118
 31
0.0
  0
LINE
  5
26C
  8
0
  6
CONTINUOUS
 62
     7
 10
371.8767350347
 20
107.0612350118
 30
0.0
 11
367.0767372281
 21
107.0612350118
 31
0.0
  0
LINE
  5
26D
  8
0
  6
CONTINUOUS
 62
     7
 10
291.6767364175
 20
95.2612353128
 30
0.0
 11
286.8767326505
 21
95.2612353128
 31
0.0
  0
LINE
  5
26E
  8
0
  6
CONTINUOUS
 62
     7
 10
286.8767326505
 20
95.2612353128
 30
0.0
 11
286.8767326505
 21
96.2612351042
 31
0.0
  0
LINE
  5
26F
  8
0
  6
CONTINUOUS
 62
     7
 10
371.8767350347
 20
95.2612353128
 30
0.0
 11
367.0767372281
 21
95.2612353128
 31
0.0
  0
LINE
  5
270
  8
0
  6
CONTINUOUS
 62
     7
 10
371.8767350347
 20
95.2612353128
 30
0.0
 11
371.8767350347
 21
96.2612351042
 31
0.0
  0
POLYLINE
  5
271
  8
0
  6
CONTINUOUS
 62
     7
 66
     1
 10
0.0
 20
0.0
 30
0.0
  0
VERTEX
  5
38C
  8
0
  6
CONTINUOUS
 62
     7
 10
172.6767336757
 20
81.8044671428
 30
0.0
  0
VERTEX
  5
38D
  8
0
  6
CONTINUOUS
 62
     7
 10
172.1411263377
 20
81.1002337945
 30
0.0
  0
VERTEX
  5
38E
  8
0
  6
CONTINUOUS
 62
     7
 10
171.6767346294
 20
80.335044266
 30
0.0
  0
SEQEND
  5
39B
  8
0
  6
CONTINUOUS
 62
     7
  0
LINE
  5
272
  8
0
  6
CONTINUOUS
 62
     7
 10
184.0325152309
 20
90.1558959496
 30
0.0
 11
184.1560518176
 21
90.1612350357
 31
0.0
  0
ARC
  5
273
  8
0
  6
CONTINUOUS
 62
     7
 10
184.5163118866
 20
75.2550712737
 30
0.0
 40
10.07562233077801
 50
100.5230987956
 51
180.5336178852
  0
LINE
  5
274
  8
0
  6
CONTINUOUS
 62
     7
 10
234.7086613805
 20
20.1676198852
 30
0.0
 11
234.5974182517
 21
20.1612362278
 31
0.0
  0
ARC
  5
275
  8
0
  6
CONTINUOUS
 62
     7
 10
234.2371641292
 20
35.067396541
 30
0.0
 40
10.07561638898622
 50
280.5230706788
 51
0.5336208642
  0
POLYLINE
  5
276
  8
0
  6
CONTINUOUS
 62
     7
 66
     1
 10
0.0
 20
0.0
 30
0.0
  0
VERTEX
  5
38F
  8
0
  6
CONTINUOUS
 62
     7
 10
246.0767363937
 20
81.8044671428
 30
0.0
  0
VERTEX
  5
390
  8
0
  6
CONTINUOUS
 62
     7
 10
246.6123437316
 20
81.1002337945
 30
0.0
  0
VERTEX
  5
391
  8
0
  6
CONTINUOUS
 62
     7
 10
247.07673544
 20
80.335044266
 30
0.0
  0
SEQEND
  5
39A
  8
0
  6
CONTINUOUS
 62
     7
  0
ARC
  5
277
  8
0
  6
CONTINUOUS
 62
     7
 10
234.2548934688
 20
75.2696763784
 30
0.0
 40
10.0580346790873
 50
359.3822465328
 51
79.5610367863
  0
LINE
  5
278
  8
0
  6
CONTINUOUS
 62
     7
 10
184.1560518176
 20
20.1612362278
 30
0.0
 11
184.0629165799
 21
20.166487397
 31
0.0
  0
ARC
  5
279
  8
0
  6
CONTINUOUS
 62
     7
 10
184.498569802
 20
35.052790728
 30
0.0
 40
10.05802789364273
 50
179.3822394123
 51
259.5610690447
  0
LINE
  5
27A
  8
0
  6
CONTINUOUS
 62
     7
 10
174.4411265285
 20
75.1612344396
 30
0.0
 11
174.4411265285
 21
35.1612338436
 31
0.0
  0
LINE
  5
27B
  8
0
  6
CONTINUOUS
 62
     7
 10
244.3123435409
 20
35.1612338436
 30
0.0
 11
244.3123435409
 21
75.1612344396
 31
0.0
  0
LINE
  5
27C
  8
0
  6
CONTINUOUS
 62
     7
 10
246.0767363937
 20
84.1733226192
 30
0.0
 11
247.07673544
 21
84.1733226192
 31
0.0
  0
LINE
  5
27D
  8
0
  6
CONTINUOUS
 62
     7
 10
246.0767363937
 20
108.0217519415
 30
0.0
 11
246.0767363937
 21
84.1733226192
 31
0.0
  0
LINE
  5
27E
  8
0
  6
CONTINUOUS
 62
     7
 10
247.07673544
 20
108.0217519415
 30
0.0
 11
247.07673544
 21
84.1733226192
 31
0.0
  0
LINE
  5
27F
  8
0
  6
CONTINUOUS
 62
     7
 10
172.6767336757
 20
84.1733226192
 30
0.0
 11
171.6767346294
 21
84.1733226192
 31
0.0
  0
LINE
  5
280
  8
0
  6
CONTINUOUS
 62
     7
 10
171.6767346294
 20
108.0217519415
 30
0.0
 11
171.6767346294
 21
84.1733226192
 31
0.0
  0
LINE
  5
281
  8
0
  6
CONTINUOUS
 62
     7
 10
172.6767336757
 20
108.0217519415
 30
0.0
 11
172.6767336757
 21
84.1733226192
 31
0.0
  0
LINE
  5
282
  8
0
  6
CONTINUOUS
 62
     7
 10
246.0767363937
 20
84.1733226192
 30
0.0
 11
246.0767363937
 21
81.8044671428
 31
0.0
  0
LINE
  5
283
  8
0
  6
CONTINUOUS
 62
     7
 10
247.07673544
 20
84.1733226192
 30
0.0
 11
247.07673544
 21
80.335044266
 31
0.0
  0
LINE
  5
284
  8
0
  6
CONTINUOUS
 62
     7
 10
171.6767346294
 20
84.1733226192
 30
0.0
 11
171.6767346294
 21
80.335044266
 31
0.0
  0
LINE
  5
285
  8
0
  6
CONTINUOUS
 62
     7
 10
172.6767336757
 20
84.1733226192
 30
0.0
 11
172.6767336757
 21
81.8044671428
 31
0.0
  0
LINE
  5
286
  8
0
  6
CONTINUOUS
 62
     7
 10
182.6761817367
 20
25.1612374199
 30
0.0
 11
236.0772883327
 21
25.1612374199
 31
0.0
  0
LINE
  5
287
  8
0
  6
CONTINUOUS
 62
     7
 10
182.6761817367
 20
85.1612353337
 30
0.0
 11
236.0772883327
 21
85.1612353337
 31
0.0
  0
LINE
  5
288
  8
0
  6
CONTINUOUS
 62
     7
 10
184.1560518176
 20
90.1612350357
 30
0.0
 11
234.5974182517
 21
90.1612350357
 31
0.0
  0
LINE
  5
289
  8
0
  6
CONTINUOUS
 62
     7
 10
234.5974182517
 20
20.1612362278
 30
0.0
 11
184.1560518176
 21
20.1612362278
 31
0.0
  0
LINE
  5
28A
  8
0
  6
CONTINUOUS
 62
     7
 10
246.0767363937
 20
109.8612354708
 30
0.0
 11
247.07673544
 21
109.8612354708
 31
0.0
  0
LINE
  5
28B
  8
0
  6
CONTINUOUS
 62
     7
 10
246.0767363937
 20
109.8612354708
 30
0.0
 11
246.0767363937
 21
108.0217519415
 31
0.0
  0
LINE
  5
28C
  8
0
  6
CONTINUOUS
 62
     7
 10
247.07673544
 20
109.8612354708
 30
0.0
 11
247.07673544
 21
108.0217519415
 31
0.0
  0
LINE
  5
28D
  8
0
  6
CONTINUOUS
 62
     7
 10
172.6767336757
 20
109.8612354708
 30
0.0
 11
171.6767346294
 21
109.8612354708
 31
0.0
  0
LINE
  5
28E
  8
0
  6
CONTINUOUS
 62
     7
 10
171.6767346294
 20
109.8612354708
 30
0.0
 11
171.6767346294
 21
108.0217519415
 31
0.0
  0
LINE
  5
28F
  8
0
  6
CONTINUOUS
 62
     7
 10
172.6767336757
 20
109.8612354708
 30
0.0
 11
172.6767336757
 21
108.0217519415
 31
0.0
  0
LINE
  5
290
  8
0
  6
CONTINUOUS
 62
     7
 10
241.8767338426
 20
96.2612351042
 30
0.0
 11
241.8767338426
 21
106.0612352204
 31
0.0
  0
LINE
  5
291
  8
0
  6
CONTINUOUS
 62
     7
 10
176.8767362268
 20
96.2612351042
 30
0.0
 11
176.8767362268
 21
106.0612352204
 31
0.0
  0
LINE
  5
292
  8
0
  6
CONTINUOUS
 62
     7
 10
176.8767362268
 20
107.0612350118
 30
0.0
 11
172.6767336757
 21
107.0612350118
 31
0.0
  0
LINE
  5
293
  8
0
  6
CONTINUOUS
 62
     7
 10
176.8767362268
 20
107.0612350118
 30
0.0
 11
176.8767362268
 21
106.0612352204
 31
0.0
  0
LINE
  5
294
  8
0
  6
CONTINUOUS
 62
     7
 10
246.0767363937
 20
107.0612350118
 30
0.0
 11
241.8767338426
 21
107.0612350118
 31
0.0
  0
LINE
  5
295
  8
0
  6
CONTINUOUS
 62
     7
 10
241.8767338426
 20
106.0612352204
 30
0.0
 11
241.8767338426
 21
107.0612350118
 31
0.0
  0
LINE
  5
296
  8
0
  6
CONTINUOUS
 62
     7
 10
176.8767362268
 20
95.2612353128
 30
0.0
 11
172.6767336757
 21
95.2612353128
 31
0.0
  0
LINE
  5
297
  8
0
  6
CONTINUOUS
 62
     7
 10
176.8767362268
 20
96.2612351042
 30
0.0
 11
176.8767362268
 21
95.2612353128
 31
0.0
  0
LINE
  5
298
  8
0
  6
CONTINUOUS
 62
     7
 10
246.0767363937
 20
95.2612353128
 30
0.0
 11
241.8767338426
 21
95.2612353128
 31
0.0
  0
LINE
  5
299
  8
0
  6
CONTINUOUS
 62
     7
 10
241.8767338426
 20
95.2612353128
 30
0.0
 11
241.8767338426
 21
96.2612351042
 31
0.0
  0
LINE
  5
29A
  8
0
  6
CONTINUOUS
 62
     7
 10
166.8767338426
 20
106.0612352204
 30
0.0
 11
166.8767338426
 21
107.0612350118
 31
0.0
  0
LINE
  5
29B
  8
0
  6
CONTINUOUS
 62
     7
 10
171.6767346294
 20
107.0612350118
 30
0.0
 11
166.8767338426
 21
107.0612350118
 31
0.0
  0
LINE
  5
29C
  8
0
  6
CONTINUOUS
 62
     7
 10
251.8767362268
 20
106.0612352204
 30
0.0
 11
251.8767362268
 21
107.0612350118
 31
0.0
  0
LINE
  5
29D
  8
0
  6
CONTINUOUS
 62
     7
 10
251.8767362268
 20
107.0612350118
 30
0.0
 11
247.07673544
 21
107.0612350118
 31
0.0
  0
LINE
  5
29E
  8
0
  6
CONTINUOUS
 62
     7
 10
166.8767338426
 20
96.2612351042
 30
0.0
 11
166.8767338426
 21
106.0612352204
 31
0.0
  0
LINE
  5
29F
  8
0
  6
CONTINUOUS
 62
     7
 10
251.8767362268
 20
96.2612351042
 30
0.0
 11
251.8767362268
 21
106.0612352204
 31
0.0
  0
LINE
  5
2A0
  8
0
  6
CONTINUOUS
 62
     7
 10
171.6767346294
 20
95.2612353128
 30
0.0
 11
166.8767338426
 21
95.2612353128
 31
0.0
  0
LINE
  5
2A1
  8
0
  6
CONTINUOUS
 62
     7
 10
166.8767338426
 20
95.2612353128
 30
0.0
 11
166.8767338426
 21
96.2612351042
 31
0.0
  0
LINE
  5
2A2
  8
0
  6
CONTINUOUS
 62
     7
 10
251.8767362268
 20
95.2612353128
 30
0.0
 11
247.07673544
 21
95.2612353128
 31
0.0
  0
LINE
  5
2A3
  8
0
  6
CONTINUOUS
 62
     7
 10
251.8767362268
 20
95.2612353128
 30
0.0
 11
251.8767362268
 21
96.2612351042
 31
0.0
  0
POLYLINE
  5
2A4
  8
0
  6
CONTINUOUS
 62
     7
 66
     1
 10
0.0
 20
0.0
 30
0.0
  0
VERTEX
  5
392
  8
0
  6
CONTINUOUS
 62
     7
 10
52.6767318876
 20
81.8044671428
 30
0.0
  0
VERTEX
  5
393
  8
0
  6
CONTINUOUS
 62
     7
 10
52.1411245496
 20
81.1002337945
 30
0.0
  0
VERTEX
  5
394
  8
0
  6
CONTINUOUS
 62
     7
 10
51.6767328412
 20
80.335044266
 30
0.0
  0
SEQEND
  5
399
  8
0
  6
CONTINUOUS
 62
     7
  0
LINE
  5
2A5
  8
0
  6
CONTINUOUS
 62
     7
 10
64.0325134427
 20
90.1558959496
 30
0.0
 11
64.1560500295
 21
90.1612350357
 31
0.0
  0
ARC
  5
2A6
  8
0
  6
CONTINUOUS
 62
     7
 10
64.5163205477
 20
75.2550615719
 30
0.0
 40
10.0756326892288
 50
100.5231138163
 51
180.5335621641
  0
LINE
  5
2A7
  8
0
  6
CONTINUOUS
 62
     7
 10
114.7086625726
 20
20.1676198852
 30
0.0
 11
114.5974164636
 21
20.1612362278
 31
0.0
  0
ARC
  5
2A8
  8
0
  6
CONTINUOUS
 62
     7
 10
114.2371700413
 20
35.0673901997
 30
0.0
 40
10.0756087480542
 50
280.5230342125
 51
0.5336573306
  0
POLYLINE
  5
2A9
  8
0
  6
CONTINUOUS
 62
     7
 66
     1
 10
0.0
 20
0.0
 30
0.0
  0
VERTEX
  5
395
  8
0
  6
CONTINUOUS
 62
     7
 10
126.0767346055
 20
81.8044671428
 30
0.0
  0
VERTEX
  5
396
  8
0
  6
CONTINUOUS
 62
     7
 10
126.6123419435
 20
81.1002337945
 30
0.0
  0
VERTEX
  5
397
  8
0
  6
CONTINUOUS
 62
     7
 10
127.0767336519
 20
80.335044266
 30
0.0
  0
SEQEND
  5
398
  8
0
  6
CONTINUOUS
 62
     7
  0
ARC
  5
2AA
  8
0
  6
CONTINUOUS
 62
     7
 10
114.2548939689
 20
75.2696782628
 30
0.0
 40
10.05803241131262
 50
359.3822356586
 51
79.5610476606
  0
ARC
  5
2AB
  8
0
  6
CONTINUOUS
 62
     7
 10
64.4985757937
 20
35.0527982211
 30
0.0
 40
10.0580355922884
 50
179.3822825717
 51
259.5610665857
  0
LINE
  5
2AC
  8
0
  6
CONTINUOUS
 62
     7
 10
64.1560500295
 20
20.1612362278
 30
0.0
 11
64.0629118116
 21
20.166487397
 31
0.0
  0
LINE
  5
2AD
  8
0
  6
CONTINUOUS
 62
     7
 10
54.4411247403
 20
75.1612344396
 30
0.0
 11
54.4411247403
 21
35.1612338436
 31
0.0
  0
LINE
  5
2AE
  8
0
  6
CONTINUOUS
 62
     7
 10
124.3123417527
 20
35.1612338436
 30
0.0
 11
124.3123417527
 21
75.1612344396
 31
0.0
  0
LINE
  5
2AF
  8
0
  6
CONTINUOUS
 62
     7
 10
52.6767318876
 20
84.1733226192
 30
0.0
 11
51.6767328412
 21
84.1733226192
 31
0.0
  0
LINE
  5
2B0
  8
0
  6
CONTINUOUS
 62
     7
 10
51.6767328412
 20
108.0217519415
 30
0.0
 11
51.6767328412
 21
84.1733226192
 31
0.0
  0
LINE
  5
2B1
  8
0
  6
CONTINUOUS
 62
     7
 10
52.6767318876
 20
108.0217519415
 30
0.0
 11
52.6767318876
 21
84.1733226192
 31
0.0
  0
LINE
  5
2B2
  8
0
  6
CONTINUOUS
 62
     7
 10
126.0767346055
 20
84.1733226192
 30
0.0
 11
127.0767336519
 21
84.1733226192
 31
0.0
  0
LINE
  5
2B3
  8
0
  6
CONTINUOUS
 62
     7
 10
126.0767346055
 20
108.0217519415
 30
0.0
 11
126.0767346055
 21
84.1733226192
 31
0.0
  0
LINE
  5
2B4
  8
0
  6
CONTINUOUS
 62
     7
 10
127.0767336519
 20
108.0217519415
 30
0.0
 11
127.0767336519
 21
84.1733226192
 31
0.0
  0
LINE
  5
2B5
  8
0
  6
CONTINUOUS
 62
     7
 10
51.6767328412
 20
84.1733226192
 30
0.0
 11
51.6767328412
 21
80.335044266
 31
0.0
  0
LINE
  5
2B6
  8
0
  6
CONTINUOUS
 62
     7
 10
52.6767318876
 20
84.1733226192
 30
0.0
 11
52.6767318876
 21
81.8044671428
 31
0.0
  0
LINE
  5
2B7
  8
0
  6
CONTINUOUS
 62
     7
 10
126.0767346055
 20
84.1733226192
 30
0.0
 11
126.0767346055
 21
81.8044671428
 31
0.0
  0
LINE
  5
2B8
  8
0
  6
CONTINUOUS
 62
     7
 10
127.0767336519
 20
84.1733226192
 30
0.0
 11
127.0767336519
 21
80.335044266
 31
0.0
  0
LINE
  5
2B9
  8
0
  6
CONTINUOUS
 62
     7
 10
62.676185909
 20
25.1612374199
 30
0.0
 11
116.0772865445
 21
25.1612374199
 31
0.0
  0
LINE
  5
2BA
  8
0
  6
CONTINUOUS
 62
     7
 10
62.676185909
 20
85.1612353337
 30
0.0
 11
116.0772865445
 21
85.1612353337
 31
0.0
  0
LINE
  5
2BB
  8
0
  6
CONTINUOUS
 62
     7
 10
64.1560500295
 20
90.1612350357
 30
0.0
 11
114.5974164636
 21
90.1612350357
 31
0.0
  0
LINE
  5
2BC
  8
0
  6
CONTINUOUS
 62
     7
 10
114.5974164636
 20
20.1612362278
 30
0.0
 11
64.1560500295
 21
20.1612362278
 31
0.0
  0
LINE
  5
2BD
  8
0
  6
CONTINUOUS
 62
     7
 10
126.0767346055
 20
109.8612354708
 30
0.0
 11
127.0767336519
 21
109.8612354708
 31
0.0
  0
LINE
  5
2BE
  8
0
  6
CONTINUOUS
 62
     7
 10
126.0767346055
 20
109.8612354708
 30
0.0
 11
126.0767346055
 21
108.0217519415
 31
0.0
  0
LINE
  5
2BF
  8
0
  6
CONTINUOUS
 62
     7
 10
127.0767336519
 20
109.8612354708
 30
0.0
 11
127.0767336519
 21
108.0217519415
 31
0.0
  0
LINE
  5
2C0
  8
0
  6
CONTINUOUS
 62
     7
 10
52.6767318876
 20
109.8612354708
 30
0.0
 11
51.6767328412
 21
109.8612354708
 31
0.0
  0
LINE
  5
2C1
  8
0
  6
CONTINUOUS
 62
     7
 10
51.6767328412
 20
109.8612354708
 30
0.0
 11
51.6767328412
 21
108.0217519415
 31
0.0
  0
LINE
  5
2C2
  8
0
  6
CONTINUOUS
 62
     7
 10
52.6767318876
 20
109.8612354708
 30
0.0
 11
52.6767318876
 21
108.0217519415
 31
0.0
  0
LINE
  5
2C3
  8
0
  6
CONTINUOUS
 62
     7
 10
56.8767374189
 20
96.2612351042
 30
0.0
 11
56.8767374189
 21
106.0612352204
 31
0.0
  0
LINE
  5
2C4
  8
0
  6
CONTINUOUS
 62
     7
 10
121.8767350347
 20
96.2612351042
 30
0.0
 11
121.8767350347
 21
106.0612352204
 31
0.0
  0
LINE
  5
2C5
  8
0
  6
CONTINUOUS
 62
     7
 10
126.0767346055
 20
107.0612350118
 30
0.0
 11
121.8767350347
 21
107.0612350118
 31
0.0
  0
LINE
  5
2C6
  8
0
  6
CONTINUOUS
 62
     7
 10
121.8767350347
 20
106.0612352204
 30
0.0
 11
121.8767350347
 21
107.0612350118
 31
0.0
  0
LINE
  5
2C7
  8
0
  6
CONTINUOUS
 62
     7
 10
56.8767374189
 20
107.0612350118
 30
0.0
 11
52.6767318876
 21
107.0612350118
 31
0.0
  0
LINE
  5
2C8
  8
0
  6
CONTINUOUS
 62
     7
 10
56.8767374189
 20
107.0612350118
 30
0.0
 11
56.8767374189
 21
106.0612352204
 31
0.0
  0
LINE
  5
2C9
  8
0
  6
CONTINUOUS
 62
     7
 10
56.8767374189
 20
95.2612353128
 30
0.0
 11
52.6767318876
 21
95.2612353128
 31
0.0
  0
LINE
  5
2CA
  8
0
  6
CONTINUOUS
 62
     7
 10
56.8767374189
 20
96.2612351042
 30
0.0
 11
56.8767374189
 21
95.2612353128
 31
0.0
  0
LINE
  5
2CB
  8
0
  6
CONTINUOUS
 62
     7
 10
126.0767346055
 20
95.2612353128
 30
0.0
 11
121.8767350347
 21
95.2612353128
 31
0.0
  0
LINE
  5
2CC
  8
0
  6
CONTINUOUS
 62
     7
 10
121.8767350347
 20
95.2612353128
 30
0.0
 11
121.8767350347
 21
96.2612351042
 31
0.0
  0
LINE
  5
2CD
  8
0
  6
CONTINUOUS
 62
     7
 10
46.8767350347
 20
96.2612351042
 30
0.0
 11
46.8767350347
 21
106.0612352204
 31
0.0
  0
LINE
  5
2CE
  8
0
  6
CONTINUOUS
 62
     7
 10
51.6767328412
 20
107.0612350118
 30
0.0
 11
46.8767350347
 21
107.0612350118
 31
0.0
  0
LINE
  5
2CF
  8
0
  6
CONTINUOUS
 62
     7
 10
46.8767350347
 20
106.0612352204
 30
0.0
 11
46.8767350347
 21
107.0612350118
 31
0.0
  0
LINE
  5
2D0
  8
0
  6
CONTINUOUS
 62
     7
 10
131.8767374189
 20
96.2612351042
 30
0.0
 11
131.8767374189
 21
106.0612352204
 31
0.0
  0
LINE
  5
2D1
  8
0
  6
CONTINUOUS
 62
     7
 10
131.8767374189
 20
107.0612350118
 30
0.0
 11
127.0767336519
 21
107.0612350118
 31
0.0
  0
LINE
  5
2D2
  8
0
  6
CONTINUOUS
 62
     7
 10
131.8767374189
 20
106.0612352204
 30
0.0
 11
131.8767374189
 21
107.0612350118
 31
0.0
  0
LINE
  5
2D3
  8
0
  6
CONTINUOUS
 62
     7
 10
51.6767328412
 20
95.2612353128
 30
0.0
 11
46.8767350347
 21
95.2612353128
 31
0.0
  0
LINE
  5
2D4
  8
0
  6
CONTINUOUS
 62
     7
 10
46.8767350347
 20
95.2612353128
 30
0.0
 11
46.8767350347
 21
96.2612351042
 31
0.0
  0
LINE
  5
2D5
  8
0
  6
CONTINUOUS
 62
     7
 10
131.8767374189
 20
95.2612353128
 30
0.0
 11
127.0767336519
 21
95.2612353128
 31
0.0
  0
LINE
  5
2D6
  8
0
  6
CONTINUOUS
 62
     7
 10
131.8767374189
 20
95.2612353128
 30
0.0
 11
131.8767374189
 21
96.2612351042
 31
0.0
  0
LINE
  5
2D7
  8
0
  6
CONTINUOUS
 62
     7
 10
20.9767406614
 20
106.2612352532
 30
0.0
 11
23.3767336042
 21
106.2612352532
 31
0.0
  0
LINE
  5
2D8
  8
0
  6
CONTINUOUS
 62
     7
 10
35.376734081
 20
106.2612352532
 30
0.0
 11
46.8767350347
 21
106.2612352532
 31
0.0
  0
LINE
  5
2D9
  8
0
  6
CONTINUOUS
 62
     7
 10
56.8767374189
 20
106.2612352532
 30
0.0
 11
121.8767350347
 21
106.2612352532
 31
0.0
  0
LINE
  5
2DA
  8
0
  6
CONTINUOUS
 62
     7
 10
131.8767374189
 20
106.2612352532
 30
0.0
 11
143.3767324121
 21
106.2612352532
 31
0.0
  0
LINE
  5
2DB
  8
0
  6
CONTINUOUS
 62
     7
 10
155.3767328889
 20
106.2612352532
 30
0.0
 11
166.8767338426
 21
106.2612352532
 31
0.0
  0
LINE
  5
2DC
  8
0
  6
CONTINUOUS
 62
     7
 10
176.8767362268
 20
106.2612352532
 30
0.0
 11
241.8767338426
 21
106.2612352532
 31
0.0
  0
LINE
  5
2DD
  8
0
  6
CONTINUOUS
 62
     7
 10
251.8767362268
 20
106.2612352532
 30
0.0
 11
263.3767371805
 21
106.2612352532
 31
0.0
  0
LINE
  5
2DE
  8
0
  6
CONTINUOUS
 62
     7
 10
275.3767376573
 20
106.2612352532
 30
0.0
 11
286.8767326505
 21
106.2612352532
 31
0.0
  0
LINE
  5
2DF
  8
0
  6
CONTINUOUS
 62
     7
 10
296.8767350347
 20
106.2612352532
 30
0.0
 11
361.8767326505
 21
106.2612352532
 31
0.0
  0
LINE
  5
2E0
  8
0
  6
CONTINUOUS
 62
     7
 10
371.8767350347
 20
106.2612352532
 30
0.0
 11
383.3767359884
 21
106.2612352532
 31
0.0
  0
LINE
  5
2E1
  8
0
  6
CONTINUOUS
 62
     7
 10
395.3767364652
 20
106.2612352532
 30
0.0
 11
397.776729408
 21
106.2612352532
 31
0.0
  0
LINE
  5
2E2
  8
0
  6
CONTINUOUS
 62
     7
 10
20.5767338903
 20
105.2612350893
 30
0.0
 11
20.5767338903
 21
105.8612351877
 31
0.0
  0
ARC
  5
2E3
  8
0
  6
CONTINUOUS
 62
     7
 10
20.9767350347
 20
105.8612351787
 30
0.0
 40
0.4000000000000057
 50
90.0
 51
180.0
  0
LINE
  5
2E4
  8
0
  6
CONTINUOUS
 62
     7
 10
398.1767361791
 20
105.8612351877
 30
0.0
 11
398.1767361791
 21
105.2612350893
 31
0.0
  0
ARC
  5
2E5
  8
0
  6
CONTINUOUS
 62
     7
 10
397.7767350347
 20
105.8612351787
 30
0.0
 40
0.4000000000000341
 50
0.0
 51
90.0
  0
LINE
  5
2E6
  8
0
  6
CONTINUOUS
 62
     7
 10
20.5767338903
 20
97.2612352681
 30
0.0
 11
20.5767338903
 21
105.2612350893
 31
0.0
  0
LINE
  5
2E7
  8
0
  6
CONTINUOUS
 62
     7
 10
398.1767361791
 20
105.2612350893
 30
0.0
 11
398.1767361791
 21
97.2612352681
 31
0.0
  0
LINE
  5
2E8
  8
0
  6
CONTINUOUS
 62
     7
 10
397.776729408
 20
96.2612351042
 30
0.0
 11
395.3767364652
 21
96.2612351042
 31
0.0
  0
LINE
  5
2E9
  8
0
  6
CONTINUOUS
 62
     7
 10
383.3767359884
 20
96.2612351042
 30
0.0
 11
371.8767350347
 21
96.2612351042
 31
0.0
  0
LINE
  5
2EA
  8
0
  6
CONTINUOUS
 62
     7
 10
361.8767326505
 20
96.2612351042
 30
0.0
 11
296.8767350347
 21
96.2612351042
 31
0.0
  0
LINE
  5
2EB
  8
0
  6
CONTINUOUS
 62
     7
 10
286.8767326505
 20
96.2612351042
 30
0.0
 11
275.3767376573
 21
96.2612351042
 31
0.0
  0
LINE
  5
2EC
  8
0
  6
CONTINUOUS
 62
     7
 10
263.3767371805
 20
96.2612351042
 30
0.0
 11
251.8767362268
 21
96.2612351042
 31
0.0
  0
LINE
  5
2ED
  8
0
  6
CONTINUOUS
 62
     7
 10
241.8767338426
 20
96.2612351042
 30
0.0
 11
176.8767362268
 21
96.2612351042
 31
0.0
  0
LINE
  5
2EE
  8
0
  6
CONTINUOUS
 62
     7
 10
166.8767338426
 20
96.2612351042
 30
0.0
 11
155.3767328889
 21
96.2612351042
 31
0.0
  0
LINE
  5
2EF
  8
0
  6
CONTINUOUS
 62
     7
 10
143.3767324121
 20
96.2612351042
 30
0.0
 11
131.8767374189
 21
96.2612351042
 31
0.0
  0
LINE
  5
2F0
  8
0
  6
CONTINUOUS
 62
     7
 10
121.8767350347
 20
96.2612351042
 30
0.0
 11
56.8767374189
 21
96.2612351042
 31
0.0
  0
LINE
  5
2F1
  8
0
  6
CONTINUOUS
 62
     7
 10
46.8767350347
 20
96.2612351042
 30
0.0
 11
35.376734081
 21
96.2612351042
 31
0.0
  0
LINE
  5
2F2
  8
0
  6
CONTINUOUS
 62
     7
 10
23.3767336042
 20
96.2612351042
 30
0.0
 11
20.9767406614
 21
96.2612351042
 31
0.0
  0
ARC
  5
2F3
  8
0
  6
CONTINUOUS
 62
     7
 10
20.9767350347
 20
96.6612351787
 30
0.0
 40
0.3999999999999915
 50
180.0
 51
270.0
  0
LINE
  5
2F4
  8
0
  6
CONTINUOUS
 62
     7
 10
20.5767338903
 20
96.6612351698
 30
0.0
 11
20.5767338903
 21
97.2612352681
 31
0.0
  0
LINE
  5
2F5
  8
0
  6
CONTINUOUS
 62
     7
 10
398.1767361791
 20
97.2612352681
 30
0.0
 11
398.1767361791
 21
96.6612351698
 31
0.0
  0
ARC
  5
2F6
  8
0
  6
CONTINUOUS
 62
     7
 10
397.7767350347
 20
96.6612351787
 30
0.0
 40
0.4000000000000341
 50
270.0
 51
0.0
  0
ARC
  5
2F7
  8
0
  6
CONTINUOUS
 62
     7
 10
352.3767350347
 20
109.2612351787
 30
0.0
 40
4.000000000000014
 50
0.0
 51
90.0
  0
LINE
  5
2F8
  8
0
  6
CONTINUOUS
 62
     7
 10
356.3767378957
 20
107.2612350446
 30
0.0
 11
356.3767378957
 21
109.2612349999
 31
0.0
  0
LINE
  5
2F9
  8
0
  6
CONTINUOUS
 62
     7
 10
356.3767378957
 20
107.2612350446
 30
0.0
 11
356.370479408
 21
106.2612352532
 31
0.0
  0
ARC
  5
2FA
  8
0
  6
CONTINUOUS
 62
     7
 10
276.3767350347
 20
107.2612351787
 30
0.0
 40
80.00000000000003
 50
347.6577971128
 51
352.0967922665
  0
ARC
  5
2FB
  8
0
  6
CONTINUOUS
 62
     7
 10
412.3767350347
 20
107.2612351787
 30
0.0
 40
80.00000000000003
 50
187.9032077335
 51
192.3422028872
  0
LINE
  5
2FC
  8
0
  6
CONTINUOUS
 62
     7
 10
332.3829835088
 20
106.2612352532
 30
0.0
 11
332.376736942
 21
107.2612350446
 31
0.0
  0
LINE
  5
2FD
  8
0
  6
CONTINUOUS
 62
     7
 10
332.376736942
 20
109.2612349999
 30
0.0
 11
332.376736942
 21
107.2612350446
 31
0.0
  0
ARC
  5
2FE
  8
0
  6
CONTINUOUS
 62
     7
 10
336.3767350347
 20
109.2612351787
 30
0.0
 40
4.000000000000014
 50
90.0
 51
180.0
  0
LINE
  5
2FF
  8
0
  6
CONTINUOUS
 62
     7
 10
352.3767297895
 20
113.2612349105
 30
0.0
 11
336.3767331273
 21
113.2612349105
 31
0.0
  0
CIRCLE
  5
300
  8
0
  6
CONTINUOUS
 62
     7
 10
352.3767350347
 20
109.2612351787
 30
0.0
 40
1.5
  0
CIRCLE
  5
301
  8
0
  6
CONTINUOUS
 62
     7
 10
336.3767350347
 20
109.2612351787
 30
0.0
 40
1.5
  0
ARC
  5
302
  8
0
  6
CONTINUOUS
 62
     7
 10
142.3767350347
 20
107.2612351787
 30
0.0
 40
80.00000000000003
 50
187.9032077335
 51
192.3422028872
  0
LINE
  5
303
  8
0
  6
CONTINUOUS
 62
     7
 10
62.3829906614
 20
106.2612352532
 30
0.0
 11
62.3767321737
 21
107.2612350446
 31
0.0
  0
LINE
  5
304
  8
0
  6
CONTINUOUS
 62
     7
 10
62.3767321737
 20
109.2612349999
 30
0.0
 11
62.3767321737
 21
107.2612350446
 31
0.0
  0
ARC
  5
305
  8
0
  6
CONTINUOUS
 62
     7
 10
66.3767350347
 20
109.2612351787
 30
0.0
 40
4.000000000000014
 50
90.0
 51
180.0
  0
LINE
  5
306
  8
0
  6
CONTINUOUS
 62
     7
 10
82.376736942
 20
113.2612349105
 30
0.0
 11
66.3767402799
 21
113.2612349105
 31
0.0
  0
ARC
  5
307
  8
0
  6
CONTINUOUS
 62
     7
 10
82.3767350347
 20
109.2612351787
 30
0.0
 40
4.0
 50
0.0
 51
90.0
  0
LINE
  5
308
  8
0
  6
CONTINUOUS
 62
     7
 10
86.3767331273
 20
107.2612350446
 30
0.0
 11
86.3767331273
 21
109.2612349999
 31
0.0
  0
LINE
  5
309
  8
0
  6
CONTINUOUS
 62
     7
 10
86.3767331273
 20
107.2612350446
 30
0.0
 11
86.3704865606
 21
106.2612352532
 31
0.0
  0
ARC
  5
30A
  8
0
  6
CONTINUOUS
 62
     7
 10
6.3767350347
 20
107.2612351787
 30
0.0
 40
80.00000000000001
 50
347.6577971128
 51
352.0967922665
  0
CIRCLE
  5
30B
  8
0
  6
CONTINUOUS
 62
     7
 10
66.3767350347
 20
109.2612351787
 30
0.0
 40
1.500000000000014
  0
CIRCLE
  5
30C
  8
0
  6
CONTINUOUS
 62
     7
 10
82.3767350347
 20
109.2612351787
 30
0.0
 40
1.500000000000028
  0
ENDSEC
  0
EOF
