  0
SECTION
  2
HEADER
  9
$ACADVER
  1
AC1009
  9
$DWGCODEPAGE
  3
ansi_1252
  9
$INSBASE
 10
0.0
 20
0.0
 30
0.0
  9
$EXTMIN
 10
0.0
 20
0.0
 30
0.0
  9
$EXTMAX
 10
420.0
 20
297.0
 30
0.0
  9
$LIMMIN
 10
0.0
 20
0.0
  9
$LIMMAX
 10
420.0
 20
297.0
  9
$ORTHOMODE
 70
     0
  9
$REGENMODE
 70
     1
  9
$FILLMODE
 70
     1
  9
$QTEXTMODE
 70
     0
  9
$MIRRTEXT
 70
     1
  9
$DRAGMODE
 70
     2
  9
$LTSCALE
 40
1.0
  9
$OSMODE
 70
    37
  9
$ATTMODE
 70
     1
  9
$TEXTSIZE
 40
3.5
  9
$TRACEWID
 40
1.0
  9
$TEXTSTYLE
  7
STANDARD
  9
$CLAYER
  8
0
  9
$CELTYPE
  6
BYLAYER
  9
$CECOLOR
 62
   256
  9
$DIMSCALE
 40
1.0
  9
$DIMASZ
 40
4.0
  9
$DIMEXO
 40
0.0
  9
$DIMDLI
 40
3.75
  9
$DIMRND
 40
0.0
  9
$DIMDLE
 40
0.0
  9
$DIMEXE
 40
2.0
  9
$DIMTP
 40
0.0
  9
$DIMTM
 40
0.0
  9
$DIMTXT
 40
3.5
  9
$DIMCEN
 40
2.5
  9
$DIMTSZ
 40
0.0
  9
$DIMTOL
 70
     0
  9
$DIMLIM
 70
     0
  9
$DIMTIH
 70
     1
  9
$DIMTOH
 70
     1
  9
$DIMSE1
 70
     0
  9
$DIMSE2
 70
     0
  9
$DIMTAD
 70
     1
  9
$DIMZIN
 70
     0
  9
$DIMBLK
  1

  9
$DIMASO
 70
     1
  9
$DIMSHO
 70
     1
  9
$DIMPOST
  1

  9
$DIMAPOST
  1

  9
$DIMALT
 70
     0
  9
$DIMALTD
 70
     3
  9
$DIMALTF
 40
0.0393700787
  9
$DIMLFAC
 40
5.0
  9
$DIMTOFL
 70
     1
  9
$DIMTVP
 40
0.0
  9
$DIMTIX
 70
     0
  9
$DIMSOXD
 70
     0
  9
$DIMSAH
 70
     0
  9
$DIMBLK1
  1

  9
$DIMBLK2
  1

  9
$DIMSTYLE
  2
ISO-25
  9
$DIMCLRD
 70
     0
  9
$DIMCLRE
 70
     0
  9
$DIMCLRT
 70
     0
  9
$DIMTFAC
 40
1.0
  9
$DIMGAP
 40
1.524
  9
$LUNITS
 70
     2
  9
$LUPREC
 70
     2
  9
$SKETCHINC
 40
1.0
  9
$FILLETRAD
 40
10.0
  9
$AUNITS
 70
     0
  9
$AUPREC
 70
     2
  9
$MENU
  1
.
  9
$ELEVATION
 40
0.0
  9
$PELEVATION
 40
0.0
  9
$THICKNESS
 40
0.0
  9
$LIMCHECK
 70
     0
  9
$CHAMFERA
 40
10.0
  9
$CHAMFERB
 40
10.0
  9
$SKPOLY
 70
     0
  9
$TDCREATE
 40
2457802.374072095
  9
$TDUPDATE
 40
2457802.374072222
  9
$TDINDWG
 40
0.0000000116
  9
$TDUSRTIMER
 40
0.0000000116
  9
$USRTIMER
 70
     1
  9
$ANGBASE
 50
0.0
  9
$ANGDIR
 70
     0
  9
$PDMODE
 70
     0
  9
$PDSIZE
 40
-1.0
  9
$PLINEWID
 40
0.0
  9
$COORDS
 70
     1
  9
$SPLFRAME
 70
     0
  9
$SPLINETYPE
 70
     6
  9
$SPLINESEGS
 70
     8
  9
$ATTDIA
 70
     0
  9
$ATTREQ
 70
     1
  9
$HANDLING
 70
     1
  9
$HANDSEED
  5
182
  9
$SURFTAB1
 70
     6
  9
$SURFTAB2
 70
     6
  9
$SURFTYPE
 70
     6
  9
$SURFU
 70
     6
  9
$SURFV
 70
     6
  9
$UCSNAME
  2

  9
$UCSORG
 10
0.0
 20
0.0
 30
0.0
  9
$UCSXDIR
 10
1.0
 20
0.0
 30
0.0
  9
$UCSYDIR
 10
0.0
 20
1.0
 30
0.0
  9
$PUCSNAME
  2

  9
$PUCSORG
 10
0.0
 20
0.0
 30
0.0
  9
$PUCSXDIR
 10
1.0
 20
0.0
 30
0.0
  9
$PUCSYDIR
 10
0.0
 20
1.0
 30
0.0
  9
$USERI1
 70
     0
  9
$USERI2
 70
     0
  9
$USERI3
 70
     0
  9
$USERI4
 70
     0
  9
$USERI5
 70
     0
  9
$USERR1
 40
0.0
  9
$USERR2
 40
0.0
  9
$USERR3
 40
0.0
  9
$USERR4
 40
0.0
  9
$USERR5
 40
0.0
  9
$WORLDVIEW
 70
     1
  9
$SHADEDGE
 70
     3
  9
$SHADEDIF
 70
    70
  9
$TILEMODE
 70
     1
  9
$MAXACTVP
 70
    64
  9
$PLIMCHECK
 70
     0
  9
$PEXTMIN
 10
1.0000000000E+20
 20
1.0000000000E+20
 30
1.0000000000E+20
  9
$PEXTMAX
 10
-1.0000000000E+20
 20
-1.0000000000E+20
 30
-1.0000000000E+20
  9
$PLIMMIN
 10
0.0
 20
0.0
  9
$PLIMMAX
 10
420.0
 20
297.0
  9
$UNITMODE
 70
     0
  9
$VISRETAIN
 70
     1
  9
$PLINEGEN
 70
     0
  9
$PSLTSCALE
 70
     1
  0
ENDSEC
  0
SECTION
  2
TABLES
  0
TABLE
  2
VPORT
 70
     1
  0
VPORT
  2
*ACTIVE
 70
     0
 10
0.0
 20
0.0
 11
1.0
 21
1.0
 12
210.0
 22
148.5
 13
0.0
 23
0.0
 14
10.0
 24
10.0
 15
10.0
 25
10.0
 16
0.0
 26
0.0
 36
1.0
 17
0.0
 27
0.0
 37
0.0
 40
297.0
 41
1.4141414141
 42
50.0
 43
0.0
 44
0.0
 50
0.0
 51
0.0
 71
     0
 72
  2000
 73
     1
 74
     3
 75
     0
 76
     0
 77
     0
 78
     0
  0
ENDTAB
  0
TABLE
  2
LTYPE
 70
     6
  0
LTYPE
  2
CONTINUOUS
 70
     0
  3
Solid line
 72
    65
 73
     0
 40
0.0
  0
LTYPE
  2
HIDDEN
 70
     0
  3
Hidden __ __ __ __ __ __ __ __ __ __ __ __ __ __
 72
    65
 73
     2
 40
1.905
 49
1.27
 49
-0.635
  0
LTYPE
  2
PHANTOM
 70
     0
  3
Phantom ______  __  __  ______  __  __  ______
 72
    65
 73
     6
 40
12.7
 49
6.35
 49
-1.27
 49
1.27
 49
-1.27
 49
1.27
 49
-1.27
  0
LTYPE
  2
CENTER
 70
     0
  3
Center ____ _ ____ _ ____ _ ____ _ ____ _ ____
 72
    65
 73
     4
 40
10.16
 49
6.35
 49
-1.27
 49
1.27
 49
-1.27
  0
LTYPE
  2
CENTERX2
 70
     0
  3
Center (2x) ________  __  ________  __  _____
 72
    65
 73
     4
 40
20.32
 49
12.7
 49
-2.54
 49
2.54
 49
-2.54
  0
LTYPE
  2
DOT2
 70
     0
  3
Dot (.5x) ........................................
 72
    65
 73
     2
 40
0.635
 49
0.0
 49
-0.635
  0
ENDTAB
  0
TABLE
  2
LAYER
 70
     2
  0
LAYER
  2
0
 70
     0
 62
     7
  6
CONTINUOUS
  0
LAYER
  2
FORMAT
 70
     0
 62
     7
  6
CONTINUOUS
  0
ENDTAB
  0
TABLE
  2
STYLE
 70
     1
  0
STYLE
  2
STANDARD
 70
     0
 40
0.0
 41
1.0
 50
0.0
 71
     0
 42
3.5
  3
txt
  4

  0
ENDTAB
  0
TABLE
  2
VIEW
 70
     0
  0
ENDTAB
  0
TABLE
  2
UCS
 70
     0
  0
ENDTAB
  0
TABLE
  2
APPID
 70
     1
  0
APPID
  2
ACAD
 70
     0
  0
ENDTAB
  0
TABLE
  2
DIMSTYLE
 70
     1
  0
DIMSTYLE
  2
ISO-25
 70
     0
  3

  4

  5

  6

  7

 40
1.0
 41
2.5
 42
0.625
 43
3.75
 44
1.25
 45
0.0
 46
0.0
 47
0.0
 48
0.0
140
2.5
141
2.5
142
0.0
143
0.0393700787
144
1.0
145
0.0
146
1.0
147
0.625
 71
     0
 72
     0
 73
     0
 74
     0
 75
     0
 76
     0
 77
     1
 78
     8
170
     0
171
     3
172
     1
173
     0
174
     0
175
     0
176
     0
177
     0
178
     0
  0
ENDTAB
  0
ENDSEC
  0
SECTION
  2
BLOCKS
  0
BLOCK
  8
0
  2
$MODEL_SPACE
 70
     0
 10
0.0
 20
0.0
 30
0.0
  3
$MODEL_SPACE
  1

  0
ENDBLK
  5
21
  8
0
  0
BLOCK
 67
     1
  8
0
  2
$PAPER_SPACE
 70
     0
 10
0.0
 20
0.0
 30
0.0
  3
$PAPER_SPACE
  1

  0
ENDBLK
  5
1D
 67
     1
  8
0
  0
ENDSEC
  0
SECTION
  2
ENTITIES
  0
POLYLINE
  5
45
  8
0
  6
CONTINUOUS
 62
     7
 66
     1
 10
0.0
 20
0.0
 30
0.0
  0
VERTEX
  5
137
  8
0
  6
CONTINUOUS
 62
     7
 10
145.4019544663
 20
251.2954246967
 30
0.0
  0
VERTEX
  5
138
  8
0
  6
CONTINUOUS
 62
     7
 10
145.3963948651
 20
251.2944611732
 30
0.0
  0
VERTEX
  5
139
  8
0
  6
CONTINUOUS
 62
     7
 10
145.3953396587
 20
251.2942689795
 30
0.0
  0
SEQEND
  5
181
  8
0
  6
CONTINUOUS
 62
     7
  0
LINE
  5
46
  8
0
  6
CONTINUOUS
 62
     7
 10
105.0878467842
 20
157.3667178655
 30
0.0
 11
101.3292002429
 21
157.3667178655
 31
0.0
  0
LINE
  5
47
  8
0
  6
CONTINUOUS
 62
     7
 10
101.3292002429
 20
158.5667178655
 30
0.0
 11
105.0878467842
 21
158.5667178655
 31
0.0
  0
LINE
  5
48
  8
0
  6
CONTINUOUS
 62
     7
 10
115.6750618964
 20
157.3667178655
 30
0.0
 11
111.9164153551
 21
157.3667178655
 31
0.0
  0
LINE
  5
49
  8
0
  6
CONTINUOUS
 62
     7
 10
111.9164153551
 20
158.5667178655
 30
0.0
 11
115.6750618964
 21
158.5667178655
 31
0.0
  0
LINE
  5
4A
  8
0
  6
CONTINUOUS
 62
     7
 10
105.0878467842
 20
157.3667178655
 30
0.0
 11
111.9164153551
 21
157.3667178655
 31
0.0
  0
LINE
  5
4B
  8
0
  6
CONTINUOUS
 62
     7
 10
105.0878467842
 20
158.5667178655
 30
0.0
 11
111.9164153551
 21
158.5667178655
 31
0.0
  0
LINE
  5
4C
  8
0
  6
CONTINUOUS
 62
     7
 10
120.5021310697
 20
157.3667178655
 30
0.0
 11
120.5021310697
 21
158.5667178655
 31
0.0
  0
LINE
  5
4D
  8
0
  6
CONTINUOUS
 62
     7
 10
115.6750618964
 20
157.3667178655
 30
0.0
 11
120.5021310697
 21
157.3667178655
 31
0.0
  0
LINE
  5
4E
  8
0
  6
CONTINUOUS
 62
     7
 10
120.5021310697
 20
158.5667178655
 30
0.0
 11
115.6750618964
 21
158.5667178655
 31
0.0
  0
LINE
  5
4F
  8
0
  6
CONTINUOUS
 62
     7
 10
96.5021310697
 20
157.3667178655
 30
0.0
 11
96.5021310697
 21
158.5667178655
 31
0.0
  0
LINE
  5
50
  8
0
  6
CONTINUOUS
 62
     7
 10
96.5021310697
 20
157.3667178655
 30
0.0
 11
101.3292002429
 21
157.3667178655
 31
0.0
  0
LINE
  5
51
  8
0
  6
CONTINUOUS
 62
     7
 10
101.3292002429
 20
158.5667178655
 30
0.0
 11
96.5021310697
 21
158.5667178655
 31
0.0
  0
LINE
  5
52
  8
0
  6
CONTINUOUS
 62
     7
 10
64.9021310697
 20
223.5667178655
 30
0.0
 11
64.9021310697
 21
231.5667178655
 31
0.0
  0
LINE
  5
53
  8
0
  6
CONTINUOUS
 62
     7
 10
112.5021310697
 20
223.5667178655
 30
0.0
 11
113.5021310697
 21
222.5667178655
 31
0.0
  0
LINE
  5
54
  8
0
  6
CONTINUOUS
 62
     7
 10
151.7021310697
 20
222.5667178655
 30
0.0
 11
113.5021310697
 21
222.5667178655
 31
0.0
  0
LINE
  5
55
  8
0
  6
CONTINUOUS
 62
     7
 10
152.1021310697
 20
231.5667178655
 30
0.0
 11
152.1021310697
 21
223.5667178655
 31
0.0
  0
LINE
  5
56
  8
0
  6
CONTINUOUS
 62
     7
 10
103.5021310697
 20
222.5667178655
 30
0.0
 11
104.5021310697
 21
223.5667178655
 31
0.0
  0
LINE
  5
57
  8
0
  6
CONTINUOUS
 62
     7
 10
103.5021310697
 20
222.5667178655
 30
0.0
 11
65.3021310697
 21
222.5667178655
 31
0.0
  0
LINE
  5
58
  8
0
  6
CONTINUOUS
 62
     7
 10
152.1021310697
 20
223.5667178655
 30
0.0
 11
152.1021310697
 21
222.9667178655
 31
0.0
  0
ARC
  5
59
  8
0
  6
CONTINUOUS
 62
     7
 10
151.7021310697
 20
222.9667178655
 30
0.0
 40
0.4000000000000057
 50
270.0
 51
0.0
  0
LINE
  5
5A
  8
0
  6
CONTINUOUS
 62
     7
 10
113.5021310697
 20
222.5667178655
 30
0.0
 11
113.5021310697
 21
158.5667178655
 31
0.0
  0
LINE
  5
5B
  8
0
  6
CONTINUOUS
 62
     7
 10
152.1021310697
 20
232.1667178655
 30
0.0
 11
152.1021310697
 21
231.5667178655
 31
0.0
  0
ARC
  5
5C
  8
0
  6
CONTINUOUS
 62
     7
 10
151.7021310697
 20
232.1667178655
 30
0.0
 40
0.4000000000000057
 50
0.0
 51
90.0
  0
LINE
  5
5D
  8
0
  6
CONTINUOUS
 62
     7
 10
64.9021310697
 20
222.9667178655
 30
0.0
 11
64.9021310697
 21
223.5667178655
 31
0.0
  0
ARC
  5
5E
  8
0
  6
CONTINUOUS
 62
     7
 10
65.3021310697
 20
222.9667178655
 30
0.0
 40
0.3999999999999915
 50
180.0
 51
270.0
  0
LINE
  5
5F
  8
0
  6
CONTINUOUS
 62
     7
 10
65.3021310697
 20
232.5667178655
 30
0.0
 11
66.0021310697
 21
232.5667178655
 31
0.0
  0
LINE
  5
60
  8
0
  6
CONTINUOUS
 62
     7
 10
76.0021310697
 20
232.5667178655
 30
0.0
 11
141.0021310697
 21
232.5667178655
 31
0.0
  0
LINE
  5
61
  8
0
  6
CONTINUOUS
 62
     7
 10
151.0021310697
 20
232.5667178655
 30
0.0
 11
151.7021310697
 21
232.5667178655
 31
0.0
  0
LINE
  5
62
  8
0
  6
CONTINUOUS
 62
     7
 10
64.9021310697
 20
231.5667178655
 30
0.0
 11
64.9021310697
 21
232.1667178655
 31
0.0
  0
ARC
  5
63
  8
0
  6
CONTINUOUS
 62
     7
 10
65.3021310697
 20
232.1667178655
 30
0.0
 40
0.4000000000000057
 50
90.0
 51
180.0
  0
LINE
  5
64
  8
0
  6
CONTINUOUS
 62
     7
 10
103.5021310697
 20
158.5667178655
 30
0.0
 11
103.5021310697
 21
222.5667178655
 31
0.0
  0
ARC
  5
65
  8
0
  6
CONTINUOUS
 62
     7
 10
108.5021246022
 20
430.8546997463
 30
0.0
 40
183.3099717546079
 50
277.7930341749
 51
281.5887971023
  0
ARC
  5
66
  8
0
  6
CONTINUOUS
 62
     7
 10
145.8708877025
 20
248.647220986
 30
0.0
 40
2.689999999999996
 50
12.4186815058
 51
100.0467259555
  0
ARC
  5
67
  8
0
  6
CONTINUOUS
 62
     7
 10
108.5021188806
 20
430.8547288627
 30
0.0
 40
188.6900013779039
 50
277.7930346047
 51
281.5887872949
  0
ARC
  5
68
  8
0
  6
CONTINUOUS
 62
     7
 10
145.8708877025
 20
248.647220986
 30
0.0
 40
2.689999999999998
 50
281.5900201068
 51
12.4186815058
  0
ARC
  5
69
  8
0
  6
CONTINUOUS
 62
     7
 10
71.1333744368
 20
248.647220986
 30
0.0
 40
2.689999999999987
 50
78.4099798932
 51
167.5813184942
  0
ARC
  5
6A
  8
0
  6
CONTINUOUS
 62
     7
 10
108.518649115
 20
430.9514498207
 30
0.0
 40
183.4080671956083
 50
258.4109953783
 51
262.2059535886
  0
ARC
  5
6B
  8
0
  6
CONTINUOUS
 62
     7
 10
108.5025560432
 20
430.8572175537
 30
0.0
 40
188.6925230558345
 50
258.4100052877
 51
262.2069436792
  0
ARC
  5
6C
  8
0
  6
CONTINUOUS
 62
     7
 10
71.1333744368
 20
248.647220986
 30
0.0
 40
2.690000000000011
 50
167.5813184942
 51
258.4099798932
  0
ARC
  5
6D
  8
0
  6
CONTINUOUS
 62
     7
 10
108.5021310697
 20
430.8547291401
 30
0.0
 40
188.6900000000001
 50
262.2069690737
 51
277.7930309263
  0
ARC
  5
6E
  8
0
  6
CONTINUOUS
 62
     7
 10
108.5021310697
 20
430.8547291401
 30
0.0
 40
183.3100000000001
 50
262.2069690737
 51
277.7930309263
  0
LINE
  5
6F
  8
0
  6
CONTINUOUS
 62
     7
 10
71.8021310697
 20
245.5067178655
 30
0.0
 11
70.8021310697
 21
245.5067178655
 31
0.0
  0
LINE
  5
70
  8
0
  6
CONTINUOUS
 62
     7
 10
70.8021310697
 20
245.977693344
 30
0.0
 11
70.8021310697
 21
245.5067178655
 31
0.0
  0
LINE
  5
71
  8
0
  6
CONTINUOUS
 62
     7
 10
71.8021310697
 20
245.7683201365
 30
0.0
 11
71.8021310697
 21
245.5067178655
 31
0.0
  0
LINE
  5
72
  8
0
  6
CONTINUOUS
 62
     7
 10
145.2021310697
 20
245.5067178655
 30
0.0
 11
146.2021310697
 21
245.5067178655
 31
0.0
  0
LINE
  5
73
  8
0
  6
CONTINUOUS
 62
     7
 10
146.2021310697
 20
245.5067178655
 30
0.0
 11
146.2021310697
 21
241.0397722429
 31
0.0
  0
LINE
  5
74
  8
0
  6
CONTINUOUS
 62
     7
 10
145.2021310697
 20
245.5067178655
 30
0.0
 11
145.2021310697
 21
241.0397722429
 31
0.0
  0
LINE
  5
75
  8
0
  6
CONTINUOUS
 62
     7
 10
70.8021310697
 20
245.5067178655
 30
0.0
 11
70.8021310697
 21
241.0397722429
 31
0.0
  0
LINE
  5
76
  8
0
  6
CONTINUOUS
 62
     7
 10
71.8021310697
 20
245.5067178655
 30
0.0
 11
71.8021310697
 21
241.0397722429
 31
0.0
  0
LINE
  5
77
  8
0
  6
CONTINUOUS
 62
     7
 10
146.2021310697
 20
245.977693344
 30
0.0
 11
146.2021310697
 21
245.5067178655
 31
0.0
  0
LINE
  5
78
  8
0
  6
CONTINUOUS
 62
     7
 10
145.2021310697
 20
245.7683102101
 30
0.0
 11
145.2021310697
 21
245.5067178655
 31
0.0
  0
LINE
  5
79
  8
0
  6
CONTINUOUS
 62
     7
 10
145.3262140588
 20
251.281502021
 30
0.0
 11
145.3304470824
 21
251.2823725824
 31
0.0
  0
LINE
  5
7A
  8
0
  6
CONTINUOUS
 62
     7
 10
70.8021310697
 20
241.0397722429
 30
0.0
 11
70.8021310697
 21
240.1862306653
 31
0.0
  0
LINE
  5
7B
  8
0
  6
CONTINUOUS
 62
     7
 10
71.8021310697
 20
241.0397722429
 30
0.0
 11
71.8021310697
 21
240.1862306653
 31
0.0
  0
LINE
  5
7C
  8
0
  6
CONTINUOUS
 62
     7
 10
146.2021310697
 20
241.0397722429
 30
0.0
 11
146.2021310697
 21
240.1862306653
 31
0.0
  0
LINE
  5
7D
  8
0
  6
CONTINUOUS
 62
     7
 10
145.2021310697
 20
241.0397722429
 30
0.0
 11
145.2021310697
 21
240.1862306653
 31
0.0
  0
LINE
  5
7E
  8
0
  6
CONTINUOUS
 62
     7
 10
70.8021310697
 20
240.1862306653
 30
0.0
 11
70.8021310697
 21
232.3318003171
 31
0.0
  0
LINE
  5
7F
  8
0
  6
CONTINUOUS
 62
     7
 10
71.8021310697
 20
240.1862306653
 30
0.0
 11
71.8021310697
 21
232.3318003171
 31
0.0
  0
LINE
  5
80
  8
0
  6
CONTINUOUS
 62
     7
 10
146.2021310697
 20
240.1862306653
 30
0.0
 11
146.2021310697
 21
232.3318003171
 31
0.0
  0
LINE
  5
81
  8
0
  6
CONTINUOUS
 62
     7
 10
145.2021310697
 20
240.1862306653
 30
0.0
 11
145.2021310697
 21
232.3318003171
 31
0.0
  0
LINE
  5
82
  8
0
  6
CONTINUOUS
 62
     7
 10
71.8021310697
 20
229.5667178655
 30
0.0
 11
70.8021310697
 21
229.5667178655
 31
0.0
  0
LINE
  5
83
  8
0
  6
CONTINUOUS
 62
     7
 10
70.8021310697
 20
231.5667178655
 30
0.0
 11
70.8021310697
 21
229.5667178655
 31
0.0
  0
LINE
  5
84
  8
0
  6
CONTINUOUS
 62
     7
 10
71.8021310697
 20
231.5667178655
 30
0.0
 11
71.8021310697
 21
229.5667178655
 31
0.0
  0
LINE
  5
85
  8
0
  6
CONTINUOUS
 62
     7
 10
145.2021310697
 20
229.5667178655
 30
0.0
 11
146.2021310697
 21
229.5667178655
 31
0.0
  0
LINE
  5
86
  8
0
  6
CONTINUOUS
 62
     7
 10
146.2021310697
 20
231.5667178655
 30
0.0
 11
146.2021310697
 21
229.5667178655
 31
0.0
  0
LINE
  5
87
  8
0
  6
CONTINUOUS
 62
     7
 10
145.2021310697
 20
231.5667178655
 30
0.0
 11
145.2021310697
 21
229.5667178655
 31
0.0
  0
LINE
  5
88
  8
0
  6
CONTINUOUS
 62
     7
 10
70.8021310697
 20
232.3318003171
 30
0.0
 11
70.8021310697
 21
231.5667178655
 31
0.0
  0
LINE
  5
89
  8
0
  6
CONTINUOUS
 62
     7
 10
71.8021310697
 20
232.3318003171
 30
0.0
 11
71.8021310697
 21
231.5667178655
 31
0.0
  0
LINE
  5
8A
  8
0
  6
CONTINUOUS
 62
     7
 10
146.2021310697
 20
232.3318003171
 30
0.0
 11
146.2021310697
 21
231.5667178655
 31
0.0
  0
LINE
  5
8B
  8
0
  6
CONTINUOUS
 62
     7
 10
145.2021310697
 20
232.3318003171
 30
0.0
 11
145.2021310697
 21
231.5667178655
 31
0.0
  0
LINE
  5
8C
  8
0
  6
CONTINUOUS
 62
     7
 10
76.0021310697
 20
225.3667178655
 30
0.0
 11
76.0021310697
 21
232.3667178655
 31
0.0
  0
ARC
  5
8D
  8
0
  6
CONTINUOUS
 62
     7
 10
74.0021310697
 20
225.3667178655
 30
0.0
 40
2.0
 50
270.0
 51
0.0
  0
LINE
  5
8E
  8
0
  6
CONTINUOUS
 62
     7
 10
74.0021310697
 20
223.3667178655
 30
0.0
 11
68.0021310697
 21
223.3667178655
 31
0.0
  0
ARC
  5
8F
  8
0
  6
CONTINUOUS
 62
     7
 10
68.0021310697
 20
225.3667178655
 30
0.0
 40
2.0
 50
180.0
 51
270.0
  0
LINE
  5
90
  8
0
  6
CONTINUOUS
 62
     7
 10
66.0021310697
 20
225.3667178655
 30
0.0
 11
66.0021310697
 21
232.3667178655
 31
0.0
  0
CIRCLE
  5
91
  8
0
  6
CONTINUOUS
 62
     7
 10
71.0021310697
 20
226.7667178655
 30
0.0
 40
1.000000000000014
  0
LINE
  5
92
  8
0
  6
CONTINUOUS
 62
     7
 10
145.2021310697
 20
233.3667178655
 30
0.0
 11
141.0021310697
 21
233.3667178655
 31
0.0
  0
LINE
  5
93
  8
0
  6
CONTINUOUS
 62
     7
 10
141.0021310697
 20
232.3667178655
 30
0.0
 11
141.0021310697
 21
233.3667178655
 31
0.0
  0
LINE
  5
94
  8
0
  6
CONTINUOUS
 62
     7
 10
151.0021310697
 20
232.3667178655
 30
0.0
 11
151.0021310697
 21
233.3667178655
 31
0.0
  0
LINE
  5
95
  8
0
  6
CONTINUOUS
 62
     7
 10
151.0021310697
 20
233.3667178655
 30
0.0
 11
146.2021310697
 21
233.3667178655
 31
0.0
  0
ARC
  5
96
  8
0
  6
CONTINUOUS
 62
     7
 10
149.0021310697
 20
225.3667178655
 30
0.0
 40
2.0
 50
270.0
 51
0.0
  0
LINE
  5
97
  8
0
  6
CONTINUOUS
 62
     7
 10
149.0021310697
 20
223.3667178655
 30
0.0
 11
143.0021310697
 21
223.3667178655
 31
0.0
  0
ARC
  5
98
  8
0
  6
CONTINUOUS
 62
     7
 10
143.0021310697
 20
225.3667178655
 30
0.0
 40
2.0
 50
180.0
 51
270.0
  0
LINE
  5
99
  8
0
  6
CONTINUOUS
 62
     7
 10
141.0021310697
 20
232.3667178655
 30
0.0
 11
141.0021310697
 21
225.3667178655
 31
0.0
  0
CIRCLE
  5
9A
  8
0
  6
CONTINUOUS
 62
     7
 10
146.0021310697
 20
226.7667178655
 30
0.0
 40
1.000000000000028
  0
LINE
  5
9B
  8
0
  6
CONTINUOUS
 62
     7
 10
151.0021310697
 20
225.3667178655
 30
0.0
 11
151.0021310697
 21
232.3667178655
 31
0.0
  0
LINE
  5
9C
  8
0
  6
CONTINUOUS
 62
     7
 10
76.0021310697
 20
233.3667178655
 30
0.0
 11
71.8021310697
 21
233.3667178655
 31
0.0
  0
LINE
  5
9D
  8
0
  6
CONTINUOUS
 62
     7
 10
76.0021310697
 20
233.3667178655
 30
0.0
 11
76.0021310697
 21
232.3667178655
 31
0.0
  0
LINE
  5
9E
  8
0
  6
CONTINUOUS
 62
     7
 10
70.8021310697
 20
233.3667178655
 30
0.0
 11
66.0021310697
 21
233.3667178655
 31
0.0
  0
LINE
  5
9F
  8
0
  6
CONTINUOUS
 62
     7
 10
66.0021310697
 20
232.3667178655
 30
0.0
 11
66.0021310697
 21
233.3667178655
 31
0.0
  0
POLYLINE
  5
A0
  8
0
  6
CONTINUOUS
 62
     7
 66
     1
 10
0.0
 20
0.0
 30
0.0
  0
VERTEX
  5
13A
  8
0
  6
CONTINUOUS
 62
     7
 10
367.2866229403
 20
246.5754682541
 30
0.0
  0
VERTEX
  5
13B
  8
0
  6
CONTINUOUS
 62
     7
 10
367.2812653078
 20
246.8448151162
 30
0.0
  0
VERTEX
  5
13C
  8
0
  6
CONTINUOUS
 62
     7
 10
367.2140665717
 20
247.2517192442
 30
0.0
  0
VERTEX
  5
13D
  8
0
  6
CONTINUOUS
 62
     7
 10
367.0964898956
 20
247.6305282726
 30
0.0
  0
VERTEX
  5
13E
  8
0
  6
CONTINUOUS
 62
     7
 10
366.9373828312
 20
247.9765267547
 30
0.0
  0
VERTEX
  5
13F
  8
0
  6
CONTINUOUS
 62
     7
 10
366.7456321791
 20
248.2871524157
 30
0.0
  0
VERTEX
  5
140
  8
0
  6
CONTINUOUS
 62
     7
 10
366.5291587133
 20
248.5624883761
 30
0.0
  0
VERTEX
  5
141
  8
0
  6
CONTINUOUS
 62
     7
 10
366.2932523128
 20
248.805647293
 30
0.0
  0
VERTEX
  5
142
  8
0
  6
CONTINUOUS
 62
     7
 10
366.0386836247
 20
249.0225409427
 30
0.0
  0
VERTEX
  5
143
  8
0
  6
CONTINUOUS
 62
     7
 10
365.7595435693
 20
249.2214096234
 30
0.0
  0
VERTEX
  5
144
  8
0
  6
CONTINUOUS
 62
     7
 10
365.4376122948
 20
249.4137308253
 30
0.0
  0
VERTEX
  5
145
  8
0
  6
CONTINUOUS
 62
     7
 10
365.0521802743
 20
249.6062279802
 30
0.0
  0
VERTEX
  5
146
  8
0
  6
CONTINUOUS
 62
     7
 10
364.540533615
 20
249.8175857194
 30
0.0
  0
VERTEX
  5
147
  8
0
  6
CONTINUOUS
 62
     7
 10
363.9660452304
 20
250.0141454519
 30
0.0
  0
VERTEX
  5
148
  8
0
  6
CONTINUOUS
 62
     7
 10
363.3910908455
 20
250.1810817026
 30
0.0
  0
VERTEX
  5
149
  8
0
  6
CONTINUOUS
 62
     7
 10
362.7355577732
 20
250.3451451177
 30
0.0
  0
VERTEX
  5
14A
  8
0
  6
CONTINUOUS
 62
     7
 10
362.0613997032
 20
250.4916219141
 30
0.0
  0
VERTEX
  5
14B
  8
0
  6
CONTINUOUS
 62
     7
 10
361.3611026856
 20
250.6247811981
 30
0.0
  0
VERTEX
  5
14C
  8
0
  6
CONTINUOUS
 62
     7
 10
360.6487641341
 20
250.7434439736
 30
0.0
  0
VERTEX
  5
14D
  8
0
  6
CONTINUOUS
 62
     7
 10
359.8853306729
 20
250.854756362
 30
0.0
  0
VERTEX
  5
14E
  8
0
  6
CONTINUOUS
 62
     7
 10
359.0887051047
 20
250.9558844331
 30
0.0
  0
VERTEX
  5
14F
  8
0
  6
CONTINUOUS
 62
     7
 10
358.2624750097
 20
251.0464016396
 30
0.0
  0
VERTEX
  5
150
  8
0
  6
CONTINUOUS
 62
     7
 10
357.4115392755
 20
251.1256587098
 30
0.0
  0
VERTEX
  5
151
  8
0
  6
CONTINUOUS
 62
     7
 10
356.5416316115
 20
251.1929399379
 30
0.0
  0
VERTEX
  5
152
  8
0
  6
CONTINUOUS
 62
     7
 10
355.6588949456
 20
251.2475612919
 30
0.0
  0
VERTEX
  5
153
  8
0
  6
CONTINUOUS
 62
     7
 10
354.7699737954
 20
251.2889417638
 30
0.0
  0
VERTEX
  5
154
  8
0
  6
CONTINUOUS
 62
     7
 10
353.8733917302
 20
251.3173426465
 30
0.0
  0
VERTEX
  5
155
  8
0
  6
CONTINUOUS
 62
     7
 10
352.9581231143
 20
251.3331104336
 30
0.0
  0
VERTEX
  5
156
  8
0
  6
CONTINUOUS
 62
     7
 10
352.293608569
 20
251.3350804948
 30
0.0
  0
SEQEND
  5
180
  8
0
  6
CONTINUOUS
 62
     7
  0
ARC
  5
A1
  8
0
  6
CONTINUOUS
 62
     7
 10
311.9949102785
 20
196.1826639846
 30
0.0
 40
55.15382925203355
 50
89.6898886661
 51
97.9477449657
  0
LINE
  5
A2
  8
0
  6
CONTINUOUS
 62
     7
 10
352.2935354638
 20
251.337220986
 30
0.0
 11
312.2935354638
 21
251.337220986
 31
0.0
  0
POLYLINE
  5
A3
  8
0
  6
CONTINUOUS
 62
     7
 66
     1
 10
0.0
 20
0.0
 30
0.0
  0
VERTEX
  5
157
  8
0
  6
CONTINUOUS
 62
     7
 10
352.2934038317
 20
245.9556711888
 30
0.0
  0
VERTEX
  5
158
  8
0
  6
CONTINUOUS
 62
     7
 10
353.021328042
 20
245.9520839037
 30
0.0
  0
VERTEX
  5
159
  8
0
  6
CONTINUOUS
 62
     7
 10
353.8619966163
 20
245.9358883732
 30
0.0
  0
VERTEX
  5
15A
  8
0
  6
CONTINUOUS
 62
     7
 10
354.691285608
 20
245.9077616239
 30
0.0
  0
VERTEX
  5
15B
  8
0
  6
CONTINUOUS
 62
     7
 10
355.5032012785
 20
245.8679275048
 30
0.0
  0
VERTEX
  5
15C
  8
0
  6
CONTINUOUS
 62
     7
 10
356.292231553
 20
245.8171338283
 30
0.0
  0
VERTEX
  5
15D
  8
0
  6
CONTINUOUS
 62
     7
 10
357.0654759764
 20
245.7555278592
 30
0.0
  0
VERTEX
  5
15E
  8
0
  6
CONTINUOUS
 62
     7
 10
357.8177893652
 20
245.6838153037
 30
0.0
  0
VERTEX
  5
15F
  8
0
  6
CONTINUOUS
 62
     7
 10
358.5402278965
 20
245.6031876276
 30
0.0
  0
VERTEX
  5
160
  8
0
  6
CONTINUOUS
 62
     7
 10
359.2226472863
 20
245.515290569
 30
0.0
  0
VERTEX
  5
161
  8
0
  6
CONTINUOUS
 62
     7
 10
359.8566152856
 20
245.4219275388
 30
0.0
  0
VERTEX
  5
162
  8
0
  6
CONTINUOUS
 62
     7
 10
360.4343224661
 20
245.3251798587
 30
0.0
  0
VERTEX
  5
163
  8
0
  6
CONTINUOUS
 62
     7
 10
360.9529851888
 20
245.2268637508
 30
0.0
  0
VERTEX
  5
164
  8
0
  6
CONTINUOUS
 62
     7
 10
361.4303828914
 20
245.1248729081
 30
0.0
  0
VERTEX
  5
165
  8
0
  6
CONTINUOUS
 62
     7
 10
361.8453668427
 20
245.0247704208
 30
0.0
  0
VERTEX
  5
166
  8
0
  6
CONTINUOUS
 62
     7
 10
362.1948664789
 20
244.9293409463
 30
0.0
  0
VERTEX
  5
167
  8
0
  6
CONTINUOUS
 62
     7
 10
362.47350309
 20
244.8428098949
 30
0.0
  0
VERTEX
  5
168
  8
0
  6
CONTINUOUS
 62
     7
 10
362.657526491
 20
244.7778659496
 30
0.0
  0
VERTEX
  5
169
  8
0
  6
CONTINUOUS
 62
     7
 10
362.7790747447
 20
244.729276726
 30
0.0
  0
VERTEX
  5
16A
  8
0
  6
CONTINUOUS
 62
     7
 10
362.8421540835
 20
244.7006537877
 30
0.0
  0
VERTEX
  5
16B
  8
0
  6
CONTINUOUS
 62
     7
 10
362.8500041274
 20
244.6967470837
 30
0.0
  0
SEQEND
  5
17F
  8
0
  6
CONTINUOUS
 62
     7
  0
LINE
  5
A4
  8
0
  6
CONTINUOUS
 62
     7
 10
323.2935354638
 20
245.957220986
 30
0.0
 11
352.2935354638
 21
245.957220986
 31
0.0
  0
LINE
  5
A5
  8
0
  6
CONTINUOUS
 62
     7
 10
323.2935354638
 20
245.8547291401
 30
0.0
 11
355.7082250146
 21
245.8547291401
 31
0.0
  0
ARC
  5
A6
  8
0
  6
CONTINUOUS
 62
     7
 10
364.6035354638
 20
244.8547291401
 30
0.0
 40
2.689999999999998
 50
180.0
 51
270.0
  0
ARC
  5
A7
  8
0
  6
CONTINUOUS
 62
     7
 10
364.6035354638
 20
244.8547291401
 30
0.0
 40
2.689999999999998
 50
270.0
 51
0.0
  0
ARC
  5
A8
  8
0
  6
CONTINUOUS
 62
     7
 10
282.1935354638
 20
231.5667178655
 30
0.0
 40
1.0
 50
90.0
 51
180.0
  0
LINE
  5
A9
  8
0
  6
CONTINUOUS
 62
     7
 10
281.1935354638
 20
223.5667178655
 30
0.0
 11
281.1935354638
 21
231.5667178655
 31
0.0
  0
LINE
  5
AA
  8
0
  6
CONTINUOUS
 62
     7
 10
282.1935354638
 20
232.5667178655
 30
0.0
 11
290.1935354638
 21
232.5667178655
 31
0.0
  0
ARC
  5
AB
  8
0
  6
CONTINUOUS
 62
     7
 10
282.1935354638
 20
223.5667178655
 30
0.0
 40
1.0
 50
180.0
 51
270.0
  0
LINE
  5
AC
  8
0
  6
CONTINUOUS
 62
     7
 10
290.1935354638
 20
222.5667178655
 30
0.0
 11
282.1935354638
 21
222.5667178655
 31
0.0
  0
ARC
  5
AD
  8
0
  6
CONTINUOUS
 62
     7
 10
290.1935354638
 20
231.5667178655
 30
0.0
 40
1.0
 50
0.0
 51
90.0
  0
LINE
  5
AE
  8
0
  6
CONTINUOUS
 62
     7
 10
291.1935354638
 20
231.5667178655
 30
0.0
 11
291.1935354638
 21
223.5667178655
 31
0.0
  0
ARC
  5
AF
  8
0
  6
CONTINUOUS
 62
     7
 10
290.1935354638
 20
223.5667178655
 30
0.0
 40
1.0
 50
270.0
 51
0.0
  0
LINE
  5
B0
  8
0
  6
CONTINUOUS
 62
     7
 10
274.1935354638
 20
157.3667178655
 30
0.0
 11
274.1935354638
 21
158.5667178655
 31
0.0
  0
LINE
  5
B1
  8
0
  6
CONTINUOUS
 62
     7
 10
278.1935354638
 20
157.3667178655
 30
0.0
 11
274.1935354638
 21
157.3667178655
 31
0.0
  0
LINE
  5
B2
  8
0
  6
CONTINUOUS
 62
     7
 10
274.1935354638
 20
158.5667178655
 30
0.0
 11
278.1935354638
 21
158.5667178655
 31
0.0
  0
LINE
  5
B3
  8
0
  6
CONTINUOUS
 62
     7
 10
278.1935354638
 20
157.3667178655
 30
0.0
 11
280.1935354638
 21
157.3667178655
 31
0.0
  0
LINE
  5
B4
  8
0
  6
CONTINUOUS
 62
     7
 10
278.1935354638
 20
158.5667178655
 30
0.0
 11
280.1935354638
 21
158.5667178655
 31
0.0
  0
LINE
  5
B5
  8
0
  6
CONTINUOUS
 62
     7
 10
280.1935354638
 20
157.3667178655
 30
0.0
 11
307.5619565165
 21
157.3667178655
 31
0.0
  0
LINE
  5
B6
  8
0
  6
CONTINUOUS
 62
     7
 10
307.5619565165
 20
158.5667178655
 30
0.0
 11
280.1935354638
 21
158.5667178655
 31
0.0
  0
LINE
  5
B7
  8
0
  6
CONTINUOUS
 62
     7
 10
310.1935354638
 20
158.5667178655
 30
0.0
 11
310.1935354638
 21
157.3667178655
 31
0.0
  0
LINE
  5
B8
  8
0
  6
CONTINUOUS
 62
     7
 10
310.1935354638
 20
157.3667178655
 30
0.0
 11
307.5619565165
 21
157.3667178655
 31
0.0
  0
LINE
  5
B9
  8
0
  6
CONTINUOUS
 62
     7
 10
307.5619565165
 20
158.5667178655
 30
0.0
 11
310.1935354638
 21
158.5667178655
 31
0.0
  0
LINE
  5
BA
  8
0
  6
CONTINUOUS
 62
     7
 10
281.1935354638
 20
158.5667178655
 30
0.0
 11
281.1935354638
 21
223.3667178655
 31
0.0
  0
LINE
  5
BB
  8
0
  6
CONTINUOUS
 62
     7
 10
291.1935354638
 20
223.5667178655
 30
0.0
 11
291.1935354638
 21
158.5667178655
 31
0.0
  0
ARC
  5
BC
  8
0
  6
CONTINUOUS
 62
     7
 10
291.1935354638
 20
232.3667178655
 30
0.0
 40
0.2000000000000455
 50
0.0
 51
90.0
  0
LINE
  5
BD
  8
0
  6
CONTINUOUS
 62
     7
 10
291.1935354638
 20
232.5667178655
 30
0.0
 11
290.1935354638
 21
232.5667178655
 31
0.0
  0
LINE
  5
BE
  8
0
  6
CONTINUOUS
 62
     7
 10
282.1935354638
 20
232.5667178655
 30
0.0
 11
281.3935354638
 21
232.5667178655
 31
0.0
  0
ARC
  5
BF
  8
0
  6
CONTINUOUS
 62
     7
 10
281.3935354638
 20
232.3667178655
 30
0.0
 40
0.2000000000000455
 50
90.0
 51
180.0
  0
LINE
  5
C0
  8
0
  6
CONTINUOUS
 62
     7
 10
281.1935354638
 20
232.3667178655
 30
0.0
 11
281.1935354638
 21
231.5667178655
 31
0.0
  0
LINE
  5
C1
  8
0
  6
CONTINUOUS
 62
     7
 10
280.3935354638
 20
232.3667178655
 30
0.0
 11
280.3935354638
 21
225.3667178655
 31
0.0
  0
ARC
  5
C2
  8
0
  6
CONTINUOUS
 62
     7
 10
281.3935354638
 20
232.3667178655
 30
0.0
 40
1.0
 50
90.0
 51
180.0
  0
LINE
  5
C3
  8
0
  6
CONTINUOUS
 62
     7
 10
291.1935354638
 20
233.3667178655
 30
0.0
 11
281.3935354638
 21
233.3667178655
 31
0.0
  0
ARC
  5
C4
  8
0
  6
CONTINUOUS
 62
     7
 10
291.1935354638
 20
232.3667178655
 30
0.0
 40
1.0
 50
0.0
 51
90.0
  0
LINE
  5
C5
  8
0
  6
CONTINUOUS
 62
     7
 10
292.1935354638
 20
225.3667178655
 30
0.0
 11
292.1935354638
 21
232.3667178655
 31
0.0
  0
LINE
  5
C6
  8
0
  6
CONTINUOUS
 62
     7
 10
291.3935354638
 20
225.3667178655
 30
0.0
 11
291.3935354638
 21
232.3667178655
 31
0.0
  0
LINE
  5
C7
  8
0
  6
CONTINUOUS
 62
     7
 10
281.1935354638
 20
223.5667178655
 30
0.0
 11
281.1935354638
 21
223.3667178655
 31
0.0
  0
LINE
  5
C8
  8
0
  6
CONTINUOUS
 62
     7
 10
281.1935354638
 20
223.3667178655
 30
0.0
 11
280.3935354638
 21
223.3667178655
 31
0.0
  0
LINE
  5
C9
  8
0
  6
CONTINUOUS
 62
     7
 10
280.3935354638
 20
223.3667178655
 30
0.0
 11
280.3935354638
 21
225.3667178655
 31
0.0
  0
LINE
  5
CA
  8
0
  6
CONTINUOUS
 62
     7
 10
292.1935354638
 20
225.3667178655
 30
0.0
 11
292.1935354638
 21
223.3667178655
 31
0.0
  0
LINE
  5
CB
  8
0
  6
CONTINUOUS
 62
     7
 10
292.1935354638
 20
223.3667178655
 30
0.0
 11
291.3935354638
 21
223.3667178655
 31
0.0
  0
LINE
  5
CC
  8
0
  6
CONTINUOUS
 62
     7
 10
291.3935354638
 20
223.3667178655
 30
0.0
 11
291.3935354638
 21
225.3667178655
 31
0.0
  0
POLYLINE
  5
CD
  8
0
  6
CONTINUOUS
 62
     7
 66
     1
 10
0.0
 20
0.0
 30
0.0
  0
VERTEX
  5
16C
  8
0
  6
CONTINUOUS
 62
     7
 10
304.2444412128
 20
248.7588122741
 30
0.0
  0
VERTEX
  5
16D
  8
0
  6
CONTINUOUS
 62
     7
 10
304.4144081719
 20
249.1232818244
 30
0.0
  0
VERTEX
  5
16E
  8
0
  6
CONTINUOUS
 62
     7
 10
304.6619335266
 20
249.4615226919
 30
0.0
  0
VERTEX
  5
16F
  8
0
  6
CONTINUOUS
 62
     7
 10
305.0539444891
 20
249.8345433096
 30
0.0
  0
VERTEX
  5
170
  8
0
  6
CONTINUOUS
 62
     7
 10
305.5115598364
 20
250.1503328364
 30
0.0
  0
VERTEX
  5
171
  8
0
  6
CONTINUOUS
 62
     7
 10
306.2855553443
 20
250.5289463989
 30
0.0
  0
VERTEX
  5
172
  8
0
  6
CONTINUOUS
 62
     7
 10
307.1197267683
 20
250.8067178655
 30
0.0
  0
SEQEND
  5
17E
  8
0
  6
CONTINUOUS
 62
     7
  0
POLYLINE
  5
CE
  8
0
  6
CONTINUOUS
 62
     7
 66
     1
 10
0.0
 20
0.0
 30
0.0
  0
VERTEX
  5
173
  8
0
  6
CONTINUOUS
 62
     7
 10
310.026994994
 20
245.9692886641
 30
0.0
  0
VERTEX
  5
174
  8
0
  6
CONTINUOUS
 62
     7
 10
307.9956031545
 20
246.0260573087
 30
0.0
  0
VERTEX
  5
175
  8
0
  6
CONTINUOUS
 62
     7
 10
306.9047469307
 20
246.1541882393
 30
0.0
  0
VERTEX
  5
176
  8
0
  6
CONTINUOUS
 62
     7
 10
305.8447791176
 20
246.4274354483
 30
0.0
  0
VERTEX
  5
177
  8
0
  6
CONTINUOUS
 62
     7
 10
305.1535072297
 20
246.7511077456
 30
0.0
  0
VERTEX
  5
178
  8
0
  6
CONTINUOUS
 62
     7
 10
304.8378008844
 20
246.9725383567
 30
0.0
  0
VERTEX
  5
179
  8
0
  6
CONTINUOUS
 62
     7
 10
304.5609633369
 20
247.2399462563
 30
0.0
  0
VERTEX
  5
17A
  8
0
  6
CONTINUOUS
 62
     7
 10
304.27195736
 20
247.7023618369
 30
0.0
  0
VERTEX
  5
17B
  8
0
  6
CONTINUOUS
 62
     7
 10
304.1602986216
 20
248.239386222
 30
0.0
  0
VERTEX
  5
17C
  8
0
  6
CONTINUOUS
 62
     7
 10
304.2444412128
 20
248.7588122741
 30
0.0
  0
SEQEND
  5
17D
  8
0
  6
CONTINUOUS
 62
     7
  0
LINE
  5
CF
  8
0
  6
CONTINUOUS
 62
     7
 10
312.2935354638
 20
245.977693344
 30
0.0
 11
310.026994994
 21
245.9692886641
 31
0.0
  0
LINE
  5
D0
  8
0
  6
CONTINUOUS
 62
     7
 10
323.2935354638
 20
245.977693344
 30
0.0
 11
312.2935354638
 21
245.977693344
 31
0.0
  0
ARC
  5
D1
  8
0
  6
CONTINUOUS
 62
     7
 10
283.8995172216
 20
358.8562274663
 30
0.0
 40
120.0000000000001
 50
280.9468409701
 51
289.1646231125
  0
LINE
  5
D2
  8
0
  6
CONTINUOUS
 62
     7
 10
306.6872963716
 20
241.0397722429
 30
0.0
 11
302.2743501872
 21
240.1862306653
 31
0.0
  0
ARC
  5
D3
  8
0
  6
CONTINUOUS
 62
     7
 10
303.7935354638
 20
232.3318003171
 30
0.0
 40
8.0
 50
100.9468409701
 51
180.0
  0
LINE
  5
D4
  8
0
  6
CONTINUOUS
 62
     7
 10
295.7935354638
 20
232.3318003171
 30
0.0
 11
295.7935354638
 21
231.5667178655
 31
0.0
  0
ARC
  5
D5
  8
0
  6
CONTINUOUS
 62
     7
 10
293.7935354638
 20
231.5667178655
 30
0.0
 40
2.0
 50
270.0
 51
0.0
  0
LINE
  5
D6
  8
0
  6
CONTINUOUS
 62
     7
 10
293.7935354638
 20
229.5667178655
 30
0.0
 11
292.1935354638
 21
229.5667178655
 31
0.0
  0
LINE
  5
D7
  8
0
  6
CONTINUOUS
 62
     7
 10
280.3935354638
 20
229.5667178655
 30
0.0
 11
279.5935354638
 21
229.5667178655
 31
0.0
  0
ARC
  5
D8
  8
0
  6
CONTINUOUS
 62
     7
 10
279.5935354638
 20
231.5667178655
 30
0.0
 40
2.0
 50
180.0
 51
270.0
  0
LINE
  5
D9
  8
0
  6
CONTINUOUS
 62
     7
 10
277.5935354638
 20
231.5667178655
 30
0.0
 11
277.5935354638
 21
234.1277423159
 31
0.0
  0
ARC
  5
DA
  8
0
  6
CONTINUOUS
 62
     7
 10
285.5935354638
 20
234.1277423159
 30
0.0
 40
8.000000000000007
 50
140.3596923241
 51
180.0
  0
ARC
  5
DB
  8
0
  6
CONTINUOUS
 62
     7
 10
304.0750864233
 20
218.8165609724
 30
0.0
 40
32.00000000000004
 50
91.4211498515
 51
140.3596923241
  0
LINE
  5
DC
  8
0
  6
CONTINUOUS
 62
     7
 10
303.2814479966
 20
250.8067178655
 30
0.0
 11
307.1197267683
 21
250.8067178655
 31
0.0
  0
LINE
  5
DD
  8
0
  6
CONTINUOUS
 62
     7
 10
323.2935354638
 20
245.977693344
 30
0.0
 11
323.2935354638
 21
245.5067178655
 31
0.0
  0
LINE
  5
DE
  8
0
  6
CONTINUOUS
 62
     7
 10
361.9135354638
 20
244.9722936137
 30
0.0
 11
361.9135354638
 21
244.8547291401
 31
0.0
  0
LINE
  5
DF
  8
0
  6
CONTINUOUS
 62
     7
 10
367.2935354638
 20
244.8547291401
 30
0.0
 11
367.2935354638
 21
246.5725617749
 31
0.0
  0
LINE
  5
E0
  8
0
  6
CONTINUOUS
 62
     7
 10
367.2935354638
 20
246.5725617749
 30
0.0
 11
367.2930944554
 21
246.6208195349
 31
0.0
  0
ARC
  5
E1
  8
0
  6
CONTINUOUS
 62
     7
 10
133.6848365882
 20
31.0574295816
 30
0.0
 40
14.86920582181184
 50
271.1146618208
 51
0.4726859837
  0
ARC
  5
E2
  8
0
  6
CONTINUOUS
 62
     7
 10
83.356838668
 20
31.0741350451
 30
0.0
 40
14.90557182187429
 50
179.59327057
 51
256.9855631181
  0
ARC
  5
E3
  8
0
  6
CONTINUOUS
 62
     7
 10
133.6746063666
 20
71.268507624
 30
0.0
 40
14.87764452954326
 50
359.6598949593
 51
32.6990589988
  0
ARC
  5
E4
  8
0
  6
CONTINUOUS
 62
     7
 10
83.4217060004
 20
71.2359506265
 30
0.0
 40
14.97539283136339
 50
147.3882496958
 51
180.2160487946
  0
ARC
  5
E5
  8
0
  6
CONTINUOUS
 62
     7
 10
83.2457912875
 20
71.473177884
 30
0.0
 40
14.69877660127834
 50
90.6975962451
 51
141.1138733161
  0
ARC
  5
E6
  8
0
  6
CONTINUOUS
 62
     7
 10
133.761494847
 20
71.4965007505
 30
0.0
 40
14.67822946148839
 50
38.7741670412
 51
89.7632158705
  0
LINE
  5
E7
  8
0
  6
CONTINUOUS
 62
     7
 10
68.4433744368
 20
71.1801575592
 30
0.0
 11
68.4433744368
 21
31.1801575592
 31
0.0
  0
LINE
  5
E8
  8
0
  6
CONTINUOUS
 62
     7
 10
148.5608877025
 20
31.1801575592
 30
0.0
 11
148.5608877025
 21
71.1801575592
 31
0.0
  0
LINE
  5
E9
  8
0
  6
CONTINUOUS
 62
     7
 10
152.1021310697
 20
101.8801575592
 30
0.0
 11
152.1021310697
 21
101.2801575592
 31
0.0
  0
ARC
  5
EA
  8
0
  6
CONTINUOUS
 62
     7
 10
151.7021310697
 20
101.8801575592
 30
0.0
 40
0.4000000000000057
 50
0.0
 51
90.0
  0
LINE
  5
EB
  8
0
  6
CONTINUOUS
 62
     7
 10
65.3021310697
 20
102.2801575592
 30
0.0
 11
66.0021310697
 21
102.2801575592
 31
0.0
  0
LINE
  5
EC
  8
0
  6
CONTINUOUS
 62
     7
 10
76.0021310697
 20
102.2801575592
 30
0.0
 11
141.0021310697
 21
102.2801575592
 31
0.0
  0
LINE
  5
ED
  8
0
  6
CONTINUOUS
 62
     7
 10
151.0021310697
 20
102.2801575592
 30
0.0
 11
151.7021310697
 21
102.2801575592
 31
0.0
  0
LINE
  5
EE
  8
0
  6
CONTINUOUS
 62
     7
 10
64.9021310697
 20
101.2801575592
 30
0.0
 11
64.9021310697
 21
101.8801575592
 31
0.0
  0
ARC
  5
EF
  8
0
  6
CONTINUOUS
 62
     7
 10
65.3021310697
 20
101.8801575592
 30
0.0
 40
0.4000000000000057
 50
90.0
 51
180.0
  0
LINE
  5
F0
  8
0
  6
CONTINUOUS
 62
     7
 10
64.9021310697
 20
93.2801575592
 30
0.0
 11
64.9021310697
 21
101.2801575592
 31
0.0
  0
LINE
  5
F1
  8
0
  6
CONTINUOUS
 62
     7
 10
152.1021310697
 20
101.2801575592
 30
0.0
 11
152.1021310697
 21
93.2801575592
 31
0.0
  0
LINE
  5
F2
  8
0
  6
CONTINUOUS
 62
     7
 10
151.7021310697
 20
92.2801575592
 30
0.0
 11
151.0021310697
 21
92.2801575592
 31
0.0
  0
LINE
  5
F3
  8
0
  6
CONTINUOUS
 62
     7
 10
141.0021310697
 20
92.2801575592
 30
0.0
 11
76.0021310697
 21
92.2801575592
 31
0.0
  0
LINE
  5
F4
  8
0
  6
CONTINUOUS
 62
     7
 10
66.0021310697
 20
92.2801575592
 30
0.0
 11
65.3021310697
 21
92.2801575592
 31
0.0
  0
LINE
  5
F5
  8
0
  6
CONTINUOUS
 62
     7
 10
152.1021310697
 20
93.2801575592
 30
0.0
 11
152.1021310697
 21
92.6801575592
 31
0.0
  0
ARC
  5
F6
  8
0
  6
CONTINUOUS
 62
     7
 10
151.7021310697
 20
92.6801575592
 30
0.0
 40
0.4000000000000057
 50
270.0
 51
0.0
  0
LINE
  5
F7
  8
0
  6
CONTINUOUS
 62
     7
 10
64.9021310697
 20
92.6801575592
 30
0.0
 11
64.9021310697
 21
93.2801575592
 31
0.0
  0
ARC
  5
F8
  8
0
  6
CONTINUOUS
 62
     7
 10
65.3021310697
 20
92.6801575592
 30
0.0
 40
0.4000000000000057
 50
180.0
 51
270.0
  0
CIRCLE
  5
F9
  8
0
  6
CONTINUOUS
 62
     7
 10
116.5021310697
 20
105.2801575592
 30
0.0
 40
1.5
  0
CIRCLE
  5
FA
  8
0
  6
CONTINUOUS
 62
     7
 10
100.5021310697
 20
105.2801575592
 30
0.0
 40
1.5
  0
ARC
  5
FB
  8
0
  6
CONTINUOUS
 62
     7
 10
176.5021310697
 20
103.2801575592
 30
0.0
 40
80.0
 50
187.9032077335
 51
192.3422028872
  0
LINE
  5
FC
  8
0
  6
CONTINUOUS
 62
     7
 10
96.5083813138
 20
102.2801575592
 30
0.0
 11
96.5021310697
 21
103.2801575592
 31
0.0
  0
LINE
  5
FD
  8
0
  6
CONTINUOUS
 62
     7
 10
96.5021310697
 20
105.2801575592
 30
0.0
 11
96.5021310697
 21
103.2801575592
 31
0.0
  0
ARC
  5
FE
  8
0
  6
CONTINUOUS
 62
     7
 10
100.5021310697
 20
105.2801575592
 30
0.0
 40
4.0
 50
90.0
 51
180.0
  0
LINE
  5
FF
  8
0
  6
CONTINUOUS
 62
     7
 10
116.5021310697
 20
109.2801575592
 30
0.0
 11
100.5021310697
 21
109.2801575592
 31
0.0
  0
ARC
  5
100
  8
0
  6
CONTINUOUS
 62
     7
 10
116.5021310697
 20
105.2801575592
 30
0.0
 40
4.000000000000014
 50
0.0
 51
90.0
  0
LINE
  5
101
  8
0
  6
CONTINUOUS
 62
     7
 10
120.5021310697
 20
103.2801575592
 30
0.0
 11
120.5021310697
 21
105.2801575592
 31
0.0
  0
LINE
  5
102
  8
0
  6
CONTINUOUS
 62
     7
 10
120.5021310697
 20
103.2801575592
 30
0.0
 11
120.4958808255
 21
102.2801575592
 31
0.0
  0
ARC
  5
103
  8
0
  6
CONTINUOUS
 62
     7
 10
40.5021310697
 20
103.2801575592
 30
0.0
 40
80.0
 50
347.6577971128
 51
352.0967922665
  0
ARC
  5
104
  8
0
  6
CONTINUOUS
 62
     7
 10
78.2062509443
 20
72.3901556601
 30
0.0
 40
8.398379935920694
 50
139.6888361377
 51
151.8375397272
  0
LINE
  5
105
  8
0
  6
CONTINUOUS
 62
     7
 10
83.1579423904
 20
86.1748099184
 30
0.0
 11
83.2814492551
 21
86.1801575592
 31
0.0
  0
ARC
  5
106
  8
0
  6
CONTINUOUS
 62
     7
 10
83.6417098168
 20
71.2739921505
 30
0.0
 40
10.07562416068525
 50
100.5231128208
 51
180.5336050341
  0
LINE
  5
107
  8
0
  6
CONTINUOUS
 62
     7
 10
133.839354514
 20
16.185203617
 30
0.0
 11
133.7228128843
 21
16.1801575592
 31
0.0
  0
ARC
  5
108
  8
0
  6
CONTINUOUS
 62
     7
 10
133.3625523225
 20
31.0863229679
 30
0.0
 40
10.07562416068523
 50
280.5231128208
 51
0.5336050341
  0
ARC
  5
109
  8
0
  6
CONTINUOUS
 62
     7
 10
138.7192872808
 20
72.3365809711
 30
0.0
 40
8.493075749479482
 50
28.230438495
 51
40.2431856401
  0
ARC
  5
10A
  8
0
  6
CONTINUOUS
 62
     7
 10
133.3802888067
 20
71.2885982415
 30
0.0
 40
10.05803531831196
 50
359.3822537299
 51
79.5610284151
  0
LINE
  5
10B
  8
0
  6
CONTINUOUS
 62
     7
 10
83.2814492551
 20
16.1801575592
 30
0.0
 11
83.187972512
 21
16.1853824155
 31
0.0
  0
ARC
  5
10C
  8
0
  6
CONTINUOUS
 62
     7
 10
83.6239733326
 20
31.0717168769
 30
0.0
 40
10.05803531831199
 50
179.3822537299
 51
259.5610284151
  0
LINE
  5
10D
  8
0
  6
CONTINUOUS
 62
     7
 10
73.5665226078
 20
71.1801575592
 30
0.0
 11
73.5665226078
 21
31.1801575592
 31
0.0
  0
LINE
  5
10E
  8
0
  6
CONTINUOUS
 62
     7
 10
143.4377395316
 20
31.1801575592
 30
0.0
 11
143.4377395316
 21
71.1801575592
 31
0.0
  0
LINE
  5
10F
  8
0
  6
CONTINUOUS
 62
     7
 10
145.2021310697
 20
80.1922450264
 30
0.0
 11
146.2021310697
 21
80.1922450264
 31
0.0
  0
LINE
  5
110
  8
0
  6
CONTINUOUS
 62
     7
 10
146.2021310697
 20
104.0406745457
 30
0.0
 11
146.2021310697
 21
80.1922450264
 31
0.0
  0
LINE
  5
111
  8
0
  6
CONTINUOUS
 62
     7
 10
145.2021310697
 20
104.0406745457
 30
0.0
 11
145.2021310697
 21
80.1922450264
 31
0.0
  0
LINE
  5
112
  8
0
  6
CONTINUOUS
 62
     7
 10
71.8021310697
 20
80.1922450264
 30
0.0
 11
70.8021310697
 21
80.1922450264
 31
0.0
  0
LINE
  5
113
  8
0
  6
CONTINUOUS
 62
     7
 10
70.8021310697
 20
104.0406745457
 30
0.0
 11
70.8021310697
 21
80.1922450264
 31
0.0
  0
LINE
  5
114
  8
0
  6
CONTINUOUS
 62
     7
 10
71.8021310697
 20
104.0406745457
 30
0.0
 11
71.8021310697
 21
80.1922450264
 31
0.0
  0
LINE
  5
115
  8
0
  6
CONTINUOUS
 62
     7
 10
146.2021310697
 20
80.1922450264
 30
0.0
 11
146.2021310697
 21
76.3539662547
 31
0.0
  0
LINE
  5
116
  8
0
  6
CONTINUOUS
 62
     7
 10
145.2021310697
 20
80.1922450264
 30
0.0
 11
145.2021310697
 21
77.8233898884
 31
0.0
  0
LINE
  5
117
  8
0
  6
CONTINUOUS
 62
     7
 10
70.8021310697
 20
80.1922450264
 30
0.0
 11
70.8021310697
 21
76.3539662547
 31
0.0
  0
LINE
  5
118
  8
0
  6
CONTINUOUS
 62
     7
 10
71.8021310697
 20
80.1922450264
 30
0.0
 11
71.8021310697
 21
77.8233898884
 31
0.0
  0
LINE
  5
119
  8
0
  6
CONTINUOUS
 62
     7
 10
81.8015769078
 20
21.1801575592
 30
0.0
 11
135.2026852316
 21
21.1801575592
 31
0.0
  0
LINE
  5
11A
  8
0
  6
CONTINUOUS
 62
     7
 10
81.8015769078
 20
81.1801575592
 30
0.0
 11
135.2026852316
 21
81.1801575592
 31
0.0
  0
LINE
  5
11B
  8
0
  6
CONTINUOUS
 62
     7
 10
83.2814492551
 20
86.1801575592
 30
0.0
 11
133.7228128843
 21
86.1801575592
 31
0.0
  0
LINE
  5
11C
  8
0
  6
CONTINUOUS
 62
     7
 10
133.7228128843
 20
16.1801575592
 30
0.0
 11
83.2814492551
 21
16.1801575592
 31
0.0
  0
LINE
  5
11D
  8
0
  6
CONTINUOUS
 62
     7
 10
71.8021310697
 20
105.8801575592
 30
0.0
 11
70.8021310697
 21
105.8801575592
 31
0.0
  0
LINE
  5
11E
  8
0
  6
CONTINUOUS
 62
     7
 10
70.8021310697
 20
105.8801575592
 30
0.0
 11
70.8021310697
 21
104.0406745457
 31
0.0
  0
LINE
  5
11F
  8
0
  6
CONTINUOUS
 62
     7
 10
71.8021310697
 20
105.8801575592
 30
0.0
 11
71.8021310697
 21
104.0406745457
 31
0.0
  0
LINE
  5
120
  8
0
  6
CONTINUOUS
 62
     7
 10
145.2021310697
 20
105.8801575592
 30
0.0
 11
146.2021310697
 21
105.8801575592
 31
0.0
  0
LINE
  5
121
  8
0
  6
CONTINUOUS
 62
     7
 10
146.2021310697
 20
105.8801575592
 30
0.0
 11
146.2021310697
 21
104.0406745457
 31
0.0
  0
LINE
  5
122
  8
0
  6
CONTINUOUS
 62
     7
 10
145.2021310697
 20
105.8801575592
 30
0.0
 11
145.2021310697
 21
104.0406745457
 31
0.0
  0
LINE
  5
123
  8
0
  6
CONTINUOUS
 62
     7
 10
141.0021310697
 20
92.2801575592
 30
0.0
 11
141.0021310697
 21
102.0801575592
 31
0.0
  0
LINE
  5
124
  8
0
  6
CONTINUOUS
 62
     7
 10
76.0021310697
 20
92.2801575592
 30
0.0
 11
76.0021310697
 21
102.0801575592
 31
0.0
  0
LINE
  5
125
  8
0
  6
CONTINUOUS
 62
     7
 10
145.2021310697
 20
103.0801575592
 30
0.0
 11
141.0021310697
 21
103.0801575592
 31
0.0
  0
LINE
  5
126
  8
0
  6
CONTINUOUS
 62
     7
 10
141.0021310697
 20
102.0801575592
 30
0.0
 11
141.0021310697
 21
103.0801575592
 31
0.0
  0
LINE
  5
127
  8
0
  6
CONTINUOUS
 62
     7
 10
76.0021310697
 20
103.0801575592
 30
0.0
 11
71.8021310697
 21
103.0801575592
 31
0.0
  0
LINE
  5
128
  8
0
  6
CONTINUOUS
 62
     7
 10
76.0021310697
 20
103.0801575592
 30
0.0
 11
76.0021310697
 21
102.0801575592
 31
0.0
  0
LINE
  5
129
  8
0
  6
CONTINUOUS
 62
     7
 10
145.2021310697
 20
91.2801575592
 30
0.0
 11
141.0021310697
 21
91.2801575592
 31
0.0
  0
LINE
  5
12A
  8
0
  6
CONTINUOUS
 62
     7
 10
141.0021310697
 20
91.2801575592
 30
0.0
 11
141.0021310697
 21
92.2801575592
 31
0.0
  0
LINE
  5
12B
  8
0
  6
CONTINUOUS
 62
     7
 10
76.0021310697
 20
91.2801575592
 30
0.0
 11
71.8021310697
 21
91.2801575592
 31
0.0
  0
LINE
  5
12C
  8
0
  6
CONTINUOUS
 62
     7
 10
76.0021310697
 20
92.2801575592
 30
0.0
 11
76.0021310697
 21
91.2801575592
 31
0.0
  0
LINE
  5
12D
  8
0
  6
CONTINUOUS
 62
     7
 10
151.0021310697
 20
92.2801575592
 30
0.0
 11
151.0021310697
 21
102.0801575592
 31
0.0
  0
LINE
  5
12E
  8
0
  6
CONTINUOUS
 62
     7
 10
66.0021310697
 20
92.2801575592
 30
0.0
 11
66.0021310697
 21
102.0801575592
 31
0.0
  0
LINE
  5
12F
  8
0
  6
CONTINUOUS
 62
     7
 10
151.0021310697
 20
103.0801575592
 30
0.0
 11
146.2021310697
 21
103.0801575592
 31
0.0
  0
LINE
  5
130
  8
0
  6
CONTINUOUS
 62
     7
 10
151.0021310697
 20
102.0801575592
 30
0.0
 11
151.0021310697
 21
103.0801575592
 31
0.0
  0
LINE
  5
131
  8
0
  6
CONTINUOUS
 62
     7
 10
70.8021310697
 20
103.0801575592
 30
0.0
 11
66.0021310697
 21
103.0801575592
 31
0.0
  0
LINE
  5
132
  8
0
  6
CONTINUOUS
 62
     7
 10
66.0021310697
 20
102.0801575592
 30
0.0
 11
66.0021310697
 21
103.0801575592
 31
0.0
  0
LINE
  5
133
  8
0
  6
CONTINUOUS
 62
     7
 10
151.0021310697
 20
91.2801575592
 30
0.0
 11
146.2021310697
 21
91.2801575592
 31
0.0
  0
LINE
  5
134
  8
0
  6
CONTINUOUS
 62
     7
 10
151.0021310697
 20
91.2801575592
 30
0.0
 11
151.0021310697
 21
92.2801575592
 31
0.0
  0
LINE
  5
135
  8
0
  6
CONTINUOUS
 62
     7
 10
70.8021310697
 20
91.2801575592
 30
0.0
 11
66.0021310697
 21
91.2801575592
 31
0.0
  0
LINE
  5
136
  8
0
  6
CONTINUOUS
 62
     7
 10
66.0021310697
 20
91.2801575592
 30
0.0
 11
66.0021310697
 21
92.2801575592
 31
0.0
  0
ENDSEC
  0
EOF
