  0
SECTION
  2
HEADER
  9
$ACADVER
  1
AC1009
  9
$DWGCODEPAGE
  3
ansi_1252
  9
$INSBASE
 10
0.0
 20
0.0
 30
0.0
  9
$EXTMIN
 10
0.0
 20
0.0
 30
0.0
  9
$EXTMAX
 10
420.0
 20
297.0
 30
0.0
  9
$LIMMIN
 10
0.0
 20
0.0
  9
$LIMMAX
 10
420.0
 20
297.0
  9
$ORTHOMODE
 70
     0
  9
$REGENMODE
 70
     1
  9
$FILLMODE
 70
     1
  9
$QTEXTMODE
 70
     0
  9
$MIRRTEXT
 70
     1
  9
$DRAGMODE
 70
     2
  9
$LTSCALE
 40
1.0
  9
$OSMODE
 70
    37
  9
$ATTMODE
 70
     1
  9
$TEXTSIZE
 40
3.5
  9
$TRACEWID
 40
1.0
  9
$TEXTSTYLE
  7
STANDARD
  9
$CLAYER
  8
0
  9
$CELTYPE
  6
BYLAYER
  9
$CECOLOR
 62
   256
  9
$DIMSCALE
 40
1.0
  9
$DIMASZ
 40
4.0
  9
$DIMEXO
 40
0.0
  9
$DIMDLI
 40
3.75
  9
$DIMRND
 40
0.0
  9
$DIMDLE
 40
0.0
  9
$DIMEXE
 40
2.0
  9
$DIMTP
 40
0.0
  9
$DIMTM
 40
0.0
  9
$DIMTXT
 40
3.5
  9
$DIMCEN
 40
2.5
  9
$DIMTSZ
 40
0.0
  9
$DIMTOL
 70
     0
  9
$DIMLIM
 70
     0
  9
$DIMTIH
 70
     1
  9
$DIMTOH
 70
     1
  9
$DIMSE1
 70
     0
  9
$DIMSE2
 70
     0
  9
$DIMTAD
 70
     1
  9
$DIMZIN
 70
     0
  9
$DIMBLK
  1

  9
$DIMASO
 70
     1
  9
$DIMSHO
 70
     1
  9
$DIMPOST
  1

  9
$DIMAPOST
  1

  9
$DIMALT
 70
     0
  9
$DIMALTD
 70
     3
  9
$DIMALTF
 40
0.0393700787
  9
$DIMLFAC
 40
5.0
  9
$DIMTOFL
 70
     1
  9
$DIMTVP
 40
0.0
  9
$DIMTIX
 70
     0
  9
$DIMSOXD
 70
     0
  9
$DIMSAH
 70
     0
  9
$DIMBLK1
  1

  9
$DIMBLK2
  1

  9
$DIMSTYLE
  2
ISO-25
  9
$DIMCLRD
 70
     0
  9
$DIMCLRE
 70
     0
  9
$DIMCLRT
 70
     0
  9
$DIMTFAC
 40
1.0
  9
$DIMGAP
 40
1.524
  9
$LUNITS
 70
     2
  9
$LUPREC
 70
     2
  9
$SKETCHINC
 40
1.0
  9
$FILLETRAD
 40
10.0
  9
$AUNITS
 70
     0
  9
$AUPREC
 70
     2
  9
$MENU
  1
.
  9
$ELEVATION
 40
0.0
  9
$PELEVATION
 40
0.0
  9
$THICKNESS
 40
0.0
  9
$LIMCHECK
 70
     0
  9
$CHAMFERA
 40
10.0
  9
$CHAMFERB
 40
10.0
  9
$SKPOLY
 70
     0
  9
$TDCREATE
 40
2457802.608535856
  9
$TDUPDATE
 40
2457802.608536146
  9
$TDINDWG
 40
0.0000000116
  9
$TDUSRTIMER
 40
0.0000000116
  9
$USRTIMER
 70
     1
  9
$ANGBASE
 50
0.0
  9
$ANGDIR
 70
     0
  9
$PDMODE
 70
     0
  9
$PDSIZE
 40
-1.0
  9
$PLINEWID
 40
0.0
  9
$COORDS
 70
     1
  9
$SPLFRAME
 70
     0
  9
$SPLINETYPE
 70
     6
  9
$SPLINESEGS
 70
     8
  9
$ATTDIA
 70
     0
  9
$ATTREQ
 70
     1
  9
$HANDLING
 70
     1
  9
$HANDSEED
  5
464
  9
$SURFTAB1
 70
     6
  9
$SURFTAB2
 70
     6
  9
$SURFTYPE
 70
     6
  9
$SURFU
 70
     6
  9
$SURFV
 70
     6
  9
$UCSNAME
  2

  9
$UCSORG
 10
0.0
 20
0.0
 30
0.0
  9
$UCSXDIR
 10
1.0
 20
0.0
 30
0.0
  9
$UCSYDIR
 10
0.0
 20
1.0
 30
0.0
  9
$PUCSNAME
  2

  9
$PUCSORG
 10
0.0
 20
0.0
 30
0.0
  9
$PUCSXDIR
 10
1.0
 20
0.0
 30
0.0
  9
$PUCSYDIR
 10
0.0
 20
1.0
 30
0.0
  9
$USERI1
 70
     0
  9
$USERI2
 70
     0
  9
$USERI3
 70
     0
  9
$USERI4
 70
     0
  9
$USERI5
 70
     0
  9
$USERR1
 40
0.0
  9
$USERR2
 40
0.0
  9
$USERR3
 40
0.0
  9
$USERR4
 40
0.0
  9
$USERR5
 40
0.0
  9
$WORLDVIEW
 70
     1
  9
$SHADEDGE
 70
     3
  9
$SHADEDIF
 70
    70
  9
$TILEMODE
 70
     1
  9
$MAXACTVP
 70
    64
  9
$PLIMCHECK
 70
     0
  9
$PEXTMIN
 10
1.0000000000E+20
 20
1.0000000000E+20
 30
1.0000000000E+20
  9
$PEXTMAX
 10
-1.0000000000E+20
 20
-1.0000000000E+20
 30
-1.0000000000E+20
  9
$PLIMMIN
 10
0.0
 20
0.0
  9
$PLIMMAX
 10
420.0
 20
297.0
  9
$UNITMODE
 70
     0
  9
$VISRETAIN
 70
     1
  9
$PLINEGEN
 70
     0
  9
$PSLTSCALE
 70
     1
  0
ENDSEC
  0
SECTION
  2
TABLES
  0
TABLE
  2
VPORT
 70
     1
  0
VPORT
  2
*ACTIVE
 70
     0
 10
0.0
 20
0.0
 11
1.0
 21
1.0
 12
210.0
 22
148.5
 13
0.0
 23
0.0
 14
10.0
 24
10.0
 15
10.0
 25
10.0
 16
0.0
 26
0.0
 36
1.0
 17
0.0
 27
0.0
 37
0.0
 40
297.0
 41
1.4141414141
 42
50.0
 43
0.0
 44
0.0
 50
0.0
 51
0.0
 71
     0
 72
  2000
 73
     1
 74
     3
 75
     0
 76
     0
 77
     0
 78
     0
  0
ENDTAB
  0
TABLE
  2
LTYPE
 70
     6
  0
LTYPE
  2
CONTINUOUS
 70
     0
  3
Solid line
 72
    65
 73
     0
 40
0.0
  0
LTYPE
  2
HIDDEN
 70
     0
  3
Hidden __ __ __ __ __ __ __ __ __ __ __ __ __ __
 72
    65
 73
     2
 40
1.905
 49
1.27
 49
-0.635
  0
LTYPE
  2
PHANTOM
 70
     0
  3
Phantom ______  __  __  ______  __  __  ______
 72
    65
 73
     6
 40
12.7
 49
6.35
 49
-1.27
 49
1.27
 49
-1.27
 49
1.27
 49
-1.27
  0
LTYPE
  2
CENTER
 70
     0
  3
Center ____ _ ____ _ ____ _ ____ _ ____ _ ____
 72
    65
 73
     4
 40
10.16
 49
6.35
 49
-1.27
 49
1.27
 49
-1.27
  0
LTYPE
  2
CENTERX2
 70
     0
  3
Center (2x) ________  __  ________  __  _____
 72
    65
 73
     4
 40
20.32
 49
12.7
 49
-2.54
 49
2.54
 49
-2.54
  0
LTYPE
  2
DOT2
 70
     0
  3
Dot (.5x) ........................................
 72
    65
 73
     2
 40
0.635
 49
0.0
 49
-0.635
  0
ENDTAB
  0
TABLE
  2
LAYER
 70
     2
  0
LAYER
  2
0
 70
     0
 62
     7
  6
CONTINUOUS
  0
LAYER
  2
FORMAT
 70
     0
 62
     7
  6
CONTINUOUS
  0
ENDTAB
  0
TABLE
  2
STYLE
 70
     1
  0
STYLE
  2
STANDARD
 70
     0
 40
0.0
 41
1.0
 50
0.0
 71
     0
 42
3.5
  3
txt
  4

  0
ENDTAB
  0
TABLE
  2
VIEW
 70
     0
  0
ENDTAB
  0
TABLE
  2
UCS
 70
     0
  0
ENDTAB
  0
TABLE
  2
APPID
 70
     1
  0
APPID
  2
ACAD
 70
     0
  0
ENDTAB
  0
TABLE
  2
DIMSTYLE
 70
     1
  0
DIMSTYLE
  2
ISO-25
 70
     0
  3

  4

  5

  6

  7

 40
1.0
 41
2.5
 42
0.625
 43
3.75
 44
1.25
 45
0.0
 46
0.0
 47
0.0
 48
0.0
140
2.5
141
2.5
142
0.0
143
0.0393700787
144
1.0
145
0.0
146
1.0
147
0.625
 71
     0
 72
     0
 73
     0
 74
     0
 75
     0
 76
     0
 77
     1
 78
     8
170
     0
171
     3
172
     1
173
     0
174
     0
175
     0
176
     0
177
     0
178
     0
  0
ENDTAB
  0
ENDSEC
  0
SECTION
  2
BLOCKS
  0
BLOCK
  8
0
  2
$MODEL_SPACE
 70
     0
 10
0.0
 20
0.0
 30
0.0
  3
$MODEL_SPACE
  1

  0
ENDBLK
  5
21
  8
0
  0
BLOCK
 67
     1
  8
0
  2
$PAPER_SPACE
 70
     0
 10
0.0
 20
0.0
 30
0.0
  3
$PAPER_SPACE
  1

  0
ENDBLK
  5
1D
 67
     1
  8
0
  0
ENDSEC
  0
SECTION
  2
ENTITIES
  0
LINE
  5
45
  8
0
  6
CONTINUOUS
 62
     7
 10
447.9666789482
 20
266.2968900499
 30
0.0
 11
447.9666789482
 21
251.2968924341
 31
0.0
  0
LINE
  5
46
  8
0
  6
CONTINUOUS
 62
     7
 10
453.3666928718
 20
251.2968924341
 30
0.0
 11
453.3666928718
 21
266.2968900499
 31
0.0
  0
LINE
  5
47
  8
0
  6
CONTINUOUS
 62
     7
 10
453.3666928718
 20
234.6968915758
 30
0.0
 11
453.3666928718
 21
251.2968924341
 31
0.0
  0
LINE
  5
48
  8
0
  6
CONTINUOUS
 62
     7
 10
447.9666789482
 20
251.2968924341
 30
0.0
 11
447.9666789482
 21
234.6968915758
 31
0.0
  0
LINE
  5
49
  8
0
  6
CONTINUOUS
 62
     7
 10
447.9666789482
 20
234.6968915758
 30
0.0
 11
447.9666789482
 21
219.69689396
 31
0.0
  0
LINE
  5
4A
  8
0
  6
CONTINUOUS
 62
     7
 10
453.3666928718
 20
219.69689396
 30
0.0
 11
453.3666928718
 21
234.6968915758
 31
0.0
  0
LINE
  5
4B
  8
0
  6
CONTINUOUS
 62
     7
 10
333.3666881034
 20
234.6968915758
 30
0.0
 11
333.3666881034
 21
251.2968924341
 31
0.0
  0
LINE
  5
4C
  8
0
  6
CONTINUOUS
 62
     7
 10
327.9666861007
 20
251.2968924341
 30
0.0
 11
327.9666861007
 21
234.6968915758
 31
0.0
  0
LINE
  5
4D
  8
0
  6
CONTINUOUS
 62
     7
 10
327.9666861007
 20
266.2968900499
 30
0.0
 11
327.9666861007
 21
251.2968924341
 31
0.0
  0
LINE
  5
4E
  8
0
  6
CONTINUOUS
 62
     7
 10
333.3666881034
 20
251.2968924341
 30
0.0
 11
333.3666881034
 21
266.2968900499
 31
0.0
  0
LINE
  5
4F
  8
0
  6
CONTINUOUS
 62
     7
 10
327.9666861007
 20
234.6968915758
 30
0.0
 11
327.9666861007
 21
219.69689396
 31
0.0
  0
LINE
  5
50
  8
0
  6
CONTINUOUS
 62
     7
 10
333.3666881034
 20
219.69689396
 30
0.0
 11
333.3666881034
 21
234.6968915758
 31
0.0
  0
LINE
  5
51
  8
0
  6
CONTINUOUS
 62
     7
 10
213.3666883642
 20
234.6968915758
 30
0.0
 11
213.3666883642
 21
251.2968924341
 31
0.0
  0
LINE
  5
52
  8
0
  6
CONTINUOUS
 62
     7
 10
207.9666882241
 20
251.2968924341
 30
0.0
 11
207.9666882241
 21
234.6968915758
 31
0.0
  0
LINE
  5
53
  8
0
  6
CONTINUOUS
 62
     7
 10
207.9666882241
 20
266.2968900499
 30
0.0
 11
207.9666882241
 21
251.2968924341
 31
0.0
  0
LINE
  5
54
  8
0
  6
CONTINUOUS
 62
     7
 10
213.3666883642
 20
251.2968924341
 30
0.0
 11
213.3666883642
 21
266.2968900499
 31
0.0
  0
LINE
  5
55
  8
0
  6
CONTINUOUS
 62
     7
 10
207.9666882241
 20
234.6968915758
 30
0.0
 11
207.9666882241
 21
219.69689396
 31
0.0
  0
LINE
  5
56
  8
0
  6
CONTINUOUS
 62
     7
 10
213.3666883642
 20
219.69689396
 30
0.0
 11
213.3666883642
 21
234.6968915758
 31
0.0
  0
LINE
  5
57
  8
0
  6
CONTINUOUS
 62
     7
 10
-32.0333162835
 20
266.2968900499
 30
0.0
 11
-32.0333162835
 21
251.2968924341
 31
0.0
  0
LINE
  5
58
  8
0
  6
CONTINUOUS
 62
     7
 10
-26.6333023598
 20
251.2968924341
 30
0.0
 11
-26.6333023598
 21
266.2968900499
 31
0.0
  0
LINE
  5
59
  8
0
  6
CONTINUOUS
 62
     7
 10
-26.6333023598
 20
234.6968915758
 30
0.0
 11
-26.6333023598
 21
251.2968924341
 31
0.0
  0
LINE
  5
5A
  8
0
  6
CONTINUOUS
 62
     7
 10
-32.0333162835
 20
251.2968924341
 30
0.0
 11
-32.0333162835
 21
234.6968915758
 31
0.0
  0
LINE
  5
5B
  8
0
  6
CONTINUOUS
 62
     7
 10
-32.0333162835
 20
234.6968915758
 30
0.0
 11
-32.0333162835
 21
219.69689396
 31
0.0
  0
LINE
  5
5C
  8
0
  6
CONTINUOUS
 62
     7
 10
-26.6333023598
 20
219.69689396
 30
0.0
 11
-26.6333023598
 21
234.6968915758
 31
0.0
  0
LINE
  5
5D
  8
0
  6
CONTINUOUS
 62
     7
 10
87.9666884849
 20
266.2968900499
 30
0.0
 11
87.9666884849
 21
251.2968924341
 31
0.0
  0
LINE
  5
5E
  8
0
  6
CONTINUOUS
 62
     7
 10
93.3666904876
 20
251.2968924341
 30
0.0
 11
93.3666904876
 21
266.2968900499
 31
0.0
  0
LINE
  5
5F
  8
0
  6
CONTINUOUS
 62
     7
 10
93.3666904876
 20
234.6968915758
 30
0.0
 11
93.3666904876
 21
251.2968924341
 31
0.0
  0
LINE
  5
60
  8
0
  6
CONTINUOUS
 62
     7
 10
87.9666884849
 20
251.2968924341
 30
0.0
 11
87.9666884849
 21
234.6968915758
 31
0.0
  0
LINE
  5
61
  8
0
  6
CONTINUOUS
 62
     7
 10
87.9666884849
 20
234.6968915758
 30
0.0
 11
87.9666884849
 21
219.69689396
 31
0.0
  0
LINE
  5
62
  8
0
  6
CONTINUOUS
 62
     7
 10
93.3666904876
 20
219.69689396
 30
0.0
 11
93.3666904876
 21
234.6968915758
 31
0.0
  0
POLYLINE
  5
63
  8
0
  6
CONTINUOUS
 62
     7
 66
     1
 10
0.0
 20
0.0
 30
0.0
  0
VERTEX
  5
3B5
  8
0
  6
CONTINUOUS
 62
     7
 10
307.5665136287
 20
244.2256000337
 30
0.0
  0
VERTEX
  5
3B6
  8
0
  6
CONTINUOUS
 62
     7
 10
307.5609525154
 20
244.2246344385
 30
0.0
  0
VERTEX
  5
3B7
  8
0
  6
CONTINUOUS
 62
     7
 10
307.5598975131
 20
244.2244437036
 30
0.0
  0
SEQEND
  5
463
  8
0
  6
CONTINUOUS
 62
     7
  0
POLYLINE
  5
64
  8
0
  6
CONTINUOUS
 62
     7
 66
     1
 10
0.0
 20
0.0
 30
0.0
  0
VERTEX
  5
3B8
  8
0
  6
CONTINUOUS
 62
     7
 10
233.7738042185
 20
244.2243542966
 30
0.0
  0
VERTEX
  5
3B9
  8
0
  6
CONTINUOUS
 62
     7
 10
233.7728118012
 20
244.224539071
 30
0.0
  0
VERTEX
  5
3BA
  8
0
  6
CONTINUOUS
 62
     7
 10
233.7618937204
 20
244.2264225778
 30
0.0
  0
SEQEND
  5
462
  8
0
  6
CONTINUOUS
 62
     7
  0
LINE
  5
65
  8
0
  6
CONTINUOUS
 62
     7
 10
233.773553879
 20
244.2244139013
 30
0.0
 11
233.766174824
 21
244.2257252035
 31
0.0
  0
LINE
  5
66
  8
0
  6
CONTINUOUS
 62
     7
 10
308.484216542
 20
238.9232304391
 30
0.0
 11
308.5408588359
 21
238.9346566496
 31
0.0
  0
ARC
  5
67
  8
0
  6
CONTINUOUS
 62
     7
 10
216.661154474
 20
158.7699074467
 30
0.0
 40
81.77167422044118
 50
78.4979662251
 51
78.6267740599
  0
LINE
  5
68
  8
0
  6
CONTINUOUS
 62
     7
 10
232.7809994528
 20
238.9369573888
 30
0.0
 11
232.7854653308
 21
238.9360692796
 31
0.0
  0
POLYLINE
  5
69
  8
0
  6
CONTINUOUS
 62
     7
 66
     1
 10
0.0
 20
0.0
 30
0.0
  0
VERTEX
  5
3BB
  8
0
  6
CONTINUOUS
 62
     7
 10
67.5665100524
 20
244.2256000337
 30
0.0
  0
VERTEX
  5
3BC
  8
0
  6
CONTINUOUS
 62
     7
 10
67.5609548995
 20
244.2246344385
 30
0.0
  0
VERTEX
  5
3BD
  8
0
  6
CONTINUOUS
 62
     7
 10
67.5598939369
 20
244.2244437036
 30
0.0
  0
SEQEND
  5
461
  8
0
  6
CONTINUOUS
 62
     7
  0
POLYLINE
  5
6A
  8
0
  6
CONTINUOUS
 62
     7
 66
     1
 10
0.0
 20
0.0
 30
0.0
  0
VERTEX
  5
3BE
  8
0
  6
CONTINUOUS
 62
     7
 10
-6.2261978676
 20
244.2243542966
 30
0.0
  0
VERTEX
  5
3BF
  8
0
  6
CONTINUOUS
 62
     7
 10
-6.2271992257
 20
244.224539071
 30
0.0
  0
VERTEX
  5
3C0
  8
0
  6
CONTINUOUS
 62
     7
 10
-6.2380949547
 20
244.2264225778
 30
0.0
  0
SEQEND
  5
460
  8
0
  6
CONTINUOUS
 62
     7
  0
LINE
  5
6B
  8
0
  6
CONTINUOUS
 62
     7
 10
-6.2264362862
 20
244.2244139013
 30
0.0
 11
-6.2338272622
 21
244.2257252035
 31
0.0
  0
LINE
  5
6C
  8
0
  6
CONTINUOUS
 62
     7
 10
68.4842189262
 20
238.9232304391
 30
0.0
 11
68.5408552596
 21
238.9346566496
 31
0.0
  0
ARC
  5
6D
  8
0
  6
CONTINUOUS
 62
     7
 10
-23.8688193819
 20
156.1435462226
 30
0.0
 40
84.45097247751946
 50
78.500925452
 51
78.6256566265
  0
LINE
  5
6E
  8
0
  6
CONTINUOUS
 62
     7
 10
-7.2189966729
 20
238.9369573888
 30
0.0
 11
-7.2145382455
 21
238.9360692796
 31
0.0
  0
POLYLINE
  5
6F
  8
0
  6
CONTINUOUS
 62
     7
 66
     1
 10
0.0
 20
0.0
 30
0.0
  0
VERTEX
  5
3C1
  8
0
  6
CONTINUOUS
 62
     7
 10
187.5665118406
 20
244.2256000337
 30
0.0
  0
VERTEX
  5
3C2
  8
0
  6
CONTINUOUS
 62
     7
 10
187.5609522173
 20
244.2246344385
 30
0.0
  0
VERTEX
  5
3C3
  8
0
  6
CONTINUOUS
 62
     7
 10
187.5598972151
 20
244.2244437036
 30
0.0
  0
SEQEND
  5
45F
  8
0
  6
CONTINUOUS
 62
     7
  0
POLYLINE
  5
70
  8
0
  6
CONTINUOUS
 62
     7
 66
     1
 10
0.0
 20
0.0
 30
0.0
  0
VERTEX
  5
3C4
  8
0
  6
CONTINUOUS
 62
     7
 10
113.7738069007
 20
244.2243542966
 30
0.0
  0
VERTEX
  5
3C5
  8
0
  6
CONTINUOUS
 62
     7
 10
113.7728115032
 20
244.224539071
 30
0.0
  0
VERTEX
  5
3C6
  8
0
  6
CONTINUOUS
 62
     7
 10
113.7618919322
 20
244.2264225778
 30
0.0
  0
SEQEND
  5
45E
  8
0
  6
CONTINUOUS
 62
     7
  0
LINE
  5
71
  8
0
  6
CONTINUOUS
 62
     7
 10
113.7735565612
 20
244.2244139013
 30
0.0
 11
113.7661775062
 21
244.2257252035
 31
0.0
  0
LINE
  5
72
  8
0
  6
CONTINUOUS
 62
     7
 10
188.4842177341
 20
238.9232304391
 30
0.0
 11
188.540860028
 21
238.9346566496
 31
0.0
  0
ARC
  5
73
  8
0
  6
CONTINUOUS
 62
     7
 10
96.731900551
 20
159.1209048098
 30
0.0
 40
81.41361840334261
 50
78.4974998085
 51
78.6268720826
  0
LINE
  5
74
  8
0
  6
CONTINUOUS
 62
     7
 10
112.781002135
 20
238.9369573888
 30
0.0
 11
112.7854665229
 21
238.9360692796
 31
0.0
  0
POLYLINE
  5
75
  8
0
  6
CONTINUOUS
 62
     7
 66
     1
 10
0.0
 20
0.0
 30
0.0
  0
VERTEX
  5
3C7
  8
0
  6
CONTINUOUS
 62
     7
 10
427.5665124366
 20
244.2256000337
 30
0.0
  0
VERTEX
  5
3C8
  8
0
  6
CONTINUOUS
 62
     7
 10
427.5609572837
 20
244.2246344385
 30
0.0
  0
VERTEX
  5
3C9
  8
0
  6
CONTINUOUS
 62
     7
 10
427.559908242
 20
244.2244437036
 30
0.0
  0
SEQEND
  5
45D
  8
0
  6
CONTINUOUS
 62
     7
  0
POLYLINE
  5
76
  8
0
  6
CONTINUOUS
 62
     7
 66
     1
 10
0.0
 20
0.0
 30
0.0
  0
VERTEX
  5
3CA
  8
0
  6
CONTINUOUS
 62
     7
 10
353.7738045165
 20
244.2243542966
 30
0.0
  0
VERTEX
  5
3CB
  8
0
  6
CONTINUOUS
 62
     7
 10
353.7728150794
 20
244.224539071
 30
0.0
  0
VERTEX
  5
3CC
  8
0
  6
CONTINUOUS
 62
     7
 10
353.7618955085
 20
244.2264225778
 30
0.0
  0
SEQEND
  5
45C
  8
0
  6
CONTINUOUS
 62
     7
  0
LINE
  5
77
  8
0
  6
CONTINUOUS
 62
     7
 10
353.773554177
 20
244.2244139013
 30
0.0
 11
353.766175122
 21
244.2257252035
 31
0.0
  0
LINE
  5
78
  8
0
  6
CONTINUOUS
 62
     7
 10
428.4842093894
 20
238.9232304391
 30
0.0
 11
428.5408576438
 21
238.9346566496
 31
0.0
  0
ARC
  5
79
  8
0
  6
CONTINUOUS
 62
     7
 10
336.7436059491
 20
159.1761192486
 30
0.0
 40
81.3571794240028
 50
78.4978212654
 51
78.6272874017
  0
LINE
  5
7A
  8
0
  6
CONTINUOUS
 62
     7
 10
352.7809937904
 20
238.9369573888
 30
0.0
 11
352.7854641387
 21
238.9360692796
 31
0.0
  0
LINE
  5
7B
  8
0
  6
CONTINUOUS
 62
     7
 10
27.2524078796
 20
150.2968933878
 30
0.0
 11
23.4937628219
 21
150.2968933878
 31
0.0
  0
LINE
  5
7C
  8
0
  6
CONTINUOUS
 62
     7
 10
23.4937628219
 20
151.4968933982
 30
0.0
 11
27.2524078796
 21
151.4968933982
 31
0.0
  0
LINE
  5
7D
  8
0
  6
CONTINUOUS
 62
     7
 10
27.2524078796
 20
150.2968933878
 30
0.0
 11
34.0809782455
 21
150.2968933878
 31
0.0
  0
LINE
  5
7E
  8
0
  6
CONTINUOUS
 62
     7
 10
27.2524078796
 20
151.4968933982
 30
0.0
 11
34.0809782455
 21
151.4968933982
 31
0.0
  0
LINE
  5
7F
  8
0
  6
CONTINUOUS
 62
     7
 10
37.8396233032
 20
150.2968933878
 30
0.0
 11
34.0809782455
 21
150.2968933878
 31
0.0
  0
LINE
  5
80
  8
0
  6
CONTINUOUS
 62
     7
 10
34.0809782455
 20
151.4968933982
 30
0.0
 11
37.8396233032
 21
151.4968933982
 31
0.0
  0
LINE
  5
81
  8
0
  6
CONTINUOUS
 62
     7
 10
394.0809687087
 20
151.4968933982
 30
0.0
 11
397.8396137664
 21
151.4968933982
 31
0.0
  0
LINE
  5
82
  8
0
  6
CONTINUOUS
 62
     7
 10
397.8396137664
 20
150.2968933878
 30
0.0
 11
394.0809687087
 21
150.2968933878
 31
0.0
  0
LINE
  5
83
  8
0
  6
CONTINUOUS
 62
     7
 10
387.2523983428
 20
151.4968933982
 30
0.0
 11
394.0809687087
 21
151.4968933982
 31
0.0
  0
LINE
  5
84
  8
0
  6
CONTINUOUS
 62
     7
 10
387.2523983428
 20
150.2968933878
 30
0.0
 11
394.0809687087
 21
150.2968933878
 31
0.0
  0
LINE
  5
85
  8
0
  6
CONTINUOUS
 62
     7
 10
383.4937532852
 20
151.4968933982
 30
0.0
 11
387.2523983428
 21
151.4968933982
 31
0.0
  0
LINE
  5
86
  8
0
  6
CONTINUOUS
 62
     7
 10
387.2523983428
 20
150.2968933878
 30
0.0
 11
383.4937532852
 21
150.2968933878
 31
0.0
  0
LINE
  5
87
  8
0
  6
CONTINUOUS
 62
     7
 10
18.6666925857
 20
150.2968933878
 30
0.0
 11
18.6666925857
 21
151.4968933982
 31
0.0
  0
LINE
  5
88
  8
0
  6
CONTINUOUS
 62
     7
 10
18.6666925857
 20
150.2968933878
 30
0.0
 11
23.4937628219
 21
150.2968933878
 31
0.0
  0
LINE
  5
89
  8
0
  6
CONTINUOUS
 62
     7
 10
23.4937628219
 20
151.4968933982
 30
0.0
 11
18.6666925857
 21
151.4968933982
 31
0.0
  0
LINE
  5
8A
  8
0
  6
CONTINUOUS
 62
     7
 10
42.6666935394
 20
150.2968933878
 30
0.0
 11
42.6666935394
 21
151.4968933982
 31
0.0
  0
LINE
  5
8B
  8
0
  6
CONTINUOUS
 62
     7
 10
37.8396233032
 20
150.2968933878
 30
0.0
 11
42.6666935394
 21
150.2968933878
 31
0.0
  0
LINE
  5
8C
  8
0
  6
CONTINUOUS
 62
     7
 10
42.6666935394
 20
151.4968933982
 30
0.0
 11
37.8396233032
 21
151.4968933982
 31
0.0
  0
LINE
  5
8D
  8
0
  6
CONTINUOUS
 62
     7
 10
402.6666840026
 20
150.2968933878
 30
0.0
 11
402.6666840026
 21
151.4968933982
 31
0.0
  0
LINE
  5
8E
  8
0
  6
CONTINUOUS
 62
     7
 10
402.6666840026
 20
151.4968933982
 30
0.0
 11
397.8396137664
 21
151.4968933982
 31
0.0
  0
LINE
  5
8F
  8
0
  6
CONTINUOUS
 62
     7
 10
397.8396137664
 20
150.2968933878
 30
0.0
 11
402.6666840026
 21
150.2968933878
 31
0.0
  0
LINE
  5
90
  8
0
  6
CONTINUOUS
 62
     7
 10
378.666683049
 20
150.2968933878
 30
0.0
 11
378.666683049
 21
151.4968933982
 31
0.0
  0
LINE
  5
91
  8
0
  6
CONTINUOUS
 62
     7
 10
383.4937532852
 20
151.4968933982
 30
0.0
 11
378.666683049
 21
151.4968933982
 31
0.0
  0
LINE
  5
92
  8
0
  6
CONTINUOUS
 62
     7
 10
378.666683049
 20
150.2968933878
 30
0.0
 11
383.4937532852
 21
150.2968933878
 31
0.0
  0
ARC
  5
93
  8
0
  6
CONTINUOUS
 62
     7
 10
459.0666882942
 20
225.0968933878
 30
0.0
 40
0.4000000000000909
 50
0.0
 51
90.0
  0
LINE
  5
94
  8
0
  6
CONTINUOUS
 62
     7
 10
459.4666799018
 20
225.0968959627
 30
0.0
 11
459.4666799018
 21
224.4968917665
 31
0.0
  0
POLYLINE
  5
95
  8
0
  6
CONTINUOUS
 62
     7
 66
     1
 10
0.0
 20
0.0
 30
0.0
  0
VERTEX
  5
3CD
  8
0
  6
CONTINUOUS
 62
     7
 10
34.6666892478
 20
216.4968934354
 30
0.0
  0
VERTEX
  5
3CE
  8
0
  6
CONTINUOUS
 62
     7
 10
34.8617752502
 20
216.3018014726
 30
0.0
  0
VERTEX
  5
3CF
  8
0
  6
CONTINUOUS
 62
     7
 10
35.0493749091
 20
216.1142077741
 30
0.0
  0
VERTEX
  5
3D0
  8
0
  6
CONTINUOUS
 62
     7
 10
35.2222641418
 20
215.941324502
 30
0.0
  0
VERTEX
  5
3D1
  8
0
  6
CONTINUOUS
 62
     7
 10
35.3737910697
 20
215.7897856531
 30
0.0
  0
VERTEX
  5
3D2
  8
0
  6
CONTINUOUS
 62
     7
 10
35.4981621215
 20
215.6654265222
 30
0.0
  0
VERTEX
  5
3D3
  8
0
  6
CONTINUOUS
 62
     7
 10
35.5905731628
 20
215.573015481
 30
0.0
  0
VERTEX
  5
3D4
  8
0
  6
CONTINUOUS
 62
     7
 10
35.6474717567
 20
215.5161109266
 30
0.0
  0
VERTEX
  5
3D5
  8
0
  6
CONTINUOUS
 62
     7
 10
35.6666882942
 20
215.4968943891
 30
0.0
  0
SEQEND
  5
45B
  8
0
  6
CONTINUOUS
 62
     7
  0
LINE
  5
96
  8
0
  6
CONTINUOUS
 62
     7
 10
35.6666882942
 20
215.4968943891
 30
0.0
 11
35.6666882942
 21
151.4968933982
 31
0.0
  0
POLYLINE
  5
97
  8
0
  6
CONTINUOUS
 62
     7
 66
     1
 10
0.0
 20
0.0
 30
0.0
  0
VERTEX
  5
3D6
  8
0
  6
CONTINUOUS
 62
     7
 10
395.6666906783
 20
215.4968943891
 30
0.0
  0
VERTEX
  5
3D7
  8
0
  6
CONTINUOUS
 62
     7
 10
395.6474741409
 20
215.5161109266
 30
0.0
  0
VERTEX
  5
3D8
  8
0
  6
CONTINUOUS
 62
     7
 10
395.590563626
 20
215.573015481
 30
0.0
  0
VERTEX
  5
3D9
  8
0
  6
CONTINUOUS
 62
     7
 10
395.4981525848
 20
215.6654265222
 30
0.0
  0
VERTEX
  5
3DA
  8
0
  6
CONTINUOUS
 62
     7
 10
395.3737934539
 20
215.7897856531
 30
0.0
  0
VERTEX
  5
3DB
  8
0
  6
CONTINUOUS
 62
     7
 10
395.222254605
 20
215.941324502
 30
0.0
  0
VERTEX
  5
3DC
  8
0
  6
CONTINUOUS
 62
     7
 10
395.0493772933
 20
216.1142077741
 30
0.0
  0
VERTEX
  5
3DD
  8
0
  6
CONTINUOUS
 62
     7
 10
394.8617776344
 20
216.3018014726
 30
0.0
  0
VERTEX
  5
3DE
  8
0
  6
CONTINUOUS
 62
     7
 10
394.666691632
 20
216.4968934354
 30
0.0
  0
SEQEND
  5
45A
  8
0
  6
CONTINUOUS
 62
     7
  0
LINE
  5
98
  8
0
  6
CONTINUOUS
 62
     7
 10
395.6666906783
 20
215.4968943891
 30
0.0
 11
395.6666906783
 21
151.4968933982
 31
0.0
  0
LINE
  5
99
  8
0
  6
CONTINUOUS
 62
     7
 10
459.4666799018
 20
224.4968917665
 30
0.0
 11
459.4666799018
 21
216.4968934354
 31
0.0
  0
LINE
  5
9A
  8
0
  6
CONTINUOUS
 62
     7
 10
459.0666850517
 20
215.4968943891
 30
0.0
 11
395.6666906783
 21
215.4968943891
 31
0.0
  0
LINE
  5
9B
  8
0
  6
CONTINUOUS
 62
     7
 10
-38.1333033135
 20
224.4968917665
 30
0.0
 11
-38.1333033135
 21
225.0968959627
 31
0.0
  0
ARC
  5
9C
  8
0
  6
CONTINUOUS
 62
     7
 10
-37.7333117058
 20
225.0968933878
 30
0.0
 40
0.4000000000000128
 50
90.0
 51
180.0
  0
POLYLINE
  5
9D
  8
0
  6
CONTINUOUS
 62
     7
 66
     1
 10
0.0
 20
0.0
 30
0.0
  0
VERTEX
  5
3DF
  8
0
  6
CONTINUOUS
 62
     7
 10
25.66668591
 20
215.4968943891
 30
0.0
  0
VERTEX
  5
3E0
  8
0
  6
CONTINUOUS
 62
     7
 10
25.6859024474
 20
215.5161109266
 30
0.0
  0
VERTEX
  5
3E1
  8
0
  6
CONTINUOUS
 62
     7
 10
25.7428129623
 20
215.573015481
 30
0.0
  0
VERTEX
  5
3E2
  8
0
  6
CONTINUOUS
 62
     7
 10
25.8352240035
 20
215.6654265222
 30
0.0
  0
VERTEX
  5
3E3
  8
0
  6
CONTINUOUS
 62
     7
 10
25.9595831344
 20
215.7897856531
 30
0.0
  0
VERTEX
  5
3E4
  8
0
  6
CONTINUOUS
 62
     7
 10
26.1111219833
 20
215.941324502
 30
0.0
  0
VERTEX
  5
3E5
  8
0
  6
CONTINUOUS
 62
     7
 10
26.283999295
 20
216.1142077741
 30
0.0
  0
VERTEX
  5
3E6
  8
0
  6
CONTINUOUS
 62
     7
 10
26.4715989539
 20
216.3018014726
 30
0.0
  0
VERTEX
  5
3E7
  8
0
  6
CONTINUOUS
 62
     7
 10
26.6666849563
 20
216.4968934354
 30
0.0
  0
SEQEND
  5
459
  8
0
  6
CONTINUOUS
 62
     7
  0
LINE
  5
9E
  8
0
  6
CONTINUOUS
 62
     7
 10
25.66668591
 20
215.4968943891
 30
0.0
 11
-37.7333084633
 21
215.4968943891
 31
0.0
  0
POLYLINE
  5
9F
  8
0
  6
CONTINUOUS
 62
     7
 66
     1
 10
0.0
 20
0.0
 30
0.0
  0
VERTEX
  5
3E8
  8
0
  6
CONTINUOUS
 62
     7
 10
386.6666873405
 20
216.4968934354
 30
0.0
  0
VERTEX
  5
3E9
  8
0
  6
CONTINUOUS
 62
     7
 10
386.4716013381
 20
216.3018014726
 30
0.0
  0
VERTEX
  5
3EA
  8
0
  6
CONTINUOUS
 62
     7
 10
386.2840016792
 20
216.1142077741
 30
0.0
  0
VERTEX
  5
3EB
  8
0
  6
CONTINUOUS
 62
     7
 10
386.1111124465
 20
215.941324502
 30
0.0
  0
VERTEX
  5
3EC
  8
0
  6
CONTINUOUS
 62
     7
 10
385.9595855186
 20
215.7897856531
 30
0.0
  0
VERTEX
  5
3ED
  8
0
  6
CONTINUOUS
 62
     7
 10
385.8352144668
 20
215.6654265222
 30
0.0
  0
VERTEX
  5
3EE
  8
0
  6
CONTINUOUS
 62
     7
 10
385.7428034255
 20
215.573015481
 30
0.0
  0
VERTEX
  5
3EF
  8
0
  6
CONTINUOUS
 62
     7
 10
385.6859048316
 20
215.5161109266
 30
0.0
  0
VERTEX
  5
3F0
  8
0
  6
CONTINUOUS
 62
     7
 10
385.6666882942
 20
215.4968943891
 30
0.0
  0
SEQEND
  5
458
  8
0
  6
CONTINUOUS
 62
     7
  0
LINE
  5
A0
  8
0
  6
CONTINUOUS
 62
     7
 10
385.6666882942
 20
215.4968943891
 30
0.0
 11
35.6666882942
 21
215.4968943891
 31
0.0
  0
LINE
  5
A1
  8
0
  6
CONTINUOUS
 62
     7
 10
25.66668591
 20
151.4968933982
 30
0.0
 11
25.66668591
 21
215.4968943891
 31
0.0
  0
LINE
  5
A2
  8
0
  6
CONTINUOUS
 62
     7
 10
385.6666882942
 20
151.4968933982
 30
0.0
 11
385.6666882942
 21
215.4968943891
 31
0.0
  0
LINE
  5
A3
  8
0
  6
CONTINUOUS
 62
     7
 10
-37.7333084633
 20
225.4968908128
 30
0.0
 11
-35.3333155205
 21
225.4968908128
 31
0.0
  0
LINE
  5
A4
  8
0
  6
CONTINUOUS
 62
     7
 10
-23.3333031228
 20
225.4968908128
 30
0.0
 11
-11.8333021691
 21
225.4968908128
 31
0.0
  0
LINE
  5
A5
  8
0
  6
CONTINUOUS
 62
     7
 10
-1.8333117058
 20
225.4968908128
 30
0.0
 11
63.16668591
 21
225.4968908128
 31
0.0
  0
LINE
  5
A6
  8
0
  6
CONTINUOUS
 62
     7
 10
73.1666882942
 20
225.4968908128
 30
0.0
 11
84.6666892478
 21
225.4968908128
 31
0.0
  0
LINE
  5
A7
  8
0
  6
CONTINUOUS
 62
     7
 10
96.6666897247
 20
225.4968908128
 30
0.0
 11
108.1666906783
 21
225.4968908128
 31
0.0
  0
LINE
  5
A8
  8
0
  6
CONTINUOUS
 62
     7
 10
118.1666871021
 20
225.4968908128
 30
0.0
 11
183.1666876981
 21
225.4968908128
 31
0.0
  0
LINE
  5
A9
  8
0
  6
CONTINUOUS
 62
     7
 10
193.1666885922
 20
225.4968908128
 30
0.0
 11
204.6666884283
 21
225.4968908128
 31
0.0
  0
LINE
  5
AA
  8
0
  6
CONTINUOUS
 62
     7
 10
216.66668816
 20
225.4968908128
 30
0.0
 11
228.1666879961
 21
225.4968908128
 31
0.0
  0
LINE
  5
AB
  8
0
  6
CONTINUOUS
 62
     7
 10
238.1666888902
 20
225.4968908128
 30
0.0
 11
303.1666894863
 21
225.4968908128
 31
0.0
  0
LINE
  5
AC
  8
0
  6
CONTINUOUS
 62
     7
 10
313.16668591
 20
225.4968908128
 30
0.0
 11
324.6666868636
 21
225.4968908128
 31
0.0
  0
LINE
  5
AD
  8
0
  6
CONTINUOUS
 62
     7
 10
336.6666873405
 20
225.4968908128
 30
0.0
 11
348.1666882942
 21
225.4968908128
 31
0.0
  0
LINE
  5
AE
  8
0
  6
CONTINUOUS
 62
     7
 10
358.1666906783
 20
225.4968908128
 30
0.0
 11
423.1666882942
 21
225.4968908128
 31
0.0
  0
LINE
  5
AF
  8
0
  6
CONTINUOUS
 62
     7
 10
433.1666787574
 20
225.4968908128
 30
0.0
 11
444.6666797111
 21
225.4968908128
 31
0.0
  0
LINE
  5
B0
  8
0
  6
CONTINUOUS
 62
     7
 10
456.6666921089
 20
225.4968908128
 30
0.0
 11
459.0666850517
 21
225.4968908128
 31
0.0
  0
LINE
  5
B1
  8
0
  6
CONTINUOUS
 62
     7
 10
-38.1333033135
 20
215.8968951997
 30
0.0
 11
-38.1333033135
 21
216.4968934354
 31
0.0
  0
ARC
  5
B2
  8
0
  6
CONTINUOUS
 62
     7
 10
-37.7333117058
 20
215.8968933878
 30
0.0
 40
0.4000000000000128
 50
180.0
 51
270.0
  0
LINE
  5
B3
  8
0
  6
CONTINUOUS
 62
     7
 10
459.4666799018
 20
216.4968934354
 30
0.0
 11
459.4666799018
 21
215.8968951997
 31
0.0
  0
ARC
  5
B4
  8
0
  6
CONTINUOUS
 62
     7
 10
459.0666882942
 20
215.8968933878
 30
0.0
 40
0.4000000000000909
 50
270.0
 51
0.0
  0
LINE
  5
B5
  8
0
  6
CONTINUOUS
 62
     7
 10
-38.1333033135
 20
216.4968934354
 30
0.0
 11
-38.1333033135
 21
224.4968917665
 31
0.0
  0
ARC
  5
B6
  8
0
  6
CONTINUOUS
 62
     7
 10
450.6666882942
 20
266.2968933878
 30
0.0
 40
2.700000000000045
 50
0.0
 51
180.0
  0
ARC
  5
B7
  8
0
  6
CONTINUOUS
 62
     7
 10
450.6666882942
 20
219.6968933878
 30
0.0
 40
2.700000000000045
 50
180.0
 51
0.0
  0
ARC
  5
B8
  8
0
  6
CONTINUOUS
 62
     7
 10
454.6666882942
 20
218.4968933878
 30
0.0
 40
2.0
 50
270.0
 51
0.0
  0
LINE
  5
B9
  8
0
  6
CONTINUOUS
 62
     7
 10
454.6666940162
 20
216.4968934354
 30
0.0
 11
446.6666778037
 21
216.4968934354
 31
0.0
  0
ARC
  5
BA
  8
0
  6
CONTINUOUS
 62
     7
 10
446.6666882942
 20
218.4968933878
 30
0.0
 40
2.0
 50
180.0
 51
270.0
  0
LINE
  5
BB
  8
0
  6
CONTINUOUS
 62
     7
 10
444.6666797111
 20
225.0968959627
 30
0.0
 11
444.6666797111
 21
218.4968915281
 31
0.0
  0
LINE
  5
BC
  8
0
  6
CONTINUOUS
 62
     7
 10
456.6666921089
 20
225.0968959627
 30
0.0
 11
456.6666921089
 21
218.4968915281
 31
0.0
  0
LINE
  5
BD
  8
0
  6
CONTINUOUS
 62
     7
 10
444.6666797111
 20
225.0968959627
 30
0.0
 11
444.6666797111
 21
226.2968924341
 31
0.0
  0
LINE
  5
BE
  8
0
  6
CONTINUOUS
 62
     7
 10
444.6666797111
 20
226.2968924341
 30
0.0
 11
447.9666789482
 21
226.2968924341
 31
0.0
  0
LINE
  5
BF
  8
0
  6
CONTINUOUS
 62
     7
 10
453.3666928718
 20
226.2968924341
 30
0.0
 11
456.6666921089
 21
226.2968924341
 31
0.0
  0
LINE
  5
C0
  8
0
  6
CONTINUOUS
 62
     7
 10
456.6666921089
 20
226.2968924341
 30
0.0
 11
456.6666921089
 21
225.0968959627
 31
0.0
  0
ARC
  5
C1
  8
0
  6
CONTINUOUS
 62
     7
 10
330.6666882942
 20
266.2968933878
 30
0.0
 40
2.699999999999989
 50
0.0
 51
180.0
  0
ARC
  5
C2
  8
0
  6
CONTINUOUS
 62
     7
 10
330.6666882942
 20
219.6968933878
 30
0.0
 40
2.699999999999989
 50
180.0
 51
0.0
  0
ARC
  5
C3
  8
0
  6
CONTINUOUS
 62
     7
 10
334.6666882942
 20
218.4968933878
 30
0.0
 40
2.0
 50
270.0
 51
0.0
  0
LINE
  5
C4
  8
0
  6
CONTINUOUS
 62
     7
 10
334.6666892478
 20
216.4968934354
 30
0.0
 11
326.6666849563
 21
216.4968934354
 31
0.0
  0
ARC
  5
C5
  8
0
  6
CONTINUOUS
 62
     7
 10
326.6666882942
 20
218.4968933878
 30
0.0
 40
2.0
 50
180.0
 51
270.0
  0
LINE
  5
C6
  8
0
  6
CONTINUOUS
 62
     7
 10
324.6666868636
 20
225.0968959627
 30
0.0
 11
324.6666868636
 21
218.4968915281
 31
0.0
  0
LINE
  5
C7
  8
0
  6
CONTINUOUS
 62
     7
 10
336.6666873405
 20
225.0968959627
 30
0.0
 11
336.6666873405
 21
218.4968915281
 31
0.0
  0
LINE
  5
C8
  8
0
  6
CONTINUOUS
 62
     7
 10
324.6666868636
 20
225.0968959627
 30
0.0
 11
324.6666868636
 21
226.2968924341
 31
0.0
  0
LINE
  5
C9
  8
0
  6
CONTINUOUS
 62
     7
 10
324.6666868636
 20
226.2968924341
 30
0.0
 11
327.9666861007
 21
226.2968924341
 31
0.0
  0
LINE
  5
CA
  8
0
  6
CONTINUOUS
 62
     7
 10
333.3666881034
 20
226.2968924341
 30
0.0
 11
336.6666873405
 21
226.2968924341
 31
0.0
  0
LINE
  5
CB
  8
0
  6
CONTINUOUS
 62
     7
 10
336.6666873405
 20
226.2968924341
 30
0.0
 11
336.6666873405
 21
225.0968959627
 31
0.0
  0
ARC
  5
CC
  8
0
  6
CONTINUOUS
 62
     7
 10
210.6666882942
 20
266.2968933878
 30
0.0
 40
2.700000000000017
 50
0.0
 51
180.0
  0
ARC
  5
CD
  8
0
  6
CONTINUOUS
 62
     7
 10
210.6666882942
 20
219.6968933878
 30
0.0
 40
2.700000000000017
 50
180.0
 51
0.0
  0
ARC
  5
CE
  8
0
  6
CONTINUOUS
 62
     7
 10
214.6666882942
 20
218.4968933878
 30
0.0
 40
2.0
 50
270.0
 51
0.0
  0
LINE
  5
CF
  8
0
  6
CONTINUOUS
 62
     7
 10
214.6666882048
 20
216.4968934354
 30
0.0
 11
206.6666883836
 21
216.4968934354
 31
0.0
  0
ARC
  5
D0
  8
0
  6
CONTINUOUS
 62
     7
 10
206.6666882942
 20
218.4968933878
 30
0.0
 40
2.0
 50
180.0
 51
270.0
  0
LINE
  5
D1
  8
0
  6
CONTINUOUS
 62
     7
 10
204.6666884283
 20
225.0968959627
 30
0.0
 11
204.6666884283
 21
218.4968915281
 31
0.0
  0
LINE
  5
D2
  8
0
  6
CONTINUOUS
 62
     7
 10
216.66668816
 20
225.0968959627
 30
0.0
 11
216.66668816
 21
218.4968915281
 31
0.0
  0
LINE
  5
D3
  8
0
  6
CONTINUOUS
 62
     7
 10
204.6666884283
 20
226.2968924341
 30
0.0
 11
207.9666882241
 21
226.2968924341
 31
0.0
  0
LINE
  5
D4
  8
0
  6
CONTINUOUS
 62
     7
 10
213.3666883642
 20
226.2968924341
 30
0.0
 11
216.66668816
 21
226.2968924341
 31
0.0
  0
LINE
  5
D5
  8
0
  6
CONTINUOUS
 62
     7
 10
216.66668816
 20
226.2968924341
 30
0.0
 11
216.66668816
 21
225.0968959627
 31
0.0
  0
LINE
  5
D6
  8
0
  6
CONTINUOUS
 62
     7
 10
204.6666884283
 20
225.0968959627
 30
0.0
 11
204.6666884283
 21
226.2968924341
 31
0.0
  0
ARC
  5
D7
  8
0
  6
CONTINUOUS
 62
     7
 10
-29.3333117058
 20
266.2968933878
 30
0.0
 40
2.700000000000038
 50
0.0
 51
180.0
  0
ARC
  5
D8
  8
0
  6
CONTINUOUS
 62
     7
 10
-29.3333117058
 20
219.6968933878
 30
0.0
 40
2.700000000000038
 50
180.0
 51
0.0
  0
ARC
  5
D9
  8
0
  6
CONTINUOUS
 62
     7
 10
-25.3333117058
 20
218.4968933878
 30
0.0
 40
2.000000000000004
 50
270.0
 51
0.0
  0
LINE
  5
DA
  8
0
  6
CONTINUOUS
 62
     7
 10
-25.3333012154
 20
216.4968934354
 30
0.0
 11
-33.3333174279
 21
216.4968934354
 31
0.0
  0
ARC
  5
DB
  8
0
  6
CONTINUOUS
 62
     7
 10
-33.3333117058
 20
218.4968933878
 30
0.0
 40
2.000000000000007
 50
180.0
 51
270.0
  0
LINE
  5
DC
  8
0
  6
CONTINUOUS
 62
     7
 10
-35.3333155205
 20
225.0968959627
 30
0.0
 11
-35.3333155205
 21
218.4968915281
 31
0.0
  0
LINE
  5
DD
  8
0
  6
CONTINUOUS
 62
     7
 10
-23.3333031228
 20
225.0968959627
 30
0.0
 11
-23.3333031228
 21
218.4968915281
 31
0.0
  0
LINE
  5
DE
  8
0
  6
CONTINUOUS
 62
     7
 10
-35.3333155205
 20
225.0968959627
 30
0.0
 11
-35.3333155205
 21
226.2968924341
 31
0.0
  0
LINE
  5
DF
  8
0
  6
CONTINUOUS
 62
     7
 10
-35.3333155205
 20
226.2968924341
 30
0.0
 11
-32.0333162835
 21
226.2968924341
 31
0.0
  0
LINE
  5
E0
  8
0
  6
CONTINUOUS
 62
     7
 10
-26.6333023598
 20
226.2968924341
 30
0.0
 11
-23.3333031228
 21
226.2968924341
 31
0.0
  0
LINE
  5
E1
  8
0
  6
CONTINUOUS
 62
     7
 10
-23.3333031228
 20
226.2968924341
 30
0.0
 11
-23.3333031228
 21
225.0968959627
 31
0.0
  0
ARC
  5
E2
  8
0
  6
CONTINUOUS
 62
     7
 10
90.6666882942
 20
266.2968933878
 30
0.0
 40
2.700000000000003
 50
0.0
 51
180.0
  0
ARC
  5
E3
  8
0
  6
CONTINUOUS
 62
     7
 10
90.6666882942
 20
219.6968933878
 30
0.0
 40
2.700000000000003
 50
180.0
 51
0.0
  0
ARC
  5
E4
  8
0
  6
CONTINUOUS
 62
     7
 10
94.6666882942
 20
218.4968933878
 30
0.0
 40
2.0
 50
270.0
 51
0.0
  0
LINE
  5
E5
  8
0
  6
CONTINUOUS
 62
     7
 10
94.666691632
 20
216.4968934354
 30
0.0
 11
86.6666873405
 21
216.4968934354
 31
0.0
  0
ARC
  5
E6
  8
0
  6
CONTINUOUS
 62
     7
 10
86.6666882942
 20
218.4968933878
 30
0.0
 40
2.0
 50
180.0
 51
270.0
  0
LINE
  5
E7
  8
0
  6
CONTINUOUS
 62
     7
 10
84.6666892478
 20
225.0968959627
 30
0.0
 11
84.6666892478
 21
218.4968915281
 31
0.0
  0
LINE
  5
E8
  8
0
  6
CONTINUOUS
 62
     7
 10
96.6666897247
 20
225.0968959627
 30
0.0
 11
96.6666897247
 21
218.4968915281
 31
0.0
  0
LINE
  5
E9
  8
0
  6
CONTINUOUS
 62
     7
 10
84.6666892478
 20
225.0968959627
 30
0.0
 11
84.6666892478
 21
226.2968924341
 31
0.0
  0
LINE
  5
EA
  8
0
  6
CONTINUOUS
 62
     7
 10
84.6666892478
 20
226.2968924341
 30
0.0
 11
87.9666884849
 21
226.2968924341
 31
0.0
  0
LINE
  5
EB
  8
0
  6
CONTINUOUS
 62
     7
 10
93.3666904876
 20
226.2968924341
 30
0.0
 11
96.6666897247
 21
226.2968924341
 31
0.0
  0
LINE
  5
EC
  8
0
  6
CONTINUOUS
 62
     7
 10
96.6666897247
 20
226.2968924341
 30
0.0
 11
96.6666897247
 21
225.0968959627
 31
0.0
  0
ARC
  5
ED
  8
0
  6
CONTINUOUS
 62
     7
 10
270.6791321632
 20
423.7121500825
 30
0.0
 40
188.6162308835493
 50
277.7922826888
 51
281.5895067778
  0
ARC
  5
EE
  8
0
  6
CONTINUOUS
 62
     7
 10
308.035444927
 20
241.5773965082
 30
0.0
 40
2.690000000000023
 50
281.5900201068
 51
12.4186815058
  0
ARC
  5
EF
  8
0
  6
CONTINUOUS
 62
     7
 10
270.6665132484
 20
423.7858769755
 30
0.0
 40
183.3109878346283
 50
277.7930441774
 51
281.5887865078
  0
ARC
  5
F0
  8
0
  6
CONTINUOUS
 62
     7
 10
308.035444927
 20
241.5773965082
 30
0.0
 40
2.690000000000018
 50
12.4186815058
 51
100.0467259555
  0
ARC
  5
F1
  8
0
  6
CONTINUOUS
 62
     7
 10
233.2979316613
 20
241.5773965082
 30
0.0
 40
2.690000000000011
 50
80.0567778886
 51
167.5813184942
  0
ARC
  5
F2
  8
0
  6
CONTINUOUS
 62
     7
 10
270.6861263908
 20
423.899126923
 30
0.0
 40
183.4258036151341
 50
258.4125294448
 51
262.2057915725
  0
ARC
  5
F3
  8
0
  6
CONTINUOUS
 62
     7
 10
270.6859360918
 20
423.8976434917
 30
0.0
 40
188.8043081517396
 50
258.4125086084
 51
262.2058213536
  0
ARC
  5
F4
  8
0
  6
CONTINUOUS
 62
     7
 10
233.2979316613
 20
241.5773965082
 30
0.0
 40
2.690000000000009
 50
167.5813184942
 51
258.4099798932
  0
ARC
  5
F5
  8
0
  6
CONTINUOUS
 62
     7
 10
270.6666882942
 20
423.7849046623
 30
0.0
 40
183.31
 50
262.2069690737
 51
277.7930309263
  0
ARC
  5
F6
  8
0
  6
CONTINUOUS
 62
     7
 10
270.6666882942
 20
423.7849046623
 30
0.0
 40
188.6900000000001
 50
262.2069690737
 51
277.7930309263
  0
LINE
  5
F7
  8
0
  6
CONTINUOUS
 62
     7
 10
233.9666878292
 20
238.6983659563
 30
0.0
 11
233.9666878292
 21
238.4368923006
 31
0.0
  0
LINE
  5
F8
  8
0
  6
CONTINUOUS
 62
     7
 10
233.9666878292
 20
238.4368923006
 30
0.0
 11
232.9666887829
 21
238.4368923006
 31
0.0
  0
LINE
  5
F9
  8
0
  6
CONTINUOUS
 62
     7
 10
232.9666887829
 20
238.9078703222
 30
0.0
 11
232.9666887829
 21
238.4368923006
 31
0.0
  0
LINE
  5
FA
  8
0
  6
CONTINUOUS
 62
     7
 10
233.9666878292
 20
238.4368923006
 30
0.0
 11
233.9666878292
 21
233.9699473676
 31
0.0
  0
LINE
  5
FB
  8
0
  6
CONTINUOUS
 62
     7
 10
232.9666887829
 20
238.4368923006
 30
0.0
 11
232.9666887829
 21
233.9699473676
 31
0.0
  0
LINE
  5
FC
  8
0
  6
CONTINUOUS
 62
     7
 10
307.3666890571
 20
238.4368923006
 30
0.0
 11
308.3666881034
 21
238.4368923006
 31
0.0
  0
LINE
  5
FD
  8
0
  6
CONTINUOUS
 62
     7
 10
307.3666890571
 20
238.4368923006
 30
0.0
 11
307.3666890571
 21
233.9699473676
 31
0.0
  0
LINE
  5
FE
  8
0
  6
CONTINUOUS
 62
     7
 10
308.3666881034
 20
238.4368923006
 30
0.0
 11
308.3666881034
 21
233.9699473676
 31
0.0
  0
LINE
  5
FF
  8
0
  6
CONTINUOUS
 62
     7
 10
307.3666890571
 20
238.6983421144
 30
0.0
 11
307.3666890571
 21
238.4368923006
 31
0.0
  0
LINE
  5
100
  8
0
  6
CONTINUOUS
 62
     7
 10
308.3666881034
 20
238.9078703222
 30
0.0
 11
308.3666881034
 21
238.4368923006
 31
0.0
  0
LINE
  5
101
  8
0
  6
CONTINUOUS
 62
     7
 10
233.8383724401
 20
244.2125466165
 30
0.0
 11
233.8422944257
 21
244.2117419538
 31
0.0
  0
LINE
  5
102
  8
0
  6
CONTINUOUS
 62
     7
 10
307.4907740066
 20
244.2116763887
 30
0.0
 11
307.4950059364
 21
244.2125466165
 31
0.0
  0
LINE
  5
103
  8
0
  6
CONTINUOUS
 62
     7
 10
233.9666878292
 20
233.9699473676
 30
0.0
 11
233.9666878292
 21
233.1164088544
 31
0.0
  0
LINE
  5
104
  8
0
  6
CONTINUOUS
 62
     7
 10
232.9666887829
 20
233.9699473676
 30
0.0
 11
232.9666887829
 21
233.1164088544
 31
0.0
  0
LINE
  5
105
  8
0
  6
CONTINUOUS
 62
     7
 10
307.3666890571
 20
233.9699473676
 30
0.0
 11
307.3666890571
 21
233.1164088544
 31
0.0
  0
LINE
  5
106
  8
0
  6
CONTINUOUS
 62
     7
 10
308.3666881034
 20
233.9699473676
 30
0.0
 11
308.3666881034
 21
233.1164088544
 31
0.0
  0
LINE
  5
107
  8
0
  6
CONTINUOUS
 62
     7
 10
233.9666878292
 20
233.1164088544
 30
0.0
 11
233.9666878292
 21
225.2619769868
 31
0.0
  0
LINE
  5
108
  8
0
  6
CONTINUOUS
 62
     7
 10
232.9666887829
 20
233.1164088544
 30
0.0
 11
232.9666887829
 21
225.2619769868
 31
0.0
  0
LINE
  5
109
  8
0
  6
CONTINUOUS
 62
     7
 10
307.3666890571
 20
233.1164088544
 30
0.0
 11
307.3666890571
 21
225.2619769868
 31
0.0
  0
LINE
  5
10A
  8
0
  6
CONTINUOUS
 62
     7
 10
308.3666881034
 20
233.1164088544
 30
0.0
 11
308.3666881034
 21
225.2619769868
 31
0.0
  0
LINE
  5
10B
  8
0
  6
CONTINUOUS
 62
     7
 10
307.3666890571
 20
222.4968936739
 30
0.0
 11
308.3666881034
 21
222.4968936739
 31
0.0
  0
LINE
  5
10C
  8
0
  6
CONTINUOUS
 62
     7
 10
307.3666890571
 20
224.4968917665
 30
0.0
 11
307.3666890571
 21
222.4968936739
 31
0.0
  0
LINE
  5
10D
  8
0
  6
CONTINUOUS
 62
     7
 10
308.3666881034
 20
224.4968917665
 30
0.0
 11
308.3666881034
 21
222.4968936739
 31
0.0
  0
LINE
  5
10E
  8
0
  6
CONTINUOUS
 62
     7
 10
233.9666878292
 20
222.4968936739
 30
0.0
 11
232.9666887829
 21
222.4968936739
 31
0.0
  0
LINE
  5
10F
  8
0
  6
CONTINUOUS
 62
     7
 10
233.9666878292
 20
224.4968917665
 30
0.0
 11
233.9666878292
 21
222.4968936739
 31
0.0
  0
LINE
  5
110
  8
0
  6
CONTINUOUS
 62
     7
 10
232.9666887829
 20
224.4968917665
 30
0.0
 11
232.9666887829
 21
222.4968936739
 31
0.0
  0
LINE
  5
111
  8
0
  6
CONTINUOUS
 62
     7
 10
307.3666890571
 20
225.2619769868
 30
0.0
 11
307.3666890571
 21
224.4968917665
 31
0.0
  0
LINE
  5
112
  8
0
  6
CONTINUOUS
 62
     7
 10
308.3666881034
 20
225.2619769868
 30
0.0
 11
308.3666881034
 21
224.4968917665
 31
0.0
  0
LINE
  5
113
  8
0
  6
CONTINUOUS
 62
     7
 10
233.9666878292
 20
225.2619769868
 30
0.0
 11
233.9666878292
 21
224.4968917665
 31
0.0
  0
LINE
  5
114
  8
0
  6
CONTINUOUS
 62
     7
 10
232.9666887829
 20
225.2619769868
 30
0.0
 11
232.9666887829
 21
224.4968917665
 31
0.0
  0
LINE
  5
115
  8
0
  6
CONTINUOUS
 62
     7
 10
313.16668591
 20
218.296894103
 30
0.0
 11
313.16668591
 21
225.2968933878
 31
0.0
  0
ARC
  5
116
  8
0
  6
CONTINUOUS
 62
     7
 10
311.1666882942
 20
218.2968933878
 30
0.0
 40
2.000000000000057
 50
270.0
 51
0.0
  0
LINE
  5
117
  8
0
  6
CONTINUOUS
 62
     7
 10
311.1666878173
 20
216.2968960104
 30
0.0
 11
305.1666875789
 21
216.2968960104
 31
0.0
  0
ARC
  5
118
  8
0
  6
CONTINUOUS
 62
     7
 10
305.1666882942
 20
218.2968933878
 30
0.0
 40
2.0
 50
180.0
 51
270.0
  0
LINE
  5
119
  8
0
  6
CONTINUOUS
 62
     7
 10
303.1666894863
 20
225.2968933878
 30
0.0
 11
303.1666894863
 21
218.296894103
 31
0.0
  0
CIRCLE
  5
11A
  8
0
  6
CONTINUOUS
 62
     7
 10
308.1666882942
 20
219.6968933878
 30
0.0
 40
1.0
  0
LINE
  5
11B
  8
0
  6
CONTINUOUS
 62
     7
 10
238.1666888902
 20
218.296894103
 30
0.0
 11
238.1666888902
 21
225.2968933878
 31
0.0
  0
ARC
  5
11C
  8
0
  6
CONTINUOUS
 62
     7
 10
236.1666882942
 20
218.2968933878
 30
0.0
 40
2.0
 50
270.0
 51
0.0
  0
ARC
  5
11D
  8
0
  6
CONTINUOUS
 62
     7
 10
230.1666882942
 20
218.2968933878
 30
0.0
 40
2.0
 50
180.0
 51
270.0
  0
CIRCLE
  5
11E
  8
0
  6
CONTINUOUS
 62
     7
 10
233.1666882942
 20
219.6968933878
 30
0.0
 40
1.0
  0
LINE
  5
11F
  8
0
  6
CONTINUOUS
 62
     7
 10
228.1666879961
 20
218.296894103
 30
0.0
 11
228.1666879961
 21
225.2968933878
 31
0.0
  0
LINE
  5
120
  8
0
  6
CONTINUOUS
 62
     7
 10
236.1666878173
 20
216.2968960104
 30
0.0
 11
230.1666875789
 21
216.2968960104
 31
0.0
  0
LINE
  5
121
  8
0
  6
CONTINUOUS
 62
     7
 10
232.9666887829
 20
226.2968924341
 30
0.0
 11
228.1666879961
 21
226.2968924341
 31
0.0
  0
LINE
  5
122
  8
0
  6
CONTINUOUS
 62
     7
 10
228.1666879961
 20
225.2968933878
 30
0.0
 11
228.1666879961
 21
226.2968924341
 31
0.0
  0
LINE
  5
123
  8
0
  6
CONTINUOUS
 62
     7
 10
307.3666890571
 20
226.2968924341
 30
0.0
 11
303.1666894863
 21
226.2968924341
 31
0.0
  0
LINE
  5
124
  8
0
  6
CONTINUOUS
 62
     7
 10
303.1666894863
 20
225.2968933878
 30
0.0
 11
303.1666894863
 21
226.2968924341
 31
0.0
  0
LINE
  5
125
  8
0
  6
CONTINUOUS
 62
     7
 10
238.1666888902
 20
226.2968924341
 30
0.0
 11
233.9666878292
 21
226.2968924341
 31
0.0
  0
LINE
  5
126
  8
0
  6
CONTINUOUS
 62
     7
 10
238.1666888902
 20
226.2968924341
 30
0.0
 11
238.1666888902
 21
225.2968933878
 31
0.0
  0
LINE
  5
127
  8
0
  6
CONTINUOUS
 62
     7
 10
313.16668591
 20
225.2968933878
 30
0.0
 11
313.16668591
 21
226.2968924341
 31
0.0
  0
LINE
  5
128
  8
0
  6
CONTINUOUS
 62
     7
 10
313.16668591
 20
226.2968924341
 30
0.0
 11
308.3666881034
 21
226.2968924341
 31
0.0
  0
ARC
  5
129
  8
0
  6
CONTINUOUS
 62
     7
 10
30.6671822491
 20
423.781938478
 30
0.0
 40
183.3069945137081
 50
277.7930028174
 51
281.5888278678
  0
ARC
  5
12A
  8
0
  6
CONTINUOUS
 62
     7
 10
68.035444927
 20
241.5773965082
 30
0.0
 40
2.689999999999993
 50
12.4186815058
 51
100.0467259555
  0
ARC
  5
12B
  8
0
  6
CONTINUOUS
 62
     7
 10
30.6804130011
 20
423.7046287537
 30
0.0
 40
188.608604862498
 50
277.792205894
 51
281.5895835726
  0
ARC
  5
12C
  8
0
  6
CONTINUOUS
 62
     7
 10
68.035444927
 20
241.5773965082
 30
0.0
 40
2.689999999999998
 50
281.5900201068
 51
12.4186815058
  0
ARC
  5
12D
  8
0
  6
CONTINUOUS
 62
     7
 10
30.6856606405
 20
423.8961414197
 30
0.0
 40
188.802782681975
 50
258.4124969862
 51
262.2058421755
  0
ARC
  5
12E
  8
0
  6
CONTINUOUS
 62
     7
 10
-6.7020683387
 20
241.5773965082
 30
0.0
 40
2.690000000000011
 50
167.5813184942
 51
258.4099798932
  0
ARC
  5
12F
  8
0
  6
CONTINUOUS
 62
     7
 10
-6.7020683387
 20
241.5773965082
 30
0.0
 40
2.690000000000011
 50
80.0567778886
 51
167.5813184942
  0
ARC
  5
130
  8
0
  6
CONTINUOUS
 62
     7
 10
30.6863639736
 20
423.9004034386
 30
0.0
 40
183.4271022551118
 50
258.4125361985
 51
262.2057682471
  0
ARC
  5
131
  8
0
  6
CONTINUOUS
 62
     7
 10
30.6666882942
 20
423.7849046623
 30
0.0
 40
188.6900000000001
 50
262.2069690737
 51
277.7930309263
  0
ARC
  5
132
  8
0
  6
CONTINUOUS
 62
     7
 10
30.6666882942
 20
423.7849046623
 30
0.0
 40
183.31
 50
262.2069690737
 51
277.7930309263
  0
LINE
  5
133
  8
0
  6
CONTINUOUS
 62
     7
 10
-6.0333172372
 20
238.4368923006
 30
0.0
 11
-7.0333162835
 21
238.4368923006
 31
0.0
  0
LINE
  5
134
  8
0
  6
CONTINUOUS
 62
     7
 10
-6.0333172372
 20
238.4368923006
 30
0.0
 11
-6.0333172372
 21
233.9699473676
 31
0.0
  0
LINE
  5
135
  8
0
  6
CONTINUOUS
 62
     7
 10
-7.0333162835
 20
238.4368923006
 30
0.0
 11
-7.0333162835
 21
233.9699473676
 31
0.0
  0
LINE
  5
136
  8
0
  6
CONTINUOUS
 62
     7
 10
-6.0333172372
 20
238.6983659563
 30
0.0
 11
-6.0333172372
 21
238.4368923006
 31
0.0
  0
LINE
  5
137
  8
0
  6
CONTINUOUS
 62
     7
 10
-7.0333162835
 20
238.9078703222
 30
0.0
 11
-7.0333162835
 21
238.4368923006
 31
0.0
  0
LINE
  5
138
  8
0
  6
CONTINUOUS
 62
     7
 10
67.3666914413
 20
238.4368923006
 30
0.0
 11
68.3666904876
 21
238.4368923006
 31
0.0
  0
LINE
  5
139
  8
0
  6
CONTINUOUS
 62
     7
 10
68.3666904876
 20
238.9078703222
 30
0.0
 11
68.3666904876
 21
238.4368923006
 31
0.0
  0
LINE
  5
13A
  8
0
  6
CONTINUOUS
 62
     7
 10
67.3666914413
 20
238.6983421144
 30
0.0
 11
67.3666914413
 21
238.4368923006
 31
0.0
  0
LINE
  5
13B
  8
0
  6
CONTINUOUS
 62
     7
 10
68.3666904876
 20
238.4368923006
 30
0.0
 11
68.3666904876
 21
233.9699473676
 31
0.0
  0
LINE
  5
13C
  8
0
  6
CONTINUOUS
 62
     7
 10
67.3666914413
 20
238.4368923006
 30
0.0
 11
67.3666914413
 21
233.9699473676
 31
0.0
  0
LINE
  5
13D
  8
0
  6
CONTINUOUS
 62
     7
 10
-6.1616341164
 20
244.2125466165
 30
0.0
 11
-6.1577002099
 21
244.2117419538
 31
0.0
  0
LINE
  5
13E
  8
0
  6
CONTINUOUS
 62
     7
 10
67.4907763908
 20
244.2116763887
 30
0.0
 11
67.4950083206
 21
244.2125466165
 31
0.0
  0
LINE
  5
13F
  8
0
  6
CONTINUOUS
 62
     7
 10
68.3666904876
 20
233.9699473676
 30
0.0
 11
68.3666904876
 21
233.1164088544
 31
0.0
  0
LINE
  5
140
  8
0
  6
CONTINUOUS
 62
     7
 10
67.3666914413
 20
233.9699473676
 30
0.0
 11
67.3666914413
 21
233.1164088544
 31
0.0
  0
LINE
  5
141
  8
0
  6
CONTINUOUS
 62
     7
 10
-6.0333172372
 20
233.9699473676
 30
0.0
 11
-6.0333172372
 21
233.1164088544
 31
0.0
  0
LINE
  5
142
  8
0
  6
CONTINUOUS
 62
     7
 10
-7.0333162835
 20
233.9699473676
 30
0.0
 11
-7.0333162835
 21
233.1164088544
 31
0.0
  0
LINE
  5
143
  8
0
  6
CONTINUOUS
 62
     7
 10
68.3666904876
 20
233.1164088544
 30
0.0
 11
68.3666904876
 21
225.2619769868
 31
0.0
  0
LINE
  5
144
  8
0
  6
CONTINUOUS
 62
     7
 10
67.3666914413
 20
233.1164088544
 30
0.0
 11
67.3666914413
 21
225.2619769868
 31
0.0
  0
LINE
  5
145
  8
0
  6
CONTINUOUS
 62
     7
 10
-6.0333172372
 20
233.1164088544
 30
0.0
 11
-6.0333172372
 21
225.2619769868
 31
0.0
  0
LINE
  5
146
  8
0
  6
CONTINUOUS
 62
     7
 10
-7.0333162835
 20
233.1164088544
 30
0.0
 11
-7.0333162835
 21
225.2619769868
 31
0.0
  0
LINE
  5
147
  8
0
  6
CONTINUOUS
 62
     7
 10
-6.0333172372
 20
222.4968936739
 30
0.0
 11
-7.0333162835
 21
222.4968936739
 31
0.0
  0
LINE
  5
148
  8
0
  6
CONTINUOUS
 62
     7
 10
-6.0333172372
 20
224.4968917665
 30
0.0
 11
-6.0333172372
 21
222.4968936739
 31
0.0
  0
LINE
  5
149
  8
0
  6
CONTINUOUS
 62
     7
 10
-7.0333162835
 20
224.4968917665
 30
0.0
 11
-7.0333162835
 21
222.4968936739
 31
0.0
  0
LINE
  5
14A
  8
0
  6
CONTINUOUS
 62
     7
 10
68.3666904876
 20
225.2619769868
 30
0.0
 11
68.3666904876
 21
224.4968917665
 31
0.0
  0
LINE
  5
14B
  8
0
  6
CONTINUOUS
 62
     7
 10
67.3666914413
 20
225.2619769868
 30
0.0
 11
67.3666914413
 21
224.4968917665
 31
0.0
  0
LINE
  5
14C
  8
0
  6
CONTINUOUS
 62
     7
 10
67.3666914413
 20
222.4968936739
 30
0.0
 11
68.3666904876
 21
222.4968936739
 31
0.0
  0
LINE
  5
14D
  8
0
  6
CONTINUOUS
 62
     7
 10
68.3666904876
 20
224.4968917665
 30
0.0
 11
68.3666904876
 21
222.4968936739
 31
0.0
  0
LINE
  5
14E
  8
0
  6
CONTINUOUS
 62
     7
 10
67.3666914413
 20
224.4968917665
 30
0.0
 11
67.3666914413
 21
222.4968936739
 31
0.0
  0
LINE
  5
14F
  8
0
  6
CONTINUOUS
 62
     7
 10
-6.0333172372
 20
225.2619769868
 30
0.0
 11
-6.0333172372
 21
224.4968917665
 31
0.0
  0
LINE
  5
150
  8
0
  6
CONTINUOUS
 62
     7
 10
-7.0333162835
 20
225.2619769868
 30
0.0
 11
-7.0333162835
 21
224.4968917665
 31
0.0
  0
LINE
  5
151
  8
0
  6
CONTINUOUS
 62
     7
 10
-1.8333117058
 20
218.296894103
 30
0.0
 11
-1.8333117058
 21
225.2968933878
 31
0.0
  0
ARC
  5
152
  8
0
  6
CONTINUOUS
 62
     7
 10
-9.8333117058
 20
218.2968933878
 30
0.0
 40
2.000000000000002
 50
180.0
 51
270.0
  0
CIRCLE
  5
153
  8
0
  6
CONTINUOUS
 62
     7
 10
-6.8333117058
 20
219.6968933878
 30
0.0
 40
1.000000000000001
  0
ARC
  5
154
  8
0
  6
CONTINUOUS
 62
     7
 10
-3.8333117058
 20
218.2968933878
 30
0.0
 40
2.000000000000002
 50
270.0
 51
0.0
  0
LINE
  5
155
  8
0
  6
CONTINUOUS
 62
     7
 10
-11.8333021691
 20
218.296894103
 30
0.0
 11
-11.8333021691
 21
225.2968933878
 31
0.0
  0
LINE
  5
156
  8
0
  6
CONTINUOUS
 62
     7
 10
-3.8333097985
 20
216.2968960104
 30
0.0
 11
-9.8333040764
 21
216.2968960104
 31
0.0
  0
LINE
  5
157
  8
0
  6
CONTINUOUS
 62
     7
 10
73.1666882942
 20
218.296894103
 30
0.0
 11
73.1666882942
 21
225.2968933878
 31
0.0
  0
ARC
  5
158
  8
0
  6
CONTINUOUS
 62
     7
 10
71.1666882942
 20
218.2968933878
 30
0.0
 40
2.0
 50
270.0
 51
0.0
  0
LINE
  5
159
  8
0
  6
CONTINUOUS
 62
     7
 10
71.1666902015
 20
216.2968960104
 30
0.0
 11
65.1666840026
 21
216.2968960104
 31
0.0
  0
LINE
  5
15A
  8
0
  6
CONTINUOUS
 62
     7
 10
63.16668591
 20
225.2968933878
 30
0.0
 11
63.16668591
 21
218.296894103
 31
0.0
  0
CIRCLE
  5
15B
  8
0
  6
CONTINUOUS
 62
     7
 10
68.1666882942
 20
219.6968933878
 30
0.0
 40
1.000000000000028
  0
ARC
  5
15C
  8
0
  6
CONTINUOUS
 62
     7
 10
65.1666882942
 20
218.2968933878
 30
0.0
 40
2.0
 50
180.0
 51
270.0
  0
LINE
  5
15D
  8
0
  6
CONTINUOUS
 62
     7
 10
73.1666882942
 20
226.2968924341
 30
0.0
 11
68.3666904876
 21
226.2968924341
 31
0.0
  0
LINE
  5
15E
  8
0
  6
CONTINUOUS
 62
     7
 10
73.1666882942
 20
225.2968933878
 30
0.0
 11
73.1666882942
 21
226.2968924341
 31
0.0
  0
LINE
  5
15F
  8
0
  6
CONTINUOUS
 62
     7
 10
-7.0333162835
 20
226.2968924341
 30
0.0
 11
-11.8333021691
 21
226.2968924341
 31
0.0
  0
LINE
  5
160
  8
0
  6
CONTINUOUS
 62
     7
 10
-11.8333021691
 20
225.2968933878
 30
0.0
 11
-11.8333021691
 21
226.2968924341
 31
0.0
  0
LINE
  5
161
  8
0
  6
CONTINUOUS
 62
     7
 10
67.3666914413
 20
226.2968924341
 30
0.0
 11
63.16668591
 21
226.2968924341
 31
0.0
  0
LINE
  5
162
  8
0
  6
CONTINUOUS
 62
     7
 10
63.16668591
 20
225.2968933878
 30
0.0
 11
63.16668591
 21
226.2968924341
 31
0.0
  0
LINE
  5
163
  8
0
  6
CONTINUOUS
 62
     7
 10
-1.8333117058
 20
226.2968924341
 30
0.0
 11
-6.0333172372
 21
226.2968924341
 31
0.0
  0
LINE
  5
164
  8
0
  6
CONTINUOUS
 62
     7
 10
-1.8333117058
 20
226.2968924341
 30
0.0
 11
-1.8333117058
 21
225.2968933878
 31
0.0
  0
ARC
  5
165
  8
0
  6
CONTINUOUS
 62
     7
 10
150.6666203866
 20
423.7852391215
 30
0.0
 40
183.3103411017913
 50
277.7930374791
 51
281.5887932061
  0
ARC
  5
166
  8
0
  6
CONTINUOUS
 62
     7
 10
188.035444927
 20
241.5773965082
 30
0.0
 40
2.689999999999993
 50
12.4186815058
 51
100.0467259555
  0
ARC
  5
167
  8
0
  6
CONTINUOUS
 62
     7
 10
150.6796829743
 20
423.7089141475
 30
0.0
 40
188.6129499063299
 50
277.7922496498
 51
281.5895398168
  0
ARC
  5
168
  8
0
  6
CONTINUOUS
 62
     7
 10
188.035444927
 20
241.5773965082
 30
0.0
 40
2.689999999999998
 50
281.5900201068
 51
12.4186815058
  0
ARC
  5
169
  8
0
  6
CONTINUOUS
 62
     7
 10
113.2979316613
 20
241.5773965082
 30
0.0
 40
2.690000000000011
 50
80.0567778886
 51
167.5813184942
  0
ARC
  5
16A
  8
0
  6
CONTINUOUS
 62
     7
 10
150.6867886523
 20
423.9030423793
 30
0.0
 40
183.4297729540991
 50
258.4125714562
 51
262.2057519284
  0
ARC
  5
16B
  8
0
  6
CONTINUOUS
 62
     7
 10
150.6861435797
 20
423.8988689875
 30
0.0
 40
188.8055507068936
 50
258.4125210951
 51
262.2058088669
  0
ARC
  5
16C
  8
0
  6
CONTINUOUS
 62
     7
 10
113.2979316613
 20
241.5773965082
 30
0.0
 40
2.690000000000011
 50
167.5813184942
 51
258.4099798932
  0
ARC
  5
16D
  8
0
  6
CONTINUOUS
 62
     7
 10
150.6666882942
 20
423.7849046623
 30
0.0
 40
188.6900000000001
 50
262.2069690737
 51
277.7930309263
  0
ARC
  5
16E
  8
0
  6
CONTINUOUS
 62
     7
 10
150.6666882942
 20
423.7849046623
 30
0.0
 40
183.31
 50
262.2069690737
 51
277.7930309263
  0
LINE
  5
16F
  8
0
  6
CONTINUOUS
 62
     7
 10
187.3666887591
 20
238.4368923006
 30
0.0
 11
188.3666878054
 21
238.4368923006
 31
0.0
  0
LINE
  5
170
  8
0
  6
CONTINUOUS
 62
     7
 10
188.3666878054
 20
238.9078703222
 30
0.0
 11
188.3666878054
 21
238.4368923006
 31
0.0
  0
LINE
  5
171
  8
0
  6
CONTINUOUS
 62
     7
 10
187.3666887591
 20
238.6983421144
 30
0.0
 11
187.3666887591
 21
238.4368923006
 31
0.0
  0
LINE
  5
172
  8
0
  6
CONTINUOUS
 62
     7
 10
113.9666875312
 20
238.4368923006
 30
0.0
 11
112.9666884849
 21
238.4368923006
 31
0.0
  0
LINE
  5
173
  8
0
  6
CONTINUOUS
 62
     7
 10
112.9666884849
 20
238.9078703222
 30
0.0
 11
112.9666884849
 21
238.4368923006
 31
0.0
  0
LINE
  5
174
  8
0
  6
CONTINUOUS
 62
     7
 10
113.9666875312
 20
238.6983659563
 30
0.0
 11
113.9666875312
 21
238.4368923006
 31
0.0
  0
LINE
  5
175
  8
0
  6
CONTINUOUS
 62
     7
 10
112.9666884849
 20
238.4368923006
 30
0.0
 11
112.9666884849
 21
233.9699473676
 31
0.0
  0
LINE
  5
176
  8
0
  6
CONTINUOUS
 62
     7
 10
113.9666875312
 20
238.4368923006
 30
0.0
 11
113.9666875312
 21
233.9699473676
 31
0.0
  0
LINE
  5
177
  8
0
  6
CONTINUOUS
 62
     7
 10
188.3666878054
 20
238.4368923006
 30
0.0
 11
188.3666878054
 21
233.9699473676
 31
0.0
  0
LINE
  5
178
  8
0
  6
CONTINUOUS
 62
     7
 10
187.3666887591
 20
238.4368923006
 30
0.0
 11
187.3666887591
 21
233.9699473676
 31
0.0
  0
LINE
  5
179
  8
0
  6
CONTINUOUS
 62
     7
 10
113.8383706519
 20
244.2125466165
 30
0.0
 11
113.8422926376
 21
244.2117419538
 31
0.0
  0
LINE
  5
17A
  8
0
  6
CONTINUOUS
 62
     7
 10
187.4907707283
 20
244.2116763887
 30
0.0
 11
187.4950041482
 21
244.2125466165
 31
0.0
  0
LINE
  5
17B
  8
0
  6
CONTINUOUS
 62
     7
 10
112.9666884849
 20
233.9699473676
 30
0.0
 11
112.9666884849
 21
233.1164088544
 31
0.0
  0
LINE
  5
17C
  8
0
  6
CONTINUOUS
 62
     7
 10
113.9666875312
 20
233.9699473676
 30
0.0
 11
113.9666875312
 21
233.1164088544
 31
0.0
  0
LINE
  5
17D
  8
0
  6
CONTINUOUS
 62
     7
 10
188.3666878054
 20
233.9699473676
 30
0.0
 11
188.3666878054
 21
233.1164088544
 31
0.0
  0
LINE
  5
17E
  8
0
  6
CONTINUOUS
 62
     7
 10
187.3666887591
 20
233.9699473676
 30
0.0
 11
187.3666887591
 21
233.1164088544
 31
0.0
  0
LINE
  5
17F
  8
0
  6
CONTINUOUS
 62
     7
 10
188.3666878054
 20
233.1164088544
 30
0.0
 11
188.3666878054
 21
225.2619769868
 31
0.0
  0
LINE
  5
180
  8
0
  6
CONTINUOUS
 62
     7
 10
187.3666887591
 20
233.1164088544
 30
0.0
 11
187.3666887591
 21
225.2619769868
 31
0.0
  0
LINE
  5
181
  8
0
  6
CONTINUOUS
 62
     7
 10
112.9666884849
 20
233.1164088544
 30
0.0
 11
112.9666884849
 21
225.2619769868
 31
0.0
  0
LINE
  5
182
  8
0
  6
CONTINUOUS
 62
     7
 10
113.9666875312
 20
233.1164088544
 30
0.0
 11
113.9666875312
 21
225.2619769868
 31
0.0
  0
LINE
  5
183
  8
0
  6
CONTINUOUS
 62
     7
 10
187.3666887591
 20
222.4968936739
 30
0.0
 11
188.3666878054
 21
222.4968936739
 31
0.0
  0
LINE
  5
184
  8
0
  6
CONTINUOUS
 62
     7
 10
188.3666878054
 20
224.4968917665
 30
0.0
 11
188.3666878054
 21
222.4968936739
 31
0.0
  0
LINE
  5
185
  8
0
  6
CONTINUOUS
 62
     7
 10
187.3666887591
 20
224.4968917665
 30
0.0
 11
187.3666887591
 21
222.4968936739
 31
0.0
  0
LINE
  5
186
  8
0
  6
CONTINUOUS
 62
     7
 10
113.9666875312
 20
222.4968936739
 30
0.0
 11
112.9666884849
 21
222.4968936739
 31
0.0
  0
LINE
  5
187
  8
0
  6
CONTINUOUS
 62
     7
 10
112.9666884849
 20
224.4968917665
 30
0.0
 11
112.9666884849
 21
222.4968936739
 31
0.0
  0
LINE
  5
188
  8
0
  6
CONTINUOUS
 62
     7
 10
113.9666875312
 20
224.4968917665
 30
0.0
 11
113.9666875312
 21
222.4968936739
 31
0.0
  0
LINE
  5
189
  8
0
  6
CONTINUOUS
 62
     7
 10
112.9666884849
 20
225.2619769868
 30
0.0
 11
112.9666884849
 21
224.4968917665
 31
0.0
  0
LINE
  5
18A
  8
0
  6
CONTINUOUS
 62
     7
 10
113.9666875312
 20
225.2619769868
 30
0.0
 11
113.9666875312
 21
224.4968917665
 31
0.0
  0
LINE
  5
18B
  8
0
  6
CONTINUOUS
 62
     7
 10
188.3666878054
 20
225.2619769868
 30
0.0
 11
188.3666878054
 21
224.4968917665
 31
0.0
  0
LINE
  5
18C
  8
0
  6
CONTINUOUS
 62
     7
 10
187.3666887591
 20
225.2619769868
 30
0.0
 11
187.3666887591
 21
224.4968917665
 31
0.0
  0
LINE
  5
18D
  8
0
  6
CONTINUOUS
 62
     7
 10
193.1666885922
 20
218.296894103
 30
0.0
 11
193.1666885922
 21
225.2968933878
 31
0.0
  0
ARC
  5
18E
  8
0
  6
CONTINUOUS
 62
     7
 10
191.1666882942
 20
218.2968933878
 30
0.0
 40
2.0
 50
270.0
 51
0.0
  0
LINE
  5
18F
  8
0
  6
CONTINUOUS
 62
     7
 10
191.1666890094
 20
216.2968960104
 30
0.0
 11
185.166688771
 21
216.2968960104
 31
0.0
  0
ARC
  5
190
  8
0
  6
CONTINUOUS
 62
     7
 10
185.1666882942
 20
218.2968933878
 30
0.0
 40
2.0
 50
180.0
 51
270.0
  0
LINE
  5
191
  8
0
  6
CONTINUOUS
 62
     7
 10
183.1666876981
 20
225.2968933878
 30
0.0
 11
183.1666876981
 21
218.296894103
 31
0.0
  0
CIRCLE
  5
192
  8
0
  6
CONTINUOUS
 62
     7
 10
188.1666882942
 20
219.6968933878
 30
0.0
 40
1.0
  0
LINE
  5
193
  8
0
  6
CONTINUOUS
 62
     7
 10
118.1666871021
 20
218.296894103
 30
0.0
 11
118.1666871021
 21
225.2968933878
 31
0.0
  0
ARC
  5
194
  8
0
  6
CONTINUOUS
 62
     7
 10
110.1666882942
 20
218.2968933878
 30
0.0
 40
2.0
 50
180.0
 51
270.0
  0
CIRCLE
  5
195
  8
0
  6
CONTINUOUS
 62
     7
 10
113.1666882942
 20
219.6968933878
 30
0.0
 40
1.0
  0
LINE
  5
196
  8
0
  6
CONTINUOUS
 62
     7
 10
108.1666906783
 20
218.296894103
 30
0.0
 11
108.1666906783
 21
225.2968933878
 31
0.0
  0
LINE
  5
197
  8
0
  6
CONTINUOUS
 62
     7
 10
116.1666890094
 20
216.2968960104
 30
0.0
 11
110.166688771
 21
216.2968960104
 31
0.0
  0
ARC
  5
198
  8
0
  6
CONTINUOUS
 62
     7
 10
116.1666882942
 20
218.2968933878
 30
0.0
 40
2.000000000000014
 50
270.0
 51
0.0
  0
LINE
  5
199
  8
0
  6
CONTINUOUS
 62
     7
 10
193.1666885922
 20
225.2968933878
 30
0.0
 11
193.1666885922
 21
226.2968924341
 31
0.0
  0
LINE
  5
19A
  8
0
  6
CONTINUOUS
 62
     7
 10
193.1666885922
 20
226.2968924341
 30
0.0
 11
188.3666878054
 21
226.2968924341
 31
0.0
  0
LINE
  5
19B
  8
0
  6
CONTINUOUS
 62
     7
 10
187.3666887591
 20
226.2968924341
 30
0.0
 11
183.1666876981
 21
226.2968924341
 31
0.0
  0
LINE
  5
19C
  8
0
  6
CONTINUOUS
 62
     7
 10
183.1666876981
 20
225.2968933878
 30
0.0
 11
183.1666876981
 21
226.2968924341
 31
0.0
  0
LINE
  5
19D
  8
0
  6
CONTINUOUS
 62
     7
 10
112.9666884849
 20
226.2968924341
 30
0.0
 11
108.1666906783
 21
226.2968924341
 31
0.0
  0
LINE
  5
19E
  8
0
  6
CONTINUOUS
 62
     7
 10
108.1666906783
 20
225.2968933878
 30
0.0
 11
108.1666906783
 21
226.2968924341
 31
0.0
  0
LINE
  5
19F
  8
0
  6
CONTINUOUS
 62
     7
 10
118.1666871021
 20
226.2968924341
 30
0.0
 11
113.9666875312
 21
226.2968924341
 31
0.0
  0
LINE
  5
1A0
  8
0
  6
CONTINUOUS
 62
     7
 10
118.1666871021
 20
226.2968924341
 30
0.0
 11
118.1666871021
 21
225.2968933878
 31
0.0
  0
ARC
  5
1A1
  8
0
  6
CONTINUOUS
 62
     7
 10
390.6675370393
 20
423.7795151045
 30
0.0
 40
183.3045473535419
 50
277.7930000842
 51
281.5888684784
  0
ARC
  5
1A2
  8
0
  6
CONTINUOUS
 62
     7
 10
428.035444927
 20
241.5773965082
 30
0.0
 40
2.690000000000018
 50
12.4186815058
 51
100.0467259555
  0
ARC
  5
1A3
  8
0
  6
CONTINUOUS
 62
     7
 10
390.679213196
 20
423.7116685864
 30
0.0
 40
188.615742685334
 50
277.7922777727
 51
281.5895116938
  0
ARC
  5
1A4
  8
0
  6
CONTINUOUS
 62
     7
 10
428.035444927
 20
241.5773965082
 30
0.0
 40
2.690000000000023
 50
281.5900201068
 51
12.4186815058
  0
ARC
  5
1A5
  8
0
  6
CONTINUOUS
 62
     7
 10
390.6865845088
 20
423.9015375235
 30
0.0
 40
188.8082539015946
 50
258.4125519674
 51
262.2057871943
  0
ARC
  5
1A6
  8
0
  6
CONTINUOUS
 62
     7
 10
353.2979316613
 20
241.5773965082
 30
0.0
 40
2.690000000000003
 50
167.5813184942
 51
258.4099798932
  0
ARC
  5
1A7
  8
0
  6
CONTINUOUS
 62
     7
 10
353.2979316613
 20
241.5773965082
 30
0.0
 40
2.690000000000015
 50
80.0567778886
 51
167.5813184942
  0
ARC
  5
1A8
  8
0
  6
CONTINUOUS
 62
     7
 10
390.6861139401
 20
423.8990704044
 30
0.0
 40
183.4257456876157
 50
258.4125297998
 51
262.2057935849
  0
ARC
  5
1A9
  8
0
  6
CONTINUOUS
 62
     7
 10
390.6666882942
 20
423.7849046623
 30
0.0
 40
183.31
 50
262.2069690737
 51
277.7930309263
  0
ARC
  5
1AA
  8
0
  6
CONTINUOUS
 62
     7
 10
390.6666882942
 20
423.7849046623
 30
0.0
 40
188.6900000000001
 50
262.2069690737
 51
277.7930309263
  0
LINE
  5
1AB
  8
0
  6
CONTINUOUS
 62
     7
 10
353.966685147
 20
238.6983659563
 30
0.0
 11
353.966685147
 21
238.4368923006
 31
0.0
  0
LINE
  5
1AC
  8
0
  6
CONTINUOUS
 62
     7
 10
353.966685147
 20
238.4368923006
 30
0.0
 11
352.9666861007
 21
238.4368923006
 31
0.0
  0
LINE
  5
1AD
  8
0
  6
CONTINUOUS
 62
     7
 10
352.9666861007
 20
238.9078703222
 30
0.0
 11
352.9666861007
 21
238.4368923006
 31
0.0
  0
LINE
  5
1AE
  8
0
  6
CONTINUOUS
 62
     7
 10
353.966685147
 20
238.4368923006
 30
0.0
 11
353.966685147
 21
233.9699473676
 31
0.0
  0
LINE
  5
1AF
  8
0
  6
CONTINUOUS
 62
     7
 10
352.9666861007
 20
238.4368923006
 30
0.0
 11
352.9666861007
 21
233.9699473676
 31
0.0
  0
LINE
  5
1B0
  8
0
  6
CONTINUOUS
 62
     7
 10
427.3666938255
 20
238.4368923006
 30
0.0
 11
428.3666928718
 21
238.4368923006
 31
0.0
  0
LINE
  5
1B1
  8
0
  6
CONTINUOUS
 62
     7
 10
428.3666928718
 20
238.4368923006
 30
0.0
 11
428.3666928718
 21
233.9699473676
 31
0.0
  0
LINE
  5
1B2
  8
0
  6
CONTINUOUS
 62
     7
 10
427.3666938255
 20
238.4368923006
 30
0.0
 11
427.3666938255
 21
233.9699473676
 31
0.0
  0
LINE
  5
1B3
  8
0
  6
CONTINUOUS
 62
     7
 10
428.3666928718
 20
238.9078703222
 30
0.0
 11
428.3666928718
 21
238.4368923006
 31
0.0
  0
LINE
  5
1B4
  8
0
  6
CONTINUOUS
 62
     7
 10
427.3666938255
 20
238.6983421144
 30
0.0
 11
427.3666938255
 21
238.4368923006
 31
0.0
  0
LINE
  5
1B5
  8
0
  6
CONTINUOUS
 62
     7
 10
353.8383682678
 20
244.2125466165
 30
0.0
 11
353.8422902534
 21
244.2117419538
 31
0.0
  0
LINE
  5
1B6
  8
0
  6
CONTINUOUS
 62
     7
 10
427.490766854
 20
244.2116763887
 30
0.0
 11
427.4950107047
 21
244.2125466165
 31
0.0
  0
LINE
  5
1B7
  8
0
  6
CONTINUOUS
 62
     7
 10
353.966685147
 20
233.9699473676
 30
0.0
 11
353.966685147
 21
233.1164088544
 31
0.0
  0
LINE
  5
1B8
  8
0
  6
CONTINUOUS
 62
     7
 10
352.9666861007
 20
233.9699473676
 30
0.0
 11
352.9666861007
 21
233.1164088544
 31
0.0
  0
LINE
  5
1B9
  8
0
  6
CONTINUOUS
 62
     7
 10
428.3666928718
 20
233.9699473676
 30
0.0
 11
428.3666928718
 21
233.1164088544
 31
0.0
  0
LINE
  5
1BA
  8
0
  6
CONTINUOUS
 62
     7
 10
427.3666938255
 20
233.9699473676
 30
0.0
 11
427.3666938255
 21
233.1164088544
 31
0.0
  0
LINE
  5
1BB
  8
0
  6
CONTINUOUS
 62
     7
 10
353.966685147
 20
233.1164088544
 30
0.0
 11
353.966685147
 21
225.2619769868
 31
0.0
  0
LINE
  5
1BC
  8
0
  6
CONTINUOUS
 62
     7
 10
352.9666861007
 20
233.1164088544
 30
0.0
 11
352.9666861007
 21
225.2619769868
 31
0.0
  0
LINE
  5
1BD
  8
0
  6
CONTINUOUS
 62
     7
 10
428.3666928718
 20
233.1164088544
 30
0.0
 11
428.3666928718
 21
225.2619769868
 31
0.0
  0
LINE
  5
1BE
  8
0
  6
CONTINUOUS
 62
     7
 10
427.3666938255
 20
233.1164088544
 30
0.0
 11
427.3666938255
 21
225.2619769868
 31
0.0
  0
LINE
  5
1BF
  8
0
  6
CONTINUOUS
 62
     7
 10
428.3666928718
 20
225.2619769868
 30
0.0
 11
428.3666928718
 21
224.4968917665
 31
0.0
  0
LINE
  5
1C0
  8
0
  6
CONTINUOUS
 62
     7
 10
427.3666938255
 20
225.2619769868
 30
0.0
 11
427.3666938255
 21
224.4968917665
 31
0.0
  0
LINE
  5
1C1
  8
0
  6
CONTINUOUS
 62
     7
 10
353.966685147
 20
222.4968936739
 30
0.0
 11
352.9666861007
 21
222.4968936739
 31
0.0
  0
LINE
  5
1C2
  8
0
  6
CONTINUOUS
 62
     7
 10
353.966685147
 20
224.4968917665
 30
0.0
 11
353.966685147
 21
222.4968936739
 31
0.0
  0
LINE
  5
1C3
  8
0
  6
CONTINUOUS
 62
     7
 10
352.9666861007
 20
224.4968917665
 30
0.0
 11
352.9666861007
 21
222.4968936739
 31
0.0
  0
LINE
  5
1C4
  8
0
  6
CONTINUOUS
 62
     7
 10
353.966685147
 20
225.2619769868
 30
0.0
 11
353.966685147
 21
224.4968917665
 31
0.0
  0
LINE
  5
1C5
  8
0
  6
CONTINUOUS
 62
     7
 10
352.9666861007
 20
225.2619769868
 30
0.0
 11
352.9666861007
 21
224.4968917665
 31
0.0
  0
LINE
  5
1C6
  8
0
  6
CONTINUOUS
 62
     7
 10
427.3666938255
 20
222.4968936739
 30
0.0
 11
428.3666928718
 21
222.4968936739
 31
0.0
  0
LINE
  5
1C7
  8
0
  6
CONTINUOUS
 62
     7
 10
428.3666928718
 20
224.4968917665
 30
0.0
 11
428.3666928718
 21
222.4968936739
 31
0.0
  0
LINE
  5
1C8
  8
0
  6
CONTINUOUS
 62
     7
 10
427.3666938255
 20
224.4968917665
 30
0.0
 11
427.3666938255
 21
222.4968936739
 31
0.0
  0
LINE
  5
1C9
  8
0
  6
CONTINUOUS
 62
     7
 10
348.1666882942
 20
225.2968933878
 30
0.0
 11
348.1666882942
 21
226.2968924341
 31
0.0
  0
LINE
  5
1CA
  8
0
  6
CONTINUOUS
 62
     7
 10
352.9666861007
 20
226.2968924341
 30
0.0
 11
348.1666882942
 21
226.2968924341
 31
0.0
  0
LINE
  5
1CB
  8
0
  6
CONTINUOUS
 62
     7
 10
433.1666787574
 20
218.296894103
 30
0.0
 11
433.1666787574
 21
225.2968933878
 31
0.0
  0
ARC
  5
1CC
  8
0
  6
CONTINUOUS
 62
     7
 10
431.1666882942
 20
218.2968933878
 30
0.0
 40
2.0
 50
270.0
 51
0.0
  0
ARC
  5
1CD
  8
0
  6
CONTINUOUS
 62
     7
 10
425.1666882942
 20
218.2968933878
 30
0.0
 40
2.0
 50
180.0
 51
270.0
  0
LINE
  5
1CE
  8
0
  6
CONTINUOUS
 62
     7
 10
423.1666882942
 20
225.2968933878
 30
0.0
 11
423.1666882942
 21
218.296894103
 31
0.0
  0
CIRCLE
  5
1CF
  8
0
  6
CONTINUOUS
 62
     7
 10
428.1666882942
 20
219.6968933878
 30
0.0
 40
1.0
  0
LINE
  5
1D0
  8
0
  6
CONTINUOUS
 62
     7
 10
431.1666806648
 20
216.2968960104
 30
0.0
 11
425.1666863868
 21
216.2968960104
 31
0.0
  0
LINE
  5
1D1
  8
0
  6
CONTINUOUS
 62
     7
 10
358.1666906783
 20
226.2968924341
 30
0.0
 11
353.966685147
 21
226.2968924341
 31
0.0
  0
LINE
  5
1D2
  8
0
  6
CONTINUOUS
 62
     7
 10
358.1666906783
 20
226.2968924341
 30
0.0
 11
358.1666906783
 21
225.2968933878
 31
0.0
  0
LINE
  5
1D3
  8
0
  6
CONTINUOUS
 62
     7
 10
433.1666787574
 20
226.2968924341
 30
0.0
 11
428.3666928718
 21
226.2968924341
 31
0.0
  0
LINE
  5
1D4
  8
0
  6
CONTINUOUS
 62
     7
 10
433.1666787574
 20
225.2968933878
 30
0.0
 11
433.1666787574
 21
226.2968924341
 31
0.0
  0
ARC
  5
1D5
  8
0
  6
CONTINUOUS
 62
     7
 10
350.1666882942
 20
218.2968933878
 30
0.0
 40
2.0
 50
180.0
 51
270.0
  0
CIRCLE
  5
1D6
  8
0
  6
CONTINUOUS
 62
     7
 10
353.1666882942
 20
219.6968933878
 30
0.0
 40
1.0
  0
LINE
  5
1D7
  8
0
  6
CONTINUOUS
 62
     7
 10
358.1666906783
 20
218.296894103
 30
0.0
 11
358.1666906783
 21
225.2968933878
 31
0.0
  0
ARC
  5
1D8
  8
0
  6
CONTINUOUS
 62
     7
 10
356.1666882942
 20
218.2968933878
 30
0.0
 40
2.0
 50
270.0
 51
0.0
  0
LINE
  5
1D9
  8
0
  6
CONTINUOUS
 62
     7
 10
348.1666882942
 20
218.296894103
 30
0.0
 11
348.1666882942
 21
225.2968933878
 31
0.0
  0
LINE
  5
1DA
  8
0
  6
CONTINUOUS
 62
     7
 10
356.1666925857
 20
216.2968960104
 30
0.0
 11
350.1666863868
 21
216.2968960104
 31
0.0
  0
LINE
  5
1DB
  8
0
  6
CONTINUOUS
 62
     7
 10
427.3666938255
 20
226.2968924341
 30
0.0
 11
423.1666882942
 21
226.2968924341
 31
0.0
  0
LINE
  5
1DC
  8
0
  6
CONTINUOUS
 62
     7
 10
423.1666882942
 20
225.2968933878
 30
0.0
 11
423.1666882942
 21
226.2968924341
 31
0.0
  0
LINE
  5
1DD
  8
0
  6
CONTINUOUS
 62
     7
 10
509.3219655495
 20
226.2968924341
 30
0.0
 11
509.3219655495
 21
251.2968924341
 31
0.0
  0
LINE
  5
1DE
  8
0
  6
CONTINUOUS
 62
     7
 10
503.9219655957
 20
251.2968924341
 30
0.0
 11
503.9219655957
 21
226.2968924341
 31
0.0
  0
LINE
  5
1DF
  8
0
  6
CONTINUOUS
 62
     7
 10
512.6219655316
 20
216.9968929586
 30
0.0
 11
541.6219654422
 21
216.9968929586
 31
0.0
  0
LINE
  5
1E0
  8
0
  6
CONTINUOUS
 62
     7
 10
541.6219654422
 20
222.3968949613
 30
0.0
 11
512.6219655316
 21
222.3968949613
 31
0.0
  0
ARC
  5
1E1
  8
0
  6
CONTINUOUS
 62
     7
 10
521.6219656329
 20
251.2968933878
 30
0.0
 40
12.30000000000007
 50
90.0
 51
180.0
  0
ARC
  5
1E2
  8
0
  6
CONTINUOUS
 62
     7
 10
521.6219656329
 20
251.2968933878
 30
0.0
 40
17.70000000000005
 50
90.0
 51
180.0
  0
LINE
  5
1E3
  8
0
  6
CONTINUOUS
 62
     7
 10
541.6219654422
 20
268.9968970117
 30
0.0
 11
521.6219651442
 21
268.9968970117
 31
0.0
  0
LINE
  5
1E4
  8
0
  6
CONTINUOUS
 62
     7
 10
521.6219651442
 20
263.596895009
 30
0.0
 11
541.6219654422
 21
263.596895009
 31
0.0
  0
ARC
  5
1E5
  8
0
  6
CONTINUOUS
 62
     7
 10
541.6219656329
 20
234.6968933878
 30
0.0
 40
12.30000000000001
 50
270.0
 51
0.0
  0
ARC
  5
1E6
  8
0
  6
CONTINUOUS
 62
     7
 10
541.6219656329
 20
234.6968933878
 30
0.0
 40
17.70000000000005
 50
270.0
 51
0.0
  0
ARC
  5
1E7
  8
0
  6
CONTINUOUS
 62
     7
 10
541.6219656329
 20
251.2968933878
 30
0.0
 40
12.30000000000007
 50
0.0
 51
90.0
  0
ARC
  5
1E8
  8
0
  6
CONTINUOUS
 62
     7
 10
541.6219656329
 20
251.2968933878
 30
0.0
 40
17.70000000000005
 50
360.0
 51
90.0
  0
LINE
  5
1E9
  8
0
  6
CONTINUOUS
 62
     7
 10
559.3219640594
 20
234.6968915758
 30
0.0
 11
559.3219640594
 21
251.2968924341
 31
0.0
  0
LINE
  5
1EA
  8
0
  6
CONTINUOUS
 62
     7
 10
553.9219650369
 20
251.2968924341
 30
0.0
 11
553.9219650369
 21
234.6968915758
 31
0.0
  0
POLYLINE
  5
1EB
  8
0
  6
CONTINUOUS
 62
     7
 66
     1
 10
0.0
 20
0.0
 30
0.0
  0
VERTEX
  5
3F1
  8
0
  6
CONTINUOUS
 62
     7
 10
587.5150504451
 20
239.5056453046
 30
0.0
  0
VERTEX
  5
3F2
  8
0
  6
CONTINUOUS
 62
     7
 10
587.509697948
 20
239.7749927339
 30
0.0
  0
VERTEX
  5
3F3
  8
0
  6
CONTINUOUS
 62
     7
 10
587.4424996715
 20
240.1818957624
 30
0.0
  0
VERTEX
  5
3F4
  8
0
  6
CONTINUOUS
 62
     7
 10
587.3249175887
 20
240.5607011613
 30
0.0
  0
VERTEX
  5
3F5
  8
0
  6
CONTINUOUS
 62
     7
 10
587.1658149104
 20
240.9067001638
 30
0.0
  0
VERTEX
  5
3F6
  8
0
  6
CONTINUOUS
 62
     7
 10
586.9740608077
 20
241.21732977
 30
0.0
  0
VERTEX
  5
3F7
  8
0
  6
CONTINUOUS
 62
     7
 10
586.7575886588
 20
241.4926615057
 30
0.0
  0
VERTEX
  5
3F8
  8
0
  6
CONTINUOUS
 62
     7
 10
586.5216853957
 20
241.7358246145
 30
0.0
  0
VERTEX
  5
3F9
  8
0
  6
CONTINUOUS
 62
     7
 10
586.2671139579
 20
241.9527139959
 30
0.0
  0
VERTEX
  5
3FA
  8
0
  6
CONTINUOUS
 62
     7
 10
585.9879734855
 20
242.1515848932
 30
0.0
  0
VERTEX
  5
3FB
  8
0
  6
CONTINUOUS
 62
     7
 10
585.6660428386
 20
242.34390524
 30
0.0
  0
VERTEX
  5
3FC
  8
0
  6
CONTINUOUS
 62
     7
 10
585.2806094032
 20
242.5364044008
 30
0.0
  0
VERTEX
  5
3FD
  8
0
  6
CONTINUOUS
 62
     7
 10
584.7689631324
 20
242.7477624712
 30
0.0
  0
VERTEX
  5
3FE
  8
0
  6
CONTINUOUS
 62
     7
 10
584.1944756847
 20
242.9443207082
 30
0.0
  0
VERTEX
  5
3FF
  8
0
  6
CONTINUOUS
 62
     7
 10
583.6195233207
 20
243.1112554369
 30
0.0
  0
VERTEX
  5
400
  8
0
  6
CONTINUOUS
 62
     7
 10
582.963985477
 20
243.2753231821
 30
0.0
  0
VERTEX
  5
401
  8
0
  6
CONTINUOUS
 62
     7
 10
582.2898271423
 20
243.4217956361
 30
0.0
  0
VERTEX
  5
402
  8
0
  6
CONTINUOUS
 62
     7
 10
581.5895321708
 20
243.554958373
 30
0.0
  0
VERTEX
  5
403
  8
0
  6
CONTINUOUS
 62
     7
 10
580.8771970611
 20
243.6736192998
 30
0.0
  0
VERTEX
  5
404
  8
0
  6
CONTINUOUS
 62
     7
 10
580.1137628894
 20
243.784930974
 30
0.0
  0
VERTEX
  5
405
  8
0
  6
CONTINUOUS
 62
     7
 10
579.3171348911
 20
243.8860621748
 30
0.0
  0
VERTEX
  5
406
  8
0
  6
CONTINUOUS
 62
     7
 10
578.4909072261
 20
243.9765777883
 30
0.0
  0
VERTEX
  5
407
  8
0
  6
CONTINUOUS
 62
     7
 10
577.6399674754
 20
244.0558340845
 30
0.0
  0
VERTEX
  5
408
  8
0
  6
CONTINUOUS
 62
     7
 10
576.7700615268
 20
244.1231158075
 30
0.0
  0
VERTEX
  5
409
  8
0
  6
CONTINUOUS
 62
     7
 10
575.8873226981
 20
244.177737504
 30
0.0
  0
VERTEX
  5
40A
  8
0
  6
CONTINUOUS
 62
     7
 10
574.9984028678
 20
244.2191150484
 30
0.0
  0
VERTEX
  5
40B
  8
0
  6
CONTINUOUS
 62
     7
 10
574.1018238406
 20
244.2475166616
 30
0.0
  0
VERTEX
  5
40C
  8
0
  6
CONTINUOUS
 62
     7
 10
573.1865527969
 20
244.2632880506
 30
0.0
  0
VERTEX
  5
40D
  8
0
  6
CONTINUOUS
 62
     7
 10
572.5220384937
 20
244.2652550039
 30
0.0
  0
SEQEND
  5
457
  8
0
  6
CONTINUOUS
 62
     7
  0
ARC
  5
1EC
  8
0
  6
CONTINUOUS
 62
     7
 10
532.2233682483
 20
189.1124132434
 30
0.0
 40
55.15425742299519
 50
89.689920985
 51
97.9477118465
  0
LINE
  5
1ED
  8
0
  6
CONTINUOUS
 62
     7
 10
572.5219669681
 20
244.2673948106
 30
0.0
 11
559.3219640594
 21
244.2673948106
 31
0.0
  0
LINE
  5
1EE
  8
0
  6
CONTINUOUS
 62
     7
 10
553.9219650369
 20
244.2673948106
 30
0.0
 11
532.521966372
 21
244.2673948106
 31
0.0
  0
POLYLINE
  5
1EF
  8
0
  6
CONTINUOUS
 62
     7
 66
     1
 10
0.0
 20
0.0
 30
0.0
  0
VERTEX
  5
40E
  8
0
  6
CONTINUOUS
 62
     7
 10
572.5218358379
 20
238.8858464059
 30
0.0
  0
VERTEX
  5
40F
  8
0
  6
CONTINUOUS
 62
     7
 10
573.2497575622
 20
238.8822582063
 30
0.0
  0
VERTEX
  5
410
  8
0
  6
CONTINUOUS
 62
     7
 10
574.0904274326
 20
238.8660636243
 30
0.0
  0
VERTEX
  5
411
  8
0
  6
CONTINUOUS
 62
     7
 10
574.9197128158
 20
238.8379361925
 30
0.0
  0
VERTEX
  5
412
  8
0
  6
CONTINUOUS
 62
     7
 10
575.7316294055
 20
238.7981024084
 30
0.0
  0
VERTEX
  5
413
  8
0
  6
CONTINUOUS
 62
     7
 10
576.5206637721
 20
238.7473073301
 30
0.0
  0
VERTEX
  5
414
  8
0
  6
CONTINUOUS
 62
     7
 10
577.2939088683
 20
238.6857059297
 30
0.0
  0
VERTEX
  5
415
  8
0
  6
CONTINUOUS
 62
     7
 10
578.0462208133
 20
238.6139896211
 30
0.0
  0
VERTEX
  5
416
  8
0
  6
CONTINUOUS
 62
     7
 10
578.7686589103
 20
238.5333624181
 30
0.0
  0
VERTEX
  5
417
  8
0
  6
CONTINUOUS
 62
     7
 10
579.4510784488
 20
238.4454634485
 30
0.0
  0
VERTEX
  5
418
  8
0
  6
CONTINUOUS
 62
     7
 10
580.0850453715
 20
238.3521046934
 30
0.0
  0
VERTEX
  5
419
  8
0
  6
CONTINUOUS
 62
     7
 10
580.6627514701
 20
238.255354434
 30
0.0
  0
VERTEX
  5
41A
  8
0
  6
CONTINUOUS
 62
     7
 10
581.1814132075
 20
238.1570365724
 30
0.0
  0
VERTEX
  5
41B
  8
0
  6
CONTINUOUS
 62
     7
 10
581.6588106494
 20
238.0550470647
 30
0.0
  0
VERTEX
  5
41C
  8
0
  6
CONTINUOUS
 62
     7
 10
582.0737960677
 20
237.9549470243
 30
0.0
  0
VERTEX
  5
41D
  8
0
  6
CONTINUOUS
 62
     7
 10
582.4232938628
 20
237.8595140276
 30
0.0
  0
VERTEX
  5
41E
  8
0
  6
CONTINUOUS
 62
     7
 10
582.7019336562
 20
237.7729859647
 30
0.0
  0
VERTEX
  5
41F
  8
0
  6
CONTINUOUS
 62
     7
 10
582.8859570365
 20
237.7080407438
 30
0.0
  0
VERTEX
  5
420
  8
0
  6
CONTINUOUS
 62
     7
 10
583.0075028281
 20
237.6594510374
 30
0.0
  0
VERTEX
  5
421
  8
0
  6
CONTINUOUS
 62
     7
 10
583.0705824237
 20
237.6308288869
 30
0.0
  0
VERTEX
  5
422
  8
0
  6
CONTINUOUS
 62
     7
 10
583.0784323554
 20
237.6269247827
 30
0.0
  0
SEQEND
  5
456
  8
0
  6
CONTINUOUS
 62
     7
  0
LINE
  5
1F0
  8
0
  6
CONTINUOUS
 62
     7
 10
543.5219648223
 20
238.8873961267
 30
0.0
 11
553.9219650369
 21
238.8873961267
 31
0.0
  0
LINE
  5
1F1
  8
0
  6
CONTINUOUS
 62
     7
 10
559.3219640594
 20
238.8873961267
 30
0.0
 11
572.5219669681
 21
238.8873961267
 31
0.0
  0
LINE
  5
1F2
  8
0
  6
CONTINUOUS
 62
     7
 10
543.5219648223
 20
238.78490594
 30
0.0
 11
553.9219650369
 21
238.78490594
 31
0.0
  0
LINE
  5
1F3
  8
0
  6
CONTINUOUS
 62
     7
 10
559.3219640594
 20
238.78490594
 30
0.0
 11
575.9366574626
 21
238.78490594
 31
0.0
  0
ARC
  5
1F4
  8
0
  6
CONTINUOUS
 62
     7
 10
584.8319656329
 20
237.7849046623
 30
0.0
 40
2.690000000000055
 50
180.0
 51
270.0
  0
ARC
  5
1F5
  8
0
  6
CONTINUOUS
 62
     7
 10
584.8319656329
 20
237.7849046623
 30
0.0
 40
2.689999999999998
 50
270.0
 51
0.0
  0
LINE
  5
1F6
  8
0
  6
CONTINUOUS
 62
     7
 10
501.4219655584
 20
216.4968934354
 30
0.0
 11
501.4219655584
 21
224.4968917665
 31
0.0
  0
LINE
  5
1F7
  8
0
  6
CONTINUOUS
 62
     7
 10
502.4219657223
 20
225.4968908128
 30
0.0
 11
510.4219655435
 21
225.4968908128
 31
0.0
  0
ARC
  5
1F8
  8
0
  6
CONTINUOUS
 62
     7
 10
502.4219656329
 20
216.4968933878
 30
0.0
 40
1.0
 50
180.0
 51
270.0
  0
LINE
  5
1F9
  8
0
  6
CONTINUOUS
 62
     7
 10
510.4219655435
 20
215.4968943891
 30
0.0
 11
502.4219657223
 21
215.4968943891
 31
0.0
  0
LINE
  5
1FA
  8
0
  6
CONTINUOUS
 62
     7
 10
511.4219657074
 20
224.4968917665
 30
0.0
 11
511.4219657074
 21
216.4968934354
 31
0.0
  0
ARC
  5
1FB
  8
0
  6
CONTINUOUS
 62
     7
 10
502.4219656329
 20
224.4968933878
 30
0.0
 40
1.0
 50
90.0
 51
180.0
  0
ARC
  5
1FC
  8
0
  6
CONTINUOUS
 62
     7
 10
510.4219656329
 20
224.4968933878
 30
0.0
 40
1.0
 50
0.0
 51
90.0
  0
ARC
  5
1FD
  8
0
  6
CONTINUOUS
 62
     7
 10
510.4219656329
 20
216.4968933878
 30
0.0
 40
1.0
 50
270.0
 51
0.0
  0
LINE
  5
1FE
  8
0
  6
CONTINUOUS
 62
     7
 10
498.4219658117
 20
150.2968933878
 30
0.0
 11
494.4219659012
 21
150.2968933878
 31
0.0
  0
LINE
  5
1FF
  8
0
  6
CONTINUOUS
 62
     7
 10
494.4219659012
 20
150.2968933878
 30
0.0
 11
494.4219659012
 21
151.4968933982
 31
0.0
  0
LINE
  5
200
  8
0
  6
CONTINUOUS
 62
     7
 10
494.4219659012
 20
151.4968933982
 30
0.0
 11
498.4219658117
 21
151.4968933982
 31
0.0
  0
LINE
  5
201
  8
0
  6
CONTINUOUS
 62
     7
 10
498.4219658117
 20
150.2968933878
 30
0.0
 11
500.421965767
 21
150.2968933878
 31
0.0
  0
LINE
  5
202
  8
0
  6
CONTINUOUS
 62
     7
 10
498.4219658117
 20
151.4968933982
 30
0.0
 11
500.421965767
 21
151.4968933982
 31
0.0
  0
LINE
  5
203
  8
0
  6
CONTINUOUS
 62
     7
 10
500.421965767
 20
150.2968933878
 30
0.0
 11
527.7903872471
 21
150.2968933878
 31
0.0
  0
LINE
  5
204
  8
0
  6
CONTINUOUS
 62
     7
 10
527.7903872471
 20
151.4968933982
 30
0.0
 11
500.421965767
 21
151.4968933982
 31
0.0
  0
LINE
  5
205
  8
0
  6
CONTINUOUS
 62
     7
 10
530.4219650965
 20
151.4968933982
 30
0.0
 11
530.4219650965
 21
150.2968933878
 31
0.0
  0
LINE
  5
206
  8
0
  6
CONTINUOUS
 62
     7
 10
530.4219650965
 20
150.2968933878
 30
0.0
 11
527.7903872471
 21
150.2968933878
 31
0.0
  0
LINE
  5
207
  8
0
  6
CONTINUOUS
 62
     7
 10
527.7903872471
 20
151.4968933982
 30
0.0
 11
530.4219650965
 21
151.4968933982
 31
0.0
  0
LINE
  5
208
  8
0
  6
CONTINUOUS
 62
     7
 10
501.4219655584
 20
151.4968933982
 30
0.0
 11
501.4219655584
 21
216.2968960104
 31
0.0
  0
LINE
  5
209
  8
0
  6
CONTINUOUS
 62
     7
 10
511.4219657074
 20
216.4968934354
 30
0.0
 11
511.4219657074
 21
151.4968933982
 31
0.0
  0
LINE
  5
20A
  8
0
  6
CONTINUOUS
 62
     7
 10
501.4219655584
 20
216.4968934354
 30
0.0
 11
500.6219657998
 21
216.4968934354
 31
0.0
  0
LINE
  5
20B
  8
0
  6
CONTINUOUS
 62
     7
 10
500.6219657998
 20
216.4968934354
 30
0.0
 11
500.6219657998
 21
218.4968915281
 31
0.0
  0
LINE
  5
20C
  8
0
  6
CONTINUOUS
 62
     7
 10
512.6219655316
 20
216.4968934354
 30
0.0
 11
511.821965773
 21
216.4968934354
 31
0.0
  0
LINE
  5
20D
  8
0
  6
CONTINUOUS
 62
     7
 10
512.6219655316
 20
218.4968915281
 30
0.0
 11
512.6219655316
 21
216.4968934354
 31
0.0
  0
LINE
  5
20E
  8
0
  6
CONTINUOUS
 62
     7
 10
511.821965773
 20
216.4968934354
 30
0.0
 11
511.821965773
 21
218.4968915281
 31
0.0
  0
ARC
  5
20F
  8
0
  6
CONTINUOUS
 62
     7
 10
511.4219656329
 20
225.0968933878
 30
0.0
 40
0.4000000000000909
 50
0.0
 51
90.0
  0
LINE
  5
210
  8
0
  6
CONTINUOUS
 62
     7
 10
500.6219657998
 20
218.4968915281
 30
0.0
 11
500.6219657998
 21
225.0968959627
 31
0.0
  0
ARC
  5
211
  8
0
  6
CONTINUOUS
 62
     7
 10
501.8219656329
 20
225.0968933878
 30
0.0
 40
1.200000000000017
 50
90.0
 51
180.0
  0
LINE
  5
212
  8
0
  6
CONTINUOUS
 62
     7
 10
512.6219655316
 20
225.0968959627
 30
0.0
 11
512.6219655316
 21
218.4968915281
 31
0.0
  0
ARC
  5
213
  8
0
  6
CONTINUOUS
 62
     7
 10
501.8219656329
 20
225.0968933878
 30
0.0
 40
0.4000000000000909
 50
90.0
 51
180.0
  0
ARC
  5
214
  8
0
  6
CONTINUOUS
 62
     7
 10
511.4219656329
 20
225.0968933878
 30
0.0
 40
1.200000000000045
 50
0.0
 51
90.0
  0
LINE
  5
215
  8
0
  6
CONTINUOUS
 62
     7
 10
501.821965624
 20
225.4968908128
 30
0.0
 11
502.4219657223
 21
225.4968908128
 31
0.0
  0
LINE
  5
216
  8
0
  6
CONTINUOUS
 62
     7
 10
510.4219655435
 20
225.4968908128
 30
0.0
 11
511.4219657074
 21
225.4968908128
 31
0.0
  0
LINE
  5
217
  8
0
  6
CONTINUOUS
 62
     7
 10
501.821965624
 20
226.2968924341
 30
0.0
 11
511.4219657074
 21
226.2968924341
 31
0.0
  0
LINE
  5
218
  8
0
  6
CONTINUOUS
 62
     7
 10
501.4219655584
 20
224.4968917665
 30
0.0
 11
501.4219655584
 21
225.0968959627
 31
0.0
  0
LINE
  5
219
  8
0
  6
CONTINUOUS
 62
     7
 10
511.821965773
 20
225.0968959627
 30
0.0
 11
511.821965773
 21
218.4968915281
 31
0.0
  0
LINE
  5
21A
  8
0
  6
CONTINUOUS
 62
     7
 10
511.6219657402
 20
218.296894103
 30
0.0
 11
511.6219657402
 21
225.2968933878
 31
0.0
  0
ARC
  5
21B
  8
0
  6
CONTINUOUS
 62
     7
 10
501.6219656329
 20
225.2968933878
 30
0.0
 40
1.0
 50
90.0
 51
180.0
  0
ARC
  5
21C
  8
0
  6
CONTINUOUS
 62
     7
 10
511.4219656329
 20
225.2968933878
 30
0.0
 40
0.1999999999999886
 50
0.0
 51
90.0
  0
LINE
  5
21D
  8
0
  6
CONTINUOUS
 62
     7
 10
512.4219654988
 20
216.2968960104
 30
0.0
 11
511.6219657402
 21
216.2968960104
 31
0.0
  0
LINE
  5
21E
  8
0
  6
CONTINUOUS
 62
     7
 10
511.6219657402
 20
216.2968960104
 30
0.0
 11
511.6219657402
 21
218.296894103
 31
0.0
  0
LINE
  5
21F
  8
0
  6
CONTINUOUS
 62
     7
 10
512.4219654988
 20
216.4968934354
 30
0.0
 11
512.4219654988
 21
216.2968960104
 31
0.0
  0
LINE
  5
220
  8
0
  6
CONTINUOUS
 62
     7
 10
501.4219655584
 20
216.2968960104
 30
0.0
 11
500.6219657998
 21
216.2968960104
 31
0.0
  0
LINE
  5
221
  8
0
  6
CONTINUOUS
 62
     7
 10
500.6219657998
 20
216.2968960104
 30
0.0
 11
500.6219657998
 21
216.4968934354
 31
0.0
  0
LINE
  5
222
  8
0
  6
CONTINUOUS
 62
     7
 10
501.4219655584
 20
216.4968934354
 30
0.0
 11
501.4219655584
 21
216.2968960104
 31
0.0
  0
POLYLINE
  5
223
  8
0
  6
CONTINUOUS
 62
     7
 66
     1
 10
0.0
 20
0.0
 30
0.0
  0
VERTEX
  5
423
  8
0
  6
CONTINUOUS
 62
     7
 10
524.4728716951
 20
241.6889872846
 30
0.0
  0
VERTEX
  5
424
  8
0
  6
CONTINUOUS
 62
     7
 10
524.64283881
 20
242.0534577665
 30
0.0
  0
VERTEX
  5
425
  8
0
  6
CONTINUOUS
 62
     7
 10
524.8903634887
 20
242.3916962442
 30
0.0
  0
VERTEX
  5
426
  8
0
  6
CONTINUOUS
 62
     7
 10
525.2823742967
 20
242.7647199926
 30
0.0
  0
VERTEX
  5
427
  8
0
  6
CONTINUOUS
 62
     7
 10
525.7399904471
 20
243.0805054006
 30
0.0
  0
VERTEX
  5
428
  8
0
  6
CONTINUOUS
 62
     7
 10
526.5139850717
 20
243.4591200647
 30
0.0
  0
VERTEX
  5
429
  8
0
  6
CONTINUOUS
 62
     7
 10
527.3481565457
 20
243.7368955907
 30
0.0
  0
SEQEND
  5
455
  8
0
  6
CONTINUOUS
 62
     7
  0
POLYLINE
  5
224
  8
0
  6
CONTINUOUS
 62
     7
 66
     1
 10
0.0
 20
0.0
 30
0.0
  0
VERTEX
  5
42A
  8
0
  6
CONTINUOUS
 62
     7
 10
530.2554252486
 20
238.8994660673
 30
0.0
  0
VERTEX
  5
42B
  8
0
  6
CONTINUOUS
 62
     7
 10
528.2240333896
 20
238.956233531
 30
0.0
  0
VERTEX
  5
42C
  8
0
  6
CONTINUOUS
 62
     7
 10
527.1331774931
 20
239.0843656358
 30
0.0
  0
VERTEX
  5
42D
  8
0
  6
CONTINUOUS
 62
     7
 10
526.0732087236
 20
239.3576112089
 30
0.0
  0
VERTEX
  5
42E
  8
0
  6
CONTINUOUS
 62
     7
 10
525.3819378953
 20
239.6812823114
 30
0.0
  0
VERTEX
  5
42F
  8
0
  6
CONTINUOUS
 62
     7
 10
525.0662314634
 20
239.9027135667
 30
0.0
  0
VERTEX
  5
430
  8
0
  6
CONTINUOUS
 62
     7
 10
524.7893932204
 20
240.1701238451
 30
0.0
  0
VERTEX
  5
431
  8
0
  6
CONTINUOUS
 62
     7
 10
524.5003881793
 20
240.6325366792
 30
0.0
  0
VERTEX
  5
432
  8
0
  6
CONTINUOUS
 62
     7
 10
524.3887293081
 20
241.1695626077
 30
0.0
  0
VERTEX
  5
433
  8
0
  6
CONTINUOUS
 62
     7
 10
524.4728716951
 20
241.6889872846
 30
0.0
  0
SEQEND
  5
454
  8
0
  6
CONTINUOUS
 62
     7
  0
LINE
  5
225
  8
0
  6
CONTINUOUS
 62
     7
 10
532.521966372
 20
238.9078703222
 30
0.0
 11
530.2554252486
 21
238.8994660673
 31
0.0
  0
LINE
  5
226
  8
0
  6
CONTINUOUS
 62
     7
 10
543.5219648223
 20
238.9078703222
 30
0.0
 11
532.521966372
 21
238.9078703222
 31
0.0
  0
ARC
  5
227
  8
0
  6
CONTINUOUS
 62
     7
 10
504.1279473907
 20
351.7864029885
 30
0.0
 40
120.0
 50
280.9468409701
 51
289.1646231125
  0
LINE
  5
228
  8
0
  6
CONTINUOUS
 62
     7
 10
526.9157263379
 20
233.9699473676
 30
0.0
 11
522.5027802329
 21
233.1164088544
 31
0.0
  0
ARC
  5
229
  8
0
  6
CONTINUOUS
 62
     7
 10
524.0219656329
 20
225.2619758393
 30
0.0
 40
8.000000000000025
 50
100.9468409701
 51
180.0
  0
LINE
  5
22A
  8
0
  6
CONTINUOUS
 62
     7
 10
516.0219657164
 20
225.2619769868
 30
0.0
 11
516.0219657164
 21
224.4968917665
 31
0.0
  0
ARC
  5
22B
  8
0
  6
CONTINUOUS
 62
     7
 10
514.0219656329
 20
224.4968933878
 30
0.0
 40
2.0
 50
270.0
 51
0.0
  0
LINE
  5
22C
  8
0
  6
CONTINUOUS
 62
     7
 10
514.0219653886
 20
222.4968936739
 30
0.0
 11
512.6219655316
 21
222.4968936739
 31
0.0
  0
LINE
  5
22D
  8
0
  6
CONTINUOUS
 62
     7
 10
500.6219657998
 20
222.4968936739
 30
0.0
 11
499.8219656687
 21
222.4968936739
 31
0.0
  0
ARC
  5
22E
  8
0
  6
CONTINUOUS
 62
     7
 10
524.3035165924
 20
211.7467364946
 30
0.0
 40
32.0
 50
129.5627908875
 51
140.3596923241
  0
ARC
  5
22F
  8
0
  6
CONTINUOUS
 62
     7
 10
524.3035165924
 20
211.7467364946
 30
0.0
 40
32.00000000000001
 50
91.4211498515
 51
117.9157975373
  0
LINE
  5
230
  8
0
  6
CONTINUOUS
 62
     7
 10
523.5098781924
 20
243.7368955907
 30
0.0
 11
527.3481565457
 21
243.7368955907
 31
0.0
  0
LINE
  5
231
  8
0
  6
CONTINUOUS
 62
     7
 10
543.5219648223
 20
238.9078703222
 30
0.0
 11
543.5219648223
 21
238.4368923006
 31
0.0
  0
ARC
  5
232
  8
0
  6
CONTINUOUS
 62
     7
 10
505.8219656329
 20
227.0579178381
 30
0.0
 40
8.000000000000032
 50
140.3596923241
 51
180.0
  0
LINE
  5
233
  8
0
  6
CONTINUOUS
 62
     7
 10
497.8219653409
 20
224.4968917665
 30
0.0
 11
497.8219653409
 21
227.0579185781
 31
0.0
  0
ARC
  5
234
  8
0
  6
CONTINUOUS
 62
     7
 10
499.8219656329
 20
224.4968933878
 30
0.0
 40
2.0
 50
180.0
 51
270.0
  0
LINE
  5
235
  8
0
  6
CONTINUOUS
 62
     7
 10
582.1419659
 20
237.9015531835
 30
0.0
 11
582.1419659
 21
237.7849068937
 31
0.0
  0
LINE
  5
236
  8
0
  6
CONTINUOUS
 62
     7
 10
587.5219645839
 20
237.7849068937
 30
0.0
 11
587.5219645839
 21
239.502736598
 31
0.0
  0
LINE
  5
237
  8
0
  6
CONTINUOUS
 62
     7
 10
587.5219645839
 20
239.502736598
 30
0.0
 11
587.5215235095
 21
239.5509925184
 31
0.0
  0
LINE
  5
238
  8
0
  6
CONTINUOUS
 62
     7
 10
447.9666789482
 20
97.3179757538
 30
0.0
 11
447.9666789482
 21
82.317976252
 31
0.0
  0
LINE
  5
239
  8
0
  6
CONTINUOUS
 62
     7
 10
453.3666928718
 20
82.317976252
 30
0.0
 11
453.3666928718
 21
97.3179757538
 31
0.0
  0
LINE
  5
23A
  8
0
  6
CONTINUOUS
 62
     7
 10
453.3666928718
 20
62.317975954
 30
0.0
 11
453.3666928718
 21
82.317976252
 31
0.0
  0
LINE
  5
23B
  8
0
  6
CONTINUOUS
 62
     7
 10
447.9666789482
 20
82.317976252
 30
0.0
 11
447.9666789482
 21
62.317975954
 31
0.0
  0
LINE
  5
23C
  8
0
  6
CONTINUOUS
 62
     7
 10
447.9666789482
 20
62.317975954
 30
0.0
 11
447.9666789482
 21
47.3179783382
 31
0.0
  0
LINE
  5
23D
  8
0
  6
CONTINUOUS
 62
     7
 10
453.3666928718
 20
47.3179783382
 30
0.0
 11
453.3666928718
 21
62.317975954
 31
0.0
  0
LINE
  5
23E
  8
0
  6
CONTINUOUS
 62
     7
 10
327.9666861007
 20
97.3179757538
 30
0.0
 11
327.9666861007
 21
82.317976252
 31
0.0
  0
LINE
  5
23F
  8
0
  6
CONTINUOUS
 62
     7
 10
333.3666881034
 20
82.317976252
 30
0.0
 11
333.3666881034
 21
97.3179757538
 31
0.0
  0
LINE
  5
240
  8
0
  6
CONTINUOUS
 62
     7
 10
333.3666881034
 20
62.317975954
 30
0.0
 11
333.3666881034
 21
82.317976252
 31
0.0
  0
LINE
  5
241
  8
0
  6
CONTINUOUS
 62
     7
 10
327.9666861007
 20
82.317976252
 30
0.0
 11
327.9666861007
 21
62.317975954
 31
0.0
  0
LINE
  5
242
  8
0
  6
CONTINUOUS
 62
     7
 10
327.9666861007
 20
62.317975954
 30
0.0
 11
327.9666861007
 21
47.3179783382
 31
0.0
  0
LINE
  5
243
  8
0
  6
CONTINUOUS
 62
     7
 10
333.3666881034
 20
47.3179783382
 30
0.0
 11
333.3666881034
 21
62.317975954
 31
0.0
  0
LINE
  5
244
  8
0
  6
CONTINUOUS
 62
     7
 10
207.9666882241
 20
97.3179757538
 30
0.0
 11
207.9666882241
 21
82.317976252
 31
0.0
  0
LINE
  5
245
  8
0
  6
CONTINUOUS
 62
     7
 10
213.3666883642
 20
82.317976252
 30
0.0
 11
213.3666883642
 21
97.3179757538
 31
0.0
  0
LINE
  5
246
  8
0
  6
CONTINUOUS
 62
     7
 10
213.3666883642
 20
62.317975954
 30
0.0
 11
213.3666883642
 21
82.317976252
 31
0.0
  0
LINE
  5
247
  8
0
  6
CONTINUOUS
 62
     7
 10
207.9666882241
 20
82.317976252
 30
0.0
 11
207.9666882241
 21
62.317975954
 31
0.0
  0
LINE
  5
248
  8
0
  6
CONTINUOUS
 62
     7
 10
207.9666882241
 20
62.317975954
 30
0.0
 11
207.9666882241
 21
47.3179783382
 31
0.0
  0
LINE
  5
249
  8
0
  6
CONTINUOUS
 62
     7
 10
213.3666883642
 20
47.3179783382
 30
0.0
 11
213.3666883642
 21
62.317975954
 31
0.0
  0
LINE
  5
24A
  8
0
  6
CONTINUOUS
 62
     7
 10
-32.0333162835
 20
97.3179757538
 30
0.0
 11
-32.0333162835
 21
82.317976252
 31
0.0
  0
LINE
  5
24B
  8
0
  6
CONTINUOUS
 62
     7
 10
-26.6333023598
 20
82.317976252
 30
0.0
 11
-26.6333023598
 21
97.3179757538
 31
0.0
  0
LINE
  5
24C
  8
0
  6
CONTINUOUS
 62
     7
 10
-26.6333023598
 20
62.317975954
 30
0.0
 11
-26.6333023598
 21
82.317976252
 31
0.0
  0
LINE
  5
24D
  8
0
  6
CONTINUOUS
 62
     7
 10
-32.0333162835
 20
82.317976252
 30
0.0
 11
-32.0333162835
 21
62.317975954
 31
0.0
  0
LINE
  5
24E
  8
0
  6
CONTINUOUS
 62
     7
 10
-32.0333162835
 20
62.317975954
 30
0.0
 11
-32.0333162835
 21
47.3179783382
 31
0.0
  0
LINE
  5
24F
  8
0
  6
CONTINUOUS
 62
     7
 10
-26.6333023598
 20
47.3179783382
 30
0.0
 11
-26.6333023598
 21
62.317975954
 31
0.0
  0
LINE
  5
250
  8
0
  6
CONTINUOUS
 62
     7
 10
87.9666884849
 20
97.3179757538
 30
0.0
 11
87.9666884849
 21
82.317976252
 31
0.0
  0
LINE
  5
251
  8
0
  6
CONTINUOUS
 62
     7
 10
93.3666904876
 20
82.317976252
 30
0.0
 11
93.3666904876
 21
97.3179757538
 31
0.0
  0
LINE
  5
252
  8
0
  6
CONTINUOUS
 62
     7
 10
93.3666904876
 20
62.317975954
 30
0.0
 11
93.3666904876
 21
82.317976252
 31
0.0
  0
LINE
  5
253
  8
0
  6
CONTINUOUS
 62
     7
 10
87.9666884849
 20
82.317976252
 30
0.0
 11
87.9666884849
 21
62.317975954
 31
0.0
  0
LINE
  5
254
  8
0
  6
CONTINUOUS
 62
     7
 10
87.9666884849
 20
62.317975954
 30
0.0
 11
87.9666884849
 21
47.3179783382
 31
0.0
  0
LINE
  5
255
  8
0
  6
CONTINUOUS
 62
     7
 10
93.3666904876
 20
47.3179783382
 30
0.0
 11
93.3666904876
 21
62.317975954
 31
0.0
  0
ARC
  5
256
  8
0
  6
CONTINUOUS
 62
     7
 10
295.8503554545
 20
31.2948393694
 30
0.0
 40
14.86824528724584
 50
270.8244832704
 51
0.4742849259
  0
ARC
  5
257
  8
0
  6
CONTINUOUS
 62
     7
 10
245.4822419254
 20
31.2913823204
 30
0.0
 40
14.86658015187281
 50
179.5129123301
 51
269.3234209822
  0
ARC
  5
258
  8
0
  6
CONTINUOUS
 62
     7
 10
295.8392422304
 20
71.5063548391
 30
0.0
 40
14.87756166995671
 50
359.6597829379
 51
32.6991277419
  0
ARC
  5
259
  8
0
  6
CONTINUOUS
 62
     7
 10
245.5862581498
 20
71.473769039
 30
0.0
 40
14.97538848031683
 50
147.3882403755
 51
180.2160451339
  0
ARC
  5
25A
  8
0
  6
CONTINUOUS
 62
     7
 10
245.4103672905
 20
71.7109705695
 30
0.0
 40
14.69880721282072
 50
90.699217633
 51
141.1138418288
  0
ARC
  5
25B
  8
0
  6
CONTINUOUS
 62
     7
 10
295.9260570244
 20
71.7343335624
 30
0.0
 40
14.67821447142581
 50
38.7741425168
 51
89.7632275192
  0
LINE
  5
25C
  8
0
  6
CONTINUOUS
 62
     7
 10
230.6079318235
 20
71.4179750242
 30
0.0
 11
230.6079318235
 21
31.4179744281
 31
0.0
  0
LINE
  5
25D
  8
0
  6
CONTINUOUS
 62
     7
 10
310.725446553
 20
31.4179744281
 30
0.0
 11
310.725446553
 21
71.4179750242
 31
0.0
  0
ARC
  5
25E
  8
0
  6
CONTINUOUS
 62
     7
 10
55.8503451715
 20
31.2948517527
 30
0.0
 40
14.86825785155786
 50
270.8245313927
 51
0.4742368036
  0
ARC
  5
25F
  8
0
  6
CONTINUOUS
 62
     7
 10
5.4822445657
 20
31.2913738104
 30
0.0
 40
14.86657153992472
 50
179.5128792492
 51
269.323454063
  0
ARC
  5
260
  8
0
  6
CONTINUOUS
 62
     7
 10
55.8391401374
 20
71.5063153425
 30
0.0
 40
14.8776659108312
 50
359.6599374309
 51
32.6990507799
  0
ARC
  5
261
  8
0
  6
CONTINUOUS
 62
     7
 10
5.5864684181
 20
71.4736955045
 30
0.0
 40
14.97560949673326
 50
147.3884474048
 51
180.2157606048
  0
ARC
  5
262
  8
0
  6
CONTINUOUS
 62
     7
 10
5.4103456563
 20
71.711032877
 30
0.0
 40
14.69874476241998
 50
90.6991734444
 51
141.1139575208
  0
ARC
  5
263
  8
0
  6
CONTINUOUS
 62
     7
 10
55.9260477148
 20
71.734296799
 30
0.0
 40
14.67825125822229
 50
38.7742112389
 51
89.7632057327
  0
LINE
  5
264
  8
0
  6
CONTINUOUS
 62
     7
 10
-9.3920628121
 20
71.4179750242
 30
0.0
 11
-9.3920628121
 21
31.4179744281
 31
0.0
  0
LINE
  5
265
  8
0
  6
CONTINUOUS
 62
     7
 10
70.7254489372
 20
31.4179744281
 30
0.0
 11
70.7254489372
 21
71.4179750242
 31
0.0
  0
ARC
  5
266
  8
0
  6
CONTINUOUS
 62
     7
 10
175.8503505546
 20
31.2948468454
 30
0.0
 40
14.86825280728331
 50
270.8244948462
 51
0.4742558757
  0
ARC
  5
267
  8
0
  6
CONTINUOUS
 62
     7
 10
125.4822408763
 20
31.2913771342
 30
0.0
 40
14.86657497474978
 50
179.512892172
 51
269.323417898
  0
ARC
  5
268
  8
0
  6
CONTINUOUS
 62
     7
 10
175.8391744118
 20
71.5063293599
 30
0.0
 40
14.87763350840316
 50
359.6598827063
 51
32.6990667389
  0
ARC
  5
269
  8
0
  6
CONTINUOUS
 62
     7
 10
125.5861233353
 20
71.4738190967
 30
0.0
 40
14.97524819321559
 50
147.3881243277
 51
180.2162386816
  0
ARC
  5
26A
  8
0
  6
CONTINUOUS
 62
     7
 10
125.4103611245
 20
71.7109857184
 30
0.0
 40
14.69879197530867
 50
90.6991896742
 51
141.1138697876
  0
ARC
  5
26B
  8
0
  6
CONTINUOUS
 62
     7
 10
175.9260540198
 20
71.7343217134
 30
0.0
 40
14.67822632540696
 50
38.7741646745
 51
89.7632229624
  0
LINE
  5
26C
  8
0
  6
CONTINUOUS
 62
     7
 10
110.6079300353
 20
71.4179750242
 30
0.0
 11
110.6079300353
 21
31.4179744281
 31
0.0
  0
LINE
  5
26D
  8
0
  6
CONTINUOUS
 62
     7
 10
190.7254447648
 20
31.4179744281
 30
0.0
 11
190.7254447648
 21
71.4179750242
 31
0.0
  0
ARC
  5
26E
  8
0
  6
CONTINUOUS
 62
     7
 10
415.8503297293
 20
31.2948693496
 30
0.0
 40
14.86827553163723
 50
270.8245531713
 51
0.4741684266
  0
ARC
  5
26F
  8
0
  6
CONTINUOUS
 62
     7
 10
365.4822416852
 20
31.2913803328
 30
0.0
 40
14.86657814047849
 50
179.5129046037
 51
269.3234287085
  0
ARC
  5
270
  8
0
  6
CONTINUOUS
 62
     7
 10
415.8392319639
 20
71.5063412932
 30
0.0
 40
14.87757662414099
 50
359.6598354482
 51
32.6991527625
  0
ARC
  5
271
  8
0
  6
CONTINUOUS
 62
     7
 10
365.5861209512
 20
71.4738190967
 30
0.0
 40
14.97524819321725
 50
147.3881243277
 51
180.2162386816
  0
ARC
  5
272
  8
0
  6
CONTINUOUS
 62
     7
 10
365.4103731885
 20
71.7109557768
 30
0.0
 40
14.69882201824245
 50
90.6992213323
 51
141.113814295
  0
ARC
  5
273
  8
0
  6
CONTINUOUS
 62
     7
 10
415.9260295473
 20
71.7342541555
 30
0.0
 40
14.67829398635605
 50
38.7742907723
 51
89.7631261993
  0
LINE
  5
274
  8
0
  6
CONTINUOUS
 62
     7
 10
350.6079276512
 20
71.4179750242
 30
0.0
 11
350.6079276512
 21
31.4179744281
 31
0.0
  0
LINE
  5
275
  8
0
  6
CONTINUOUS
 62
     7
 10
430.7254394004
 20
31.4179744281
 30
0.0
 11
430.7254394004
 21
71.4179750242
 31
0.0
  0
LINE
  5
276
  8
0
  6
CONTINUOUS
 62
     7
 10
459.4666799018
 20
102.1179757722
 30
0.0
 11
459.4666799018
 21
101.5179756739
 31
0.0
  0
ARC
  5
277
  8
0
  6
CONTINUOUS
 62
     7
 10
459.0666882942
 20
102.1179757633
 30
0.0
 40
0.4000000000000909
 50
0.0
 51
90.0
  0
LINE
  5
278
  8
0
  6
CONTINUOUS
 62
     7
 10
-37.7333084633
 20
102.5179758378
 30
0.0
 11
-35.3333155205
 21
102.5179758378
 31
0.0
  0
LINE
  5
279
  8
0
  6
CONTINUOUS
 62
     7
 10
-23.3333031228
 20
102.5179758378
 30
0.0
 11
-11.8333021691
 21
102.5179758378
 31
0.0
  0
LINE
  5
27A
  8
0
  6
CONTINUOUS
 62
     7
 10
-1.8333117058
 20
102.5179758378
 30
0.0
 11
63.16668591
 21
102.5179758378
 31
0.0
  0
LINE
  5
27B
  8
0
  6
CONTINUOUS
 62
     7
 10
73.1666882942
 20
102.5179758378
 30
0.0
 11
84.6666892478
 21
102.5179758378
 31
0.0
  0
LINE
  5
27C
  8
0
  6
CONTINUOUS
 62
     7
 10
96.6666897247
 20
102.5179758378
 30
0.0
 11
108.1666906783
 21
102.5179758378
 31
0.0
  0
LINE
  5
27D
  8
0
  6
CONTINUOUS
 62
     7
 10
118.1666871021
 20
102.5179758378
 30
0.0
 11
183.1666876981
 21
102.5179758378
 31
0.0
  0
LINE
  5
27E
  8
0
  6
CONTINUOUS
 62
     7
 10
193.1666885922
 20
102.5179758378
 30
0.0
 11
204.6666884283
 21
102.5179758378
 31
0.0
  0
LINE
  5
27F
  8
0
  6
CONTINUOUS
 62
     7
 10
216.66668816
 20
102.5179758378
 30
0.0
 11
228.1666879961
 21
102.5179758378
 31
0.0
  0
LINE
  5
280
  8
0
  6
CONTINUOUS
 62
     7
 10
238.1666888902
 20
102.5179758378
 30
0.0
 11
303.1666894863
 21
102.5179758378
 31
0.0
  0
LINE
  5
281
  8
0
  6
CONTINUOUS
 62
     7
 10
313.16668591
 20
102.5179758378
 30
0.0
 11
324.6666868636
 21
102.5179758378
 31
0.0
  0
LINE
  5
282
  8
0
  6
CONTINUOUS
 62
     7
 10
336.6666873405
 20
102.5179758378
 30
0.0
 11
348.1666882942
 21
102.5179758378
 31
0.0
  0
LINE
  5
283
  8
0
  6
CONTINUOUS
 62
     7
 10
358.1666906783
 20
102.5179758378
 30
0.0
 11
423.1666882942
 21
102.5179758378
 31
0.0
  0
LINE
  5
284
  8
0
  6
CONTINUOUS
 62
     7
 10
433.1666787574
 20
102.5179758378
 30
0.0
 11
444.6666797111
 21
102.5179758378
 31
0.0
  0
LINE
  5
285
  8
0
  6
CONTINUOUS
 62
     7
 10
456.6666921089
 20
102.5179758378
 30
0.0
 11
459.0666850517
 21
102.5179758378
 31
0.0
  0
LINE
  5
286
  8
0
  6
CONTINUOUS
 62
     7
 10
459.4666799018
 20
101.5179756739
 30
0.0
 11
459.4666799018
 21
93.5179758527
 31
0.0
  0
LINE
  5
287
  8
0
  6
CONTINUOUS
 62
     7
 10
-38.1333033135
 20
101.5179756739
 30
0.0
 11
-38.1333033135
 21
102.1179757722
 31
0.0
  0
ARC
  5
288
  8
0
  6
CONTINUOUS
 62
     7
 10
-37.7333117058
 20
102.1179757633
 30
0.0
 40
0.4000000000000128
 50
90.0
 51
180.0
  0
LINE
  5
289
  8
0
  6
CONTINUOUS
 62
     7
 10
459.0666850517
 20
92.5179756888
 30
0.0
 11
456.6666921089
 21
92.5179756888
 31
0.0
  0
LINE
  5
28A
  8
0
  6
CONTINUOUS
 62
     7
 10
444.6666797111
 20
92.5179756888
 30
0.0
 11
433.1666787574
 21
92.5179756888
 31
0.0
  0
LINE
  5
28B
  8
0
  6
CONTINUOUS
 62
     7
 10
423.1666882942
 20
92.5179756888
 30
0.0
 11
358.1666906783
 21
92.5179756888
 31
0.0
  0
LINE
  5
28C
  8
0
  6
CONTINUOUS
 62
     7
 10
348.1666882942
 20
92.5179756888
 30
0.0
 11
336.6666873405
 21
92.5179756888
 31
0.0
  0
LINE
  5
28D
  8
0
  6
CONTINUOUS
 62
     7
 10
324.6666868636
 20
92.5179756888
 30
0.0
 11
313.16668591
 21
92.5179756888
 31
0.0
  0
LINE
  5
28E
  8
0
  6
CONTINUOUS
 62
     7
 10
303.1666894863
 20
92.5179756888
 30
0.0
 11
238.1666888902
 21
92.5179756888
 31
0.0
  0
LINE
  5
28F
  8
0
  6
CONTINUOUS
 62
     7
 10
228.1666879961
 20
92.5179756888
 30
0.0
 11
216.66668816
 21
92.5179756888
 31
0.0
  0
LINE
  5
290
  8
0
  6
CONTINUOUS
 62
     7
 10
204.6666884283
 20
92.5179756888
 30
0.0
 11
193.1666885922
 21
92.5179756888
 31
0.0
  0
LINE
  5
291
  8
0
  6
CONTINUOUS
 62
     7
 10
183.1666876981
 20
92.5179756888
 30
0.0
 11
118.1666871021
 21
92.5179756888
 31
0.0
  0
LINE
  5
292
  8
0
  6
CONTINUOUS
 62
     7
 10
108.1666906783
 20
92.5179756888
 30
0.0
 11
96.6666897247
 21
92.5179756888
 31
0.0
  0
LINE
  5
293
  8
0
  6
CONTINUOUS
 62
     7
 10
84.6666892478
 20
92.5179756888
 30
0.0
 11
73.1666882942
 21
92.5179756888
 31
0.0
  0
LINE
  5
294
  8
0
  6
CONTINUOUS
 62
     7
 10
63.16668591
 20
92.5179756888
 30
0.0
 11
-1.8333117058
 21
92.5179756888
 31
0.0
  0
LINE
  5
295
  8
0
  6
CONTINUOUS
 62
     7
 10
-11.8333021691
 20
92.5179756888
 30
0.0
 11
-23.3333031228
 21
92.5179756888
 31
0.0
  0
LINE
  5
296
  8
0
  6
CONTINUOUS
 62
     7
 10
-35.3333155205
 20
92.5179756888
 30
0.0
 11
-37.7333084633
 21
92.5179756888
 31
0.0
  0
LINE
  5
297
  8
0
  6
CONTINUOUS
 62
     7
 10
-38.1333033135
 20
93.5179758527
 30
0.0
 11
-38.1333033135
 21
101.5179756739
 31
0.0
  0
LINE
  5
298
  8
0
  6
CONTINUOUS
 62
     7
 10
459.4666799018
 20
93.5179758527
 30
0.0
 11
459.4666799018
 21
92.9179757543
 31
0.0
  0
ARC
  5
299
  8
0
  6
CONTINUOUS
 62
     7
 10
459.0666882942
 20
92.9179757633
 30
0.0
 40
0.4000000000000909
 50
270.0
 51
0.0
  0
ARC
  5
29A
  8
0
  6
CONTINUOUS
 62
     7
 10
-37.7333117058
 20
92.9179757633
 30
0.0
 40
0.4000000000000128
 50
180.0
 51
270.0
  0
LINE
  5
29B
  8
0
  6
CONTINUOUS
 62
     7
 10
-38.1333033135
 20
92.9179757543
 30
0.0
 11
-38.1333033135
 21
93.5179758527
 31
0.0
  0
ARC
  5
29C
  8
0
  6
CONTINUOUS
 62
     7
 10
398.6666882942
 20
105.5179757633
 30
0.0
 40
4.000000000000014
 50
0.0
 51
90.0
  0
LINE
  5
29D
  8
0
  6
CONTINUOUS
 62
     7
 10
402.6666840026
 20
103.5179756292
 30
0.0
 11
402.6666840026
 21
105.5179755845
 31
0.0
  0
LINE
  5
29E
  8
0
  6
CONTINUOUS
 62
     7
 10
402.6666840026
 20
103.5179756292
 30
0.0
 11
402.6604374359
 21
102.5179758378
 31
0.0
  0
ARC
  5
29F
  8
0
  6
CONTINUOUS
 62
     7
 10
322.6666882942
 20
103.5179757633
 30
0.0
 40
80.00000000000003
 50
347.6577971128
 51
352.0967922665
  0
ARC
  5
2A0
  8
0
  6
CONTINUOUS
 62
     7
 10
458.6666882942
 20
103.5179757633
 30
0.0
 40
80.00000000000003
 50
187.9032077335
 51
192.3422028872
  0
LINE
  5
2A1
  8
0
  6
CONTINUOUS
 62
     7
 10
378.6729415367
 20
102.5179758378
 30
0.0
 11
378.666683049
 21
103.5179756292
 31
0.0
  0
LINE
  5
2A2
  8
0
  6
CONTINUOUS
 62
     7
 10
378.666683049
 20
105.5179755845
 30
0.0
 11
378.666683049
 21
103.5179756292
 31
0.0
  0
ARC
  5
2A3
  8
0
  6
CONTINUOUS
 62
     7
 10
382.6666882942
 20
105.5179757633
 30
0.0
 40
4.000000000000014
 50
90.0
 51
180.0
  0
LINE
  5
2A4
  8
0
  6
CONTINUOUS
 62
     7
 10
398.6666878173
 20
109.517975495
 30
0.0
 11
382.6666911552
 21
109.517975495
 31
0.0
  0
CIRCLE
  5
2A5
  8
0
  6
CONTINUOUS
 62
     7
 10
398.6666882942
 20
105.5179757633
 30
0.0
 40
1.5
  0
CIRCLE
  5
2A6
  8
0
  6
CONTINUOUS
 62
     7
 10
382.6666882942
 20
105.5179757633
 30
0.0
 40
1.5
  0
ARC
  5
2A7
  8
0
  6
CONTINUOUS
 62
     7
 10
98.6666882942
 20
103.5179757633
 30
0.0
 40
80.00000000000003
 50
187.9032077335
 51
192.3422028872
  0
LINE
  5
2A8
  8
0
  6
CONTINUOUS
 62
     7
 10
18.6729391525
 20
102.5179758378
 30
0.0
 11
18.6666925857
 21
103.5179756292
 31
0.0
  0
LINE
  5
2A9
  8
0
  6
CONTINUOUS
 62
     7
 10
18.6666925857
 20
105.5179755845
 30
0.0
 11
18.6666925857
 21
103.5179756292
 31
0.0
  0
ARC
  5
2AA
  8
0
  6
CONTINUOUS
 62
     7
 10
22.6666882942
 20
105.5179757633
 30
0.0
 40
4.000000000000014
 50
90.0
 51
180.0
  0
LINE
  5
2AB
  8
0
  6
CONTINUOUS
 62
     7
 10
38.6666854331
 20
109.517975495
 30
0.0
 11
22.666688771
 21
109.517975495
 31
0.0
  0
ARC
  5
2AC
  8
0
  6
CONTINUOUS
 62
     7
 10
38.6666882942
 20
105.5179757633
 30
0.0
 40
4.000000000000014
 50
0.0
 51
90.0
  0
LINE
  5
2AD
  8
0
  6
CONTINUOUS
 62
     7
 10
42.6666935394
 20
103.5179756292
 30
0.0
 11
42.6666935394
 21
105.5179755845
 31
0.0
  0
LINE
  5
2AE
  8
0
  6
CONTINUOUS
 62
     7
 10
42.6666935394
 20
103.5179756292
 30
0.0
 11
42.6604350517
 21
102.5179758378
 31
0.0
  0
ARC
  5
2AF
  8
0
  6
CONTINUOUS
 62
     7
 10
-37.3333117058
 20
103.5179757633
 30
0.0
 40
80.00000000000003
 50
347.6577971128
 51
352.0967922665
  0
CIRCLE
  5
2B0
  8
0
  6
CONTINUOUS
 62
     7
 10
22.6666882942
 20
105.5179757633
 30
0.0
 40
1.5
  0
CIRCLE
  5
2B1
  8
0
  6
CONTINUOUS
 62
     7
 10
38.6666882942
 20
105.5179757633
 30
0.0
 40
1.5
  0
ARC
  5
2B2
  8
0
  6
CONTINUOUS
 62
     7
 10
450.6666882942
 20
97.3179757633
 30
0.0
 40
2.700000000000045
 50
0.0
 51
180.0
  0
ARC
  5
2B3
  8
0
  6
CONTINUOUS
 62
     7
 10
450.6666882942
 20
47.3179757633
 30
0.0
 40
2.700000000000045
 50
180.0
 51
0.0
  0
LINE
  5
2B4
  8
0
  6
CONTINUOUS
 62
     7
 10
444.6666797111
 20
103.3179755964
 30
0.0
 11
456.6666921089
 21
103.3179755964
 31
0.0
  0
LINE
  5
2B5
  8
0
  6
CONTINUOUS
 62
     7
 10
444.6666797111
 20
102.1179757722
 30
0.0
 11
444.6666797111
 21
103.3179755964
 31
0.0
  0
LINE
  5
2B6
  8
0
  6
CONTINUOUS
 62
     7
 10
456.6666921089
 20
103.3179755964
 30
0.0
 11
456.6666921089
 21
102.1179757722
 31
0.0
  0
LINE
  5
2B7
  8
0
  6
CONTINUOUS
 62
     7
 10
444.6666797111
 20
102.1179757722
 30
0.0
 11
444.6666797111
 21
92.5179756888
 31
0.0
  0
LINE
  5
2B8
  8
0
  6
CONTINUOUS
 62
     7
 10
456.6666921089
 20
102.1179757722
 30
0.0
 11
456.6666921089
 21
92.5179756888
 31
0.0
  0
LINE
  5
2B9
  8
0
  6
CONTINUOUS
 62
     7
 10
456.6666921089
 20
91.3179758646
 30
0.0
 11
453.3666928718
 21
91.3179758646
 31
0.0
  0
LINE
  5
2BA
  8
0
  6
CONTINUOUS
 62
     7
 10
447.9666789482
 20
91.3179758646
 30
0.0
 11
444.6666797111
 21
91.3179758646
 31
0.0
  0
LINE
  5
2BB
  8
0
  6
CONTINUOUS
 62
     7
 10
444.6666797111
 20
91.3179758646
 30
0.0
 11
444.6666797111
 21
92.5179756888
 31
0.0
  0
LINE
  5
2BC
  8
0
  6
CONTINUOUS
 62
     7
 10
456.6666921089
 20
92.5179756888
 30
0.0
 11
456.6666921089
 21
91.3179758646
 31
0.0
  0
ARC
  5
2BD
  8
0
  6
CONTINUOUS
 62
     7
 10
330.6666882942
 20
97.3179757633
 30
0.0
 40
2.699999999999989
 50
0.0
 51
180.0
  0
ARC
  5
2BE
  8
0
  6
CONTINUOUS
 62
     7
 10
330.6666882942
 20
47.3179757633
 30
0.0
 40
2.699999999999989
 50
180.0
 51
0.0
  0
LINE
  5
2BF
  8
0
  6
CONTINUOUS
 62
     7
 10
324.6666868636
 20
103.3179755964
 30
0.0
 11
336.6666873405
 21
103.3179755964
 31
0.0
  0
LINE
  5
2C0
  8
0
  6
CONTINUOUS
 62
     7
 10
324.6666868636
 20
102.1179757722
 30
0.0
 11
324.6666868636
 21
103.3179755964
 31
0.0
  0
LINE
  5
2C1
  8
0
  6
CONTINUOUS
 62
     7
 10
336.6666873405
 20
103.3179755964
 30
0.0
 11
336.6666873405
 21
102.1179757722
 31
0.0
  0
LINE
  5
2C2
  8
0
  6
CONTINUOUS
 62
     7
 10
324.6666868636
 20
102.1179757722
 30
0.0
 11
324.6666868636
 21
92.5179756888
 31
0.0
  0
LINE
  5
2C3
  8
0
  6
CONTINUOUS
 62
     7
 10
336.6666873405
 20
102.1179757722
 30
0.0
 11
336.6666873405
 21
92.5179756888
 31
0.0
  0
LINE
  5
2C4
  8
0
  6
CONTINUOUS
 62
     7
 10
336.6666873405
 20
91.3179758646
 30
0.0
 11
333.3666881034
 21
91.3179758646
 31
0.0
  0
LINE
  5
2C5
  8
0
  6
CONTINUOUS
 62
     7
 10
327.9666861007
 20
91.3179758646
 30
0.0
 11
324.6666868636
 21
91.3179758646
 31
0.0
  0
LINE
  5
2C6
  8
0
  6
CONTINUOUS
 62
     7
 10
324.6666868636
 20
91.3179758646
 30
0.0
 11
324.6666868636
 21
92.5179756888
 31
0.0
  0
LINE
  5
2C7
  8
0
  6
CONTINUOUS
 62
     7
 10
336.6666873405
 20
92.5179756888
 30
0.0
 11
336.6666873405
 21
91.3179758646
 31
0.0
  0
ARC
  5
2C8
  8
0
  6
CONTINUOUS
 62
     7
 10
210.6666882942
 20
97.3179757633
 30
0.0
 40
2.700000000000017
 50
0.0
 51
180.0
  0
ARC
  5
2C9
  8
0
  6
CONTINUOUS
 62
     7
 10
210.6666882942
 20
47.3179757633
 30
0.0
 40
2.700000000000017
 50
180.0
 51
0.0
  0
LINE
  5
2CA
  8
0
  6
CONTINUOUS
 62
     7
 10
204.6666884283
 20
103.3179755964
 30
0.0
 11
216.66668816
 21
103.3179755964
 31
0.0
  0
LINE
  5
2CB
  8
0
  6
CONTINUOUS
 62
     7
 10
216.66668816
 20
103.3179755964
 30
0.0
 11
216.66668816
 21
102.1179757722
 31
0.0
  0
LINE
  5
2CC
  8
0
  6
CONTINUOUS
 62
     7
 10
204.6666884283
 20
102.1179757722
 30
0.0
 11
204.6666884283
 21
103.3179755964
 31
0.0
  0
LINE
  5
2CD
  8
0
  6
CONTINUOUS
 62
     7
 10
216.66668816
 20
102.1179757722
 30
0.0
 11
216.66668816
 21
92.5179756888
 31
0.0
  0
LINE
  5
2CE
  8
0
  6
CONTINUOUS
 62
     7
 10
204.6666884283
 20
102.1179757722
 30
0.0
 11
204.6666884283
 21
92.5179756888
 31
0.0
  0
LINE
  5
2CF
  8
0
  6
CONTINUOUS
 62
     7
 10
216.66668816
 20
91.3179758646
 30
0.0
 11
213.3666883642
 21
91.3179758646
 31
0.0
  0
LINE
  5
2D0
  8
0
  6
CONTINUOUS
 62
     7
 10
207.9666882241
 20
91.3179758646
 30
0.0
 11
204.6666884283
 21
91.3179758646
 31
0.0
  0
LINE
  5
2D1
  8
0
  6
CONTINUOUS
 62
     7
 10
216.66668816
 20
92.5179756888
 30
0.0
 11
216.66668816
 21
91.3179758646
 31
0.0
  0
LINE
  5
2D2
  8
0
  6
CONTINUOUS
 62
     7
 10
204.6666884283
 20
91.3179758646
 30
0.0
 11
204.6666884283
 21
92.5179756888
 31
0.0
  0
ARC
  5
2D3
  8
0
  6
CONTINUOUS
 62
     7
 10
-29.3333117058
 20
97.3179757633
 30
0.0
 40
2.700000000000038
 50
0.0
 51
180.0
  0
ARC
  5
2D4
  8
0
  6
CONTINUOUS
 62
     7
 10
-29.3333117058
 20
47.3179757633
 30
0.0
 40
2.700000000000038
 50
180.0
 51
0.0
  0
LINE
  5
2D5
  8
0
  6
CONTINUOUS
 62
     7
 10
-35.3333155205
 20
102.1179757722
 30
0.0
 11
-35.3333155205
 21
103.3179755964
 31
0.0
  0
LINE
  5
2D6
  8
0
  6
CONTINUOUS
 62
     7
 10
-35.3333155205
 20
103.3179755964
 30
0.0
 11
-23.3333031228
 21
103.3179755964
 31
0.0
  0
LINE
  5
2D7
  8
0
  6
CONTINUOUS
 62
     7
 10
-23.3333031228
 20
103.3179755964
 30
0.0
 11
-23.3333031228
 21
102.1179757722
 31
0.0
  0
LINE
  5
2D8
  8
0
  6
CONTINUOUS
 62
     7
 10
-35.3333155205
 20
102.1179757722
 30
0.0
 11
-35.3333155205
 21
92.5179756888
 31
0.0
  0
LINE
  5
2D9
  8
0
  6
CONTINUOUS
 62
     7
 10
-23.3333031228
 20
102.1179757722
 30
0.0
 11
-23.3333031228
 21
92.5179756888
 31
0.0
  0
LINE
  5
2DA
  8
0
  6
CONTINUOUS
 62
     7
 10
-23.3333031228
 20
91.3179758646
 30
0.0
 11
-26.6333023598
 21
91.3179758646
 31
0.0
  0
LINE
  5
2DB
  8
0
  6
CONTINUOUS
 62
     7
 10
-32.0333162835
 20
91.3179758646
 30
0.0
 11
-35.3333155205
 21
91.3179758646
 31
0.0
  0
LINE
  5
2DC
  8
0
  6
CONTINUOUS
 62
     7
 10
-35.3333155205
 20
91.3179758646
 30
0.0
 11
-35.3333155205
 21
92.5179756888
 31
0.0
  0
LINE
  5
2DD
  8
0
  6
CONTINUOUS
 62
     7
 10
-23.3333031228
 20
92.5179756888
 30
0.0
 11
-23.3333031228
 21
91.3179758646
 31
0.0
  0
ARC
  5
2DE
  8
0
  6
CONTINUOUS
 62
     7
 10
90.6666882942
 20
97.3179757633
 30
0.0
 40
2.700000000000003
 50
0.0
 51
180.0
  0
ARC
  5
2DF
  8
0
  6
CONTINUOUS
 62
     7
 10
90.6666882942
 20
47.3179757633
 30
0.0
 40
2.700000000000003
 50
180.0
 51
0.0
  0
LINE
  5
2E0
  8
0
  6
CONTINUOUS
 62
     7
 10
84.6666892478
 20
102.1179757722
 30
0.0
 11
84.6666892478
 21
103.3179755964
 31
0.0
  0
LINE
  5
2E1
  8
0
  6
CONTINUOUS
 62
     7
 10
84.6666892478
 20
103.3179755964
 30
0.0
 11
96.6666897247
 21
103.3179755964
 31
0.0
  0
LINE
  5
2E2
  8
0
  6
CONTINUOUS
 62
     7
 10
96.6666897247
 20
103.3179755964
 30
0.0
 11
96.6666897247
 21
102.1179757722
 31
0.0
  0
LINE
  5
2E3
  8
0
  6
CONTINUOUS
 62
     7
 10
84.6666892478
 20
102.1179757722
 30
0.0
 11
84.6666892478
 21
92.5179756888
 31
0.0
  0
LINE
  5
2E4
  8
0
  6
CONTINUOUS
 62
     7
 10
96.6666897247
 20
102.1179757722
 30
0.0
 11
96.6666897247
 21
92.5179756888
 31
0.0
  0
LINE
  5
2E5
  8
0
  6
CONTINUOUS
 62
     7
 10
96.6666897247
 20
91.3179758646
 30
0.0
 11
93.3666904876
 21
91.3179758646
 31
0.0
  0
LINE
  5
2E6
  8
0
  6
CONTINUOUS
 62
     7
 10
87.9666884849
 20
91.3179758646
 30
0.0
 11
84.6666892478
 21
91.3179758646
 31
0.0
  0
LINE
  5
2E7
  8
0
  6
CONTINUOUS
 62
     7
 10
84.6666892478
 20
91.3179758646
 30
0.0
 11
84.6666892478
 21
92.5179756888
 31
0.0
  0
LINE
  5
2E8
  8
0
  6
CONTINUOUS
 62
     7
 10
96.6666897247
 20
92.5179756888
 30
0.0
 11
96.6666897247
 21
91.3179758646
 31
0.0
  0
POLYLINE
  5
2E9
  8
0
  6
CONTINUOUS
 62
     7
 66
     1
 10
0.0
 20
0.0
 30
0.0
  0
VERTEX
  5
434
  8
0
  6
CONTINUOUS
 62
     7
 10
233.9666878292
 20
78.0612077274
 30
0.0
  0
VERTEX
  5
435
  8
0
  6
CONTINUOUS
 62
     7
 10
233.4310804913
 20
77.356974379
 30
0.0
  0
VERTEX
  5
436
  8
0
  6
CONTINUOUS
 62
     7
 10
232.9666887829
 20
76.5917848505
 30
0.0
  0
SEQEND
  5
453
  8
0
  6
CONTINUOUS
 62
     7
  0
LINE
  5
2EA
  8
0
  6
CONTINUOUS
 62
     7
 10
245.3224678943
 20
86.4126365342
 30
0.0
 11
245.4460074613
 21
86.4179756202
 31
0.0
  0
ARC
  5
2EB
  8
0
  6
CONTINUOUS
 62
     7
 10
245.8062672661
 20
71.5118096216
 30
0.0
 40
10.07562502582512
 50
100.5231116577
 51
180.5336050231
  0
ARC
  5
2EC
  8
0
  6
CONTINUOUS
 62
     7
 10
295.5271090922
 20
31.3241434668
 30
0.0
 40
10.07562402994009
 50
280.5231071452
 51
0.5335843978
  0
LINE
  5
2ED
  8
0
  6
CONTINUOUS
 62
     7
 10
295.9986170242
 20
16.4243604698
 30
0.0
 11
295.8873709152
 21
16.4179768123
 31
0.0
  0
POLYLINE
  5
2EE
  8
0
  6
CONTINUOUS
 62
     7
 66
     1
 10
0.0
 20
0.0
 30
0.0
  0
VERTEX
  5
437
  8
0
  6
CONTINUOUS
 62
     7
 10
307.3666890571
 20
78.0612077274
 30
0.0
  0
VERTEX
  5
438
  8
0
  6
CONTINUOUS
 62
     7
 10
307.9022963951
 20
77.356974379
 30
0.0
  0
VERTEX
  5
439
  8
0
  6
CONTINUOUS
 62
     7
 10
308.3666881034
 20
76.5917848505
 30
0.0
  0
SEQEND
  5
452
  8
0
  6
CONTINUOUS
 62
     7
  0
ARC
  5
2EF
  8
0
  6
CONTINUOUS
 62
     7
 10
295.5448484205
 20
71.5264188473
 30
0.0
 40
10.05803241131257
 50
359.3822356586
 51
79.5610476606
  0
LINE
  5
2F0
  8
0
  6
CONTINUOUS
 62
     7
 10
245.4460074613
 20
16.4179768123
 30
0.0
 11
245.3528692434
 21
16.4232279815
 31
0.0
  0
ARC
  5
2F1
  8
0
  6
CONTINUOUS
 62
     7
 10
245.7885224654
 20
31.3095313126
 30
0.0
 40
10.0580278936427
 50
179.3822394123
 51
259.5610690447
  0
LINE
  5
2F2
  8
0
  6
CONTINUOUS
 62
     7
 10
235.7310791919
 20
71.4179750242
 30
0.0
 11
235.7310791919
 21
31.4179744281
 31
0.0
  0
LINE
  5
2F3
  8
0
  6
CONTINUOUS
 62
     7
 10
305.6022962043
 20
31.4179744281
 30
0.0
 11
305.6022962043
 21
71.4179750242
 31
0.0
  0
LINE
  5
2F4
  8
0
  6
CONTINUOUS
 62
     7
 10
233.9666878292
 20
80.4300632038
 30
0.0
 11
232.9666887829
 21
80.4300632038
 31
0.0
  0
LINE
  5
2F5
  8
0
  6
CONTINUOUS
 62
     7
 10
232.9666887829
 20
104.278492526
 30
0.0
 11
232.9666887829
 21
80.4300632038
 31
0.0
  0
LINE
  5
2F6
  8
0
  6
CONTINUOUS
 62
     7
 10
233.9666878292
 20
104.278492526
 30
0.0
 11
233.9666878292
 21
80.4300632038
 31
0.0
  0
LINE
  5
2F7
  8
0
  6
CONTINUOUS
 62
     7
 10
307.3666890571
 20
80.4300632038
 30
0.0
 11
308.3666881034
 21
80.4300632038
 31
0.0
  0
LINE
  5
2F8
  8
0
  6
CONTINUOUS
 62
     7
 10
307.3666890571
 20
104.278492526
 30
0.0
 11
307.3666890571
 21
80.4300632038
 31
0.0
  0
LINE
  5
2F9
  8
0
  6
CONTINUOUS
 62
     7
 10
308.3666881034
 20
104.278492526
 30
0.0
 11
308.3666881034
 21
80.4300632038
 31
0.0
  0
LINE
  5
2FA
  8
0
  6
CONTINUOUS
 62
     7
 10
232.9666887829
 20
80.4300632038
 30
0.0
 11
232.9666887829
 21
76.5917848505
 31
0.0
  0
LINE
  5
2FB
  8
0
  6
CONTINUOUS
 62
     7
 10
233.9666878292
 20
80.4300632038
 30
0.0
 11
233.9666878292
 21
78.0612077274
 31
0.0
  0
LINE
  5
2FC
  8
0
  6
CONTINUOUS
 62
     7
 10
307.3666890571
 20
80.4300632038
 30
0.0
 11
307.3666890571
 21
78.0612077274
 31
0.0
  0
LINE
  5
2FD
  8
0
  6
CONTINUOUS
 62
     7
 10
308.3666881034
 20
80.4300632038
 30
0.0
 11
308.3666881034
 21
76.5917848505
 31
0.0
  0
LINE
  5
2FE
  8
0
  6
CONTINUOUS
 62
     7
 10
243.9661344001
 20
21.4179780044
 30
0.0
 11
297.3672409961
 21
21.4179780044
 31
0.0
  0
LINE
  5
2FF
  8
0
  6
CONTINUOUS
 62
     7
 10
243.9661344001
 20
81.4179759182
 30
0.0
 11
297.3672409961
 21
81.4179759182
 31
0.0
  0
LINE
  5
300
  8
0
  6
CONTINUOUS
 62
     7
 10
245.4460074613
 20
86.4179756202
 30
0.0
 11
295.8873709152
 21
86.4179756202
 31
0.0
  0
LINE
  5
301
  8
0
  6
CONTINUOUS
 62
     7
 10
295.8873709152
 20
16.4179768123
 30
0.0
 11
245.4460074613
 21
16.4179768123
 31
0.0
  0
LINE
  5
302
  8
0
  6
CONTINUOUS
 62
     7
 10
307.3666890571
 20
106.1179760553
 30
0.0
 11
308.3666881034
 21
106.1179760553
 31
0.0
  0
LINE
  5
303
  8
0
  6
CONTINUOUS
 62
     7
 10
307.3666890571
 20
106.1179760553
 30
0.0
 11
307.3666890571
 21
104.278492526
 31
0.0
  0
LINE
  5
304
  8
0
  6
CONTINUOUS
 62
     7
 10
308.3666881034
 20
106.1179760553
 30
0.0
 11
308.3666881034
 21
104.278492526
 31
0.0
  0
LINE
  5
305
  8
0
  6
CONTINUOUS
 62
     7
 10
233.9666878292
 20
106.1179760553
 30
0.0
 11
232.9666887829
 21
106.1179760553
 31
0.0
  0
LINE
  5
306
  8
0
  6
CONTINUOUS
 62
     7
 10
232.9666887829
 20
106.1179760553
 30
0.0
 11
232.9666887829
 21
104.278492526
 31
0.0
  0
LINE
  5
307
  8
0
  6
CONTINUOUS
 62
     7
 10
233.9666878292
 20
106.1179760553
 30
0.0
 11
233.9666878292
 21
104.278492526
 31
0.0
  0
LINE
  5
308
  8
0
  6
CONTINUOUS
 62
     7
 10
303.1666894863
 20
92.5179756888
 30
0.0
 11
303.1666894863
 21
102.317975805
 31
0.0
  0
LINE
  5
309
  8
0
  6
CONTINUOUS
 62
     7
 10
238.1666888902
 20
92.5179756888
 30
0.0
 11
238.1666888902
 21
102.317975805
 31
0.0
  0
LINE
  5
30A
  8
0
  6
CONTINUOUS
 62
     7
 10
307.3666890571
 20
91.5179758974
 30
0.0
 11
303.1666894863
 21
91.5179758974
 31
0.0
  0
LINE
  5
30B
  8
0
  6
CONTINUOUS
 62
     7
 10
303.1666894863
 20
91.5179758974
 30
0.0
 11
303.1666894863
 21
92.5179756888
 31
0.0
  0
LINE
  5
30C
  8
0
  6
CONTINUOUS
 62
     7
 10
238.1666888902
 20
103.3179755964
 30
0.0
 11
233.9666878292
 21
103.3179755964
 31
0.0
  0
LINE
  5
30D
  8
0
  6
CONTINUOUS
 62
     7
 10
238.1666888902
 20
103.3179755964
 30
0.0
 11
238.1666888902
 21
102.317975805
 31
0.0
  0
LINE
  5
30E
  8
0
  6
CONTINUOUS
 62
     7
 10
238.1666888902
 20
91.5179758974
 30
0.0
 11
233.9666878292
 21
91.5179758974
 31
0.0
  0
LINE
  5
30F
  8
0
  6
CONTINUOUS
 62
     7
 10
238.1666888902
 20
92.5179756888
 30
0.0
 11
238.1666888902
 21
91.5179758974
 31
0.0
  0
LINE
  5
310
  8
0
  6
CONTINUOUS
 62
     7
 10
307.3666890571
 20
103.3179755964
 30
0.0
 11
303.1666894863
 21
103.3179755964
 31
0.0
  0
LINE
  5
311
  8
0
  6
CONTINUOUS
 62
     7
 10
303.1666894863
 20
102.317975805
 30
0.0
 11
303.1666894863
 21
103.3179755964
 31
0.0
  0
LINE
  5
312
  8
0
  6
CONTINUOUS
 62
     7
 10
228.1666879961
 20
92.5179756888
 30
0.0
 11
228.1666879961
 21
102.317975805
 31
0.0
  0
LINE
  5
313
  8
0
  6
CONTINUOUS
 62
     7
 10
232.9666887829
 20
103.3179755964
 30
0.0
 11
228.1666879961
 21
103.3179755964
 31
0.0
  0
LINE
  5
314
  8
0
  6
CONTINUOUS
 62
     7
 10
228.1666879961
 20
102.317975805
 30
0.0
 11
228.1666879961
 21
103.3179755964
 31
0.0
  0
LINE
  5
315
  8
0
  6
CONTINUOUS
 62
     7
 10
313.16668591
 20
92.5179756888
 30
0.0
 11
313.16668591
 21
102.317975805
 31
0.0
  0
LINE
  5
316
  8
0
  6
CONTINUOUS
 62
     7
 10
313.16668591
 20
103.3179755964
 30
0.0
 11
308.3666881034
 21
103.3179755964
 31
0.0
  0
LINE
  5
317
  8
0
  6
CONTINUOUS
 62
     7
 10
313.16668591
 20
102.317975805
 30
0.0
 11
313.16668591
 21
103.3179755964
 31
0.0
  0
LINE
  5
318
  8
0
  6
CONTINUOUS
 62
     7
 10
313.16668591
 20
91.5179758974
 30
0.0
 11
308.3666881034
 21
91.5179758974
 31
0.0
  0
LINE
  5
319
  8
0
  6
CONTINUOUS
 62
     7
 10
313.16668591
 20
91.5179758974
 30
0.0
 11
313.16668591
 21
92.5179756888
 31
0.0
  0
LINE
  5
31A
  8
0
  6
CONTINUOUS
 62
     7
 10
232.9666887829
 20
91.5179758974
 30
0.0
 11
228.1666879961
 21
91.5179758974
 31
0.0
  0
LINE
  5
31B
  8
0
  6
CONTINUOUS
 62
     7
 10
228.1666879961
 20
91.5179758974
 30
0.0
 11
228.1666879961
 21
92.5179756888
 31
0.0
  0
POLYLINE
  5
31C
  8
0
  6
CONTINUOUS
 62
     7
 66
     1
 10
0.0
 20
0.0
 30
0.0
  0
VERTEX
  5
43A
  8
0
  6
CONTINUOUS
 62
     7
 10
-6.0333172372
 20
78.0612077274
 30
0.0
  0
VERTEX
  5
43B
  8
0
  6
CONTINUOUS
 62
     7
 10
-6.5689245751
 20
77.356974379
 30
0.0
  0
VERTEX
  5
43C
  8
0
  6
CONTINUOUS
 62
     7
 10
-7.0333162835
 20
76.5917848505
 30
0.0
  0
SEQEND
  5
451
  8
0
  6
CONTINUOUS
 62
     7
  0
LINE
  5
31D
  8
0
  6
CONTINUOUS
 62
     7
 10
5.322464318
 20
86.4126365342
 30
0.0
 11
5.4460128257
 21
86.4179756202
 31
0.0
  0
ARC
  5
31E
  8
0
  6
CONTINUOUS
 62
     7
 10
5.8062747416
 20
71.5118016172
 30
0.0
 40
10.07563600262012
 50
100.5231984591
 51
180.5335589222
  0
ARC
  5
31F
  8
0
  6
CONTINUOUS
 62
     7
 10
55.5271087275
 20
31.3241468274
 30
0.0
 40
10.07562674746247
 50
280.5230856997
 51
0.533565143
  0
LINE
  5
320
  8
0
  6
CONTINUOUS
 62
     7
 10
55.9986194084
 20
16.4243604698
 30
0.0
 11
55.8873732993
 21
16.4179768123
 31
0.0
  0
POLYLINE
  5
321
  8
0
  6
CONTINUOUS
 62
     7
 66
     1
 10
0.0
 20
0.0
 30
0.0
  0
VERTEX
  5
43D
  8
0
  6
CONTINUOUS
 62
     7
 10
67.3666914413
 20
78.0612077274
 30
0.0
  0
VERTEX
  5
43E
  8
0
  6
CONTINUOUS
 62
     7
 10
67.9022987792
 20
77.356974379
 30
0.0
  0
VERTEX
  5
43F
  8
0
  6
CONTINUOUS
 62
     7
 10
68.3666904876
 20
76.5917848505
 30
0.0
  0
SEQEND
  5
450
  8
0
  6
CONTINUOUS
 62
     7
  0
ARC
  5
322
  8
0
  6
CONTINUOUS
 62
     7
 10
55.5448407366
 20
71.52640947
 30
0.0
 40
10.05804237770572
 50
359.3822896921
 51
79.5610343275
  0
LINE
  5
323
  8
0
  6
CONTINUOUS
 62
     7
 10
5.4460128257
 20
16.4179768123
 30
0.0
 11
5.3528626869
 21
16.4232279815
 31
0.0
  0
ARC
  5
324
  8
0
  6
CONTINUOUS
 62
     7
 10
5.788523626
 20
31.3095341272
 30
0.0
 40
10.05803259991571
 50
179.3822557359
 51
259.5610120207
  0
LINE
  5
325
  8
0
  6
CONTINUOUS
 62
     7
 10
-4.2689243844
 20
71.4179750242
 30
0.0
 11
-4.2689243844
 21
31.4179744281
 31
0.0
  0
LINE
  5
326
  8
0
  6
CONTINUOUS
 62
     7
 10
65.6022985885
 20
31.4179744281
 30
0.0
 11
65.6022985885
 21
71.4179750242
 31
0.0
  0
LINE
  5
327
  8
0
  6
CONTINUOUS
 62
     7
 10
67.3666914413
 20
80.4300632038
 30
0.0
 11
68.3666904876
 21
80.4300632038
 31
0.0
  0
LINE
  5
328
  8
0
  6
CONTINUOUS
 62
     7
 10
68.3666904876
 20
104.278492526
 30
0.0
 11
68.3666904876
 21
80.4300632038
 31
0.0
  0
LINE
  5
329
  8
0
  6
CONTINUOUS
 62
     7
 10
67.3666914413
 20
104.278492526
 30
0.0
 11
67.3666914413
 21
80.4300632038
 31
0.0
  0
LINE
  5
32A
  8
0
  6
CONTINUOUS
 62
     7
 10
-6.0333172372
 20
80.4300632038
 30
0.0
 11
-7.0333162835
 21
80.4300632038
 31
0.0
  0
LINE
  5
32B
  8
0
  6
CONTINUOUS
 62
     7
 10
-7.0333162835
 20
104.278492526
 30
0.0
 11
-7.0333162835
 21
80.4300632038
 31
0.0
  0
LINE
  5
32C
  8
0
  6
CONTINUOUS
 62
     7
 10
-6.0333172372
 20
104.278492526
 30
0.0
 11
-6.0333172372
 21
80.4300632038
 31
0.0
  0
LINE
  5
32D
  8
0
  6
CONTINUOUS
 62
     7
 10
68.3666904876
 20
80.4300632038
 30
0.0
 11
68.3666904876
 21
76.5917848505
 31
0.0
  0
LINE
  5
32E
  8
0
  6
CONTINUOUS
 62
     7
 10
67.3666914413
 20
80.4300632038
 30
0.0
 11
67.3666914413
 21
78.0612077274
 31
0.0
  0
LINE
  5
32F
  8
0
  6
CONTINUOUS
 62
     7
 10
-7.0333162835
 20
80.4300632038
 30
0.0
 11
-7.0333162835
 21
76.5917848505
 31
0.0
  0
LINE
  5
330
  8
0
  6
CONTINUOUS
 62
     7
 10
-6.0333172372
 20
80.4300632038
 30
0.0
 11
-6.0333172372
 21
78.0612077274
 31
0.0
  0
LINE
  5
331
  8
0
  6
CONTINUOUS
 62
     7
 10
3.9661248634
 20
21.4179780044
 30
0.0
 11
57.3672374198
 21
21.4179780044
 31
0.0
  0
LINE
  5
332
  8
0
  6
CONTINUOUS
 62
     7
 10
3.9661248634
 20
81.4179759182
 30
0.0
 11
57.3672374198
 21
81.4179759182
 31
0.0
  0
LINE
  5
333
  8
0
  6
CONTINUOUS
 62
     7
 10
5.4460128257
 20
86.4179756202
 30
0.0
 11
55.8873732993
 21
86.4179756202
 31
0.0
  0
LINE
  5
334
  8
0
  6
CONTINUOUS
 62
     7
 10
55.8873732993
 20
16.4179768123
 30
0.0
 11
5.4460128257
 21
16.4179768123
 31
0.0
  0
LINE
  5
335
  8
0
  6
CONTINUOUS
 62
     7
 10
-6.0333172372
 20
106.1179760553
 30
0.0
 11
-7.0333162835
 21
106.1179760553
 31
0.0
  0
LINE
  5
336
  8
0
  6
CONTINUOUS
 62
     7
 10
-7.0333162835
 20
106.1179760553
 30
0.0
 11
-7.0333162835
 21
104.278492526
 31
0.0
  0
LINE
  5
337
  8
0
  6
CONTINUOUS
 62
     7
 10
-6.0333172372
 20
106.1179760553
 30
0.0
 11
-6.0333172372
 21
104.278492526
 31
0.0
  0
LINE
  5
338
  8
0
  6
CONTINUOUS
 62
     7
 10
67.3666914413
 20
106.1179760553
 30
0.0
 11
68.3666904876
 21
106.1179760553
 31
0.0
  0
LINE
  5
339
  8
0
  6
CONTINUOUS
 62
     7
 10
68.3666904876
 20
106.1179760553
 30
0.0
 11
68.3666904876
 21
104.278492526
 31
0.0
  0
LINE
  5
33A
  8
0
  6
CONTINUOUS
 62
     7
 10
67.3666914413
 20
106.1179760553
 30
0.0
 11
67.3666914413
 21
104.278492526
 31
0.0
  0
LINE
  5
33B
  8
0
  6
CONTINUOUS
 62
     7
 10
63.16668591
 20
92.5179756888
 30
0.0
 11
63.16668591
 21
102.317975805
 31
0.0
  0
LINE
  5
33C
  8
0
  6
CONTINUOUS
 62
     7
 10
-1.8333117058
 20
92.5179756888
 30
0.0
 11
-1.8333117058
 21
102.317975805
 31
0.0
  0
LINE
  5
33D
  8
0
  6
CONTINUOUS
 62
     7
 10
67.3666914413
 20
103.3179755964
 30
0.0
 11
63.16668591
 21
103.3179755964
 31
0.0
  0
LINE
  5
33E
  8
0
  6
CONTINUOUS
 62
     7
 10
63.16668591
 20
102.317975805
 30
0.0
 11
63.16668591
 21
103.3179755964
 31
0.0
  0
LINE
  5
33F
  8
0
  6
CONTINUOUS
 62
     7
 10
-1.8333117058
 20
103.3179755964
 30
0.0
 11
-6.0333172372
 21
103.3179755964
 31
0.0
  0
LINE
  5
340
  8
0
  6
CONTINUOUS
 62
     7
 10
-1.8333117058
 20
103.3179755964
 30
0.0
 11
-1.8333117058
 21
102.317975805
 31
0.0
  0
LINE
  5
341
  8
0
  6
CONTINUOUS
 62
     7
 10
67.3666914413
 20
91.5179758974
 30
0.0
 11
63.16668591
 21
91.5179758974
 31
0.0
  0
LINE
  5
342
  8
0
  6
CONTINUOUS
 62
     7
 10
63.16668591
 20
91.5179758974
 30
0.0
 11
63.16668591
 21
92.5179756888
 31
0.0
  0
LINE
  5
343
  8
0
  6
CONTINUOUS
 62
     7
 10
-1.8333117058
 20
91.5179758974
 30
0.0
 11
-6.0333172372
 21
91.5179758974
 31
0.0
  0
LINE
  5
344
  8
0
  6
CONTINUOUS
 62
     7
 10
-1.8333117058
 20
92.5179756888
 30
0.0
 11
-1.8333117058
 21
91.5179758974
 31
0.0
  0
LINE
  5
345
  8
0
  6
CONTINUOUS
 62
     7
 10
-11.8333021691
 20
92.5179756888
 30
0.0
 11
-11.8333021691
 21
102.317975805
 31
0.0
  0
LINE
  5
346
  8
0
  6
CONTINUOUS
 62
     7
 10
-7.0333162835
 20
103.3179755964
 30
0.0
 11
-11.8333021691
 21
103.3179755964
 31
0.0
  0
LINE
  5
347
  8
0
  6
CONTINUOUS
 62
     7
 10
-11.8333021691
 20
102.317975805
 30
0.0
 11
-11.8333021691
 21
103.3179755964
 31
0.0
  0
LINE
  5
348
  8
0
  6
CONTINUOUS
 62
     7
 10
73.1666882942
 20
92.5179756888
 30
0.0
 11
73.1666882942
 21
102.317975805
 31
0.0
  0
LINE
  5
349
  8
0
  6
CONTINUOUS
 62
     7
 10
73.1666882942
 20
103.3179755964
 30
0.0
 11
68.3666904876
 21
103.3179755964
 31
0.0
  0
LINE
  5
34A
  8
0
  6
CONTINUOUS
 62
     7
 10
73.1666882942
 20
102.317975805
 30
0.0
 11
73.1666882942
 21
103.3179755964
 31
0.0
  0
LINE
  5
34B
  8
0
  6
CONTINUOUS
 62
     7
 10
73.1666882942
 20
91.5179758974
 30
0.0
 11
68.3666904876
 21
91.5179758974
 31
0.0
  0
LINE
  5
34C
  8
0
  6
CONTINUOUS
 62
     7
 10
73.1666882942
 20
91.5179758974
 30
0.0
 11
73.1666882942
 21
92.5179756888
 31
0.0
  0
LINE
  5
34D
  8
0
  6
CONTINUOUS
 62
     7
 10
-7.0333162835
 20
91.5179758974
 30
0.0
 11
-11.8333021691
 21
91.5179758974
 31
0.0
  0
LINE
  5
34E
  8
0
  6
CONTINUOUS
 62
     7
 10
-11.8333021691
 20
91.5179758974
 30
0.0
 11
-11.8333021691
 21
92.5179756888
 31
0.0
  0
POLYLINE
  5
34F
  8
0
  6
CONTINUOUS
 62
     7
 66
     1
 10
0.0
 20
0.0
 30
0.0
  0
VERTEX
  5
440
  8
0
  6
CONTINUOUS
 62
     7
 10
113.9666875312
 20
78.0612077274
 30
0.0
  0
VERTEX
  5
441
  8
0
  6
CONTINUOUS
 62
     7
 10
113.4310801933
 20
77.356974379
 30
0.0
  0
VERTEX
  5
442
  8
0
  6
CONTINUOUS
 62
     7
 10
112.9666884849
 20
76.5917848505
 30
0.0
  0
SEQEND
  5
44F
  8
0
  6
CONTINUOUS
 62
     7
  0
LINE
  5
350
  8
0
  6
CONTINUOUS
 62
     7
 10
125.3224690864
 20
86.4126365342
 30
0.0
 11
125.4460056732
 21
86.4179756202
 31
0.0
  0
ARC
  5
351
  8
0
  6
CONTINUOUS
 62
     7
 10
125.8062734425
 20
71.511805517
 30
0.0
 40
10.0756299717243
 50
100.5231352619
 51
180.5335814189
  0
LINE
  5
352
  8
0
  6
CONTINUOUS
 62
     7
 10
175.998615236
 20
16.4243604698
 30
0.0
 11
175.887369127
 21
16.4179768123
 31
0.0
  0
ARC
  5
353
  8
0
  6
CONTINUOUS
 62
     7
 10
175.5271152687
 20
31.3241393622
 30
0.0
 40
10.07561908403457
 50
280.5230835409
 51
0.5336080021
  0
POLYLINE
  5
354
  8
0
  6
CONTINUOUS
 62
     7
 66
     1
 10
0.0
 20
0.0
 30
0.0
  0
VERTEX
  5
443
  8
0
  6
CONTINUOUS
 62
     7
 10
187.3666887591
 20
78.0612077274
 30
0.0
  0
VERTEX
  5
444
  8
0
  6
CONTINUOUS
 62
     7
 10
187.902296097
 20
77.356974379
 30
0.0
  0
VERTEX
  5
445
  8
0
  6
CONTINUOUS
 62
     7
 10
188.3666878054
 20
76.5917848505
 30
0.0
  0
SEQEND
  5
44E
  8
0
  6
CONTINUOUS
 62
     7
  0
ARC
  5
355
  8
0
  6
CONTINUOUS
 62
     7
 10
175.5448473244
 20
71.5264169629
 30
0.0
 40
10.0580346790873
 50
359.3822465328
 51
79.5610367863
  0
LINE
  5
356
  8
0
  6
CONTINUOUS
 62
     7
 10
125.4460056732
 20
16.4179768123
 30
0.0
 11
125.3528674552
 21
16.4232279815
 31
0.0
  0
ARC
  5
357
  8
0
  6
CONTINUOUS
 62
     7
 10
125.7885213693
 20
31.3095294282
 30
0.0
 40
10.05802562587862
 50
179.3822285381
 51
259.5610799189
  0
LINE
  5
358
  8
0
  6
CONTINUOUS
 62
     7
 10
115.731080384
 20
71.4179750242
 30
0.0
 11
115.731080384
 21
31.4179744281
 31
0.0
  0
LINE
  5
359
  8
0
  6
CONTINUOUS
 62
     7
 10
185.6022973964
 20
31.4179744281
 30
0.0
 11
185.6022973964
 21
71.4179750242
 31
0.0
  0
LINE
  5
35A
  8
0
  6
CONTINUOUS
 62
     7
 10
187.3666887591
 20
80.4300632038
 30
0.0
 11
188.3666878054
 21
80.4300632038
 31
0.0
  0
LINE
  5
35B
  8
0
  6
CONTINUOUS
 62
     7
 10
188.3666878054
 20
104.278492526
 30
0.0
 11
188.3666878054
 21
80.4300632038
 31
0.0
  0
LINE
  5
35C
  8
0
  6
CONTINUOUS
 62
     7
 10
187.3666887591
 20
104.278492526
 30
0.0
 11
187.3666887591
 21
80.4300632038
 31
0.0
  0
LINE
  5
35D
  8
0
  6
CONTINUOUS
 62
     7
 10
113.9666875312
 20
80.4300632038
 30
0.0
 11
112.9666884849
 21
80.4300632038
 31
0.0
  0
LINE
  5
35E
  8
0
  6
CONTINUOUS
 62
     7
 10
112.9666884849
 20
104.278492526
 30
0.0
 11
112.9666884849
 21
80.4300632038
 31
0.0
  0
LINE
  5
35F
  8
0
  6
CONTINUOUS
 62
     7
 10
113.9666875312
 20
104.278492526
 30
0.0
 11
113.9666875312
 21
80.4300632038
 31
0.0
  0
LINE
  5
360
  8
0
  6
CONTINUOUS
 62
     7
 10
188.3666878054
 20
80.4300632038
 30
0.0
 11
188.3666878054
 21
76.5917848505
 31
0.0
  0
LINE
  5
361
  8
0
  6
CONTINUOUS
 62
     7
 10
187.3666887591
 20
80.4300632038
 30
0.0
 11
187.3666887591
 21
78.0612077274
 31
0.0
  0
LINE
  5
362
  8
0
  6
CONTINUOUS
 62
     7
 10
112.9666884849
 20
80.4300632038
 30
0.0
 11
112.9666884849
 21
76.5917848505
 31
0.0
  0
LINE
  5
363
  8
0
  6
CONTINUOUS
 62
     7
 10
113.9666875312
 20
80.4300632038
 30
0.0
 11
113.9666875312
 21
78.0612077274
 31
0.0
  0
LINE
  5
364
  8
0
  6
CONTINUOUS
 62
     7
 10
123.9661355922
 20
21.4179780044
 30
0.0
 11
177.3672421882
 21
21.4179780044
 31
0.0
  0
LINE
  5
365
  8
0
  6
CONTINUOUS
 62
     7
 10
123.9661355922
 20
81.4179759182
 30
0.0
 11
177.3672421882
 21
81.4179759182
 31
0.0
  0
LINE
  5
366
  8
0
  6
CONTINUOUS
 62
     7
 10
125.4460056732
 20
86.4179756202
 30
0.0
 11
175.887369127
 21
86.4179756202
 31
0.0
  0
LINE
  5
367
  8
0
  6
CONTINUOUS
 62
     7
 10
175.887369127
 20
16.4179768123
 30
0.0
 11
125.4460056732
 21
16.4179768123
 31
0.0
  0
LINE
  5
368
  8
0
  6
CONTINUOUS
 62
     7
 10
113.9666875312
 20
106.1179760553
 30
0.0
 11
112.9666884849
 21
106.1179760553
 31
0.0
  0
LINE
  5
369
  8
0
  6
CONTINUOUS
 62
     7
 10
112.9666884849
 20
106.1179760553
 30
0.0
 11
112.9666884849
 21
104.278492526
 31
0.0
  0
LINE
  5
36A
  8
0
  6
CONTINUOUS
 62
     7
 10
113.9666875312
 20
106.1179760553
 30
0.0
 11
113.9666875312
 21
104.278492526
 31
0.0
  0
LINE
  5
36B
  8
0
  6
CONTINUOUS
 62
     7
 10
187.3666887591
 20
106.1179760553
 30
0.0
 11
188.3666878054
 21
106.1179760553
 31
0.0
  0
LINE
  5
36C
  8
0
  6
CONTINUOUS
 62
     7
 10
188.3666878054
 20
106.1179760553
 30
0.0
 11
188.3666878054
 21
104.278492526
 31
0.0
  0
LINE
  5
36D
  8
0
  6
CONTINUOUS
 62
     7
 10
187.3666887591
 20
106.1179760553
 30
0.0
 11
187.3666887591
 21
104.278492526
 31
0.0
  0
LINE
  5
36E
  8
0
  6
CONTINUOUS
 62
     7
 10
183.1666876981
 20
92.5179756888
 30
0.0
 11
183.1666876981
 21
102.317975805
 31
0.0
  0
LINE
  5
36F
  8
0
  6
CONTINUOUS
 62
     7
 10
118.1666871021
 20
92.5179756888
 30
0.0
 11
118.1666871021
 21
102.317975805
 31
0.0
  0
LINE
  5
370
  8
0
  6
CONTINUOUS
 62
     7
 10
118.1666871021
 20
103.3179755964
 30
0.0
 11
113.9666875312
 21
103.3179755964
 31
0.0
  0
LINE
  5
371
  8
0
  6
CONTINUOUS
 62
     7
 10
118.1666871021
 20
103.3179755964
 30
0.0
 11
118.1666871021
 21
102.317975805
 31
0.0
  0
LINE
  5
372
  8
0
  6
CONTINUOUS
 62
     7
 10
187.3666887591
 20
91.5179758974
 30
0.0
 11
183.1666876981
 21
91.5179758974
 31
0.0
  0
LINE
  5
373
  8
0
  6
CONTINUOUS
 62
     7
 10
183.1666876981
 20
91.5179758974
 30
0.0
 11
183.1666876981
 21
92.5179756888
 31
0.0
  0
LINE
  5
374
  8
0
  6
CONTINUOUS
 62
     7
 10
187.3666887591
 20
103.3179755964
 30
0.0
 11
183.1666876981
 21
103.3179755964
 31
0.0
  0
LINE
  5
375
  8
0
  6
CONTINUOUS
 62
     7
 10
183.1666876981
 20
102.317975805
 30
0.0
 11
183.1666876981
 21
103.3179755964
 31
0.0
  0
LINE
  5
376
  8
0
  6
CONTINUOUS
 62
     7
 10
118.1666871021
 20
91.5179758974
 30
0.0
 11
113.9666875312
 21
91.5179758974
 31
0.0
  0
LINE
  5
377
  8
0
  6
CONTINUOUS
 62
     7
 10
118.1666871021
 20
92.5179756888
 30
0.0
 11
118.1666871021
 21
91.5179758974
 31
0.0
  0
LINE
  5
378
  8
0
  6
CONTINUOUS
 62
     7
 10
108.1666906783
 20
102.317975805
 30
0.0
 11
108.1666906783
 21
103.3179755964
 31
0.0
  0
LINE
  5
379
  8
0
  6
CONTINUOUS
 62
     7
 10
112.9666884849
 20
103.3179755964
 30
0.0
 11
108.1666906783
 21
103.3179755964
 31
0.0
  0
LINE
  5
37A
  8
0
  6
CONTINUOUS
 62
     7
 10
193.1666885922
 20
92.5179756888
 30
0.0
 11
193.1666885922
 21
102.317975805
 31
0.0
  0
LINE
  5
37B
  8
0
  6
CONTINUOUS
 62
     7
 10
108.1666906783
 20
92.5179756888
 30
0.0
 11
108.1666906783
 21
102.317975805
 31
0.0
  0
LINE
  5
37C
  8
0
  6
CONTINUOUS
 62
     7
 10
193.1666885922
 20
103.3179755964
 30
0.0
 11
188.3666878054
 21
103.3179755964
 31
0.0
  0
LINE
  5
37D
  8
0
  6
CONTINUOUS
 62
     7
 10
193.1666885922
 20
102.317975805
 30
0.0
 11
193.1666885922
 21
103.3179755964
 31
0.0
  0
LINE
  5
37E
  8
0
  6
CONTINUOUS
 62
     7
 10
112.9666884849
 20
91.5179758974
 30
0.0
 11
108.1666906783
 21
91.5179758974
 31
0.0
  0
LINE
  5
37F
  8
0
  6
CONTINUOUS
 62
     7
 10
108.1666906783
 20
91.5179758974
 30
0.0
 11
108.1666906783
 21
92.5179756888
 31
0.0
  0
LINE
  5
380
  8
0
  6
CONTINUOUS
 62
     7
 10
193.1666885922
 20
91.5179758974
 30
0.0
 11
188.3666878054
 21
91.5179758974
 31
0.0
  0
LINE
  5
381
  8
0
  6
CONTINUOUS
 62
     7
 10
193.1666885922
 20
91.5179758974
 30
0.0
 11
193.1666885922
 21
92.5179756888
 31
0.0
  0
POLYLINE
  5
382
  8
0
  6
CONTINUOUS
 62
     7
 66
     1
 10
0.0
 20
0.0
 30
0.0
  0
VERTEX
  5
446
  8
0
  6
CONTINUOUS
 62
     7
 10
353.966685147
 20
78.0612077274
 30
0.0
  0
VERTEX
  5
447
  8
0
  6
CONTINUOUS
 62
     7
 10
353.4310778091
 20
77.356974379
 30
0.0
  0
VERTEX
  5
448
  8
0
  6
CONTINUOUS
 62
     7
 10
352.9666861007
 20
76.5917848505
 30
0.0
  0
SEQEND
  5
44D
  8
0
  6
CONTINUOUS
 62
     7
  0
LINE
  5
383
  8
0
  6
CONTINUOUS
 62
     7
 10
365.3224667022
 20
86.4126365342
 30
0.0
 11
365.446003289
 21
86.4179756202
 31
0.0
  0
ARC
  5
384
  8
0
  6
CONTINUOUS
 62
     7
 10
365.8062738072
 20
71.5118021564
 30
0.0
 40
10.07563268922889
 50
100.5231138163
 51
180.5335621641
  0
ARC
  5
385
  8
0
  6
CONTINUOUS
 62
     7
 10
415.5271077932
 20
31.3241473666
 30
0.0
 40
10.07563006077302
 50
280.5231703422
 51
0.5335619013
  0
LINE
  5
386
  8
0
  6
CONTINUOUS
 62
     7
 10
415.9986098716
 20
16.4243604698
 30
0.0
 11
415.8873637626
 21
16.4179768123
 31
0.0
  0
POLYLINE
  5
387
  8
0
  6
CONTINUOUS
 62
     7
 66
     1
 10
0.0
 20
0.0
 30
0.0
  0
VERTEX
  5
449
  8
0
  6
CONTINUOUS
 62
     7
 10
427.3666938255
 20
78.0612077274
 30
0.0
  0
VERTEX
  5
44A
  8
0
  6
CONTINUOUS
 62
     7
 10
427.9023011634
 20
77.356974379
 30
0.0
  0
VERTEX
  5
44B
  8
0
  6
CONTINUOUS
 62
     7
 10
428.3666928718
 20
76.5917848505
 30
0.0
  0
SEQEND
  5
44C
  8
0
  6
CONTINUOUS
 62
     7
  0
ARC
  5
388
  8
0
  6
CONTINUOUS
 62
     7
 10
415.5448461637
 20
71.5264141483
 30
0.0
 40
10.05803938536309
 50
359.3822628564
 51
79.5609797623
  0
ARC
  5
389
  8
0
  6
CONTINUOUS
 62
     7
 10
365.7885290532
 20
31.3095388056
 30
0.0
 40
10.05803559228855
 50
179.3822825717
 51
259.5610665857
  0
LINE
  5
38A
  8
0
  6
CONTINUOUS
 62
     7
 10
365.446003289
 20
16.4179768123
 30
0.0
 11
365.352865071
 21
16.4232279815
 31
0.0
  0
LINE
  5
38B
  8
0
  6
CONTINUOUS
 62
     7
 10
355.7310779998
 20
71.4179750242
 30
0.0
 11
355.7310779998
 21
31.4179744281
 31
0.0
  0
LINE
  5
38C
  8
0
  6
CONTINUOUS
 62
     7
 10
425.6023009727
 20
31.4179744281
 30
0.0
 11
425.6023009727
 21
71.4179750242
 31
0.0
  0
LINE
  5
38D
  8
0
  6
CONTINUOUS
 62
     7
 10
427.3666938255
 20
80.4300632038
 30
0.0
 11
428.3666928718
 21
80.4300632038
 31
0.0
  0
LINE
  5
38E
  8
0
  6
CONTINUOUS
 62
     7
 10
427.3666938255
 20
104.278492526
 30
0.0
 11
427.3666938255
 21
80.4300632038
 31
0.0
  0
LINE
  5
38F
  8
0
  6
CONTINUOUS
 62
     7
 10
428.3666928718
 20
104.278492526
 30
0.0
 11
428.3666928718
 21
80.4300632038
 31
0.0
  0
LINE
  5
390
  8
0
  6
CONTINUOUS
 62
     7
 10
353.966685147
 20
80.4300632038
 30
0.0
 11
352.9666861007
 21
80.4300632038
 31
0.0
  0
LINE
  5
391
  8
0
  6
CONTINUOUS
 62
     7
 10
352.9666861007
 20
104.278492526
 30
0.0
 11
352.9666861007
 21
80.4300632038
 31
0.0
  0
LINE
  5
392
  8
0
  6
CONTINUOUS
 62
     7
 10
353.966685147
 20
104.278492526
 30
0.0
 11
353.966685147
 21
80.4300632038
 31
0.0
  0
LINE
  5
393
  8
0
  6
CONTINUOUS
 62
     7
 10
427.3666938255
 20
80.4300632038
 30
0.0
 11
427.3666938255
 21
78.0612077274
 31
0.0
  0
LINE
  5
394
  8
0
  6
CONTINUOUS
 62
     7
 10
428.3666928718
 20
80.4300632038
 30
0.0
 11
428.3666928718
 21
76.5917848505
 31
0.0
  0
LINE
  5
395
  8
0
  6
CONTINUOUS
 62
     7
 10
352.9666861007
 20
80.4300632038
 30
0.0
 11
352.9666861007
 21
76.5917848505
 31
0.0
  0
LINE
  5
396
  8
0
  6
CONTINUOUS
 62
     7
 10
353.966685147
 20
80.4300632038
 30
0.0
 11
353.966685147
 21
78.0612077274
 31
0.0
  0
LINE
  5
397
  8
0
  6
CONTINUOUS
 62
     7
 10
363.9661391685
 20
21.4179780044
 30
0.0
 11
417.3672517249
 21
21.4179780044
 31
0.0
  0
LINE
  5
398
  8
0
  6
CONTINUOUS
 62
     7
 10
363.9661391685
 20
81.4179759182
 30
0.0
 11
417.3672517249
 21
81.4179759182
 31
0.0
  0
LINE
  5
399
  8
0
  6
CONTINUOUS
 62
     7
 10
365.446003289
 20
86.4179756202
 30
0.0
 11
415.8873637626
 21
86.4179756202
 31
0.0
  0
LINE
  5
39A
  8
0
  6
CONTINUOUS
 62
     7
 10
415.8873637626
 20
16.4179768123
 30
0.0
 11
365.446003289
 21
16.4179768123
 31
0.0
  0
LINE
  5
39B
  8
0
  6
CONTINUOUS
 62
     7
 10
353.966685147
 20
106.1179760553
 30
0.0
 11
352.9666861007
 21
106.1179760553
 31
0.0
  0
LINE
  5
39C
  8
0
  6
CONTINUOUS
 62
     7
 10
352.9666861007
 20
106.1179760553
 30
0.0
 11
352.9666861007
 21
104.278492526
 31
0.0
  0
LINE
  5
39D
  8
0
  6
CONTINUOUS
 62
     7
 10
353.966685147
 20
106.1179760553
 30
0.0
 11
353.966685147
 21
104.278492526
 31
0.0
  0
LINE
  5
39E
  8
0
  6
CONTINUOUS
 62
     7
 10
427.3666938255
 20
106.1179760553
 30
0.0
 11
428.3666928718
 21
106.1179760553
 31
0.0
  0
LINE
  5
39F
  8
0
  6
CONTINUOUS
 62
     7
 10
427.3666938255
 20
106.1179760553
 30
0.0
 11
427.3666938255
 21
104.278492526
 31
0.0
  0
LINE
  5
3A0
  8
0
  6
CONTINUOUS
 62
     7
 10
428.3666928718
 20
106.1179760553
 30
0.0
 11
428.3666928718
 21
104.278492526
 31
0.0
  0
LINE
  5
3A1
  8
0
  6
CONTINUOUS
 62
     7
 10
358.1666906783
 20
92.5179756888
 30
0.0
 11
358.1666906783
 21
102.317975805
 31
0.0
  0
LINE
  5
3A2
  8
0
  6
CONTINUOUS
 62
     7
 10
423.1666882942
 20
92.5179756888
 30
0.0
 11
423.1666882942
 21
102.317975805
 31
0.0
  0
LINE
  5
3A3
  8
0
  6
CONTINUOUS
 62
     7
 10
427.3666938255
 20
91.5179758974
 30
0.0
 11
423.1666882942
 21
91.5179758974
 31
0.0
  0
LINE
  5
3A4
  8
0
  6
CONTINUOUS
 62
     7
 10
423.1666882942
 20
91.5179758974
 30
0.0
 11
423.1666882942
 21
92.5179756888
 31
0.0
  0
LINE
  5
3A5
  8
0
  6
CONTINUOUS
 62
     7
 10
358.1666906783
 20
91.5179758974
 30
0.0
 11
353.966685147
 21
91.5179758974
 31
0.0
  0
LINE
  5
3A6
  8
0
  6
CONTINUOUS
 62
     7
 10
358.1666906783
 20
92.5179756888
 30
0.0
 11
358.1666906783
 21
91.5179758974
 31
0.0
  0
LINE
  5
3A7
  8
0
  6
CONTINUOUS
 62
     7
 10
427.3666938255
 20
103.3179755964
 30
0.0
 11
423.1666882942
 21
103.3179755964
 31
0.0
  0
LINE
  5
3A8
  8
0
  6
CONTINUOUS
 62
     7
 10
423.1666882942
 20
102.317975805
 30
0.0
 11
423.1666882942
 21
103.3179755964
 31
0.0
  0
LINE
  5
3A9
  8
0
  6
CONTINUOUS
 62
     7
 10
358.1666906783
 20
103.3179755964
 30
0.0
 11
353.966685147
 21
103.3179755964
 31
0.0
  0
LINE
  5
3AA
  8
0
  6
CONTINUOUS
 62
     7
 10
358.1666906783
 20
103.3179755964
 30
0.0
 11
358.1666906783
 21
102.317975805
 31
0.0
  0
LINE
  5
3AB
  8
0
  6
CONTINUOUS
 62
     7
 10
348.1666882942
 20
92.5179756888
 30
0.0
 11
348.1666882942
 21
102.317975805
 31
0.0
  0
LINE
  5
3AC
  8
0
  6
CONTINUOUS
 62
     7
 10
352.9666861007
 20
103.3179755964
 30
0.0
 11
348.1666882942
 21
103.3179755964
 31
0.0
  0
LINE
  5
3AD
  8
0
  6
CONTINUOUS
 62
     7
 10
348.1666882942
 20
102.317975805
 30
0.0
 11
348.1666882942
 21
103.3179755964
 31
0.0
  0
LINE
  5
3AE
  8
0
  6
CONTINUOUS
 62
     7
 10
433.1666787574
 20
92.5179756888
 30
0.0
 11
433.1666787574
 21
102.317975805
 31
0.0
  0
LINE
  5
3AF
  8
0
  6
CONTINUOUS
 62
     7
 10
433.1666787574
 20
103.3179755964
 30
0.0
 11
428.3666928718
 21
103.3179755964
 31
0.0
  0
LINE
  5
3B0
  8
0
  6
CONTINUOUS
 62
     7
 10
433.1666787574
 20
102.317975805
 30
0.0
 11
433.1666787574
 21
103.3179755964
 31
0.0
  0
LINE
  5
3B1
  8
0
  6
CONTINUOUS
 62
     7
 10
433.1666787574
 20
91.5179758974
 30
0.0
 11
428.3666928718
 21
91.5179758974
 31
0.0
  0
LINE
  5
3B2
  8
0
  6
CONTINUOUS
 62
     7
 10
433.1666787574
 20
91.5179758974
 30
0.0
 11
433.1666787574
 21
92.5179756888
 31
0.0
  0
LINE
  5
3B3
  8
0
  6
CONTINUOUS
 62
     7
 10
352.9666861007
 20
91.5179758974
 30
0.0
 11
348.1666882942
 21
91.5179758974
 31
0.0
  0
LINE
  5
3B4
  8
0
  6
CONTINUOUS
 62
     7
 10
348.1666882942
 20
91.5179758974
 30
0.0
 11
348.1666882942
 21
92.5179756888
 31
0.0
  0
ENDSEC
  0
EOF
