  0
SECTION
  2
HEADER
  9
$ACADVER
  1
AC1009
  9
$DWGCODEPAGE
  3
ansi_1252
  9
$INSBASE
 10
0.0
 20
0.0
 30
0.0
  9
$EXTMIN
 10
0.0
 20
0.0
 30
0.0
  9
$EXTMAX
 10
420.0
 20
297.0
 30
0.0
  9
$LIMMIN
 10
0.0
 20
0.0
  9
$LIMMAX
 10
420.0
 20
297.0
  9
$ORTHOMODE
 70
     0
  9
$REGENMODE
 70
     1
  9
$FILLMODE
 70
     1
  9
$QTEXTMODE
 70
     0
  9
$MIRRTEXT
 70
     1
  9
$DRAGMODE
 70
     2
  9
$LTSCALE
 40
1.0
  9
$OSMODE
 70
    37
  9
$ATTMODE
 70
     1
  9
$TEXTSIZE
 40
3.5
  9
$TRACEWID
 40
1.0
  9
$TEXTSTYLE
  7
STANDARD
  9
$CLAYER
  8
0
  9
$CELTYPE
  6
BYLAYER
  9
$CECOLOR
 62
   256
  9
$DIMSCALE
 40
1.0
  9
$DIMASZ
 40
4.0
  9
$DIMEXO
 40
0.0
  9
$DIMDLI
 40
3.75
  9
$DIMRND
 40
0.0
  9
$DIMDLE
 40
0.0
  9
$DIMEXE
 40
2.0
  9
$DIMTP
 40
0.0
  9
$DIMTM
 40
0.0
  9
$DIMTXT
 40
3.5
  9
$DIMCEN
 40
2.5
  9
$DIMTSZ
 40
0.0
  9
$DIMTOL
 70
     0
  9
$DIMLIM
 70
     0
  9
$DIMTIH
 70
     1
  9
$DIMTOH
 70
     1
  9
$DIMSE1
 70
     0
  9
$DIMSE2
 70
     0
  9
$DIMTAD
 70
     1
  9
$DIMZIN
 70
     0
  9
$DIMBLK
  1

  9
$DIMASO
 70
     1
  9
$DIMSHO
 70
     1
  9
$DIMPOST
  1

  9
$DIMAPOST
  1

  9
$DIMALT
 70
     0
  9
$DIMALTD
 70
     3
  9
$DIMALTF
 40
0.0393700787
  9
$DIMLFAC
 40
5.0
  9
$DIMTOFL
 70
     1
  9
$DIMTVP
 40
0.0
  9
$DIMTIX
 70
     0
  9
$DIMSOXD
 70
     0
  9
$DIMSAH
 70
     0
  9
$DIMBLK1
  1

  9
$DIMBLK2
  1

  9
$DIMSTYLE
  2
ISO-25
  9
$DIMCLRD
 70
     0
  9
$DIMCLRE
 70
     0
  9
$DIMCLRT
 70
     0
  9
$DIMTFAC
 40
1.0
  9
$DIMGAP
 40
1.524
  9
$LUNITS
 70
     2
  9
$LUPREC
 70
     2
  9
$SKETCHINC
 40
1.0
  9
$FILLETRAD
 40
10.0
  9
$AUNITS
 70
     0
  9
$AUPREC
 70
     2
  9
$MENU
  1
.
  9
$ELEVATION
 40
0.0
  9
$PELEVATION
 40
0.0
  9
$THICKNESS
 40
0.0
  9
$LIMCHECK
 70
     0
  9
$CHAMFERA
 40
10.0
  9
$CHAMFERB
 40
10.0
  9
$SKPOLY
 70
     0
  9
$TDCREATE
 40
2457802.580928843
  9
$TDUPDATE
 40
2457802.580929143
  9
$TDINDWG
 40
0.0000000116
  9
$TDUSRTIMER
 40
0.0000000116
  9
$USRTIMER
 70
     1
  9
$ANGBASE
 50
0.0
  9
$ANGDIR
 70
     0
  9
$PDMODE
 70
     0
  9
$PDSIZE
 40
-1.0
  9
$PLINEWID
 40
0.0
  9
$COORDS
 70
     1
  9
$SPLFRAME
 70
     0
  9
$SPLINETYPE
 70
     6
  9
$SPLINESEGS
 70
     8
  9
$ATTDIA
 70
     0
  9
$ATTREQ
 70
     1
  9
$HANDLING
 70
     1
  9
$HANDSEED
  5
971
  9
$SURFTAB1
 70
     6
  9
$SURFTAB2
 70
     6
  9
$SURFTYPE
 70
     6
  9
$SURFU
 70
     6
  9
$SURFV
 70
     6
  9
$UCSNAME
  2

  9
$UCSORG
 10
0.0
 20
0.0
 30
0.0
  9
$UCSXDIR
 10
1.0
 20
0.0
 30
0.0
  9
$UCSYDIR
 10
0.0
 20
1.0
 30
0.0
  9
$PUCSNAME
  2

  9
$PUCSORG
 10
0.0
 20
0.0
 30
0.0
  9
$PUCSXDIR
 10
1.0
 20
0.0
 30
0.0
  9
$PUCSYDIR
 10
0.0
 20
1.0
 30
0.0
  9
$USERI1
 70
     0
  9
$USERI2
 70
     0
  9
$USERI3
 70
     0
  9
$USERI4
 70
     0
  9
$USERI5
 70
     0
  9
$USERR1
 40
0.0
  9
$USERR2
 40
0.0
  9
$USERR3
 40
0.0
  9
$USERR4
 40
0.0
  9
$USERR5
 40
0.0
  9
$WORLDVIEW
 70
     1
  9
$SHADEDGE
 70
     3
  9
$SHADEDIF
 70
    70
  9
$TILEMODE
 70
     1
  9
$MAXACTVP
 70
    64
  9
$PLIMCHECK
 70
     0
  9
$PEXTMIN
 10
1.0000000000E+20
 20
1.0000000000E+20
 30
1.0000000000E+20
  9
$PEXTMAX
 10
-1.0000000000E+20
 20
-1.0000000000E+20
 30
-1.0000000000E+20
  9
$PLIMMIN
 10
0.0
 20
0.0
  9
$PLIMMAX
 10
420.0
 20
297.0
  9
$UNITMODE
 70
     0
  9
$VISRETAIN
 70
     1
  9
$PLINEGEN
 70
     0
  9
$PSLTSCALE
 70
     1
  0
ENDSEC
  0
SECTION
  2
TABLES
  0
TABLE
  2
VPORT
 70
     1
  0
VPORT
  2
*ACTIVE
 70
     0
 10
0.0
 20
0.0
 11
1.0
 21
1.0
 12
210.0
 22
148.5
 13
0.0
 23
0.0
 14
10.0
 24
10.0
 15
10.0
 25
10.0
 16
0.0
 26
0.0
 36
1.0
 17
0.0
 27
0.0
 37
0.0
 40
297.0
 41
1.4141414141
 42
50.0
 43
0.0
 44
0.0
 50
0.0
 51
0.0
 71
     0
 72
  2000
 73
     1
 74
     3
 75
     0
 76
     0
 77
     0
 78
     0
  0
ENDTAB
  0
TABLE
  2
LTYPE
 70
     6
  0
LTYPE
  2
CONTINUOUS
 70
     0
  3
Solid line
 72
    65
 73
     0
 40
0.0
  0
LTYPE
  2
HIDDEN
 70
     0
  3
Hidden __ __ __ __ __ __ __ __ __ __ __ __ __ __
 72
    65
 73
     2
 40
1.905
 49
1.27
 49
-0.635
  0
LTYPE
  2
PHANTOM
 70
     0
  3
Phantom ______  __  __  ______  __  __  ______
 72
    65
 73
     6
 40
12.7
 49
6.35
 49
-1.27
 49
1.27
 49
-1.27
 49
1.27
 49
-1.27
  0
LTYPE
  2
CENTER
 70
     0
  3
Center ____ _ ____ _ ____ _ ____ _ ____ _ ____
 72
    65
 73
     4
 40
10.16
 49
6.35
 49
-1.27
 49
1.27
 49
-1.27
  0
LTYPE
  2
CENTERX2
 70
     0
  3
Center (2x) ________  __  ________  __  _____
 72
    65
 73
     4
 40
20.32
 49
12.7
 49
-2.54
 49
2.54
 49
-2.54
  0
LTYPE
  2
DOT2
 70
     0
  3
Dot (.5x) ........................................
 72
    65
 73
     2
 40
0.635
 49
0.0
 49
-0.635
  0
ENDTAB
  0
TABLE
  2
LAYER
 70
     2
  0
LAYER
  2
0
 70
     0
 62
     7
  6
CONTINUOUS
  0
LAYER
  2
FORMAT
 70
     0
 62
     7
  6
CONTINUOUS
  0
ENDTAB
  0
TABLE
  2
STYLE
 70
     1
  0
STYLE
  2
STANDARD
 70
     0
 40
0.0
 41
1.0
 50
0.0
 71
     0
 42
3.5
  3
txt
  4

  0
ENDTAB
  0
TABLE
  2
VIEW
 70
     0
  0
ENDTAB
  0
TABLE
  2
UCS
 70
     0
  0
ENDTAB
  0
TABLE
  2
APPID
 70
     1
  0
APPID
  2
ACAD
 70
     0
  0
ENDTAB
  0
TABLE
  2
DIMSTYLE
 70
     1
  0
DIMSTYLE
  2
ISO-25
 70
     0
  3

  4

  5

  6

  7

 40
1.0
 41
2.5
 42
0.625
 43
3.75
 44
1.25
 45
0.0
 46
0.0
 47
0.0
 48
0.0
140
2.5
141
2.5
142
0.0
143
0.0393700787
144
1.0
145
0.0
146
1.0
147
0.625
 71
     0
 72
     0
 73
     0
 74
     0
 75
     0
 76
     0
 77
     1
 78
     8
170
     0
171
     3
172
     1
173
     0
174
     0
175
     0
176
     0
177
     0
178
     0
  0
ENDTAB
  0
ENDSEC
  0
SECTION
  2
BLOCKS
  0
BLOCK
  8
0
  2
$MODEL_SPACE
 70
     0
 10
0.0
 20
0.0
 30
0.0
  3
$MODEL_SPACE
  1

  0
ENDBLK
  5
21
  8
0
  0
BLOCK
 67
     1
  8
0
  2
$PAPER_SPACE
 70
     0
 10
0.0
 20
0.0
 30
0.0
  3
$PAPER_SPACE
  1

  0
ENDBLK
  5
1D
 67
     1
  8
0
  0
ENDSEC
  0
SECTION
  2
ENTITIES
  0
LINE
  5
45
  8
0
  6
CONTINUOUS
 62
     7
 10
144.4515647042
 20
169.5998598981
 30
0.0
 11
144.4515647042
 21
154.5998622823
 31
0.0
  0
LINE
  5
46
  8
0
  6
CONTINUOUS
 62
     7
 10
149.8515607464
 20
154.5998622823
 30
0.0
 11
149.8515607464
 21
169.5998598981
 31
0.0
  0
LINE
  5
47
  8
0
  6
CONTINUOUS
 62
     7
 10
149.8515607464
 20
137.999861424
 30
0.0
 11
149.8515607464
 21
154.5998622823
 31
0.0
  0
LINE
  5
48
  8
0
  6
CONTINUOUS
 62
     7
 10
144.4515647042
 20
154.5998622823
 30
0.0
 11
144.4515647042
 21
137.999861424
 31
0.0
  0
LINE
  5
49
  8
0
  6
CONTINUOUS
 62
     7
 10
144.4515647042
 20
137.999861424
 30
0.0
 11
144.4515647042
 21
122.9998638082
 31
0.0
  0
LINE
  5
4A
  8
0
  6
CONTINUOUS
 62
     7
 10
149.8515607464
 20
122.9998638082
 30
0.0
 11
149.8515607464
 21
137.999861424
 31
0.0
  0
LINE
  5
4B
  8
0
  6
CONTINUOUS
 62
     7
 10
24.4515599358
 20
169.5998598981
 30
0.0
 11
24.4515599358
 21
154.5998622823
 31
0.0
  0
LINE
  5
4C
  8
0
  6
CONTINUOUS
 62
     7
 10
29.8515619385
 20
154.5998622823
 30
0.0
 11
29.8515619385
 21
169.5998598981
 31
0.0
  0
LINE
  5
4D
  8
0
  6
CONTINUOUS
 62
     7
 10
29.8515619385
 20
137.999861424
 30
0.0
 11
29.8515619385
 21
154.5998622823
 31
0.0
  0
LINE
  5
4E
  8
0
  6
CONTINUOUS
 62
     7
 10
24.4515599358
 20
154.5998622823
 30
0.0
 11
24.4515599358
 21
137.999861424
 31
0.0
  0
LINE
  5
4F
  8
0
  6
CONTINUOUS
 62
     7
 10
24.4515599358
 20
137.999861424
 30
0.0
 11
24.4515599358
 21
122.9998638082
 31
0.0
  0
LINE
  5
50
  8
0
  6
CONTINUOUS
 62
     7
 10
29.8515619385
 20
122.9998638082
 30
0.0
 11
29.8515619385
 21
137.999861424
 31
0.0
  0
LINE
  5
51
  8
0
  6
CONTINUOUS
 62
     7
 10
269.8515595543
 20
137.999861424
 30
0.0
 11
269.8515595543
 21
154.5998622823
 31
0.0
  0
LINE
  5
52
  8
0
  6
CONTINUOUS
 62
     7
 10
264.4515635121
 20
154.5998622823
 30
0.0
 11
264.4515635121
 21
137.999861424
 31
0.0
  0
LINE
  5
53
  8
0
  6
CONTINUOUS
 62
     7
 10
264.4515635121
 20
169.5998598981
 30
0.0
 11
264.4515635121
 21
154.5998622823
 31
0.0
  0
LINE
  5
54
  8
0
  6
CONTINUOUS
 62
     7
 10
269.8515595543
 20
154.5998622823
 30
0.0
 11
269.8515595543
 21
169.5998598981
 31
0.0
  0
LINE
  5
55
  8
0
  6
CONTINUOUS
 62
     7
 10
264.4515635121
 20
137.999861424
 30
0.0
 11
264.4515635121
 21
122.9998638082
 31
0.0
  0
LINE
  5
56
  8
0
  6
CONTINUOUS
 62
     7
 10
269.8515595543
 20
122.9998638082
 30
0.0
 11
269.8515595543
 21
137.999861424
 31
0.0
  0
LINE
  5
57
  8
0
  6
CONTINUOUS
 62
     7
 10
389.8515643227
 20
137.999861424
 30
0.0
 11
389.8515643227
 21
154.5998622823
 31
0.0
  0
LINE
  5
58
  8
0
  6
CONTINUOUS
 62
     7
 10
384.45156232
 20
154.5998622823
 30
0.0
 11
384.45156232
 21
137.999861424
 31
0.0
  0
LINE
  5
59
  8
0
  6
CONTINUOUS
 62
     7
 10
384.45156232
 20
169.5998598981
 30
0.0
 11
384.45156232
 21
154.5998622823
 31
0.0
  0
LINE
  5
5A
  8
0
  6
CONTINUOUS
 62
     7
 10
389.8515643227
 20
154.5998622823
 30
0.0
 11
389.8515643227
 21
169.5998598981
 31
0.0
  0
LINE
  5
5B
  8
0
  6
CONTINUOUS
 62
     7
 10
384.45156232
 20
137.999861424
 30
0.0
 11
384.45156232
 21
122.9998638082
 31
0.0
  0
LINE
  5
5C
  8
0
  6
CONTINUOUS
 62
     7
 10
389.8515643227
 20
122.9998638082
 30
0.0
 11
389.8515643227
 21
137.999861424
 31
0.0
  0
ARC
  5
5D
  8
0
  6
CONTINUOUS
 62
     7
 10
352.1023956106
 20
184.9338223528
 30
0.0
 40
15.1005397799929
 50
271.1940959134
 51
0.2074317098
  0
ARC
  5
5E
  8
0
  6
CONTINUOUS
 62
     7
 10
302.1986883164
 20
184.9299946396
 30
0.0
 40
15.09768090214261
 50
179.7788170429
 51
268.8139113785
  0
LINE
  5
5F
  8
0
  6
CONTINUOUS
 62
     7
 10
287.0928050625
 20
224.69058532
 30
0.0
 11
287.0928050625
 21
184.9887420583
 31
0.0
  0
LINE
  5
60
  8
0
  6
CONTINUOUS
 62
     7
 10
367.2103227723
 20
184.9887420583
 30
0.0
 11
367.2103227723
 21
224.69058532
 31
0.0
  0
POLYLINE
  5
61
  8
0
  6
CONTINUOUS
 62
     7
 66
     1
 10
0.0
 20
0.0
 30
0.0
  0
VERTEX
  5
45E
  8
0
  6
CONTINUOUS
 62
     7
 10
301.8860222447
 20
169.8280383993
 30
0.0
  0
VERTEX
  5
45F
  8
0
  6
CONTINUOUS
 62
     7
 10
303.6778272736
 20
169.799225514
 30
0.0
  0
VERTEX
  5
460
  8
0
  6
CONTINUOUS
 62
     7
 10
307.0883990872
 20
169.7503377843
 30
0.0
  0
VERTEX
  5
461
  8
0
  6
CONTINUOUS
 62
     7
 10
310.5057658303
 20
169.7091032911
 30
0.0
  0
VERTEX
  5
462
  8
0
  6
CONTINUOUS
 62
     7
 10
313.9287294495
 20
169.675557797
 30
0.0
  0
VERTEX
  5
463
  8
0
  6
CONTINUOUS
 62
     7
 10
317.3561395752
 20
169.649713223
 30
0.0
  0
VERTEX
  5
464
  8
0
  6
CONTINUOUS
 62
     7
 10
320.7868517983
 20
169.6315695691
 30
0.0
  0
VERTEX
  5
465
  8
0
  6
CONTINUOUS
 62
     7
 10
324.2196978676
 20
169.6211268354
 30
0.0
  0
VERTEX
  5
466
  8
0
  6
CONTINUOUS
 62
     7
 10
327.6535333741
 20
169.6183969427
 30
0.0
  0
VERTEX
  5
467
  8
0
  6
CONTINUOUS
 62
     7
 10
331.0872019875
 20
169.623379891
 30
0.0
  0
VERTEX
  5
468
  8
0
  6
CONTINUOUS
 62
     7
 10
334.5195354569
 20
169.6360756803
 30
0.0
  0
VERTEX
  5
469
  8
0
  6
CONTINUOUS
 62
     7
 10
337.9493774521
 20
169.6564723897
 30
0.0
  0
VERTEX
  5
46A
  8
0
  6
CONTINUOUS
 62
     7
 10
341.375583564
 20
169.6845700193
 30
0.0
  0
VERTEX
  5
46B
  8
0
  6
CONTINUOUS
 62
     7
 10
344.7969974625
 20
169.7203685689
 30
0.0
  0
VERTEX
  5
46C
  8
0
  6
CONTINUOUS
 62
     7
 10
348.2124628174
 20
169.7638322759
 30
0.0
  0
VERTEX
  5
46D
  8
0
  6
CONTINUOUS
 62
     7
 10
351.4416874993
 20
169.8120881963
 30
0.0
  0
VERTEX
  5
46E
  8
0
  6
CONTINUOUS
 62
     7
 10
352.4171055901
 20
169.8280383993
 30
0.0
  0
SEQEND
  5
970
  8
0
  6
CONTINUOUS
 62
     7
  0
ARC
  5
62
  8
0
  6
CONTINUOUS
 62
     7
 10
301.6112902651
 20
225.0884546889
 30
0.0
 40
14.25366498439694
 50
88.5350965507
 51
113.3277776377
  0
ARC
  5
63
  8
0
  6
CONTINUOUS
 62
     7
 10
352.6904205971
 20
225.0510212006
 30
0.0
 40
14.2922782763421
 50
66.7644532757
 51
91.4553581978
  0
POLYLINE
  5
64
  8
0
  6
CONTINUOUS
 62
     7
 66
     1
 10
0.0
 20
0.0
 30
0.0
  0
VERTEX
  5
46F
  8
0
  6
CONTINUOUS
 62
     7
 10
293.2751418698
 20
236.6911937642
 30
0.0
  0
VERTEX
  5
470
  8
0
  6
CONTINUOUS
 62
     7
 10
293.2297588933
 20
236.6613676
 30
0.0
  0
VERTEX
  5
471
  8
0
  6
CONTINUOUS
 62
     7
 10
292.8979755986
 20
236.4104439664
 30
0.0
  0
SEQEND
  5
96F
  8
0
  6
CONTINUOUS
 62
     7
  0
ARC
  5
65
  8
0
  6
CONTINUOUS
 62
     7
 10
301.6580079829
 20
224.7877643851
 30
0.0
 40
14.558315821417
 50
128.4665550329
 51
180.3828835017
  0
ARC
  5
66
  8
0
  6
CONTINUOUS
 62
     7
 10
352.6225706232
 20
224.7830144646
 30
0.0
 40
14.57977291437405
 50
359.6362061477
 51
54.8680472801
  0
POLYLINE
  5
67
  8
0
  6
CONTINUOUS
 62
     7
 66
     1
 10
0.0
 20
0.0
 30
0.0
  0
VERTEX
  5
472
  8
0
  6
CONTINUOUS
 62
     7
 10
352.3273886788
 20
239.3456270147
 30
0.0
  0
VERTEX
  5
473
  8
0
  6
CONTINUOUS
 62
     7
 10
350.5420388329
 20
239.3169214178
 30
0.0
  0
VERTEX
  5
474
  8
0
  6
CONTINUOUS
 62
     7
 10
347.1438349831
 20
239.2682005811
 30
0.0
  0
VERTEX
  5
475
  8
0
  6
CONTINUOUS
 62
     7
 10
343.7387408364
 20
239.2271210599
 30
0.0
  0
VERTEX
  5
476
  8
0
  6
CONTINUOUS
 62
     7
 10
340.3279604065
 20
239.1936947751
 30
0.0
  0
VERTEX
  5
477
  8
0
  6
CONTINUOUS
 62
     7
 10
336.9126619446
 20
239.1679336477
 30
0.0
  0
VERTEX
  5
478
  8
0
  6
CONTINUOUS
 62
     7
 10
333.4940137017
 20
239.1498495984
 30
0.0
  0
VERTEX
  5
479
  8
0
  6
CONTINUOUS
 62
     7
 10
330.0731839287
 20
239.1394426275
 30
0.0
  0
VERTEX
  5
47A
  8
0
  6
CONTINUOUS
 62
     7
 10
326.6513527977
 20
239.1367246557
 30
0.0
  0
VERTEX
  5
47B
  8
0
  6
CONTINUOUS
 62
     7
 10
323.2296885598
 20
239.141695683
 30
0.0
  0
VERTEX
  5
47C
  8
0
  6
CONTINUOUS
 62
     7
 10
319.8093594658
 20
239.1543437887
 30
0.0
  0
VERTEX
  5
47D
  8
0
  6
CONTINUOUS
 62
     7
 10
316.3915456879
 20
239.1746689725
 30
0.0
  0
VERTEX
  5
47E
  8
0
  6
CONTINUOUS
 62
     7
 10
312.977415477
 20
239.2026712346
 30
0.0
  0
VERTEX
  5
47F
  8
0
  6
CONTINUOUS
 62
     7
 10
309.5681370842
 20
239.2383386541
 30
0.0
  0
VERTEX
  5
480
  8
0
  6
CONTINUOUS
 62
     7
 10
306.1648787606
 20
239.2816593099
 30
0.0
  0
VERTEX
  5
481
  8
0
  6
CONTINUOUS
 62
     7
 10
302.947360431
 20
239.3297364164
 30
0.0
  0
VERTEX
  5
482
  8
0
  6
CONTINUOUS
 62
     7
 10
301.975739156
 20
239.3456270147
 30
0.0
  0
SEQEND
  5
96E
  8
0
  6
CONTINUOUS
 62
     7
  0
ARC
  5
68
  8
0
  6
CONTINUOUS
 62
     7
 10
112.1023917105
 20
184.9338284851
 30
0.0
 40
15.10054604195757
 50
271.1941192674
 51
0.2074083558
  0
ARC
  5
69
  8
0
  6
CONTINUOUS
 62
     7
 10
62.1986806587
 20
184.9299848413
 30
0.0
 40
15.09767089807233
 50
179.7787797115
 51
268.81394871
  0
LINE
  5
6A
  8
0
  6
CONTINUOUS
 62
     7
 10
47.0928014863
 20
224.69058532
 30
0.0
 11
47.0928014863
 21
184.9887420583
 31
0.0
  0
LINE
  5
6B
  8
0
  6
CONTINUOUS
 62
     7
 10
127.210319196
 20
184.9887420583
 30
0.0
 11
127.210319196
 21
224.69058532
 31
0.0
  0
POLYLINE
  5
6C
  8
0
  6
CONTINUOUS
 62
     7
 66
     1
 10
0.0
 20
0.0
 30
0.0
  0
VERTEX
  5
483
  8
0
  6
CONTINUOUS
 62
     7
 10
61.8860186684
 20
169.8280383993
 30
0.0
  0
VERTEX
  5
484
  8
0
  6
CONTINUOUS
 62
     7
 10
63.6778296578
 20
169.799225514
 30
0.0
  0
VERTEX
  5
485
  8
0
  6
CONTINUOUS
 62
     7
 10
67.0883955109
 20
169.7503377843
 30
0.0
  0
VERTEX
  5
486
  8
0
  6
CONTINUOUS
 62
     7
 10
70.5057682145
 20
169.7091032911
 30
0.0
  0
VERTEX
  5
487
  8
0
  6
CONTINUOUS
 62
     7
 10
73.9287318337
 20
169.675557797
 30
0.0
  0
VERTEX
  5
488
  8
0
  6
CONTINUOUS
 62
     7
 10
77.3561419594
 20
169.649713223
 30
0.0
  0
VERTEX
  5
489
  8
0
  6
CONTINUOUS
 62
     7
 10
80.7868541825
 20
169.6315695691
 30
0.0
  0
VERTEX
  5
48A
  8
0
  6
CONTINUOUS
 62
     7
 10
84.2197002518
 20
169.6211268354
 30
0.0
  0
VERTEX
  5
48B
  8
0
  6
CONTINUOUS
 62
     7
 10
87.6535357583
 20
169.6183969427
 30
0.0
  0
VERTEX
  5
48C
  8
0
  6
CONTINUOUS
 62
     7
 10
91.0871924508
 20
169.623379891
 30
0.0
  0
VERTEX
  5
48D
  8
0
  6
CONTINUOUS
 62
     7
 10
94.5195259202
 20
169.6360756803
 30
0.0
  0
VERTEX
  5
48E
  8
0
  6
CONTINUOUS
 62
     7
 10
97.9493798363
 20
169.6564723897
 30
0.0
  0
VERTEX
  5
48F
  8
0
  6
CONTINUOUS
 62
     7
 10
101.3755859482
 20
169.6845700193
 30
0.0
  0
VERTEX
  5
490
  8
0
  6
CONTINUOUS
 62
     7
 10
104.7969998467
 20
169.7203685689
 30
0.0
  0
VERTEX
  5
491
  8
0
  6
CONTINUOUS
 62
     7
 10
108.2124592412
 20
169.7638322759
 30
0.0
  0
VERTEX
  5
492
  8
0
  6
CONTINUOUS
 62
     7
 10
111.441683923
 20
169.8120881963
 30
0.0
  0
VERTEX
  5
493
  8
0
  6
CONTINUOUS
 62
     7
 10
112.4171020138
 20
169.8280383993
 30
0.0
  0
SEQEND
  5
96D
  8
0
  6
CONTINUOUS
 62
     7
  0
ARC
  5
6D
  8
0
  6
CONTINUOUS
 62
     7
 10
61.6113039359
 20
225.0883653899
 30
0.0
 40
14.25375381331484
 50
88.5351750327
 51
113.3276991557
  0
ARC
  5
6E
  8
0
  6
CONTINUOUS
 62
     7
 10
112.6904152726
 20
225.0509830063
 30
0.0
 40
14.29231641385432
 50
66.7644852849
 51
91.4553473028
  0
POLYLINE
  5
6F
  8
0
  6
CONTINUOUS
 62
     7
 66
     1
 10
0.0
 20
0.0
 30
0.0
  0
VERTEX
  5
494
  8
0
  6
CONTINUOUS
 62
     7
 10
53.2751382935
 20
236.6911937642
 30
0.0
  0
VERTEX
  5
495
  8
0
  6
CONTINUOUS
 62
     7
 10
53.229755317
 20
236.6613676
 30
0.0
  0
VERTEX
  5
496
  8
0
  6
CONTINUOUS
 62
     7
 10
52.8979720223
 20
236.4104439664
 30
0.0
  0
SEQEND
  5
96C
  8
0
  6
CONTINUOUS
 62
     7
  0
ARC
  5
70
  8
0
  6
CONTINUOUS
 62
     7
 10
61.6580206331
 20
224.7877566193
 30
0.0
 40
14.55833199556957
 50
128.466586022
 51
180.3828525126
  0
ARC
  5
71
  8
0
  6
CONTINUOUS
 62
     7
 10
112.6225776519
 20
224.7830240888
 30
0.0
 40
14.57976237068477
 50
359.6361680626
 51
54.8680404426
  0
POLYLINE
  5
72
  8
0
  6
CONTINUOUS
 62
     7
 66
     1
 10
0.0
 20
0.0
 30
0.0
  0
VERTEX
  5
497
  8
0
  6
CONTINUOUS
 62
     7
 10
112.3273851025
 20
239.3456270147
 30
0.0
  0
VERTEX
  5
498
  8
0
  6
CONTINUOUS
 62
     7
 10
110.5420471776
 20
239.3169214178
 30
0.0
  0
VERTEX
  5
499
  8
0
  6
CONTINUOUS
 62
     7
 10
107.1438254464
 20
239.2682005811
 30
0.0
  0
VERTEX
  5
49A
  8
0
  6
CONTINUOUS
 62
     7
 10
103.7387432206
 20
239.2271210599
 30
0.0
  0
VERTEX
  5
49B
  8
0
  6
CONTINUOUS
 62
     7
 10
100.3279627907
 20
239.1936947751
 30
0.0
  0
VERTEX
  5
49C
  8
0
  6
CONTINUOUS
 62
     7
 10
96.9126524079
 20
239.1679336477
 30
0.0
  0
VERTEX
  5
49D
  8
0
  6
CONTINUOUS
 62
     7
 10
93.4940041649
 20
239.1498495984
 30
0.0
  0
VERTEX
  5
49E
  8
0
  6
CONTINUOUS
 62
     7
 10
90.0731863129
 20
239.1394426275
 30
0.0
  0
VERTEX
  5
49F
  8
0
  6
CONTINUOUS
 62
     7
 10
86.6513551819
 20
239.1367246557
 30
0.0
  0
VERTEX
  5
4A0
  8
0
  6
CONTINUOUS
 62
     7
 10
83.229679023
 20
239.141695683
 30
0.0
  0
VERTEX
  5
4A1
  8
0
  6
CONTINUOUS
 62
     7
 10
79.80936185
 20
239.1543437887
 30
0.0
  0
VERTEX
  5
4A2
  8
0
  6
CONTINUOUS
 62
     7
 10
76.3915480721
 20
239.1746689725
 30
0.0
  0
VERTEX
  5
4A3
  8
0
  6
CONTINUOUS
 62
     7
 10
72.9774178612
 20
239.2026712346
 30
0.0
  0
VERTEX
  5
4A4
  8
0
  6
CONTINUOUS
 62
     7
 10
69.5681394684
 20
239.2383386541
 30
0.0
  0
VERTEX
  5
4A5
  8
0
  6
CONTINUOUS
 62
     7
 10
66.1648811448
 20
239.2816593099
 30
0.0
  0
VERTEX
  5
4A6
  8
0
  6
CONTINUOUS
 62
     7
 10
62.9473628151
 20
239.3297364164
 30
0.0
  0
VERTEX
  5
4A7
  8
0
  6
CONTINUOUS
 62
     7
 10
61.9757355797
 20
239.3456270147
 30
0.0
  0
SEQEND
  5
96B
  8
0
  6
CONTINUOUS
 62
     7
  0
ARC
  5
73
  8
0
  6
CONTINUOUS
 62
     7
 10
232.1023950684
 20
184.9338239832
 30
0.0
 40
15.10054150829804
 50
271.1941136686
 51
0.2074254998
  0
ARC
  5
74
  8
0
  6
CONTINUOUS
 62
     7
 10
182.1986898383
 20
184.9299978693
 30
0.0
 40
15.09768419967063
 50
179.7788293481
 51
268.8138990734
  0
LINE
  5
75
  8
0
  6
CONTINUOUS
 62
     7
 10
167.0928062546
 20
224.69058532
 30
0.0
 11
167.0928062546
 21
184.9887420583
 31
0.0
  0
LINE
  5
76
  8
0
  6
CONTINUOUS
 62
     7
 10
247.2103180039
 20
184.9887420583
 30
0.0
 11
247.2103180039
 21
224.69058532
 31
0.0
  0
POLYLINE
  5
77
  8
0
  6
CONTINUOUS
 62
     7
 66
     1
 10
0.0
 20
0.0
 30
0.0
  0
VERTEX
  5
4A8
  8
0
  6
CONTINUOUS
 62
     7
 10
181.8860204566
 20
169.8280383993
 30
0.0
  0
VERTEX
  5
4A9
  8
0
  6
CONTINUOUS
 62
     7
 10
183.6778269756
 20
169.799225514
 30
0.0
  0
VERTEX
  5
4AA
  8
0
  6
CONTINUOUS
 62
     7
 10
187.0884002793
 20
169.7503377843
 30
0.0
  0
VERTEX
  5
4AB
  8
0
  6
CONTINUOUS
 62
     7
 10
190.505762552
 20
169.7091032911
 30
0.0
  0
VERTEX
  5
4AC
  8
0
  6
CONTINUOUS
 62
     7
 10
193.9287276614
 20
169.675557797
 30
0.0
  0
VERTEX
  5
4AD
  8
0
  6
CONTINUOUS
 62
     7
 10
197.3561422575
 20
169.649713223
 30
0.0
  0
VERTEX
  5
4AE
  8
0
  6
CONTINUOUS
 62
     7
 10
200.7868515003
 20
169.6315695691
 30
0.0
  0
VERTEX
  5
4AF
  8
0
  6
CONTINUOUS
 62
     7
 10
204.2197014812
 20
169.6211268354
 30
0.0
  0
VERTEX
  5
4B0
  8
0
  6
CONTINUOUS
 62
     7
 10
207.6535356372
 20
169.6183969427
 30
0.0
  0
VERTEX
  5
4B1
  8
0
  6
CONTINUOUS
 62
     7
 10
211.0871979642
 20
169.623379891
 30
0.0
  0
VERTEX
  5
4B2
  8
0
  6
CONTINUOUS
 62
     7
 10
214.5195306885
 20
169.6360756803
 30
0.0
  0
VERTEX
  5
4B3
  8
0
  6
CONTINUOUS
 62
     7
 10
217.9493771541
 20
169.6564723897
 30
0.0
  0
VERTEX
  5
4B4
  8
0
  6
CONTINUOUS
 62
     7
 10
221.375583266
 20
169.6845700193
 30
0.0
  0
VERTEX
  5
4B5
  8
0
  6
CONTINUOUS
 62
     7
 10
224.7969941843
 20
169.7203685689
 30
0.0
  0
VERTEX
  5
4B6
  8
0
  6
CONTINUOUS
 62
     7
 10
228.2124595392
 20
169.7638322759
 30
0.0
  0
VERTEX
  5
4B7
  8
0
  6
CONTINUOUS
 62
     7
 10
231.441684221
 20
169.8120881963
 30
0.0
  0
VERTEX
  5
4B8
  8
0
  6
CONTINUOUS
 62
     7
 10
232.417103802
 20
169.8280383993
 30
0.0
  0
SEQEND
  5
96A
  8
0
  6
CONTINUOUS
 62
     7
  0
ARC
  5
78
  8
0
  6
CONTINUOUS
 62
     7
 10
181.6113004128
 20
225.0883938252
 30
0.0
 40
14.25372559924597
 50
88.5351387924
 51
113.3277248135
  0
ARC
  5
79
  8
0
  6
CONTINUOUS
 62
     7
 10
232.6904156323
 20
225.050991072
 30
0.0
 40
14.29230839019083
 50
66.7644782449
 51
91.4553543428
  0
POLYLINE
  5
7A
  8
0
  6
CONTINUOUS
 62
     7
 66
     1
 10
0.0
 20
0.0
 30
0.0
  0
VERTEX
  5
4B9
  8
0
  6
CONTINUOUS
 62
     7
 10
173.2751430619
 20
236.6911937642
 30
0.0
  0
VERTEX
  5
4BA
  8
0
  6
CONTINUOUS
 62
     7
 10
173.2297571051
 20
236.6613676
 30
0.0
  0
VERTEX
  5
4BB
  8
0
  6
CONTINUOUS
 62
     7
 10
172.8979738104
 20
236.4104439664
 30
0.0
  0
SEQEND
  5
969
  8
0
  6
CONTINUOUS
 62
     7
  0
ARC
  5
7B
  8
0
  6
CONTINUOUS
 62
     7
 10
181.6580204845
 20
224.7877613202
 30
0.0
 40
14.55832711012308
 50
128.4665915627
 51
180.3828711424
  0
ARC
  5
7C
  8
0
  6
CONTINUOUS
 62
     7
 10
232.6225764598
 20
224.7830240888
 30
0.0
 40
14.57976237068485
 50
359.6361680626
 51
54.8680404426
  0
POLYLINE
  5
7D
  8
0
  6
CONTINUOUS
 62
     7
 66
     1
 10
0.0
 20
0.0
 30
0.0
  0
VERTEX
  5
4BC
  8
0
  6
CONTINUOUS
 62
     7
 10
232.3273839104
 20
239.3456270147
 30
0.0
  0
VERTEX
  5
4BD
  8
0
  6
CONTINUOUS
 62
     7
 10
230.5420444953
 20
239.3169214178
 30
0.0
  0
VERTEX
  5
4BE
  8
0
  6
CONTINUOUS
 62
     7
 10
227.1438302147
 20
239.2682005811
 30
0.0
  0
VERTEX
  5
4BF
  8
0
  6
CONTINUOUS
 62
     7
 10
223.7387375581
 20
239.2271210599
 30
0.0
  0
VERTEX
  5
4C0
  8
0
  6
CONTINUOUS
 62
     7
 10
220.3279571283
 20
239.1936947751
 30
0.0
  0
VERTEX
  5
4C1
  8
0
  6
CONTINUOUS
 62
     7
 10
216.9126571763
 20
239.1679336477
 30
0.0
  0
VERTEX
  5
4C2
  8
0
  6
CONTINUOUS
 62
     7
 10
213.4940081882
 20
239.1498495984
 30
0.0
  0
VERTEX
  5
4C3
  8
0
  6
CONTINUOUS
 62
     7
 10
210.0731821406
 20
239.1394426275
 30
0.0
  0
VERTEX
  5
4C4
  8
0
  6
CONTINUOUS
 62
     7
 10
206.651349892
 20
239.1367246557
 30
0.0
  0
VERTEX
  5
4C5
  8
0
  6
CONTINUOUS
 62
     7
 10
203.2296841639
 20
239.141695683
 30
0.0
  0
VERTEX
  5
4C6
  8
0
  6
CONTINUOUS
 62
     7
 10
199.8093584228
 20
239.1543437887
 30
0.0
  0
VERTEX
  5
4C7
  8
0
  6
CONTINUOUS
 62
     7
 10
196.3915446448
 20
239.1746689725
 30
0.0
  0
VERTEX
  5
4C8
  8
0
  6
CONTINUOUS
 62
     7
 10
192.977415179
 20
239.2026712346
 30
0.0
  0
VERTEX
  5
4C9
  8
0
  6
CONTINUOUS
 62
     7
 10
189.5681367862
 20
239.2383386541
 30
0.0
  0
VERTEX
  5
4CA
  8
0
  6
CONTINUOUS
 62
     7
 10
186.1648814428
 20
239.2816593099
 30
0.0
  0
VERTEX
  5
4CB
  8
0
  6
CONTINUOUS
 62
     7
 10
182.9473601329
 20
239.3297364164
 30
0.0
  0
VERTEX
  5
4CC
  8
0
  6
CONTINUOUS
 62
     7
 10
181.9757403481
 20
239.3456270147
 30
0.0
  0
SEQEND
  5
968
  8
0
  6
CONTINUOUS
 62
     7
  0
POLYLINE
  5
7E
  8
0
  6
CONTINUOUS
 62
     7
 66
     1
 10
0.0
 20
0.0
 30
0.0
  0
VERTEX
  5
4CD
  8
0
  6
CONTINUOUS
 62
     7
 10
364.0513838875
 20
147.528569882
 30
0.0
  0
VERTEX
  5
4CE
  8
0
  6
CONTINUOUS
 62
     7
 10
364.0458287346
 20
147.5276042867
 30
0.0
  0
VERTEX
  5
4CF
  8
0
  6
CONTINUOUS
 62
     7
 10
364.044767772
 20
147.5274135518
 30
0.0
  0
SEQEND
  5
967
  8
0
  6
CONTINUOUS
 62
     7
  0
POLYLINE
  5
7F
  8
0
  6
CONTINUOUS
 62
     7
 66
     1
 10
0.0
 20
0.0
 30
0.0
  0
VERTEX
  5
4D0
  8
0
  6
CONTINUOUS
 62
     7
 10
290.2586759675
 20
147.5273241449
 30
0.0
  0
VERTEX
  5
4D1
  8
0
  6
CONTINUOUS
 62
     7
 10
290.2576865304
 20
147.5275089193
 30
0.0
  0
VERTEX
  5
4D2
  8
0
  6
CONTINUOUS
 62
     7
 10
290.2467669594
 20
147.5293924261
 30
0.0
  0
SEQEND
  5
966
  8
0
  6
CONTINUOUS
 62
     7
  0
LINE
  5
80
  8
0
  6
CONTINUOUS
 62
     7
 10
290.2584256279
 20
147.5273837495
 30
0.0
 11
290.2510465729
 21
147.5286950517
 31
0.0
  0
ARC
  5
81
  8
0
  6
CONTINUOUS
 62
     7
 10
273.2167755738
 20
62.4238746361
 30
0.0
 40
81.41361842574099
 50
78.4974998086
 51
78.6268720826
  0
LINE
  5
82
  8
0
  6
CONTINUOUS
 62
     7
 10
289.2658712018
 20
142.2399272371
 30
0.0
 11
289.2703415501
 21
142.2390391279
 31
0.0
  0
LINE
  5
83
  8
0
  6
CONTINUOUS
 62
     7
 10
364.9690927613
 20
142.2262002874
 30
0.0
 11
365.0257290947
 21
142.2376264978
 31
0.0
  0
POLYLINE
  5
84
  8
0
  6
CONTINUOUS
 62
     7
 66
     1
 10
0.0
 20
0.0
 30
0.0
  0
VERTEX
  5
4D3
  8
0
  6
CONTINUOUS
 62
     7
 10
124.0513862717
 20
147.528569882
 30
0.0
  0
VERTEX
  5
4D4
  8
0
  6
CONTINUOUS
 62
     7
 10
124.0458251584
 20
147.5276042867
 30
0.0
  0
VERTEX
  5
4D5
  8
0
  6
CONTINUOUS
 62
     7
 10
124.0447701561
 20
147.5274135518
 30
0.0
  0
SEQEND
  5
965
  8
0
  6
CONTINUOUS
 62
     7
  0
POLYLINE
  5
85
  8
0
  6
CONTINUOUS
 62
     7
 66
     1
 10
0.0
 20
0.0
 30
0.0
  0
VERTEX
  5
4D6
  8
0
  6
CONTINUOUS
 62
     7
 10
50.2586783516
 20
147.5273241449
 30
0.0
  0
VERTEX
  5
4D7
  8
0
  6
CONTINUOUS
 62
     7
 10
50.2576889145
 20
147.5275089193
 30
0.0
  0
VERTEX
  5
4D8
  8
0
  6
CONTINUOUS
 62
     7
 10
50.2467693436
 20
147.5293924261
 30
0.0
  0
SEQEND
  5
964
  8
0
  6
CONTINUOUS
 62
     7
  0
LINE
  5
86
  8
0
  6
CONTINUOUS
 62
     7
 10
50.2584280121
 20
147.5273837495
 30
0.0
 11
50.2510489571
 21
147.5286950517
 31
0.0
  0
LINE
  5
87
  8
0
  6
CONTINUOUS
 62
     7
 10
124.9690951455
 20
142.2262002874
 30
0.0
 11
125.0257374394
 21
142.2376264978
 31
0.0
  0
ARC
  5
88
  8
0
  6
CONTINUOUS
 62
     7
 10
33.2284797821
 20
62.4790890865
 30
0.0
 40
81.35717943458108
 50
78.4978212654
 51
78.6272874017
  0
LINE
  5
89
  8
0
  6
CONTINUOUS
 62
     7
 10
49.2658676255
 20
142.2399272371
 30
0.0
 11
49.2703379738
 21
142.2390391279
 31
0.0
  0
POLYLINE
  5
8A
  8
0
  6
CONTINUOUS
 62
     7
 66
     1
 10
0.0
 20
0.0
 30
0.0
  0
VERTEX
  5
4D9
  8
0
  6
CONTINUOUS
 62
     7
 10
244.0513850796
 20
147.528569882
 30
0.0
  0
VERTEX
  5
4DA
  8
0
  6
CONTINUOUS
 62
     7
 10
244.0458269465
 20
147.5276042867
 30
0.0
  0
VERTEX
  5
4DB
  8
0
  6
CONTINUOUS
 62
     7
 10
244.0447719443
 20
147.5274135518
 30
0.0
  0
SEQEND
  5
963
  8
0
  6
CONTINUOUS
 62
     7
  0
POLYLINE
  5
8B
  8
0
  6
CONTINUOUS
 62
     7
 66
     1
 10
0.0
 20
0.0
 30
0.0
  0
VERTEX
  5
4DC
  8
0
  6
CONTINUOUS
 62
     7
 10
170.2586771595
 20
147.5273241449
 30
0.0
  0
VERTEX
  5
4DD
  8
0
  6
CONTINUOUS
 62
     7
 10
170.2576847422
 20
147.5275089193
 30
0.0
  0
VERTEX
  5
4DE
  8
0
  6
CONTINUOUS
 62
     7
 10
170.2467681515
 20
147.5293924261
 30
0.0
  0
SEQEND
  5
962
  8
0
  6
CONTINUOUS
 62
     7
  0
LINE
  5
8C
  8
0
  6
CONTINUOUS
 62
     7
 10
170.25842682
 20
147.5273837495
 30
0.0
 11
170.251047765
 21
147.5286950517
 31
0.0
  0
ARC
  5
8D
  8
0
  6
CONTINUOUS
 62
     7
 10
153.0678179828
 20
61.6863048495
 30
0.0
 40
82.1660788456291
 50
78.4982753699
 51
78.6264649151
  0
LINE
  5
8E
  8
0
  6
CONTINUOUS
 62
     7
 10
169.2658723938
 20
142.2399272371
 30
0.0
 11
169.270339762
 21
142.2390391279
 31
0.0
  0
LINE
  5
8F
  8
0
  6
CONTINUOUS
 62
     7
 10
244.9690909731
 20
142.2262002874
 30
0.0
 11
245.0257332671
 21
142.2376264978
 31
0.0
  0
ARC
  5
90
  8
0
  6
CONTINUOUS
 62
     7
 10
147.1515621293
 20
169.599863236
 30
0.0
 40
2.700000000000017
 50
0.0
 51
180.0
  0
ARC
  5
91
  8
0
  6
CONTINUOUS
 62
     7
 10
147.1515621293
 20
122.999863236
 30
0.0
 40
2.700000000000017
 50
180.0
 51
0.0
  0
ARC
  5
92
  8
0
  6
CONTINUOUS
 62
     7
 10
151.1515621293
 20
121.799863236
 30
0.0
 40
2.0
 50
270.0
 51
0.0
  0
LINE
  5
93
  8
0
  6
CONTINUOUS
 62
     7
 10
151.1515618908
 20
119.7998632837
 30
0.0
 11
143.1515635598
 21
119.7998632837
 31
0.0
  0
ARC
  5
94
  8
0
  6
CONTINUOUS
 62
     7
 10
143.1515621293
 20
121.799863236
 30
0.0
 40
2.0
 50
180.0
 51
270.0
  0
LINE
  5
95
  8
0
  6
CONTINUOUS
 62
     7
 10
141.1515595067
 20
128.3998658109
 30
0.0
 11
141.1515595067
 21
121.7998613763
 31
0.0
  0
LINE
  5
96
  8
0
  6
CONTINUOUS
 62
     7
 10
153.1515599835
 20
128.3998658109
 30
0.0
 11
153.1515599835
 21
121.7998613763
 31
0.0
  0
LINE
  5
97
  8
0
  6
CONTINUOUS
 62
     7
 10
141.1515595067
 20
129.5998622823
 30
0.0
 11
144.4515647042
 21
129.5998622823
 31
0.0
  0
LINE
  5
98
  8
0
  6
CONTINUOUS
 62
     7
 10
149.8515607464
 20
129.5998622823
 30
0.0
 11
153.1515599835
 21
129.5998622823
 31
0.0
  0
LINE
  5
99
  8
0
  6
CONTINUOUS
 62
     7
 10
141.1515595067
 20
128.3998658109
 30
0.0
 11
141.1515595067
 21
129.5998622823
 31
0.0
  0
LINE
  5
9A
  8
0
  6
CONTINUOUS
 62
     7
 10
153.1515599835
 20
129.5998622823
 30
0.0
 11
153.1515599835
 21
128.3998658109
 31
0.0
  0
ARC
  5
9B
  8
0
  6
CONTINUOUS
 62
     7
 10
27.1515621293
 20
169.599863236
 30
0.0
 40
2.699999999999982
 50
0.0
 51
180.0
  0
ARC
  5
9C
  8
0
  6
CONTINUOUS
 62
     7
 10
27.1515621293
 20
122.999863236
 30
0.0
 40
2.699999999999982
 50
180.0
 51
0.0
  0
ARC
  5
9D
  8
0
  6
CONTINUOUS
 62
     7
 10
31.1515621293
 20
121.799863236
 30
0.0
 40
2.000000000000004
 50
270.0
 51
0.0
  0
LINE
  5
9E
  8
0
  6
CONTINUOUS
 62
     7
 10
31.1515630829
 20
119.7998632837
 30
0.0
 11
23.1515587914
 21
119.7998632837
 31
0.0
  0
ARC
  5
9F
  8
0
  6
CONTINUOUS
 62
     7
 10
23.1515621293
 20
121.799863236
 30
0.0
 40
2.000000000000004
 50
180.0
 51
270.0
  0
LINE
  5
A0
  8
0
  6
CONTINUOUS
 62
     7
 10
21.1515606987
 20
128.3998658109
 30
0.0
 11
21.1515606987
 21
121.7998613763
 31
0.0
  0
LINE
  5
A1
  8
0
  6
CONTINUOUS
 62
     7
 10
33.1515611756
 20
128.3998658109
 30
0.0
 11
33.1515611756
 21
121.7998613763
 31
0.0
  0
LINE
  5
A2
  8
0
  6
CONTINUOUS
 62
     7
 10
21.1515606987
 20
128.3998658109
 30
0.0
 11
21.1515606987
 21
129.5998622823
 31
0.0
  0
LINE
  5
A3
  8
0
  6
CONTINUOUS
 62
     7
 10
21.1515606987
 20
129.5998622823
 30
0.0
 11
24.4515599358
 21
129.5998622823
 31
0.0
  0
LINE
  5
A4
  8
0
  6
CONTINUOUS
 62
     7
 10
29.8515619385
 20
129.5998622823
 30
0.0
 11
33.1515611756
 21
129.5998622823
 31
0.0
  0
LINE
  5
A5
  8
0
  6
CONTINUOUS
 62
     7
 10
33.1515611756
 20
129.5998622823
 30
0.0
 11
33.1515611756
 21
128.3998658109
 31
0.0
  0
ARC
  5
A6
  8
0
  6
CONTINUOUS
 62
     7
 10
267.1515621293
 20
169.599863236
 30
0.0
 40
2.700000000000045
 50
0.0
 51
180.0
  0
ARC
  5
A7
  8
0
  6
CONTINUOUS
 62
     7
 10
267.1515621293
 20
122.999863236
 30
0.0
 40
2.700000000000045
 50
180.0
 51
0.0
  0
ARC
  5
A8
  8
0
  6
CONTINUOUS
 62
     7
 10
271.1515621293
 20
121.799863236
 30
0.0
 40
2.0
 50
270.0
 51
0.0
  0
LINE
  5
A9
  8
0
  6
CONTINUOUS
 62
     7
 10
271.1515606987
 20
119.7998632837
 30
0.0
 11
263.1515623677
 21
119.7998632837
 31
0.0
  0
ARC
  5
AA
  8
0
  6
CONTINUOUS
 62
     7
 10
263.1515621293
 20
121.799863236
 30
0.0
 40
2.0
 50
180.0
 51
270.0
  0
LINE
  5
AB
  8
0
  6
CONTINUOUS
 62
     7
 10
261.151564275
 20
128.3998658109
 30
0.0
 11
261.151564275
 21
121.7998613763
 31
0.0
  0
LINE
  5
AC
  8
0
  6
CONTINUOUS
 62
     7
 10
273.1515647519
 20
128.3998658109
 30
0.0
 11
273.1515647519
 21
121.7998613763
 31
0.0
  0
LINE
  5
AD
  8
0
  6
CONTINUOUS
 62
     7
 10
261.151564275
 20
128.3998658109
 30
0.0
 11
261.151564275
 21
129.5998622823
 31
0.0
  0
LINE
  5
AE
  8
0
  6
CONTINUOUS
 62
     7
 10
261.151564275
 20
129.5998622823
 30
0.0
 11
264.4515635121
 21
129.5998622823
 31
0.0
  0
LINE
  5
AF
  8
0
  6
CONTINUOUS
 62
     7
 10
269.8515595543
 20
129.5998622823
 30
0.0
 11
273.1515647519
 21
129.5998622823
 31
0.0
  0
LINE
  5
B0
  8
0
  6
CONTINUOUS
 62
     7
 10
273.1515647519
 20
129.5998622823
 30
0.0
 11
273.1515647519
 21
128.3998658109
 31
0.0
  0
ARC
  5
B1
  8
0
  6
CONTINUOUS
 62
     7
 10
387.1515621293
 20
169.599863236
 30
0.0
 40
2.700000000000045
 50
0.0
 51
180.0
  0
ARC
  5
B2
  8
0
  6
CONTINUOUS
 62
     7
 10
387.1515621293
 20
122.999863236
 30
0.0
 40
2.700000000000045
 50
180.0
 51
0.0
  0
ARC
  5
B3
  8
0
  6
CONTINUOUS
 62
     7
 10
391.1515621293
 20
121.799863236
 30
0.0
 40
2.0
 50
270.0
 51
0.0
  0
LINE
  5
B4
  8
0
  6
CONTINUOUS
 62
     7
 10
391.1515654671
 20
119.7998632837
 30
0.0
 11
383.1515611756
 21
119.7998632837
 31
0.0
  0
ARC
  5
B5
  8
0
  6
CONTINUOUS
 62
     7
 10
383.1515621293
 20
121.799863236
 30
0.0
 40
2.0
 50
180.0
 51
270.0
  0
LINE
  5
B6
  8
0
  6
CONTINUOUS
 62
     7
 10
381.1515630829
 20
128.3998658109
 30
0.0
 11
381.1515630829
 21
121.7998613763
 31
0.0
  0
LINE
  5
B7
  8
0
  6
CONTINUOUS
 62
     7
 10
393.1515635598
 20
128.3998658109
 30
0.0
 11
393.1515635598
 21
121.7998613763
 31
0.0
  0
LINE
  5
B8
  8
0
  6
CONTINUOUS
 62
     7
 10
381.1515630829
 20
128.3998658109
 30
0.0
 11
381.1515630829
 21
129.5998622823
 31
0.0
  0
LINE
  5
B9
  8
0
  6
CONTINUOUS
 62
     7
 10
381.1515630829
 20
129.5998622823
 30
0.0
 11
384.45156232
 21
129.5998622823
 31
0.0
  0
LINE
  5
BA
  8
0
  6
CONTINUOUS
 62
     7
 10
389.8515643227
 20
129.5998622823
 30
0.0
 11
393.1515635598
 21
129.5998622823
 31
0.0
  0
LINE
  5
BB
  8
0
  6
CONTINUOUS
 62
     7
 10
393.1515635598
 20
129.5998622823
 30
0.0
 11
393.1515635598
 21
128.3998658109
 31
0.0
  0
POLYLINE
  5
BC
  8
0
  6
CONTINUOUS
 62
     7
 66
     1
 10
0.0
 20
0.0
 30
0.0
  0
VERTEX
  5
4DF
  8
0
  6
CONTINUOUS
 62
     7
 10
352.1853388894
 20
174.9768783498
 30
0.0
  0
VERTEX
  5
4E0
  8
0
  6
CONTINUOUS
 62
     7
 10
353.0258597481
 20
174.9985505987
 30
0.0
  0
VERTEX
  5
4E1
  8
0
  6
CONTINUOUS
 62
     7
 10
353.8521112549
 20
175.0329186368
 30
0.0
  0
SEQEND
  5
961
  8
0
  6
CONTINUOUS
 62
     7
  0
ARC
  5
BD
  8
0
  6
CONTINUOUS
 62
     7
 10
351.8276366122
 20
185.0908011979
 30
0.0
 40
10.25960521612584
 50
281.3805645855
 51
0.210749801
  0
ARC
  5
BE
  8
0
  6
CONTINUOUS
 62
     7
 10
303.1103729113
 20
229.3138016199
 30
0.0
 40
54.34598849243299
 50
267.1951727346
 51
268.9534760982
  0
ARC
  5
BF
  8
0
  6
CONTINUOUS
 62
     7
 10
302.4629148091
 20
185.0805413501
 30
0.0
 40
10.24707180890125
 50
179.7316247056
 51
258.6770202835
  0
POLYLINE
  5
C0
  8
0
  6
CONTINUOUS
 62
     7
 66
     1
 10
0.0
 20
0.0
 30
0.0
  0
VERTEX
  5
4E2
  8
0
  6
CONTINUOUS
 62
     7
 10
300.4510106194
 20
175.0329186368
 30
0.0
  0
VERTEX
  5
4E3
  8
0
  6
CONTINUOUS
 62
     7
 10
304.2439700711
 20
174.9701668668
 30
0.0
  0
VERTEX
  5
4E4
  8
0
  6
CONTINUOUS
 62
     7
 10
308.0468000519
 20
174.9170233655
 30
0.0
  0
VERTEX
  5
4E5
  8
0
  6
CONTINUOUS
 62
     7
 10
311.8578614342
 20
174.8735119748
 30
0.0
  0
VERTEX
  5
4E6
  8
0
  6
CONTINUOUS
 62
     7
 10
315.6755150902
 20
174.8396446157
 30
0.0
  0
VERTEX
  5
4E7
  8
0
  6
CONTINUOUS
 62
     7
 10
319.4981159318
 20
174.8154451299
 30
0.0
  0
VERTEX
  5
4E8
  8
0
  6
CONTINUOUS
 62
     7
 10
323.3240188706
 20
174.8009254384
 30
0.0
  0
VERTEX
  5
4E9
  8
0
  6
CONTINUOUS
 62
     7
 10
327.1515668976
 20
174.7960855413
 30
0.0
  0
VERTEX
  5
4EA
  8
0
  6
CONTINUOUS
 62
     7
 10
330.9791030037
 20
174.8009254384
 30
0.0
  0
VERTEX
  5
4EB
  8
0
  6
CONTINUOUS
 62
     7
 10
334.8050059426
 20
174.8154451299
 30
0.0
  0
VERTEX
  5
4EC
  8
0
  6
CONTINUOUS
 62
     7
 10
338.6276067841
 20
174.8396446157
 30
0.0
  0
VERTEX
  5
4ED
  8
0
  6
CONTINUOUS
 62
     7
 10
342.4452604401
 20
174.8735119748
 30
0.0
  0
VERTEX
  5
4EE
  8
0
  6
CONTINUOUS
 62
     7
 10
346.2563218224
 20
174.9170233655
 30
0.0
  0
VERTEX
  5
4EF
  8
0
  6
CONTINUOUS
 62
     7
 10
350.0591577637
 20
174.9701668668
 30
0.0
  0
VERTEX
  5
4F0
  8
0
  6
CONTINUOUS
 62
     7
 10
353.8521112549
 20
175.0329186368
 30
0.0
  0
SEQEND
  5
960
  8
0
  6
CONTINUOUS
 62
     7
  0
LINE
  5
C1
  8
0
  6
CONTINUOUS
 62
     7
 10
292.2159554112
 20
224.8303939748
 30
0.0
 11
292.2159554112
 21
185.1285387922
 31
0.0
  0
ARC
  5
C2
  8
0
  6
CONTINUOUS
 62
     7
 10
301.9990982483
 20
224.9253355867
 30
0.0
 40
9.783603512046797
 50
99.1043403383
 51
180.5560158929
  0
POLYLINE
  5
C3
  8
0
  6
CONTINUOUS
 62
     7
 66
     1
 10
0.0
 20
0.0
 30
0.0
  0
VERTEX
  5
4F1
  8
0
  6
CONTINUOUS
 62
     7
 10
300.4510106194
 20
234.5856835294
 30
0.0
  0
VERTEX
  5
4F2
  8
0
  6
CONTINUOUS
 62
     7
 10
304.2439700711
 20
234.5229317594
 30
0.0
  0
VERTEX
  5
4F3
  8
0
  6
CONTINUOUS
 62
     7
 10
308.0468000519
 20
234.4697882581
 30
0.0
  0
VERTEX
  5
4F4
  8
0
  6
CONTINUOUS
 62
     7
 10
311.8578614342
 20
234.4262768674
 30
0.0
  0
VERTEX
  5
4F5
  8
0
  6
CONTINUOUS
 62
     7
 10
315.6755150902
 20
234.3924214292
 30
0.0
  0
VERTEX
  5
4F6
  8
0
  6
CONTINUOUS
 62
     7
 10
319.4981159318
 20
234.3682219434
 30
0.0
  0
VERTEX
  5
4F7
  8
0
  6
CONTINUOUS
 62
     7
 10
323.3240188706
 20
234.353690331
 30
0.0
  0
VERTEX
  5
4F8
  8
0
  6
CONTINUOUS
 62
     7
 10
327.1515668976
 20
234.3488504339
 30
0.0
  0
VERTEX
  5
4F9
  8
0
  6
CONTINUOUS
 62
     7
 10
330.9791030037
 20
234.353690331
 30
0.0
  0
VERTEX
  5
4FA
  8
0
  6
CONTINUOUS
 62
     7
 10
334.8050059426
 20
234.3682219434
 30
0.0
  0
VERTEX
  5
4FB
  8
0
  6
CONTINUOUS
 62
     7
 10
338.6276067841
 20
234.3924214292
 30
0.0
  0
VERTEX
  5
4FC
  8
0
  6
CONTINUOUS
 62
     7
 10
342.4452604401
 20
234.4262768674
 30
0.0
  0
VERTEX
  5
4FD
  8
0
  6
CONTINUOUS
 62
     7
 10
346.2563218224
 20
234.4697882581
 30
0.0
  0
VERTEX
  5
4FE
  8
0
  6
CONTINUOUS
 62
     7
 10
350.0591577637
 20
234.5229317594
 30
0.0
  0
VERTEX
  5
4FF
  8
0
  6
CONTINUOUS
 62
     7
 10
353.8521112549
 20
234.5856835294
 30
0.0
  0
SEQEND
  5
95F
  8
0
  6
CONTINUOUS
 62
     7
  0
ARC
  5
C4
  8
0
  6
CONTINUOUS
 62
     7
 10
352.315442133
 20
224.9349686981
 30
0.0
 40
9.772289841432213
 50
359.3868576609
 51
80.95282699
  0
LINE
  5
C5
  8
0
  6
CONTINUOUS
 62
     7
 10
362.0871724236
 20
185.1285387922
 30
0.0
 11
362.0871724236
 21
224.8303939748
 31
0.0
  0
POLYLINE
  5
C6
  8
0
  6
CONTINUOUS
 62
     7
 66
     1
 10
0.0
 20
0.0
 30
0.0
  0
VERTEX
  5
500
  8
0
  6
CONTINUOUS
 62
     7
 10
302.117782985
 20
174.9768783498
 30
0.0
  0
VERTEX
  5
501
  8
0
  6
CONTINUOUS
 62
     7
 10
305.9505583394
 20
174.9179293561
 30
0.0
  0
VERTEX
  5
502
  8
0
  6
CONTINUOUS
 62
     7
 10
309.7926081765
 20
174.8687555242
 30
0.0
  0
VERTEX
  5
503
  8
0
  6
CONTINUOUS
 62
     7
 10
313.6422695267
 20
174.8293926168
 30
0.0
  0
VERTEX
  5
504
  8
0
  6
CONTINUOUS
 62
     7
 10
317.4978436577
 20
174.7998644758
 30
0.0
  0
VERTEX
  5
505
  8
0
  6
CONTINUOUS
 62
     7
 10
321.3576377976
 20
174.7801591802
 30
0.0
  0
VERTEX
  5
506
  8
0
  6
CONTINUOUS
 62
     7
 10
325.2199710953
 20
174.7703124929
 30
0.0
  0
VERTEX
  5
507
  8
0
  6
CONTINUOUS
 62
     7
 10
329.083150779
 20
174.7703124929
 30
0.0
  0
VERTEX
  5
508
  8
0
  6
CONTINUOUS
 62
     7
 10
332.9454840767
 20
174.7801591802
 30
0.0
  0
VERTEX
  5
509
  8
0
  6
CONTINUOUS
 62
     7
 10
336.8052901375
 20
174.7998644758
 30
0.0
  0
VERTEX
  5
50A
  8
0
  6
CONTINUOUS
 62
     7
 10
340.6608523476
 20
174.8293926168
 30
0.0
  0
VERTEX
  5
50B
  8
0
  6
CONTINUOUS
 62
     7
 10
344.5105136979
 20
174.8687555242
 30
0.0
  0
VERTEX
  5
50C
  8
0
  6
CONTINUOUS
 62
     7
 10
348.3525694954
 20
174.9179293561
 30
0.0
  0
VERTEX
  5
50D
  8
0
  6
CONTINUOUS
 62
     7
 10
352.1853388894
 20
174.9768783498
 30
0.0
  0
SEQEND
  5
95E
  8
0
  6
CONTINUOUS
 62
     7
  0
ARC
  5
C7
  8
0
  6
CONTINUOUS
 62
     7
 10
300.1871492227
 20
227.4512997855
 30
0.0
 40
11.53050570870455
 50
111.5477753418
 51
126.7244895617
  0
ARC
  5
C8
  8
0
  6
CONTINUOUS
 62
     7
 10
353.7308867325
 20
226.6816871516
 30
0.0
 40
12.38093886164479
 50
54.0748312159
 51
68.1456410017
  0
POLYLINE
  5
C9
  8
0
  6
CONTINUOUS
 62
     7
 66
     1
 10
0.0
 20
0.0
 30
0.0
  0
VERTEX
  5
50E
  8
0
  6
CONTINUOUS
 62
     7
 10
112.1853412735
 20
174.9768783498
 30
0.0
  0
VERTEX
  5
50F
  8
0
  6
CONTINUOUS
 62
     7
 10
113.0258561718
 20
174.9985505987
 30
0.0
  0
VERTEX
  5
510
  8
0
  6
CONTINUOUS
 62
     7
 10
113.8521136391
 20
175.0329186368
 30
0.0
  0
SEQEND
  5
95D
  8
0
  6
CONTINUOUS
 62
     7
  0
ARC
  5
CA
  8
0
  6
CONTINUOUS
 62
     7
 10
111.8276516388
 20
185.0907848282
 30
0.0
 40
10.25958667360999
 50
281.38051341
 51
0.210841601
  0
ARC
  5
CB
  8
0
  6
CONTINUOUS
 62
     7
 10
63.1103057071
 20
229.311731896
 30
0.0
 40
54.34391784283331
 50
267.195139234
 51
268.9535095989
  0
ARC
  5
CC
  8
0
  6
CONTINUOUS
 62
     7
 10
62.462921423
 20
185.0805508502
 30
0.0
 40
10.24708195450436
 50
179.7316780907
 51
258.6770075229
  0
POLYLINE
  5
CD
  8
0
  6
CONTINUOUS
 62
     7
 66
     1
 10
0.0
 20
0.0
 30
0.0
  0
VERTEX
  5
511
  8
0
  6
CONTINUOUS
 62
     7
 10
60.4510130036
 20
175.0329186368
 30
0.0
  0
VERTEX
  5
512
  8
0
  6
CONTINUOUS
 62
     7
 10
64.2439664948
 20
174.9701668668
 30
0.0
  0
VERTEX
  5
513
  8
0
  6
CONTINUOUS
 62
     7
 10
68.0468024361
 20
174.9170233655
 30
0.0
  0
VERTEX
  5
514
  8
0
  6
CONTINUOUS
 62
     7
 10
71.8578638184
 20
174.8735119748
 30
0.0
  0
VERTEX
  5
515
  8
0
  6
CONTINUOUS
 62
     7
 10
75.6755174744
 20
174.8396446157
 30
0.0
  0
VERTEX
  5
516
  8
0
  6
CONTINUOUS
 62
     7
 10
79.4981183159
 20
174.8154451299
 30
0.0
  0
VERTEX
  5
517
  8
0
  6
CONTINUOUS
 62
     7
 10
83.3240212548
 20
174.8009254384
 30
0.0
  0
VERTEX
  5
518
  8
0
  6
CONTINUOUS
 62
     7
 10
87.1515573609
 20
174.7960855413
 30
0.0
  0
VERTEX
  5
519
  8
0
  6
CONTINUOUS
 62
     7
 10
90.9791053879
 20
174.8009254384
 30
0.0
  0
VERTEX
  5
51A
  8
0
  6
CONTINUOUS
 62
     7
 10
94.8050083268
 20
174.8154451299
 30
0.0
  0
VERTEX
  5
51B
  8
0
  6
CONTINUOUS
 62
     7
 10
98.6276091683
 20
174.8396446157
 30
0.0
  0
VERTEX
  5
51C
  8
0
  6
CONTINUOUS
 62
     7
 10
102.4452628243
 20
174.8735119748
 30
0.0
  0
VERTEX
  5
51D
  8
0
  6
CONTINUOUS
 62
     7
 10
106.2563242066
 20
174.9170233655
 30
0.0
  0
VERTEX
  5
51E
  8
0
  6
CONTINUOUS
 62
     7
 10
110.0591541874
 20
174.9701668668
 30
0.0
  0
VERTEX
  5
51F
  8
0
  6
CONTINUOUS
 62
     7
 10
113.8521136391
 20
175.0329186368
 30
0.0
  0
SEQEND
  5
95C
  8
0
  6
CONTINUOUS
 62
     7
  0
LINE
  5
CE
  8
0
  6
CONTINUOUS
 62
     7
 10
52.2159518349
 20
224.8303939748
 30
0.0
 11
52.2159518349
 21
185.1285387922
 31
0.0
  0
ARC
  5
CF
  8
0
  6
CONTINUOUS
 62
     7
 10
61.999112214
 20
224.9253198325
 30
0.0
 40
9.78362090032541
 50
99.1043927098
 51
180.5559226392
  0
POLYLINE
  5
D0
  8
0
  6
CONTINUOUS
 62
     7
 66
     1
 10
0.0
 20
0.0
 30
0.0
  0
VERTEX
  5
520
  8
0
  6
CONTINUOUS
 62
     7
 10
60.4510130036
 20
234.5856835294
 30
0.0
  0
VERTEX
  5
521
  8
0
  6
CONTINUOUS
 62
     7
 10
64.2439664948
 20
234.5229317594
 30
0.0
  0
VERTEX
  5
522
  8
0
  6
CONTINUOUS
 62
     7
 10
68.0468024361
 20
234.4697882581
 30
0.0
  0
VERTEX
  5
523
  8
0
  6
CONTINUOUS
 62
     7
 10
71.8578638184
 20
234.4262768674
 30
0.0
  0
VERTEX
  5
524
  8
0
  6
CONTINUOUS
 62
     7
 10
75.6755174744
 20
234.3924214292
 30
0.0
  0
VERTEX
  5
525
  8
0
  6
CONTINUOUS
 62
     7
 10
79.4981183159
 20
234.3682219434
 30
0.0
  0
VERTEX
  5
526
  8
0
  6
CONTINUOUS
 62
     7
 10
83.3240212548
 20
234.353690331
 30
0.0
  0
VERTEX
  5
527
  8
0
  6
CONTINUOUS
 62
     7
 10
87.1515573609
 20
234.3488504339
 30
0.0
  0
VERTEX
  5
528
  8
0
  6
CONTINUOUS
 62
     7
 10
90.9791053879
 20
234.353690331
 30
0.0
  0
VERTEX
  5
529
  8
0
  6
CONTINUOUS
 62
     7
 10
94.8050083268
 20
234.3682219434
 30
0.0
  0
VERTEX
  5
52A
  8
0
  6
CONTINUOUS
 62
     7
 10
98.6276091683
 20
234.3924214292
 30
0.0
  0
VERTEX
  5
52B
  8
0
  6
CONTINUOUS
 62
     7
 10
102.4452628243
 20
234.4262768674
 30
0.0
  0
VERTEX
  5
52C
  8
0
  6
CONTINUOUS
 62
     7
 10
106.2563242066
 20
234.4697882581
 30
0.0
  0
VERTEX
  5
52D
  8
0
  6
CONTINUOUS
 62
     7
 10
110.0591541874
 20
234.5229317594
 30
0.0
  0
VERTEX
  5
52E
  8
0
  6
CONTINUOUS
 62
     7
 10
113.8521136391
 20
234.5856835294
 30
0.0
  0
SEQEND
  5
95B
  8
0
  6
CONTINUOUS
 62
     7
  0
ARC
  5
D1
  8
0
  6
CONTINUOUS
 62
     7
 10
112.3154484565
 20
224.9349779941
 30
0.0
 40
9.772280041685583
 50
359.3868025399
 51
80.9528412289
  0
LINE
  5
D2
  8
0
  6
CONTINUOUS
 62
     7
 10
122.0871688473
 20
185.1285387922
 30
0.0
 11
122.0871688473
 21
224.8303939748
 31
0.0
  0
POLYLINE
  5
D3
  8
0
  6
CONTINUOUS
 62
     7
 66
     1
 10
0.0
 20
0.0
 30
0.0
  0
VERTEX
  5
52F
  8
0
  6
CONTINUOUS
 62
     7
 10
62.1177853692
 20
174.9768783498
 30
0.0
  0
VERTEX
  5
530
  8
0
  6
CONTINUOUS
 62
     7
 10
65.9505547631
 20
174.9179293561
 30
0.0
  0
VERTEX
  5
531
  8
0
  6
CONTINUOUS
 62
     7
 10
69.7926105607
 20
174.8687555242
 30
0.0
  0
VERTEX
  5
532
  8
0
  6
CONTINUOUS
 62
     7
 10
73.6422719109
 20
174.8293926168
 30
0.0
  0
VERTEX
  5
533
  8
0
  6
CONTINUOUS
 62
     7
 10
77.497834121
 20
174.7998644758
 30
0.0
  0
VERTEX
  5
534
  8
0
  6
CONTINUOUS
 62
     7
 10
81.3576401818
 20
174.7801591802
 30
0.0
  0
VERTEX
  5
535
  8
0
  6
CONTINUOUS
 62
     7
 10
85.2199734795
 20
174.7703124929
 30
0.0
  0
VERTEX
  5
536
  8
0
  6
CONTINUOUS
 62
     7
 10
89.0831531632
 20
174.7703124929
 30
0.0
  0
VERTEX
  5
537
  8
0
  6
CONTINUOUS
 62
     7
 10
92.9454864609
 20
174.7801591802
 30
0.0
  0
VERTEX
  5
538
  8
0
  6
CONTINUOUS
 62
     7
 10
96.8052806008
 20
174.7998644758
 30
0.0
  0
VERTEX
  5
539
  8
0
  6
CONTINUOUS
 62
     7
 10
100.6608547318
 20
174.8293926168
 30
0.0
  0
VERTEX
  5
53A
  8
0
  6
CONTINUOUS
 62
     7
 10
104.5105160821
 20
174.8687555242
 30
0.0
  0
VERTEX
  5
53B
  8
0
  6
CONTINUOUS
 62
     7
 10
108.3525659192
 20
174.9179293561
 30
0.0
  0
VERTEX
  5
53C
  8
0
  6
CONTINUOUS
 62
     7
 10
112.1853412735
 20
174.9768783498
 30
0.0
  0
SEQEND
  5
95A
  8
0
  6
CONTINUOUS
 62
     7
  0
ARC
  5
D4
  8
0
  6
CONTINUOUS
 62
     7
 10
60.1873464879
 20
227.4509671972
 30
0.0
 40
11.53088881757882
 50
111.5480965958
 51
126.724277509
  0
ARC
  5
D5
  8
0
  6
CONTINUOUS
 62
     7
 10
113.7309085405
 20
226.6817519021
 30
0.0
 40
12.38087153410802
 50
54.0747505299
 51
68.145612886
  0
POLYLINE
  5
D6
  8
0
  6
CONTINUOUS
 62
     7
 66
     1
 10
0.0
 20
0.0
 30
0.0
  0
VERTEX
  5
53D
  8
0
  6
CONTINUOUS
 62
     7
 10
232.1853400815
 20
174.9768783498
 30
0.0
  0
VERTEX
  5
53E
  8
0
  6
CONTINUOUS
 62
     7
 10
233.02585796
 20
174.9985505987
 30
0.0
  0
VERTEX
  5
53F
  8
0
  6
CONTINUOUS
 62
     7
 10
233.8521154273
 20
175.0329186368
 30
0.0
  0
SEQEND
  5
959
  8
0
  6
CONTINUOUS
 62
     7
  0
ARC
  5
D7
  8
0
  6
CONTINUOUS
 62
     7
 10
231.8276454541
 20
185.0907913316
 30
0.0
 40
10.2595946224536
 50
281.3805498929
 51
0.210805118
  0
ARC
  5
D8
  8
0
  6
CONTINUOUS
 62
     7
 10
183.1104098217
 20
229.3150053947
 30
0.0
 40
54.34719271876595
 50
267.1951940867
 51
268.9534616272
  0
ARC
  5
D9
  8
0
  6
CONTINUOUS
 62
     7
 10
182.4629154537
 20
185.0805433345
 30
0.0
 40
10.24707423228389
 50
179.7316358646
 51
258.6770091245
  0
POLYLINE
  5
DA
  8
0
  6
CONTINUOUS
 62
     7
 66
     1
 10
0.0
 20
0.0
 30
0.0
  0
VERTEX
  5
540
  8
0
  6
CONTINUOUS
 62
     7
 10
180.4510088313
 20
175.0329186368
 30
0.0
  0
VERTEX
  5
541
  8
0
  6
CONTINUOUS
 62
     7
 10
184.2439697731
 20
174.9701668668
 30
0.0
  0
VERTEX
  5
542
  8
0
  6
CONTINUOUS
 62
     7
 10
188.046801244
 20
174.9170233655
 30
0.0
  0
VERTEX
  5
543
  8
0
  6
CONTINUOUS
 62
     7
 10
191.8578656065
 20
174.8735119748
 30
0.0
  0
VERTEX
  5
544
  8
0
  6
CONTINUOUS
 62
     7
 10
195.6755200076
 20
174.8396446157
 30
0.0
  0
VERTEX
  5
545
  8
0
  6
CONTINUOUS
 62
     7
 10
199.498119359
 20
174.8154451299
 30
0.0
  0
VERTEX
  5
546
  8
0
  6
CONTINUOUS
 62
     7
 10
203.3240159649
 20
174.8009254384
 30
0.0
  0
VERTEX
  5
547
  8
0
  6
CONTINUOUS
 62
     7
 10
207.1515621293
 20
174.7960855413
 30
0.0
  0
VERTEX
  5
548
  8
0
  6
CONTINUOUS
 62
     7
 10
210.9791082937
 20
174.8009254384
 30
0.0
  0
VERTEX
  5
549
  8
0
  6
CONTINUOUS
 62
     7
 10
214.8050048995
 20
174.8154451299
 30
0.0
  0
VERTEX
  5
54A
  8
0
  6
CONTINUOUS
 62
     7
 10
218.6276042509
 20
174.8396446157
 30
0.0
  0
VERTEX
  5
54B
  8
0
  6
CONTINUOUS
 62
     7
 10
222.445258652
 20
174.8735119748
 30
0.0
  0
VERTEX
  5
54C
  8
0
  6
CONTINUOUS
 62
     7
 10
226.2563230145
 20
174.9170233655
 30
0.0
  0
VERTEX
  5
54D
  8
0
  6
CONTINUOUS
 62
     7
 10
230.0591544855
 20
174.9701668668
 30
0.0
  0
VERTEX
  5
54E
  8
0
  6
CONTINUOUS
 62
     7
 10
233.8521154273
 20
175.0329186368
 30
0.0
  0
SEQEND
  5
958
  8
0
  6
CONTINUOUS
 62
     7
  0
LINE
  5
DB
  8
0
  6
CONTINUOUS
 62
     7
 10
172.2159536231
 20
224.8303939748
 30
0.0
 11
172.2159536231
 21
185.1285387922
 31
0.0
  0
ARC
  5
DC
  8
0
  6
CONTINUOUS
 62
     7
 10
181.9991037804
 20
224.9253294072
 30
0.0
 40
9.78361077199103
 50
99.1043769416
 51
180.5559792896
  0
POLYLINE
  5
DD
  8
0
  6
CONTINUOUS
 62
     7
 66
     1
 10
0.0
 20
0.0
 30
0.0
  0
VERTEX
  5
54F
  8
0
  6
CONTINUOUS
 62
     7
 10
180.4510088313
 20
234.5856835294
 30
0.0
  0
VERTEX
  5
550
  8
0
  6
CONTINUOUS
 62
     7
 10
184.2439697731
 20
234.5229317594
 30
0.0
  0
VERTEX
  5
551
  8
0
  6
CONTINUOUS
 62
     7
 10
188.046801244
 20
234.4697882581
 30
0.0
  0
VERTEX
  5
552
  8
0
  6
CONTINUOUS
 62
     7
 10
191.8578656065
 20
234.4262768674
 30
0.0
  0
VERTEX
  5
553
  8
0
  6
CONTINUOUS
 62
     7
 10
195.6755200076
 20
234.3924214292
 30
0.0
  0
VERTEX
  5
554
  8
0
  6
CONTINUOUS
 62
     7
 10
199.498119359
 20
234.3682219434
 30
0.0
  0
VERTEX
  5
555
  8
0
  6
CONTINUOUS
 62
     7
 10
203.3240159649
 20
234.353690331
 30
0.0
  0
VERTEX
  5
556
  8
0
  6
CONTINUOUS
 62
     7
 10
207.1515621293
 20
234.3488504339
 30
0.0
  0
VERTEX
  5
557
  8
0
  6
CONTINUOUS
 62
     7
 10
210.9791082937
 20
234.353690331
 30
0.0
  0
VERTEX
  5
558
  8
0
  6
CONTINUOUS
 62
     7
 10
214.8050048995
 20
234.3682219434
 30
0.0
  0
VERTEX
  5
559
  8
0
  6
CONTINUOUS
 62
     7
 10
218.6276042509
 20
234.3924214292
 30
0.0
  0
VERTEX
  5
55A
  8
0
  6
CONTINUOUS
 62
     7
 10
222.445258652
 20
234.4262768674
 30
0.0
  0
VERTEX
  5
55B
  8
0
  6
CONTINUOUS
 62
     7
 10
226.2563230145
 20
234.4697882581
 30
0.0
  0
VERTEX
  5
55C
  8
0
  6
CONTINUOUS
 62
     7
 10
230.0591544855
 20
234.5229317594
 30
0.0
  0
VERTEX
  5
55D
  8
0
  6
CONTINUOUS
 62
     7
 10
233.8521154273
 20
234.5856835294
 30
0.0
  0
SEQEND
  5
957
  8
0
  6
CONTINUOUS
 62
     7
  0
ARC
  5
DE
  8
0
  6
CONTINUOUS
 62
     7
 10
232.3154481254
 20
224.9349762051
 30
0.0
 40
9.772282141696914
 50
359.3868131615
 51
80.9528306073
  0
LINE
  5
DF
  8
0
  6
CONTINUOUS
 62
     7
 10
242.0871706355
 20
185.1285387922
 30
0.0
 11
242.0871706355
 21
224.8303939748
 31
0.0
  0
POLYLINE
  5
E0
  8
0
  6
CONTINUOUS
 62
     7
 66
     1
 10
0.0
 20
0.0
 30
0.0
  0
VERTEX
  5
55E
  8
0
  6
CONTINUOUS
 62
     7
 10
182.1177841771
 20
174.9768783498
 30
0.0
  0
VERTEX
  5
55F
  8
0
  6
CONTINUOUS
 62
     7
 10
185.9505580413
 20
174.9179293561
 30
0.0
  0
VERTEX
  5
560
  8
0
  6
CONTINUOUS
 62
     7
 10
189.7926123488
 20
174.8687555242
 30
0.0
  0
VERTEX
  5
561
  8
0
  6
CONTINUOUS
 62
     7
 10
193.6422692287
 20
174.8293926168
 30
0.0
  0
VERTEX
  5
562
  8
0
  6
CONTINUOUS
 62
     7
 10
197.4978396344
 20
174.7998644758
 30
0.0
  0
VERTEX
  5
563
  8
0
  6
CONTINUOUS
 62
     7
 10
201.3576374996
 20
174.7801591802
 30
0.0
  0
VERTEX
  5
564
  8
0
  6
CONTINUOUS
 62
     7
 10
205.2199719149
 20
174.7703124929
 30
0.0
  0
VERTEX
  5
565
  8
0
  6
CONTINUOUS
 62
     7
 10
209.0831523436
 20
174.7703124929
 30
0.0
  0
VERTEX
  5
566
  8
0
  6
CONTINUOUS
 62
     7
 10
212.9454867589
 20
174.7801591802
 30
0.0
  0
VERTEX
  5
567
  8
0
  6
CONTINUOUS
 62
     7
 10
216.8052846241
 20
174.7998644758
 30
0.0
  0
VERTEX
  5
568
  8
0
  6
CONTINUOUS
 62
     7
 10
220.6608550298
 20
174.8293926168
 30
0.0
  0
VERTEX
  5
569
  8
0
  6
CONTINUOUS
 62
     7
 10
224.5105119097
 20
174.8687555242
 30
0.0
  0
VERTEX
  5
56A
  8
0
  6
CONTINUOUS
 62
     7
 10
228.3525662172
 20
174.9179293561
 30
0.0
  0
VERTEX
  5
56B
  8
0
  6
CONTINUOUS
 62
     7
 10
232.1853400815
 20
174.9768783498
 30
0.0
  0
SEQEND
  5
956
  8
0
  6
CONTINUOUS
 62
     7
  0
ARC
  5
E1
  8
0
  6
CONTINUOUS
 62
     7
 10
180.1869780298
 20
227.451609041
 30
0.0
 40
11.53015475364827
 50
111.5475430071
 51
126.7247218963
  0
ARC
  5
E2
  8
0
  6
CONTINUOUS
 62
     7
 10
233.730849957
 20
226.6816572681
 30
0.0
 40
12.38098184039722
 50
54.0747924108
 51
68.1455166041
  0
LINE
  5
E3
  8
0
  6
CONTINUOUS
 62
     7
 10
105.1515640366
 20
128.3998658109
 30
0.0
 11
105.1515640366
 21
121.5998639512
 31
0.0
  0
ARC
  5
E4
  8
0
  6
CONTINUOUS
 62
     7
 10
102.1515621293
 20
121.599863236
 30
0.0
 40
3.0
 50
270.0
 51
0.0
  0
LINE
  5
E5
  8
0
  6
CONTINUOUS
 62
     7
 10
102.1515668976
 20
118.5998608518
 30
0.0
 11
72.1515597451
 21
118.5998608518
 31
0.0
  0
ARC
  5
E6
  8
0
  6
CONTINUOUS
 62
     7
 10
72.1515621293
 20
121.599863236
 30
0.0
 40
3.0
 50
180.0
 51
270.0
  0
LINE
  5
E7
  8
0
  6
CONTINUOUS
 62
     7
 10
69.1515626061
 20
128.3998658109
 30
0.0
 11
69.1515626061
 21
121.5998639512
 31
0.0
  0
CIRCLE
  5
E8
  8
0
  6
CONTINUOUS
 62
     7
 10
72.1515621293
 20
122.799863236
 30
0.0
 40
1.100000000000023
  0
CIRCLE
  5
E9
  8
0
  6
CONTINUOUS
 62
     7
 10
102.1515621293
 20
122.799863236
 30
0.0
 40
1.100000000000009
  0
LINE
  5
EA
  8
0
  6
CONTINUOUS
 62
     7
 10
105.1515640366
 20
129.3998648572
 30
0.0
 11
69.1515626061
 21
129.3998648572
 31
0.0
  0
LINE
  5
EB
  8
0
  6
CONTINUOUS
 62
     7
 10
105.1515640366
 20
129.3998648572
 30
0.0
 11
105.1515640366
 21
128.3998658109
 31
0.0
  0
LINE
  5
EC
  8
0
  6
CONTINUOUS
 62
     7
 10
69.1515626061
 20
129.3998648572
 30
0.0
 11
69.1515626061
 21
128.3998658109
 31
0.0
  0
LINE
  5
ED
  8
0
  6
CONTINUOUS
 62
     7
 10
90.1515664208
 20
135.3446235109
 30
0.0
 11
90.1515664208
 21
129.3998648572
 31
0.0
  0
LINE
  5
EE
  8
0
  6
CONTINUOUS
 62
     7
 10
84.1515602219
 20
135.3446235109
 30
0.0
 11
84.1515602219
 21
129.3998648572
 31
0.0
  0
LINE
  5
EF
  8
0
  6
CONTINUOUS
 62
     7
 10
90.1515664208
 20
138.4217252183
 30
0.0
 11
90.1515664208
 21
135.3446235109
 31
0.0
  0
LINE
  5
F0
  8
0
  6
CONTINUOUS
 62
     7
 10
84.1515602219
 20
138.4217252183
 30
0.0
 11
84.1515602219
 21
135.3446235109
 31
0.0
  0
LINE
  5
F1
  8
0
  6
CONTINUOUS
 62
     7
 10
84.1515602219
 20
159.7717453885
 30
0.0
 11
84.1515602219
 21
143.8024272371
 31
0.0
  0
LINE
  5
F2
  8
0
  6
CONTINUOUS
 62
     7
 10
90.1515664208
 20
159.7717453885
 30
0.0
 11
90.1515664208
 21
143.8024272371
 31
0.0
  0
LINE
  5
F3
  8
0
  6
CONTINUOUS
 62
     7
 10
84.1515602219
 20
163.5358144689
 30
0.0
 11
84.1515602219
 21
159.7717453885
 31
0.0
  0
LINE
  5
F4
  8
0
  6
CONTINUOUS
 62
     7
 10
90.1515664208
 20
163.5358144689
 30
0.0
 11
90.1515664208
 21
159.7717453885
 31
0.0
  0
LINE
  5
F5
  8
0
  6
CONTINUOUS
 62
     7
 10
84.1515602219
 20
163.5358144689
 30
0.0
 11
84.1515602219
 21
169.6213294912
 31
0.0
  0
LINE
  5
F6
  8
0
  6
CONTINUOUS
 62
     7
 10
90.1515664208
 20
163.5358144689
 30
0.0
 11
90.1515664208
 21
169.6220209051
 31
0.0
  0
LINE
  5
F7
  8
0
  6
CONTINUOUS
 62
     7
 10
345.1515616524
 20
128.3998658109
 30
0.0
 11
345.1515616524
 21
121.5998639512
 31
0.0
  0
ARC
  5
F8
  8
0
  6
CONTINUOUS
 62
     7
 10
342.1515621293
 20
121.599863236
 30
0.0
 40
3.0
 50
270.0
 51
0.0
  0
LINE
  5
F9
  8
0
  6
CONTINUOUS
 62
     7
 10
342.1515645134
 20
118.5998608518
 30
0.0
 11
312.1515573609
 21
118.5998608518
 31
0.0
  0
ARC
  5
FA
  8
0
  6
CONTINUOUS
 62
     7
 10
312.1515621293
 20
121.599863236
 30
0.0
 40
3.0
 50
180.0
 51
270.0
  0
LINE
  5
FB
  8
0
  6
CONTINUOUS
 62
     7
 10
309.1515602219
 20
128.3998658109
 30
0.0
 11
309.1515602219
 21
121.5998639512
 31
0.0
  0
CIRCLE
  5
FC
  8
0
  6
CONTINUOUS
 62
     7
 10
312.1515621293
 20
122.799863236
 30
0.0
 40
1.100000000000023
  0
CIRCLE
  5
FD
  8
0
  6
CONTINUOUS
 62
     7
 10
342.1515621293
 20
122.799863236
 30
0.0
 40
1.100000000000009
  0
LINE
  5
FE
  8
0
  6
CONTINUOUS
 62
     7
 10
345.1515616524
 20
129.3998648572
 30
0.0
 11
309.1515602219
 21
129.3998648572
 31
0.0
  0
LINE
  5
FF
  8
0
  6
CONTINUOUS
 62
     7
 10
345.1515616524
 20
129.3998648572
 30
0.0
 11
345.1515616524
 21
128.3998658109
 31
0.0
  0
LINE
  5
100
  8
0
  6
CONTINUOUS
 62
     7
 10
309.1515602219
 20
129.3998648572
 30
0.0
 11
309.1515602219
 21
128.3998658109
 31
0.0
  0
LINE
  5
101
  8
0
  6
CONTINUOUS
 62
     7
 10
330.1515640366
 20
135.3446235109
 30
0.0
 11
330.1515640366
 21
129.3998648572
 31
0.0
  0
LINE
  5
102
  8
0
  6
CONTINUOUS
 62
     7
 10
324.1515578377
 20
135.3446235109
 30
0.0
 11
324.1515578377
 21
129.3998648572
 31
0.0
  0
LINE
  5
103
  8
0
  6
CONTINUOUS
 62
     7
 10
330.1515640366
 20
138.4217252183
 30
0.0
 11
330.1515640366
 21
135.3446235109
 31
0.0
  0
LINE
  5
104
  8
0
  6
CONTINUOUS
 62
     7
 10
324.1515578377
 20
138.4217252183
 30
0.0
 11
324.1515578377
 21
135.3446235109
 31
0.0
  0
LINE
  5
105
  8
0
  6
CONTINUOUS
 62
     7
 10
324.1515578377
 20
159.7717453885
 30
0.0
 11
324.1515578377
 21
143.8024272371
 31
0.0
  0
LINE
  5
106
  8
0
  6
CONTINUOUS
 62
     7
 10
330.1515640366
 20
159.7717453885
 30
0.0
 11
330.1515640366
 21
143.8024272371
 31
0.0
  0
LINE
  5
107
  8
0
  6
CONTINUOUS
 62
     7
 10
324.1515578377
 20
163.5358144689
 30
0.0
 11
324.1515578377
 21
159.7717453885
 31
0.0
  0
LINE
  5
108
  8
0
  6
CONTINUOUS
 62
     7
 10
330.1515640366
 20
163.5358144689
 30
0.0
 11
330.1515640366
 21
159.7717453885
 31
0.0
  0
LINE
  5
109
  8
0
  6
CONTINUOUS
 62
     7
 10
324.1515578377
 20
163.5358144689
 30
0.0
 11
324.1515578377
 21
169.6213294912
 31
0.0
  0
LINE
  5
10A
  8
0
  6
CONTINUOUS
 62
     7
 10
330.1515640366
 20
163.5358144689
 30
0.0
 11
330.1515640366
 21
169.6220209051
 31
0.0
  0
LINE
  5
10B
  8
0
  6
CONTINUOUS
 62
     7
 10
225.1515628445
 20
128.3998658109
 30
0.0
 11
225.1515628445
 21
121.5998639512
 31
0.0
  0
ARC
  5
10C
  8
0
  6
CONTINUOUS
 62
     7
 10
222.1515621293
 20
121.599863236
 30
0.0
 40
3.0
 50
270.0
 51
0.0
  0
LINE
  5
10D
  8
0
  6
CONTINUOUS
 62
     7
 10
222.1515627253
 20
118.5998608518
 30
0.0
 11
192.1515615332
 21
118.5998608518
 31
0.0
  0
ARC
  5
10E
  8
0
  6
CONTINUOUS
 62
     7
 10
192.1515621293
 20
121.599863236
 30
0.0
 40
3.0
 50
180.0
 51
270.0
  0
LINE
  5
10F
  8
0
  6
CONTINUOUS
 62
     7
 10
189.151561414
 20
128.3998658109
 30
0.0
 11
189.151561414
 21
121.5998639512
 31
0.0
  0
CIRCLE
  5
110
  8
0
  6
CONTINUOUS
 62
     7
 10
192.1515621293
 20
122.799863236
 30
0.0
 40
1.100000000000023
  0
CIRCLE
  5
111
  8
0
  6
CONTINUOUS
 62
     7
 10
222.1515621293
 20
122.799863236
 30
0.0
 40
1.100000000000009
  0
LINE
  5
112
  8
0
  6
CONTINUOUS
 62
     7
 10
225.1515628445
 20
129.3998648572
 30
0.0
 11
189.151561414
 21
129.3998648572
 31
0.0
  0
LINE
  5
113
  8
0
  6
CONTINUOUS
 62
     7
 10
225.1515628445
 20
129.3998648572
 30
0.0
 11
225.1515628445
 21
128.3998658109
 31
0.0
  0
LINE
  5
114
  8
0
  6
CONTINUOUS
 62
     7
 10
189.151561414
 20
129.3998648572
 30
0.0
 11
189.151561414
 21
128.3998658109
 31
0.0
  0
LINE
  5
115
  8
0
  6
CONTINUOUS
 62
     7
 10
210.1515620622
 20
135.3446235109
 30
0.0
 11
210.1515620622
 21
129.3998648572
 31
0.0
  0
LINE
  5
116
  8
0
  6
CONTINUOUS
 62
     7
 10
204.1515621963
 20
135.3446235109
 30
0.0
 11
204.1515621963
 21
129.3998648572
 31
0.0
  0
LINE
  5
117
  8
0
  6
CONTINUOUS
 62
     7
 10
210.1515620622
 20
138.4217252183
 30
0.0
 11
210.1515620622
 21
135.3446235109
 31
0.0
  0
LINE
  5
118
  8
0
  6
CONTINUOUS
 62
     7
 10
204.1515621963
 20
138.4217252183
 30
0.0
 11
204.1515621963
 21
135.3446235109
 31
0.0
  0
LINE
  5
119
  8
0
  6
CONTINUOUS
 62
     7
 10
210.1515620622
 20
159.7717453885
 30
0.0
 11
210.1515620622
 21
143.8024272371
 31
0.0
  0
LINE
  5
11A
  8
0
  6
CONTINUOUS
 62
     7
 10
204.1515621963
 20
159.7717453885
 30
0.0
 11
204.1515621963
 21
143.8024272371
 31
0.0
  0
LINE
  5
11B
  8
0
  6
CONTINUOUS
 62
     7
 10
210.1515620622
 20
163.5358144689
 30
0.0
 11
210.1515620622
 21
159.7717453885
 31
0.0
  0
LINE
  5
11C
  8
0
  6
CONTINUOUS
 62
     7
 10
204.1515621963
 20
163.5358144689
 30
0.0
 11
204.1515621963
 21
159.7717453885
 31
0.0
  0
LINE
  5
11D
  8
0
  6
CONTINUOUS
 62
     7
 10
204.1515621963
 20
163.5358144689
 30
0.0
 11
204.1515621963
 21
169.6213294912
 31
0.0
  0
LINE
  5
11E
  8
0
  6
CONTINUOUS
 62
     7
 10
210.1515620622
 20
163.5358144689
 30
0.0
 11
210.1515620622
 21
169.6220209051
 31
0.0
  0
ARC
  5
11F
  8
0
  6
CONTINUOUS
 62
     7
 10
327.1520560842
 20
327.0849083263
 30
0.0
 40
183.3069945136948
 50
277.7930028174
 51
281.5888278678
  0
ARC
  5
120
  8
0
  6
CONTINUOUS
 62
     7
 10
364.5203187621
 20
144.8803663565
 30
0.0
 40
2.690000000000003
 50
12.4186815058
 51
100.0467259555
  0
ARC
  5
121
  8
0
  6
CONTINUOUS
 62
     7
 10
327.1652868362
 20
327.0075986019
 30
0.0
 40
188.6086048624888
 50
277.792205894
 51
281.5895835726
  0
ARC
  5
122
  8
0
  6
CONTINUOUS
 62
     7
 10
364.5203187621
 20
144.8803663565
 30
0.0
 40
2.689999999999987
 50
281.5900201068
 51
12.4186815058
  0
ARC
  5
123
  8
0
  6
CONTINUOUS
 62
     7
 10
327.1708848253
 20
327.2010554267
 30
0.0
 40
188.8047563924973
 50
258.4125131129
 51
262.2058168492
  0
ARC
  5
124
  8
0
  6
CONTINUOUS
 62
     7
 10
289.7828054964
 20
144.8803663565
 30
0.0
 40
2.690000000000023
 50
167.5813184942
 51
258.4099798932
  0
ARC
  5
125
  8
0
  6
CONTINUOUS
 62
     7
 10
289.7828054964
 20
144.8803663565
 30
0.0
 40
2.69000000000003
 50
80.0567778886
 51
167.5813184942
  0
ARC
  5
126
  8
0
  6
CONTINUOUS
 62
     7
 10
327.1710941679
 20
327.202677237
 30
0.0
 40
183.4263915390855
 50
258.4125364803
 51
262.2057869043
  0
ARC
  5
127
  8
0
  6
CONTINUOUS
 62
     7
 10
327.1515621293
 20
327.0878745105
 30
0.0
 40
183.31
 50
262.2069690737
 51
277.7930309263
  0
ARC
  5
128
  8
0
  6
CONTINUOUS
 62
     7
 10
327.1515621293
 20
327.0878745105
 30
0.0
 40
188.6900000000001
 50
262.2069690737
 51
277.7930309263
  0
LINE
  5
129
  8
0
  6
CONTINUOUS
 62
     7
 10
363.8515652764
 20
141.7398621488
 30
0.0
 11
363.8515652764
 21
137.2729172159
 31
0.0
  0
LINE
  5
12A
  8
0
  6
CONTINUOUS
 62
     7
 10
363.8515652764
 20
141.7398621488
 30
0.0
 11
364.8515643227
 21
141.7398621488
 31
0.0
  0
LINE
  5
12B
  8
0
  6
CONTINUOUS
 62
     7
 10
364.8515643227
 20
141.7398621488
 30
0.0
 11
364.8515643227
 21
137.2729172159
 31
0.0
  0
LINE
  5
12C
  8
0
  6
CONTINUOUS
 62
     7
 10
290.4515625584
 20
142.0013358045
 30
0.0
 11
290.4515625584
 21
141.7398621488
 31
0.0
  0
LINE
  5
12D
  8
0
  6
CONTINUOUS
 62
     7
 10
290.4515625584
 20
141.7398621488
 30
0.0
 11
289.4515635121
 21
141.7398621488
 31
0.0
  0
LINE
  5
12E
  8
0
  6
CONTINUOUS
 62
     7
 10
289.4515635121
 20
142.2108401704
 30
0.0
 11
289.4515635121
 21
141.7398621488
 31
0.0
  0
LINE
  5
12F
  8
0
  6
CONTINUOUS
 62
     7
 10
363.8515652764
 20
142.0013119626
 30
0.0
 11
363.8515652764
 21
141.7398621488
 31
0.0
  0
LINE
  5
130
  8
0
  6
CONTINUOUS
 62
     7
 10
364.8515643227
 20
142.2108401704
 30
0.0
 11
364.8515643227
 21
141.7398621488
 31
0.0
  0
LINE
  5
131
  8
0
  6
CONTINUOUS
 62
     7
 10
289.4515635121
 20
141.7398621488
 30
0.0
 11
289.4515635121
 21
137.2729172159
 31
0.0
  0
LINE
  5
132
  8
0
  6
CONTINUOUS
 62
     7
 10
290.4515625584
 20
141.7398621488
 30
0.0
 11
290.4515625584
 21
137.2729172159
 31
0.0
  0
LINE
  5
133
  8
0
  6
CONTINUOUS
 62
     7
 10
290.3232456791
 20
147.5155164647
 30
0.0
 11
290.3271676648
 21
147.514711802
 31
0.0
  0
LINE
  5
134
  8
0
  6
CONTINUOUS
 62
     7
 10
363.9756502259
 20
147.5146462369
 30
0.0
 11
363.9798821557
 21
147.5155164647
 31
0.0
  0
LINE
  5
135
  8
0
  6
CONTINUOUS
 62
     7
 10
289.4515635121
 20
137.2729172159
 30
0.0
 11
289.4515635121
 21
136.4193787027
 31
0.0
  0
LINE
  5
136
  8
0
  6
CONTINUOUS
 62
     7
 10
290.4515625584
 20
137.2729172159
 30
0.0
 11
290.4515625584
 21
136.4193787027
 31
0.0
  0
LINE
  5
137
  8
0
  6
CONTINUOUS
 62
     7
 10
364.8515643227
 20
137.2729172159
 30
0.0
 11
364.8515643227
 21
136.4193787027
 31
0.0
  0
LINE
  5
138
  8
0
  6
CONTINUOUS
 62
     7
 10
363.8515652764
 20
137.2729172159
 30
0.0
 11
363.8515652764
 21
136.4193787027
 31
0.0
  0
LINE
  5
139
  8
0
  6
CONTINUOUS
 62
     7
 10
364.8515643227
 20
136.4193787027
 30
0.0
 11
364.8515643227
 21
128.5649468351
 31
0.0
  0
LINE
  5
13A
  8
0
  6
CONTINUOUS
 62
     7
 10
363.8515652764
 20
136.4193787027
 30
0.0
 11
363.8515652764
 21
128.5649468351
 31
0.0
  0
LINE
  5
13B
  8
0
  6
CONTINUOUS
 62
     7
 10
289.4515635121
 20
136.4193787027
 30
0.0
 11
289.4515635121
 21
128.5649468351
 31
0.0
  0
LINE
  5
13C
  8
0
  6
CONTINUOUS
 62
     7
 10
290.4515625584
 20
136.4193787027
 30
0.0
 11
290.4515625584
 21
128.5649468351
 31
0.0
  0
LINE
  5
13D
  8
0
  6
CONTINUOUS
 62
     7
 10
290.4515625584
 20
125.7998635221
 30
0.0
 11
289.4515635121
 21
125.7998635221
 31
0.0
  0
LINE
  5
13E
  8
0
  6
CONTINUOUS
 62
     7
 10
289.4515635121
 20
127.7998616147
 30
0.0
 11
289.4515635121
 21
125.7998635221
 31
0.0
  0
LINE
  5
13F
  8
0
  6
CONTINUOUS
 62
     7
 10
290.4515625584
 20
127.7998616147
 30
0.0
 11
290.4515625584
 21
125.7998635221
 31
0.0
  0
LINE
  5
140
  8
0
  6
CONTINUOUS
 62
     7
 10
289.4515635121
 20
128.5649468351
 30
0.0
 11
289.4515635121
 21
127.7998616147
 31
0.0
  0
LINE
  5
141
  8
0
  6
CONTINUOUS
 62
     7
 10
290.4515625584
 20
128.5649468351
 30
0.0
 11
290.4515625584
 21
127.7998616147
 31
0.0
  0
LINE
  5
142
  8
0
  6
CONTINUOUS
 62
     7
 10
363.8515652764
 20
125.7998635221
 30
0.0
 11
364.8515643227
 21
125.7998635221
 31
0.0
  0
LINE
  5
143
  8
0
  6
CONTINUOUS
 62
     7
 10
364.8515643227
 20
127.7998616147
 30
0.0
 11
364.8515643227
 21
125.7998635221
 31
0.0
  0
LINE
  5
144
  8
0
  6
CONTINUOUS
 62
     7
 10
363.8515652764
 20
127.7998616147
 30
0.0
 11
363.8515652764
 21
125.7998635221
 31
0.0
  0
LINE
  5
145
  8
0
  6
CONTINUOUS
 62
     7
 10
364.8515643227
 20
128.5649468351
 30
0.0
 11
364.8515643227
 21
127.7998616147
 31
0.0
  0
LINE
  5
146
  8
0
  6
CONTINUOUS
 62
     7
 10
363.8515652764
 20
128.5649468351
 30
0.0
 11
363.8515652764
 21
127.7998616147
 31
0.0
  0
LINE
  5
147
  8
0
  6
CONTINUOUS
 62
     7
 10
294.6515621293
 20
121.5998639512
 30
0.0
 11
294.6515621293
 21
128.599863236
 31
0.0
  0
ARC
  5
148
  8
0
  6
CONTINUOUS
 62
     7
 10
292.6515621293
 20
121.599863236
 30
0.0
 40
2.0
 50
270.0
 51
0.0
  0
LINE
  5
149
  8
0
  6
CONTINUOUS
 62
     7
 10
292.6515640366
 20
119.5998658586
 30
0.0
 11
286.6515637982
 21
119.5998658586
 31
0.0
  0
ARC
  5
14A
  8
0
  6
CONTINUOUS
 62
     7
 10
286.6515621293
 20
121.599863236
 30
0.0
 40
2.0
 50
180.0
 51
270.0
  0
LINE
  5
14B
  8
0
  6
CONTINUOUS
 62
     7
 10
284.6515597451
 20
121.5998639512
 30
0.0
 11
284.6515597451
 21
128.599863236
 31
0.0
  0
CIRCLE
  5
14C
  8
0
  6
CONTINUOUS
 62
     7
 10
289.6515621293
 20
122.999863236
 30
0.0
 40
1.0
  0
LINE
  5
14D
  8
0
  6
CONTINUOUS
 62
     7
 10
294.6515621293
 20
129.5998622823
 30
0.0
 11
290.4515625584
 21
129.5998622823
 31
0.0
  0
LINE
  5
14E
  8
0
  6
CONTINUOUS
 62
     7
 10
294.6515621293
 20
129.5998622823
 30
0.0
 11
294.6515621293
 21
128.599863236
 31
0.0
  0
LINE
  5
14F
  8
0
  6
CONTINUOUS
 62
     7
 10
284.6515597451
 20
128.599863236
 30
0.0
 11
284.6515597451
 21
129.5998622823
 31
0.0
  0
LINE
  5
150
  8
0
  6
CONTINUOUS
 62
     7
 10
289.4515635121
 20
129.5998622823
 30
0.0
 11
284.6515597451
 21
129.5998622823
 31
0.0
  0
LINE
  5
151
  8
0
  6
CONTINUOUS
 62
     7
 10
367.6515640366
 20
119.5998658586
 30
0.0
 11
361.6515578377
 21
119.5998658586
 31
0.0
  0
LINE
  5
152
  8
0
  6
CONTINUOUS
 62
     7
 10
359.6515597451
 20
128.599863236
 30
0.0
 11
359.6515597451
 21
121.5998639512
 31
0.0
  0
CIRCLE
  5
153
  8
0
  6
CONTINUOUS
 62
     7
 10
364.6515621293
 20
122.999863236
 30
0.0
 40
1.0
  0
LINE
  5
154
  8
0
  6
CONTINUOUS
 62
     7
 10
369.6515621293
 20
121.5998639512
 30
0.0
 11
369.6515621293
 21
128.599863236
 31
0.0
  0
ARC
  5
155
  8
0
  6
CONTINUOUS
 62
     7
 10
361.6515621293
 20
121.599863236
 30
0.0
 40
2.0
 50
180.0
 51
270.0
  0
ARC
  5
156
  8
0
  6
CONTINUOUS
 62
     7
 10
367.6515621293
 20
121.599863236
 30
0.0
 40
2.0
 50
270.0
 51
0.0
  0
LINE
  5
157
  8
0
  6
CONTINUOUS
 62
     7
 10
363.8515652764
 20
129.5998622823
 30
0.0
 11
359.6515597451
 21
129.5998622823
 31
0.0
  0
LINE
  5
158
  8
0
  6
CONTINUOUS
 62
     7
 10
359.6515597451
 20
128.599863236
 30
0.0
 11
359.6515597451
 21
129.5998622823
 31
0.0
  0
LINE
  5
159
  8
0
  6
CONTINUOUS
 62
     7
 10
369.6515621293
 20
129.5998622823
 30
0.0
 11
364.8515643227
 21
129.5998622823
 31
0.0
  0
LINE
  5
15A
  8
0
  6
CONTINUOUS
 62
     7
 10
369.6515621293
 20
128.599863236
 30
0.0
 11
369.6515621293
 21
129.5998622823
 31
0.0
  0
ARC
  5
15B
  8
0
  6
CONTINUOUS
 62
     7
 10
87.1513858914
 20
327.0888468237
 30
0.0
 40
183.3109878346513
 50
277.7930441774
 51
281.5887865078
  0
ARC
  5
15C
  8
0
  6
CONTINUOUS
 62
     7
 10
124.5203187621
 20
144.8803663565
 30
0.0
 40
2.690000000000003
 50
12.4186815058
 51
100.0467259555
  0
ARC
  5
15D
  8
0
  6
CONTINUOUS
 62
     7
 10
87.1645798924
 20
327.0117523162
 30
0.0
 40
188.6128163938907
 50
277.7922483053
 51
281.5895411613
  0
ARC
  5
15E
  8
0
  6
CONTINUOUS
 62
     7
 10
124.5203187621
 20
144.8803663565
 30
0.0
 40
2.69000000000001
 50
281.5900201068
 51
12.4186815058
  0
ARC
  5
15F
  8
0
  6
CONTINUOUS
 62
     7
 10
49.7828054964
 20
144.8803663565
 30
0.0
 40
2.690000000000011
 50
80.0567778886
 51
167.5813184942
  0
ARC
  5
160
  8
0
  6
CONTINUOUS
 62
     7
 10
87.1709877752
 20
327.2020402526
 30
0.0
 40
183.4257456875972
 50
258.4125297998
 51
262.2057935849
  0
ARC
  5
161
  8
0
  6
CONTINUOUS
 62
     7
 10
87.1714583439
 20
327.2045073717
 30
0.0
 40
188.8082539015676
 50
258.4125519674
 51
262.2057871943
  0
ARC
  5
162
  8
0
  6
CONTINUOUS
 62
     7
 10
49.7828054964
 20
144.8803663565
 30
0.0
 40
2.690000000000011
 50
167.5813184942
 51
258.4099798932
  0
ARC
  5
163
  8
0
  6
CONTINUOUS
 62
     7
 10
87.1515621293
 20
327.0878745105
 30
0.0
 40
188.6900000000001
 50
262.2069690737
 51
277.7930309263
  0
ARC
  5
164
  8
0
  6
CONTINUOUS
 62
     7
 10
87.1515621293
 20
327.0878745105
 30
0.0
 40
183.31
 50
262.2069690737
 51
277.7930309263
  0
LINE
  5
165
  8
0
  6
CONTINUOUS
 62
     7
 10
123.8515617001
 20
141.7398621488
 30
0.0
 11
124.8515607464
 21
141.7398621488
 31
0.0
  0
LINE
  5
166
  8
0
  6
CONTINUOUS
 62
     7
 10
124.8515607464
 20
141.7398621488
 30
0.0
 11
124.8515607464
 21
137.2729172159
 31
0.0
  0
LINE
  5
167
  8
0
  6
CONTINUOUS
 62
     7
 10
123.8515617001
 20
141.7398621488
 30
0.0
 11
123.8515617001
 21
137.2729172159
 31
0.0
  0
LINE
  5
168
  8
0
  6
CONTINUOUS
 62
     7
 10
50.4515589821
 20
141.7398621488
 30
0.0
 11
49.4515599358
 21
141.7398621488
 31
0.0
  0
LINE
  5
169
  8
0
  6
CONTINUOUS
 62
     7
 10
50.4515589821
 20
141.7398621488
 30
0.0
 11
50.4515589821
 21
137.2729172159
 31
0.0
  0
LINE
  5
16A
  8
0
  6
CONTINUOUS
 62
     7
 10
49.4515599358
 20
141.7398621488
 30
0.0
 11
49.4515599358
 21
137.2729172159
 31
0.0
  0
LINE
  5
16B
  8
0
  6
CONTINUOUS
 62
     7
 10
49.4515599358
 20
142.2108401704
 30
0.0
 11
49.4515599358
 21
141.7398621488
 31
0.0
  0
LINE
  5
16C
  8
0
  6
CONTINUOUS
 62
     7
 10
50.4515589821
 20
142.0013358045
 30
0.0
 11
50.4515589821
 21
141.7398621488
 31
0.0
  0
LINE
  5
16D
  8
0
  6
CONTINUOUS
 62
     7
 10
124.8515607464
 20
142.2108401704
 30
0.0
 11
124.8515607464
 21
141.7398621488
 31
0.0
  0
LINE
  5
16E
  8
0
  6
CONTINUOUS
 62
     7
 10
123.8515617001
 20
142.0013119626
 30
0.0
 11
123.8515617001
 21
141.7398621488
 31
0.0
  0
LINE
  5
16F
  8
0
  6
CONTINUOUS
 62
     7
 10
50.3232421029
 20
147.5155164647
 30
0.0
 11
50.3271640885
 21
147.514711802
 31
0.0
  0
LINE
  5
170
  8
0
  6
CONTINUOUS
 62
     7
 10
123.9756466496
 20
147.5146462369
 30
0.0
 11
123.9798785794
 21
147.5155164647
 31
0.0
  0
LINE
  5
171
  8
0
  6
CONTINUOUS
 62
     7
 10
124.8515607464
 20
137.2729172159
 30
0.0
 11
124.8515607464
 21
136.4193787027
 31
0.0
  0
LINE
  5
172
  8
0
  6
CONTINUOUS
 62
     7
 10
123.8515617001
 20
137.2729172159
 30
0.0
 11
123.8515617001
 21
136.4193787027
 31
0.0
  0
LINE
  5
173
  8
0
  6
CONTINUOUS
 62
     7
 10
49.4515599358
 20
137.2729172159
 30
0.0
 11
49.4515599358
 21
136.4193787027
 31
0.0
  0
LINE
  5
174
  8
0
  6
CONTINUOUS
 62
     7
 10
50.4515589821
 20
137.2729172159
 30
0.0
 11
50.4515589821
 21
136.4193787027
 31
0.0
  0
LINE
  5
175
  8
0
  6
CONTINUOUS
 62
     7
 10
124.8515607464
 20
136.4193787027
 30
0.0
 11
124.8515607464
 21
128.5649468351
 31
0.0
  0
LINE
  5
176
  8
0
  6
CONTINUOUS
 62
     7
 10
123.8515617001
 20
136.4193787027
 30
0.0
 11
123.8515617001
 21
128.5649468351
 31
0.0
  0
LINE
  5
177
  8
0
  6
CONTINUOUS
 62
     7
 10
49.4515599358
 20
136.4193787027
 30
0.0
 11
49.4515599358
 21
128.5649468351
 31
0.0
  0
LINE
  5
178
  8
0
  6
CONTINUOUS
 62
     7
 10
50.4515589821
 20
136.4193787027
 30
0.0
 11
50.4515589821
 21
128.5649468351
 31
0.0
  0
LINE
  5
179
  8
0
  6
CONTINUOUS
 62
     7
 10
50.4515589821
 20
125.7998635221
 30
0.0
 11
49.4515599358
 21
125.7998635221
 31
0.0
  0
LINE
  5
17A
  8
0
  6
CONTINUOUS
 62
     7
 10
49.4515599358
 20
127.7998616147
 30
0.0
 11
49.4515599358
 21
125.7998635221
 31
0.0
  0
LINE
  5
17B
  8
0
  6
CONTINUOUS
 62
     7
 10
50.4515589821
 20
127.7998616147
 30
0.0
 11
50.4515589821
 21
125.7998635221
 31
0.0
  0
LINE
  5
17C
  8
0
  6
CONTINUOUS
 62
     7
 10
49.4515599358
 20
128.5649468351
 30
0.0
 11
49.4515599358
 21
127.7998616147
 31
0.0
  0
LINE
  5
17D
  8
0
  6
CONTINUOUS
 62
     7
 10
50.4515589821
 20
128.5649468351
 30
0.0
 11
50.4515589821
 21
127.7998616147
 31
0.0
  0
LINE
  5
17E
  8
0
  6
CONTINUOUS
 62
     7
 10
124.8515607464
 20
128.5649468351
 30
0.0
 11
124.8515607464
 21
127.7998616147
 31
0.0
  0
LINE
  5
17F
  8
0
  6
CONTINUOUS
 62
     7
 10
123.8515617001
 20
128.5649468351
 30
0.0
 11
123.8515617001
 21
127.7998616147
 31
0.0
  0
LINE
  5
180
  8
0
  6
CONTINUOUS
 62
     7
 10
123.8515617001
 20
125.7998635221
 30
0.0
 11
124.8515607464
 21
125.7998635221
 31
0.0
  0
LINE
  5
181
  8
0
  6
CONTINUOUS
 62
     7
 10
124.8515607464
 20
127.7998616147
 30
0.0
 11
124.8515607464
 21
125.7998635221
 31
0.0
  0
LINE
  5
182
  8
0
  6
CONTINUOUS
 62
     7
 10
123.8515617001
 20
127.7998616147
 30
0.0
 11
123.8515617001
 21
125.7998635221
 31
0.0
  0
LINE
  5
183
  8
0
  6
CONTINUOUS
 62
     7
 10
123.8515617001
 20
129.5998622823
 30
0.0
 11
119.6515621293
 21
129.5998622823
 31
0.0
  0
LINE
  5
184
  8
0
  6
CONTINUOUS
 62
     7
 10
119.6515621293
 20
128.599863236
 30
0.0
 11
119.6515621293
 21
129.5998622823
 31
0.0
  0
LINE
  5
185
  8
0
  6
CONTINUOUS
 62
     7
 10
129.6515645134
 20
128.599863236
 30
0.0
 11
129.6515645134
 21
129.5998622823
 31
0.0
  0
LINE
  5
186
  8
0
  6
CONTINUOUS
 62
     7
 10
129.6515645134
 20
129.5998622823
 30
0.0
 11
124.8515607464
 21
129.5998622823
 31
0.0
  0
LINE
  5
187
  8
0
  6
CONTINUOUS
 62
     7
 10
44.6515621293
 20
128.599863236
 30
0.0
 11
44.6515621293
 21
129.5998622823
 31
0.0
  0
LINE
  5
188
  8
0
  6
CONTINUOUS
 62
     7
 10
49.4515599358
 20
129.5998622823
 30
0.0
 11
44.6515621293
 21
129.5998622823
 31
0.0
  0
ARC
  5
189
  8
0
  6
CONTINUOUS
 62
     7
 10
52.6515621293
 20
121.599863236
 30
0.0
 40
2.0
 50
270.0
 51
0.0
  0
ARC
  5
18A
  8
0
  6
CONTINUOUS
 62
     7
 10
46.6515621293
 20
121.599863236
 30
0.0
 40
2.0
 50
180.0
 51
270.0
  0
LINE
  5
18B
  8
0
  6
CONTINUOUS
 62
     7
 10
44.6515621293
 20
121.5998639512
 30
0.0
 11
44.6515621293
 21
128.599863236
 31
0.0
  0
CIRCLE
  5
18C
  8
0
  6
CONTINUOUS
 62
     7
 10
49.6515621293
 20
122.999863236
 30
0.0
 40
1.0
  0
LINE
  5
18D
  8
0
  6
CONTINUOUS
 62
     7
 10
54.6515645134
 20
121.5998639512
 30
0.0
 11
54.6515645134
 21
128.599863236
 31
0.0
  0
LINE
  5
18E
  8
0
  6
CONTINUOUS
 62
     7
 10
52.6515664208
 20
119.5998658586
 30
0.0
 11
46.6515602219
 21
119.5998658586
 31
0.0
  0
LINE
  5
18F
  8
0
  6
CONTINUOUS
 62
     7
 10
54.6515645134
 20
129.5998622823
 30
0.0
 11
50.4515589821
 21
129.5998622823
 31
0.0
  0
LINE
  5
190
  8
0
  6
CONTINUOUS
 62
     7
 10
54.6515645134
 20
129.5998622823
 30
0.0
 11
54.6515645134
 21
128.599863236
 31
0.0
  0
LINE
  5
191
  8
0
  6
CONTINUOUS
 62
     7
 10
129.6515645134
 20
121.5998639512
 30
0.0
 11
129.6515645134
 21
128.599863236
 31
0.0
  0
ARC
  5
192
  8
0
  6
CONTINUOUS
 62
     7
 10
121.6515621293
 20
121.599863236
 30
0.0
 40
2.0
 50
180.0
 51
270.0
  0
ARC
  5
193
  8
0
  6
CONTINUOUS
 62
     7
 10
127.6515621293
 20
121.599863236
 30
0.0
 40
2.0
 50
270.0
 51
0.0
  0
LINE
  5
194
  8
0
  6
CONTINUOUS
 62
     7
 10
119.6515621293
 20
128.599863236
 30
0.0
 11
119.6515621293
 21
121.5998639512
 31
0.0
  0
LINE
  5
195
  8
0
  6
CONTINUOUS
 62
     7
 10
127.6515604603
 20
119.5998658586
 30
0.0
 11
121.6515602219
 21
119.5998658586
 31
0.0
  0
CIRCLE
  5
196
  8
0
  6
CONTINUOUS
 62
     7
 10
124.6515621293
 20
122.999863236
 30
0.0
 40
1.000000000000014
  0
ARC
  5
197
  8
0
  6
CONTINUOUS
 62
     7
 10
207.1646372571
 20
327.0113731915
 30
0.0
 40
188.6124332347883
 50
277.7922471931
 51
281.5895468731
  0
ARC
  5
198
  8
0
  6
CONTINUOUS
 62
     7
 10
244.5203187621
 20
144.8803663565
 30
0.0
 40
2.689999999999996
 50
281.5900201068
 51
12.4186815058
  0
ARC
  5
199
  8
0
  6
CONTINUOUS
 62
     7
 10
207.1516249884
 20
327.08742161
 30
0.0
 40
183.3095434037211
 50
277.7930306306
 51
281.588802422
  0
ARC
  5
19A
  8
0
  6
CONTINUOUS
 62
     7
 10
244.5203187621
 20
144.8803663565
 30
0.0
 40
2.690000000000018
 50
12.4186815058
 51
100.0467259555
  0
ARC
  5
19B
  8
0
  6
CONTINUOUS
 62
     7
 10
169.7828054964
 20
144.8803663565
 30
0.0
 40
2.690000000000011
 50
80.0567778886
 51
167.5813184942
  0
ARC
  5
19C
  8
0
  6
CONTINUOUS
 62
     7
 10
207.1710055992
 20
327.2021334722
 30
0.0
 40
183.4258408269359
 50
258.4125298297
 51
262.2057911876
  0
ARC
  5
19D
  8
0
  6
CONTINUOUS
 62
     7
 10
207.170609978
 20
327.1994027007
 30
0.0
 40
188.8030819041892
 50
258.4124944315
 51
262.2058309307
  0
ARC
  5
19E
  8
0
  6
CONTINUOUS
 62
     7
 10
169.7828054964
 20
144.8803663565
 30
0.0
 40
2.690000000000009
 50
167.5813184942
 51
258.4099798932
  0
ARC
  5
19F
  8
0
  6
CONTINUOUS
 62
     7
 10
207.1515621293
 20
327.0878745105
 30
0.0
 40
188.6900000000001
 50
262.2069690737
 51
277.7930309263
  0
ARC
  5
1A0
  8
0
  6
CONTINUOUS
 62
     7
 10
207.1515621293
 20
327.0878745105
 30
0.0
 40
183.31
 50
262.2069690737
 51
277.7930309263
  0
LINE
  5
1A1
  8
0
  6
CONTINUOUS
 62
     7
 10
170.4515607703
 20
141.7398621488
 30
0.0
 11
169.4515617239
 21
141.7398621488
 31
0.0
  0
LINE
  5
1A2
  8
0
  6
CONTINUOUS
 62
     7
 10
170.4515607703
 20
141.7398621488
 30
0.0
 11
170.4515607703
 21
137.2729172159
 31
0.0
  0
LINE
  5
1A3
  8
0
  6
CONTINUOUS
 62
     7
 10
169.4515617239
 20
141.7398621488
 30
0.0
 11
169.4515617239
 21
137.2729172159
 31
0.0
  0
LINE
  5
1A4
  8
0
  6
CONTINUOUS
 62
     7
 10
243.8515634882
 20
141.7398621488
 30
0.0
 11
244.8515625346
 21
141.7398621488
 31
0.0
  0
LINE
  5
1A5
  8
0
  6
CONTINUOUS
 62
     7
 10
243.8515634882
 20
142.0013119626
 30
0.0
 11
243.8515634882
 21
141.7398621488
 31
0.0
  0
LINE
  5
1A6
  8
0
  6
CONTINUOUS
 62
     7
 10
244.8515625346
 20
142.2108401704
 30
0.0
 11
244.8515625346
 21
141.7398621488
 31
0.0
  0
LINE
  5
1A7
  8
0
  6
CONTINUOUS
 62
     7
 10
244.8515625346
 20
141.7398621488
 30
0.0
 11
244.8515625346
 21
137.2729172159
 31
0.0
  0
LINE
  5
1A8
  8
0
  6
CONTINUOUS
 62
     7
 10
243.8515634882
 20
141.7398621488
 30
0.0
 11
243.8515634882
 21
137.2729172159
 31
0.0
  0
LINE
  5
1A9
  8
0
  6
CONTINUOUS
 62
     7
 10
170.4515607703
 20
142.0013358045
 30
0.0
 11
170.4515607703
 21
141.7398621488
 31
0.0
  0
LINE
  5
1AA
  8
0
  6
CONTINUOUS
 62
     7
 10
169.4515617239
 20
142.2108401704
 30
0.0
 11
169.4515617239
 21
141.7398621488
 31
0.0
  0
LINE
  5
1AB
  8
0
  6
CONTINUOUS
 62
     7
 10
170.3232468712
 20
147.5155164647
 30
0.0
 11
170.3271688569
 21
147.514711802
 31
0.0
  0
LINE
  5
1AC
  8
0
  6
CONTINUOUS
 62
     7
 10
243.9756454575
 20
147.5146462369
 30
0.0
 11
243.9798773873
 21
147.5155164647
 31
0.0
  0
LINE
  5
1AD
  8
0
  6
CONTINUOUS
 62
     7
 10
244.8515625346
 20
137.2729172159
 30
0.0
 11
244.8515625346
 21
136.4193787027
 31
0.0
  0
LINE
  5
1AE
  8
0
  6
CONTINUOUS
 62
     7
 10
243.8515634882
 20
137.2729172159
 30
0.0
 11
243.8515634882
 21
136.4193787027
 31
0.0
  0
LINE
  5
1AF
  8
0
  6
CONTINUOUS
 62
     7
 10
170.4515607703
 20
137.2729172159
 30
0.0
 11
170.4515607703
 21
136.4193787027
 31
0.0
  0
LINE
  5
1B0
  8
0
  6
CONTINUOUS
 62
     7
 10
169.4515617239
 20
137.2729172159
 30
0.0
 11
169.4515617239
 21
136.4193787027
 31
0.0
  0
LINE
  5
1B1
  8
0
  6
CONTINUOUS
 62
     7
 10
170.4515607703
 20
136.4193787027
 30
0.0
 11
170.4515607703
 21
128.5649468351
 31
0.0
  0
LINE
  5
1B2
  8
0
  6
CONTINUOUS
 62
     7
 10
169.4515617239
 20
136.4193787027
 30
0.0
 11
169.4515617239
 21
128.5649468351
 31
0.0
  0
LINE
  5
1B3
  8
0
  6
CONTINUOUS
 62
     7
 10
244.8515625346
 20
136.4193787027
 30
0.0
 11
244.8515625346
 21
128.5649468351
 31
0.0
  0
LINE
  5
1B4
  8
0
  6
CONTINUOUS
 62
     7
 10
243.8515634882
 20
136.4193787027
 30
0.0
 11
243.8515634882
 21
128.5649468351
 31
0.0
  0
LINE
  5
1B5
  8
0
  6
CONTINUOUS
 62
     7
 10
170.4515607703
 20
128.5649468351
 30
0.0
 11
170.4515607703
 21
127.7998616147
 31
0.0
  0
LINE
  5
1B6
  8
0
  6
CONTINUOUS
 62
     7
 10
169.4515617239
 20
128.5649468351
 30
0.0
 11
169.4515617239
 21
127.7998616147
 31
0.0
  0
LINE
  5
1B7
  8
0
  6
CONTINUOUS
 62
     7
 10
244.8515625346
 20
128.5649468351
 30
0.0
 11
244.8515625346
 21
127.7998616147
 31
0.0
  0
LINE
  5
1B8
  8
0
  6
CONTINUOUS
 62
     7
 10
243.8515634882
 20
128.5649468351
 30
0.0
 11
243.8515634882
 21
127.7998616147
 31
0.0
  0
LINE
  5
1B9
  8
0
  6
CONTINUOUS
 62
     7
 10
170.4515607703
 20
125.7998635221
 30
0.0
 11
169.4515617239
 21
125.7998635221
 31
0.0
  0
LINE
  5
1BA
  8
0
  6
CONTINUOUS
 62
     7
 10
170.4515607703
 20
127.7998616147
 30
0.0
 11
170.4515607703
 21
125.7998635221
 31
0.0
  0
LINE
  5
1BB
  8
0
  6
CONTINUOUS
 62
     7
 10
169.4515617239
 20
127.7998616147
 30
0.0
 11
169.4515617239
 21
125.7998635221
 31
0.0
  0
LINE
  5
1BC
  8
0
  6
CONTINUOUS
 62
     7
 10
243.8515634882
 20
125.7998635221
 30
0.0
 11
244.8515625346
 21
125.7998635221
 31
0.0
  0
LINE
  5
1BD
  8
0
  6
CONTINUOUS
 62
     7
 10
244.8515625346
 20
127.7998616147
 30
0.0
 11
244.8515625346
 21
125.7998635221
 31
0.0
  0
LINE
  5
1BE
  8
0
  6
CONTINUOUS
 62
     7
 10
243.8515634882
 20
127.7998616147
 30
0.0
 11
243.8515634882
 21
125.7998635221
 31
0.0
  0
LINE
  5
1BF
  8
0
  6
CONTINUOUS
 62
     7
 10
164.6515609372
 20
128.599863236
 30
0.0
 11
164.6515609372
 21
129.5998622823
 31
0.0
  0
LINE
  5
1C0
  8
0
  6
CONTINUOUS
 62
     7
 10
169.4515617239
 20
129.5998622823
 30
0.0
 11
164.6515609372
 21
129.5998622823
 31
0.0
  0
LINE
  5
1C1
  8
0
  6
CONTINUOUS
 62
     7
 10
249.6515633214
 20
129.5998622823
 30
0.0
 11
244.8515625346
 21
129.5998622823
 31
0.0
  0
LINE
  5
1C2
  8
0
  6
CONTINUOUS
 62
     7
 10
249.6515633214
 20
128.599863236
 30
0.0
 11
249.6515633214
 21
129.5998622823
 31
0.0
  0
LINE
  5
1C3
  8
0
  6
CONTINUOUS
 62
     7
 10
243.8515634882
 20
129.5998622823
 30
0.0
 11
239.6515609372
 21
129.5998622823
 31
0.0
  0
LINE
  5
1C4
  8
0
  6
CONTINUOUS
 62
     7
 10
239.6515609372
 20
128.599863236
 30
0.0
 11
239.6515609372
 21
129.5998622823
 31
0.0
  0
LINE
  5
1C5
  8
0
  6
CONTINUOUS
 62
     7
 10
247.6515622485
 20
119.5998658586
 30
0.0
 11
241.6515620101
 21
119.5998658586
 31
0.0
  0
LINE
  5
1C6
  8
0
  6
CONTINUOUS
 62
     7
 10
239.6515609372
 20
128.599863236
 30
0.0
 11
239.6515609372
 21
121.5998639512
 31
0.0
  0
ARC
  5
1C7
  8
0
  6
CONTINUOUS
 62
     7
 10
241.6515621293
 20
121.599863236
 30
0.0
 40
2.0
 50
180.0
 51
270.0
  0
CIRCLE
  5
1C8
  8
0
  6
CONTINUOUS
 62
     7
 10
244.6515621293
 20
122.999863236
 30
0.0
 40
1.0
  0
ARC
  5
1C9
  8
0
  6
CONTINUOUS
 62
     7
 10
247.6515621293
 20
121.599863236
 30
0.0
 40
2.0
 50
270.0
 51
0.0
  0
LINE
  5
1CA
  8
0
  6
CONTINUOUS
 62
     7
 10
249.6515633214
 20
121.5998639512
 30
0.0
 11
249.6515633214
 21
128.599863236
 31
0.0
  0
ARC
  5
1CB
  8
0
  6
CONTINUOUS
 62
     7
 10
166.6515621293
 20
121.599863236
 30
0.0
 40
2.0
 50
180.0
 51
270.0
  0
LINE
  5
1CC
  8
0
  6
CONTINUOUS
 62
     7
 10
174.6515633214
 20
121.5998639512
 30
0.0
 11
174.6515633214
 21
128.599863236
 31
0.0
  0
CIRCLE
  5
1CD
  8
0
  6
CONTINUOUS
 62
     7
 10
169.6515621293
 20
122.999863236
 30
0.0
 40
1.0
  0
LINE
  5
1CE
  8
0
  6
CONTINUOUS
 62
     7
 10
164.6515609372
 20
121.5998639512
 30
0.0
 11
164.6515609372
 21
128.599863236
 31
0.0
  0
ARC
  5
1CF
  8
0
  6
CONTINUOUS
 62
     7
 10
172.6515621293
 20
121.599863236
 30
0.0
 40
2.0
 50
270.0
 51
0.0
  0
LINE
  5
1D0
  8
0
  6
CONTINUOUS
 62
     7
 10
172.6515622485
 20
119.5998658586
 30
0.0
 11
166.6515620101
 21
119.5998658586
 31
0.0
  0
LINE
  5
1D1
  8
0
  6
CONTINUOUS
 62
     7
 10
174.6515633214
 20
129.5998622823
 30
0.0
 11
170.4515607703
 21
129.5998622823
 31
0.0
  0
LINE
  5
1D2
  8
0
  6
CONTINUOUS
 62
     7
 10
174.6515633214
 20
129.5998622823
 30
0.0
 11
174.6515633214
 21
128.599863236
 31
0.0
  0
LINE
  5
1D3
  8
0
  6
CONTINUOUS
 62
     7
 10
64.9786295044
 20
54.7998632464
 30
0.0
 11
68.7372745621
 21
54.7998632464
 31
0.0
  0
LINE
  5
1D4
  8
0
  6
CONTINUOUS
 62
     7
 10
68.7372745621
 20
53.599863236
 30
0.0
 11
64.9786295044
 21
53.599863236
 31
0.0
  0
LINE
  5
1D5
  8
0
  6
CONTINUOUS
 62
     7
 10
68.7372745621
 20
53.599863236
 30
0.0
 11
75.565844928
 21
53.599863236
 31
0.0
  0
LINE
  5
1D6
  8
0
  6
CONTINUOUS
 62
     7
 10
68.7372745621
 20
54.7998632464
 30
0.0
 11
75.565844928
 21
54.7998632464
 31
0.0
  0
LINE
  5
1D7
  8
0
  6
CONTINUOUS
 62
     7
 10
79.3244899857
 20
53.599863236
 30
0.0
 11
75.565844928
 21
53.599863236
 31
0.0
  0
LINE
  5
1D8
  8
0
  6
CONTINUOUS
 62
     7
 10
75.565844928
 20
54.7998632464
 30
0.0
 11
79.3244899857
 21
54.7998632464
 31
0.0
  0
LINE
  5
1D9
  8
0
  6
CONTINUOUS
 62
     7
 10
345.5658496964
 20
54.7998632464
 30
0.0
 11
349.3244947541
 21
54.7998632464
 31
0.0
  0
LINE
  5
1DA
  8
0
  6
CONTINUOUS
 62
     7
 10
349.3244947541
 20
53.599863236
 30
0.0
 11
345.5658496964
 21
53.599863236
 31
0.0
  0
LINE
  5
1DB
  8
0
  6
CONTINUOUS
 62
     7
 10
338.7372793305
 20
53.599863236
 30
0.0
 11
334.9786342728
 21
53.599863236
 31
0.0
  0
LINE
  5
1DC
  8
0
  6
CONTINUOUS
 62
     7
 10
334.9786342728
 20
54.7998632464
 30
0.0
 11
338.7372793305
 21
54.7998632464
 31
0.0
  0
LINE
  5
1DD
  8
0
  6
CONTINUOUS
 62
     7
 10
338.7372793305
 20
53.599863236
 30
0.0
 11
345.5658496964
 21
53.599863236
 31
0.0
  0
LINE
  5
1DE
  8
0
  6
CONTINUOUS
 62
     7
 10
338.7372793305
 20
54.7998632464
 30
0.0
 11
345.5658496964
 21
54.7998632464
 31
0.0
  0
LINE
  5
1DF
  8
0
  6
CONTINUOUS
 62
     7
 10
84.1515602219
 20
53.599863236
 30
0.0
 11
84.1515602219
 21
54.7998632464
 31
0.0
  0
LINE
  5
1E0
  8
0
  6
CONTINUOUS
 62
     7
 10
79.3244899857
 20
53.599863236
 30
0.0
 11
84.1515602219
 21
53.599863236
 31
0.0
  0
LINE
  5
1E1
  8
0
  6
CONTINUOUS
 62
     7
 10
84.1515602219
 20
54.7998632464
 30
0.0
 11
79.3244899857
 21
54.7998632464
 31
0.0
  0
LINE
  5
1E2
  8
0
  6
CONTINUOUS
 62
     7
 10
60.1515592682
 20
53.599863236
 30
0.0
 11
60.1515592682
 21
54.7998632464
 31
0.0
  0
LINE
  5
1E3
  8
0
  6
CONTINUOUS
 62
     7
 10
60.1515592682
 20
53.599863236
 30
0.0
 11
64.9786295044
 21
53.599863236
 31
0.0
  0
LINE
  5
1E4
  8
0
  6
CONTINUOUS
 62
     7
 10
64.9786295044
 20
54.7998632464
 30
0.0
 11
60.1515592682
 21
54.7998632464
 31
0.0
  0
LINE
  5
1E5
  8
0
  6
CONTINUOUS
 62
     7
 10
354.1515649903
 20
53.599863236
 30
0.0
 11
354.1515649903
 21
54.7998632464
 31
0.0
  0
LINE
  5
1E6
  8
0
  6
CONTINUOUS
 62
     7
 10
349.3244947541
 20
53.599863236
 30
0.0
 11
354.1515649903
 21
53.599863236
 31
0.0
  0
LINE
  5
1E7
  8
0
  6
CONTINUOUS
 62
     7
 10
354.1515649903
 20
54.7998632464
 30
0.0
 11
349.3244947541
 21
54.7998632464
 31
0.0
  0
LINE
  5
1E8
  8
0
  6
CONTINUOUS
 62
     7
 10
330.1515640366
 20
53.599863236
 30
0.0
 11
330.1515640366
 21
54.7998632464
 31
0.0
  0
LINE
  5
1E9
  8
0
  6
CONTINUOUS
 62
     7
 10
330.1515640366
 20
53.599863236
 30
0.0
 11
334.9786342728
 21
53.599863236
 31
0.0
  0
LINE
  5
1EA
  8
0
  6
CONTINUOUS
 62
     7
 10
334.9786342728
 20
54.7998632464
 30
0.0
 11
330.1515640366
 21
54.7998632464
 31
0.0
  0
POLYLINE
  5
1EB
  8
0
  6
CONTINUOUS
 62
     7
 66
     1
 10
0.0
 20
0.0
 30
0.0
  0
VERTEX
  5
56C
  8
0
  6
CONTINUOUS
 62
     7
 10
67.1515645134
 20
118.7998642373
 30
0.0
  0
VERTEX
  5
56D
  8
0
  6
CONTINUOUS
 62
     7
 10
67.1707810509
 20
118.8190807748
 30
0.0
  0
VERTEX
  5
56E
  8
0
  6
CONTINUOUS
 62
     7
 10
67.2276796448
 20
118.8759853292
 30
0.0
  0
VERTEX
  5
56F
  8
0
  6
CONTINUOUS
 62
     7
 10
67.3200906861
 20
118.9683963704
 30
0.0
  0
VERTEX
  5
570
  8
0
  6
CONTINUOUS
 62
     7
 10
67.4444498169
 20
119.0927555013
 30
0.0
  0
VERTEX
  5
571
  8
0
  6
CONTINUOUS
 62
     7
 10
67.5959886658
 20
119.2442943502
 30
0.0
  0
VERTEX
  5
572
  8
0
  6
CONTINUOUS
 62
     7
 10
67.7688778985
 20
119.4171776224
 30
0.0
  0
VERTEX
  5
573
  8
0
  6
CONTINUOUS
 62
     7
 10
67.9564775574
 20
119.6047713209
 30
0.0
  0
VERTEX
  5
574
  8
0
  6
CONTINUOUS
 62
     7
 10
68.1515635598
 20
119.7998632837
 30
0.0
  0
SEQEND
  5
955
  8
0
  6
CONTINUOUS
 62
     7
  0
LINE
  5
1EC
  8
0
  6
CONTINUOUS
 62
     7
 10
67.1515645134
 20
118.7998642373
 30
0.0
 11
18.7515677559
 21
118.7998642373
 31
0.0
  0
ARC
  5
1ED
  8
0
  6
CONTINUOUS
 62
     7
 10
395.5515621293
 20
128.399863236
 30
0.0
 40
0.4000000000000341
 50
0.0
 51
90.0
  0
LINE
  5
1EE
  8
0
  6
CONTINUOUS
 62
     7
 10
395.9515632737
 20
128.3998658109
 30
0.0
 11
395.9515632737
 21
127.7998616147
 31
0.0
  0
LINE
  5
1EF
  8
0
  6
CONTINUOUS
 62
     7
 10
18.3515609849
 20
127.7998616147
 30
0.0
 11
18.3515609849
 21
128.3998658109
 31
0.0
  0
ARC
  5
1F0
  8
0
  6
CONTINUOUS
 62
     7
 10
18.7515621293
 20
128.399863236
 30
0.0
 40
0.4000000000000057
 50
90.0
 51
180.0
  0
LINE
  5
1F1
  8
0
  6
CONTINUOUS
 62
     7
 10
67.1515645134
 20
54.7998632464
 30
0.0
 11
67.1515645134
 21
118.7998642373
 31
0.0
  0
LINE
  5
1F2
  8
0
  6
CONTINUOUS
 62
     7
 10
311.0745252717
 20
118.7998642373
 30
0.0
 11
223.2285948145
 21
118.7998642373
 31
0.0
  0
LINE
  5
1F3
  8
0
  6
CONTINUOUS
 62
     7
 10
191.074529444
 20
118.7998642373
 30
0.0
 11
103.2285989869
 21
118.7998642373
 31
0.0
  0
LINE
  5
1F4
  8
0
  6
CONTINUOUS
 62
     7
 10
18.7515677559
 20
128.7998606611
 30
0.0
 11
21.1515606987
 21
128.7998606611
 31
0.0
  0
LINE
  5
1F5
  8
0
  6
CONTINUOUS
 62
     7
 10
33.1515611756
 20
128.7998606611
 30
0.0
 11
44.6515621293
 21
128.7998606611
 31
0.0
  0
LINE
  5
1F6
  8
0
  6
CONTINUOUS
 62
     7
 10
54.6515645134
 20
128.7998606611
 30
0.0
 11
69.1515626061
 21
128.7998606611
 31
0.0
  0
LINE
  5
1F7
  8
0
  6
CONTINUOUS
 62
     7
 10
105.1515640366
 20
128.7998606611
 30
0.0
 11
119.6515621293
 21
128.7998606611
 31
0.0
  0
LINE
  5
1F8
  8
0
  6
CONTINUOUS
 62
     7
 10
129.6515645134
 20
128.7998606611
 30
0.0
 11
141.1515595067
 21
128.7998606611
 31
0.0
  0
LINE
  5
1F9
  8
0
  6
CONTINUOUS
 62
     7
 10
153.1515599835
 20
128.7998606611
 30
0.0
 11
164.6515609372
 21
128.7998606611
 31
0.0
  0
LINE
  5
1FA
  8
0
  6
CONTINUOUS
 62
     7
 10
174.6515633214
 20
128.7998606611
 30
0.0
 11
189.151561414
 21
128.7998606611
 31
0.0
  0
LINE
  5
1FB
  8
0
  6
CONTINUOUS
 62
     7
 10
225.1515628445
 20
128.7998606611
 30
0.0
 11
239.6515609372
 21
128.7998606611
 31
0.0
  0
LINE
  5
1FC
  8
0
  6
CONTINUOUS
 62
     7
 10
249.6515633214
 20
128.7998606611
 30
0.0
 11
261.151564275
 21
128.7998606611
 31
0.0
  0
LINE
  5
1FD
  8
0
  6
CONTINUOUS
 62
     7
 10
273.1515647519
 20
128.7998606611
 30
0.0
 11
284.6515597451
 21
128.7998606611
 31
0.0
  0
LINE
  5
1FE
  8
0
  6
CONTINUOUS
 62
     7
 10
294.6515621293
 20
128.7998606611
 30
0.0
 11
309.1515602219
 21
128.7998606611
 31
0.0
  0
LINE
  5
1FF
  8
0
  6
CONTINUOUS
 62
     7
 10
345.1515616524
 20
128.7998606611
 30
0.0
 11
359.6515597451
 21
128.7998606611
 31
0.0
  0
LINE
  5
200
  8
0
  6
CONTINUOUS
 62
     7
 10
369.6515621293
 20
128.7998606611
 30
0.0
 11
381.1515630829
 21
128.7998606611
 31
0.0
  0
LINE
  5
201
  8
0
  6
CONTINUOUS
 62
     7
 10
393.1515635598
 20
128.7998606611
 30
0.0
 11
395.5515565026
 21
128.7998606611
 31
0.0
  0
LINE
  5
202
  8
0
  6
CONTINUOUS
 62
     7
 10
18.3515609849
 20
119.199865048
 30
0.0
 11
18.3515609849
 21
119.7998632837
 31
0.0
  0
ARC
  5
203
  8
0
  6
CONTINUOUS
 62
     7
 10
18.7515621293
 20
119.199863236
 30
0.0
 40
0.3999999999999915
 50
180.0
 51
270.0
  0
LINE
  5
204
  8
0
  6
CONTINUOUS
 62
     7
 10
395.9515632737
 20
127.7998616147
 30
0.0
 11
395.9515632737
 21
119.7998632837
 31
0.0
  0
LINE
  5
205
  8
0
  6
CONTINUOUS
 62
     7
 10
77.1515668976
 20
118.5998608518
 30
0.0
 11
77.1515668976
 21
54.7998632464
 31
0.0
  0
LINE
  5
206
  8
0
  6
CONTINUOUS
 62
     7
 10
18.3515609849
 20
119.7998632837
 30
0.0
 11
18.3515609849
 21
127.7998616147
 31
0.0
  0
LINE
  5
207
  8
0
  6
CONTINUOUS
 62
     7
 10
337.1515573609
 20
54.7998632464
 30
0.0
 11
337.1515573609
 21
118.5998608518
 31
0.0
  0
LINE
  5
208
  8
0
  6
CONTINUOUS
 62
     7
 10
395.9515632737
 20
119.7998632837
 30
0.0
 11
395.9515632737
 21
119.199865048
 31
0.0
  0
ARC
  5
209
  8
0
  6
CONTINUOUS
 62
     7
 10
395.5515621293
 20
119.199863236
 30
0.0
 40
0.4000000000000341
 50
270.0
 51
0.0
  0
POLYLINE
  5
20A
  8
0
  6
CONTINUOUS
 62
     7
 66
     1
 10
0.0
 20
0.0
 30
0.0
  0
VERTEX
  5
575
  8
0
  6
CONTINUOUS
 62
     7
 10
347.1515597451
 20
118.7998642373
 30
0.0
  0
VERTEX
  5
576
  8
0
  6
CONTINUOUS
 62
     7
 10
347.1323432076
 20
118.8190807748
 30
0.0
  0
VERTEX
  5
577
  8
0
  6
CONTINUOUS
 62
     7
 10
347.0754446137
 20
118.8759853292
 30
0.0
  0
VERTEX
  5
578
  8
0
  6
CONTINUOUS
 62
     7
 10
346.9830335724
 20
118.9683963704
 30
0.0
  0
VERTEX
  5
579
  8
0
  6
CONTINUOUS
 62
     7
 10
346.8586744416
 20
119.0927555013
 30
0.0
  0
VERTEX
  5
57A
  8
0
  6
CONTINUOUS
 62
     7
 10
346.7071355927
 20
119.2442943502
 30
0.0
  0
VERTEX
  5
57B
  8
0
  6
CONTINUOUS
 62
     7
 10
346.5342463601
 20
119.4171776224
 30
0.0
  0
VERTEX
  5
57C
  8
0
  6
CONTINUOUS
 62
     7
 10
346.3466467011
 20
119.6047713209
 30
0.0
  0
VERTEX
  5
57D
  8
0
  6
CONTINUOUS
 62
     7
 10
346.1515606987
 20
119.7998632837
 30
0.0
  0
SEQEND
  5
954
  8
0
  6
CONTINUOUS
 62
     7
  0
LINE
  5
20B
  8
0
  6
CONTINUOUS
 62
     7
 10
347.1515597451
 20
118.7998642373
 30
0.0
 11
347.1515597451
 21
54.7998632464
 31
0.0
  0
LINE
  5
20C
  8
0
  6
CONTINUOUS
 62
     7
 10
395.5515565026
 20
118.7998642373
 30
0.0
 11
347.1515597451
 21
118.7998642373
 31
0.0
  0
LINE
  5
20D
  8
0
  6
CONTINUOUS
 62
     7
 10
481.8559706058
 20
129.5998622823
 30
0.0
 11
481.8559706058
 21
154.5998622823
 31
0.0
  0
LINE
  5
20E
  8
0
  6
CONTINUOUS
 62
     7
 10
476.455970652
 20
154.5998622823
 30
0.0
 11
476.455970652
 21
129.5998622823
 31
0.0
  0
ARC
  5
20F
  8
0
  6
CONTINUOUS
 62
     7
 10
494.1559706892
 20
154.599863236
 30
0.0
 40
12.30000000000001
 50
90.0
 51
180.0
  0
ARC
  5
210
  8
0
  6
CONTINUOUS
 62
     7
 10
494.1559706892
 20
154.599863236
 30
0.0
 40
17.70000000000005
 50
90.0
 51
180.0
  0
LINE
  5
211
  8
0
  6
CONTINUOUS
 62
     7
 10
485.1559705879
 20
120.2998628068
 30
0.0
 11
514.1559704985
 21
120.2998628068
 31
0.0
  0
LINE
  5
212
  8
0
  6
CONTINUOUS
 62
     7
 10
514.1559704985
 20
125.6998648096
 30
0.0
 11
485.1559705879
 21
125.6998648096
 31
0.0
  0
LINE
  5
213
  8
0
  6
CONTINUOUS
 62
     7
 10
514.1559704985
 20
172.2998668599
 30
0.0
 11
494.1559702005
 21
172.2998668599
 31
0.0
  0
LINE
  5
214
  8
0
  6
CONTINUOUS
 62
     7
 10
494.1559702005
 20
166.8998648572
 30
0.0
 11
514.1559704985
 21
166.8998648572
 31
0.0
  0
ARC
  5
215
  8
0
  6
CONTINUOUS
 62
     7
 10
514.1559706892
 20
137.999863236
 30
0.0
 40
12.30000000000018
 50
270.0
 51
0.0
  0
ARC
  5
216
  8
0
  6
CONTINUOUS
 62
     7
 10
514.1559706892
 20
137.999863236
 30
0.0
 40
17.70000000000005
 50
270.0
 51
0.0
  0
ARC
  5
217
  8
0
  6
CONTINUOUS
 62
     7
 10
514.1559706892
 20
154.599863236
 30
0.0
 40
12.30000000000018
 50
0.0
 51
90.0
  0
ARC
  5
218
  8
0
  6
CONTINUOUS
 62
     7
 10
514.1559706892
 20
154.599863236
 30
0.0
 40
17.70000000000005
 50
360.0
 51
90.0
  0
LINE
  5
219
  8
0
  6
CONTINUOUS
 62
     7
 10
531.8559691156
 20
137.999861424
 30
0.0
 11
531.8559691156
 21
154.5998622823
 31
0.0
  0
LINE
  5
21A
  8
0
  6
CONTINUOUS
 62
     7
 10
526.4559700932
 20
154.5998622823
 30
0.0
 11
526.4559700932
 21
137.999861424
 31
0.0
  0
POLYLINE
  5
21B
  8
0
  6
CONTINUOUS
 62
     7
 66
     1
 10
0.0
 20
0.0
 30
0.0
  0
VERTEX
  5
57E
  8
0
  6
CONTINUOUS
 62
     7
 10
465.592114612
 20
225.0183393407
 30
0.0
  0
VERTEX
  5
57F
  8
0
  6
CONTINUOUS
 62
     7
 10
465.4980137791
 20
225.7582952428
 30
0.0
  0
VERTEX
  5
580
  8
0
  6
CONTINUOUS
 62
     7
 10
465.3692036714
 20
226.6668846059
 30
0.0
  0
VERTEX
  5
581
  8
0
  6
CONTINUOUS
 62
     7
 10
465.2279794063
 20
227.5681664396
 30
0.0
  0
VERTEX
  5
582
  8
0
  6
CONTINUOUS
 62
     7
 10
465.0751605476
 20
228.4563114095
 30
0.0
  0
VERTEX
  5
583
  8
0
  6
CONTINUOUS
 62
     7
 10
464.9136140789
 20
229.3171336103
 30
0.0
  0
VERTEX
  5
584
  8
0
  6
CONTINUOUS
 62
     7
 10
464.742517456
 20
230.1580359388
 30
0.0
  0
VERTEX
  5
585
  8
0
  6
CONTINUOUS
 62
     7
 10
464.5623802985
 20
230.9775998044
 30
0.0
  0
VERTEX
  5
586
  8
0
  6
CONTINUOUS
 62
     7
 10
464.3741667117
 20
231.77201051
 30
0.0
  0
VERTEX
  5
587
  8
0
  6
CONTINUOUS
 62
     7
 10
464.1787990774
 20
232.537656014
 30
0.0
  0
VERTEX
  5
588
  8
0
  6
CONTINUOUS
 62
     7
 10
463.9770716275
 20
233.2713057447
 30
0.0
  0
VERTEX
  5
589
  8
0
  6
CONTINUOUS
 62
     7
 10
463.7695118631
 20
233.9703847814
 30
0.0
  0
VERTEX
  5
58A
  8
0
  6
CONTINUOUS
 62
     7
 10
463.5563701238
 20
234.6327115941
 30
0.0
  0
VERTEX
  5
58B
  8
0
  6
CONTINUOUS
 62
     7
 10
463.3405491556
 20
235.2490951467
 30
0.0
  0
VERTEX
  5
58C
  8
0
  6
CONTINUOUS
 62
     7
 10
463.1170317377
 20
235.8323862005
 30
0.0
  0
VERTEX
  5
58D
  8
0
  6
CONTINUOUS
 62
     7
 10
462.8800123777
 20
236.3912035871
 30
0.0
  0
VERTEX
  5
58E
  8
0
  6
CONTINUOUS
 62
     7
 10
462.6202568258
 20
236.9337965894
 30
0.0
  0
VERTEX
  5
58F
  8
0
  6
CONTINUOUS
 62
     7
 10
462.3131349529
 20
237.4822070051
 30
0.0
  0
VERTEX
  5
590
  8
0
  6
CONTINUOUS
 62
     7
 10
462.061372384
 20
237.8592183042
 30
0.0
  0
VERTEX
  5
591
  8
0
  6
CONTINUOUS
 62
     7
 10
461.8078633989
 20
238.1783058095
 30
0.0
  0
VERTEX
  5
592
  8
0
  6
CONTINUOUS
 62
     7
 10
461.5592509355
 20
238.4396244932
 30
0.0
  0
VERTEX
  5
593
  8
0
  6
CONTINUOUS
 62
     7
 10
461.2905382957
 20
238.6732866216
 30
0.0
  0
VERTEX
  5
594
  8
0
  6
CONTINUOUS
 62
     7
 10
460.9960123743
 20
238.8800908971
 30
0.0
  0
VERTEX
  5
595
  8
0
  6
CONTINUOUS
 62
     7
 10
460.6712519969
 20
239.0574147153
 30
0.0
  0
VERTEX
  5
596
  8
0
  6
CONTINUOUS
 62
     7
 10
460.3165075029
 20
239.1986777234
 30
0.0
  0
VERTEX
  5
597
  8
0
  6
CONTINUOUS
 62
     7
 10
459.9365919675
 20
239.296071713
 30
0.0
  0
VERTEX
  5
598
  8
0
  6
CONTINUOUS
 62
     7
 10
459.5395520176
 20
239.3429686475
 30
0.0
  0
VERTEX
  5
599
  8
0
  6
CONTINUOUS
 62
     7
 10
459.0910777296
 20
239.3308569837
 30
0.0
  0
VERTEX
  5
59A
  8
0
  6
CONTINUOUS
 62
     7
 10
459.0381190027
 20
239.3212844777
 30
0.0
  0
SEQEND
  5
953
  8
0
  6
CONTINUOUS
 62
     7
  0
POLYLINE
  5
21C
  8
0
  6
CONTINUOUS
 62
     7
 66
     1
 10
0.0
 20
0.0
 30
0.0
  0
VERTEX
  5
59B
  8
0
  6
CONTINUOUS
 62
     7
 10
467.5693638469
 20
169.854932015
 30
0.0
  0
VERTEX
  5
59C
  8
0
  6
CONTINUOUS
 62
     7
 10
467.8360506739
 20
169.8930670667
 30
0.0
  0
VERTEX
  5
59D
  8
0
  6
CONTINUOUS
 62
     7
 10
468.2317323829
 20
170.0093557287
 30
0.0
  0
VERTEX
  5
59E
  8
0
  6
CONTINUOUS
 62
     7
 10
468.5933887805
 20
170.17221946
 30
0.0
  0
VERTEX
  5
59F
  8
0
  6
CONTINUOUS
 62
     7
 10
468.9174175109
 20
170.3723122526
 30
0.0
  0
VERTEX
  5
5A0
  8
0
  6
CONTINUOUS
 62
     7
 10
469.2023597504
 20
170.6004907537
 30
0.0
  0
VERTEX
  5
5A1
  8
0
  6
CONTINUOUS
 62
     7
 10
469.4492615606
 20
170.8488990713
 30
0.0
  0
VERTEX
  5
5A2
  8
0
  6
CONTINUOUS
 62
     7
 10
469.6618586625
 20
171.1126853872
 30
0.0
  0
VERTEX
  5
5A3
  8
0
  6
CONTINUOUS
 62
     7
 10
469.8461115207
 20
171.3917900968
 30
0.0
  0
VERTEX
  5
5A4
  8
0
  6
CONTINUOUS
 62
     7
 10
470.0094789113
 20
171.6930915761
 30
0.0
  0
VERTEX
  5
5A5
  8
0
  6
CONTINUOUS
 62
     7
 10
470.1611332442
 20
172.0360567022
 30
0.0
  0
VERTEX
  5
5A6
  8
0
  6
CONTINUOUS
 62
     7
 10
470.3052230026
 20
172.4420716215
 30
0.0
  0
VERTEX
  5
5A7
  8
0
  6
CONTINUOUS
 62
     7
 10
470.4526513661
 20
172.9756643224
 30
0.0
  0
VERTEX
  5
5A8
  8
0
  6
CONTINUOUS
 62
     7
 10
470.5777332033
 20
173.5698272634
 30
0.0
  0
VERTEX
  5
5A9
  8
0
  6
CONTINUOUS
 62
     7
 10
470.6733561899
 20
174.1608430791
 30
0.0
  0
VERTEX
  5
5AA
  8
0
  6
CONTINUOUS
 62
     7
 10
470.756307229
 20
174.8314787794
 30
0.0
  0
VERTEX
  5
5AB
  8
0
  6
CONTINUOUS
 62
     7
 10
470.8195328559
 20
175.5184699941
 30
0.0
  0
VERTEX
  5
5AC
  8
0
  6
CONTINUOUS
 62
     7
 10
470.8663552846
 20
176.229767983
 30
0.0
  0
VERTEX
  5
5AD
  8
0
  6
CONTINUOUS
 62
     7
 10
470.8973206426
 20
176.9512583661
 30
0.0
  0
VERTEX
  5
5AE
  8
0
  6
CONTINUOUS
 62
     7
 10
470.914764687
 20
177.7225663114
 30
0.0
  0
VERTEX
  5
5AF
  8
0
  6
CONTINUOUS
 62
     7
 10
470.9180548634
 20
178.5255839277
 30
0.0
  0
VERTEX
  5
5B0
  8
0
  6
CONTINUOUS
 62
     7
 10
470.9072053279
 20
179.3566872526
 30
0.0
  0
VERTEX
  5
5B1
  8
0
  6
CONTINUOUS
 62
     7
 10
470.8821683969
 20
180.2109291006
 30
0.0
  0
VERTEX
  5
5B2
  8
0
  6
CONTINUOUS
 62
     7
 10
470.8429328944
 20
181.0825635839
 30
0.0
  0
VERTEX
  5
5B3
  8
0
  6
CONTINUOUS
 62
     7
 10
470.7895688559
 20
181.9653679777
 30
0.0
  0
VERTEX
  5
5B4
  8
0
  6
CONTINUOUS
 62
     7
 10
470.7223087396
 20
182.8527142454
 30
0.0
  0
VERTEX
  5
5B5
  8
0
  6
CONTINUOUS
 62
     7
 10
470.6412315215
 20
183.7460686613
 30
0.0
  0
VERTEX
  5
5B6
  8
0
  6
CONTINUOUS
 62
     7
 10
470.5453388239
 20
184.6564342428
 30
0.0
  0
VERTEX
  5
5B7
  8
0
  6
CONTINUOUS
 62
     7
 10
470.4663105156
 20
185.3162338186
 30
0.0
  0
SEQEND
  5
952
  8
0
  6
CONTINUOUS
 62
     7
  0
LINE
  5
21D
  8
0
  6
CONTINUOUS
 62
     7
 10
470.4684257354
 20
185.3165676046
 30
0.0
 11
465.5936524119
 21
225.0184227872
 31
0.0
  0
POLYLINE
  5
21E
  8
0
  6
CONTINUOUS
 62
     7
 66
     1
 10
0.0
 20
0.0
 30
0.0
  0
VERTEX
  5
5B8
  8
0
  6
CONTINUOUS
 62
     7
 10
465.1269733752
 20
184.6608569074
 30
0.0
  0
VERTEX
  5
5B9
  8
0
  6
CONTINUOUS
 62
     7
 10
465.2121245708
 20
183.9379240919
 30
0.0
  0
VERTEX
  5
5BA
  8
0
  6
CONTINUOUS
 62
     7
 10
465.2985006417
 20
183.1015517164
 30
0.0
  0
VERTEX
  5
5BB
  8
0
  6
CONTINUOUS
 62
     7
 10
465.3716489519
 20
182.2750141073
 30
0.0
  0
VERTEX
  5
5BC
  8
0
  6
CONTINUOUS
 62
     7
 10
465.4310598816
 20
181.4642955709
 30
0.0
  0
VERTEX
  5
5BD
  8
0
  6
CONTINUOUS
 62
     7
 10
465.4768034662
 20
180.6749512601
 30
0.0
  0
VERTEX
  5
5BE
  8
0
  6
CONTINUOUS
 62
     7
 10
465.5098914947
 20
179.8999597478
 30
0.0
  0
VERTEX
  5
5BF
  8
0
  6
CONTINUOUS
 62
     7
 10
465.5303969826
 20
179.144518559
 30
0.0
  0
VERTEX
  5
5C0
  8
0
  6
CONTINUOUS
 62
     7
 10
465.5384138073
 20
178.417639916
 30
0.0
  0
VERTEX
  5
5C1
  8
0
  6
CONTINUOUS
 62
     7
 10
465.5343368496
 20
177.7295996595
 30
0.0
  0
VERTEX
  5
5C2
  8
0
  6
CONTINUOUS
 62
     7
 10
465.5189320292
 20
177.0889689374
 30
0.0
  0
VERTEX
  5
5C3
  8
0
  6
CONTINUOUS
 62
     7
 10
465.4933094825
 20
176.503782456
 30
0.0
  0
VERTEX
  5
5C4
  8
0
  6
CONTINUOUS
 62
     7
 10
465.4589354838
 20
175.9770085264
 30
0.0
  0
VERTEX
  5
5C5
  8
0
  6
CONTINUOUS
 62
     7
 10
465.415884539
 20
175.4907299924
 30
0.0
  0
VERTEX
  5
5C6
  8
0
  6
CONTINUOUS
 62
     7
 10
465.3671026076
 20
175.0666429448
 30
0.0
  0
VERTEX
  5
5C7
  8
0
  6
CONTINUOUS
 62
     7
 10
465.3149783458
 20
174.7081210065
 30
0.0
  0
VERTEX
  5
5C8
  8
0
  6
CONTINUOUS
 62
     7
 10
465.2630492891
 20
174.4210173536
 30
0.0
  0
VERTEX
  5
5C9
  8
0
  6
CONTINUOUS
 62
     7
 10
465.2210160936
 20
174.2304493833
 30
0.0
  0
VERTEX
  5
5CA
  8
0
  6
CONTINUOUS
 62
     7
 10
465.1876017298
 20
174.1038848806
 30
0.0
  0
VERTEX
  5
5CB
  8
0
  6
CONTINUOUS
 62
     7
 10
465.166880175
 20
174.0377833295
 30
0.0
  0
VERTEX
  5
5CC
  8
0
  6
CONTINUOUS
 62
     7
 10
465.1639595474
 20
174.0295221258
 30
0.0
  0
SEQEND
  5
951
  8
0
  6
CONTINUOUS
 62
     7
  0
POLYLINE
  5
21F
  8
0
  6
CONTINUOUS
 62
     7
 66
     1
 10
0.0
 20
0.0
 30
0.0
  0
VERTEX
  5
5CD
  8
0
  6
CONTINUOUS
 62
     7
 10
457.714194044
 20
234.6895625043
 30
0.0
  0
VERTEX
  5
5CE
  8
0
  6
CONTINUOUS
 62
     7
 10
457.7129185046
 20
234.6911599088
 30
0.0
  0
VERTEX
  5
5CF
  8
0
  6
CONTINUOUS
 62
     7
 10
457.7382653798
 20
234.6509982992
 30
0.0
  0
VERTEX
  5
5D0
  8
0
  6
CONTINUOUS
 62
     7
 10
457.7902093376
 20
234.5599343229
 30
0.0
  0
VERTEX
  5
5D1
  8
0
  6
CONTINUOUS
 62
     7
 10
457.8671634044
 20
234.4110061574
 30
0.0
  0
VERTEX
  5
5D2
  8
0
  6
CONTINUOUS
 62
     7
 10
457.9669460501
 20
234.1988613058
 30
0.0
  0
VERTEX
  5
5D3
  8
0
  6
CONTINUOUS
 62
     7
 10
458.0866068448
 20
233.9206625867
 30
0.0
  0
VERTEX
  5
5D4
  8
0
  6
CONTINUOUS
 62
     7
 10
458.2225859012
 20
233.5764457631
 30
0.0
  0
VERTEX
  5
5D5
  8
0
  6
CONTINUOUS
 62
     7
 10
458.3710118975
 20
233.1688095975
 30
0.0
  0
VERTEX
  5
5D6
  8
0
  6
CONTINUOUS
 62
     7
 10
458.5280030812
 20
232.7023913312
 30
0.0
  0
VERTEX
  5
5D7
  8
0
  6
CONTINUOUS
 62
     7
 10
458.6900099959
 20
232.1827938009
 30
0.0
  0
VERTEX
  5
5D8
  8
0
  6
CONTINUOUS
 62
     7
 10
458.8539451207
 20
231.6167642522
 30
0.0
  0
VERTEX
  5
5D9
  8
0
  6
CONTINUOUS
 62
     7
 10
459.020400032
 20
230.9991170812
 30
0.0
  0
VERTEX
  5
5DA
  8
0
  6
CONTINUOUS
 62
     7
 10
459.1869175281
 20
230.3351451803
 30
0.0
  0
VERTEX
  5
5DB
  8
0
  6
CONTINUOUS
 62
     7
 10
459.3512847866
 20
229.6302368093
 30
0.0
  0
VERTEX
  5
5DC
  8
0
  6
CONTINUOUS
 62
     7
 10
459.5114350165
 20
228.8900424886
 30
0.0
  0
VERTEX
  5
5DD
  8
0
  6
CONTINUOUS
 62
     7
 10
459.6654534186
 20
228.1204153943
 30
0.0
  0
VERTEX
  5
5DE
  8
0
  6
CONTINUOUS
 62
     7
 10
459.8115637745
 20
227.3274948049
 30
0.0
  0
VERTEX
  5
5DF
  8
0
  6
CONTINUOUS
 62
     7
 10
459.9480330791
 20
226.5183855939
 30
0.0
  0
VERTEX
  5
5E0
  8
0
  6
CONTINUOUS
 62
     7
 10
460.0735649313
 20
225.7005025792
 30
0.0
  0
VERTEX
  5
5E1
  8
0
  6
CONTINUOUS
 62
     7
 10
460.1886793818
 20
224.8707463193
 30
0.0
  0
VERTEX
  5
5E2
  8
0
  6
CONTINUOUS
 62
     7
 10
460.2518126215
 20
224.3624855924
 30
0.0
  0
SEQEND
  5
950
  8
0
  6
CONTINUOUS
 62
     7
  0
LINE
  5
220
  8
0
  6
CONTINUOUS
 62
     7
 10
460.2537542428
 20
224.3627597738
 30
0.0
 11
465.1285275663
 21
184.660916512
 31
0.0
  0
LINE
  5
221
  8
0
  6
CONTINUOUS
 62
     7
 10
459.7363516535
 20
227.7356674123
 30
0.0
 11
465.4429450478
 21
181.2591840673
 31
0.0
  0
ARC
  5
222
  8
0
  6
CONTINUOUS
 62
     7
 10
457.6592681522
 20
236.4466448881
 30
0.0
 40
2.690000000000005
 50
208.5742842993
 51
277.0
  0
ARC
  5
223
  8
0
  6
CONTINUOUS
 62
     7
 10
457.6592681522
 20
236.4466448881
 30
0.0
 40
2.69000000000001
 50
97.0
 51
165.4352045702
  0
ARC
  5
224
  8
0
  6
CONTINUOUS
 62
     7
 10
465.5344651231
 20
172.308312569
 30
0.0
 40
2.689999999999995
 50
97.0
 51
165.4352045702
  0
ARC
  5
225
  8
0
  6
CONTINUOUS
 62
     7
 10
465.5344651231
 20
172.308312569
 30
0.0
 40
2.690000000000055
 50
208.5742842993
 51
277.0
  0
LINE
  5
226
  8
0
  6
CONTINUOUS
 62
     7
 10
454.7558456506
 20
235.0826432157
 30
0.0
 11
455.298414811
 21
235.1492573667
 31
0.0
  0
LINE
  5
227
  8
0
  6
CONTINUOUS
 62
     7
 10
455.0546765174
 20
237.1343542982
 30
0.0
 11
454.5121073569
 21
237.0677282262
 31
0.0
  0
LINE
  5
228
  8
0
  6
CONTINUOUS
 62
     7
 10
462.6310422863
 20
170.9443022657
 30
0.0
 11
463.1736129369
 21
171.0109283376
 31
0.0
  0
LINE
  5
229
  8
0
  6
CONTINUOUS
 62
     7
 10
462.9298731531
 20
172.9960133481
 30
0.0
 11
462.3873039927
 21
172.9293991971
 31
0.0
  0
POLYLINE
  5
22A
  8
0
  6
CONTINUOUS
 62
     7
 66
     1
 10
0.0
 20
0.0
 30
0.0
  0
VERTEX
  5
5E3
  8
0
  6
CONTINUOUS
 62
     7
 10
560.0490555014
 20
142.8086151529
 30
0.0
  0
VERTEX
  5
5E4
  8
0
  6
CONTINUOUS
 62
     7
 10
560.0437030043
 20
143.0779625821
 30
0.0
  0
VERTEX
  5
5E5
  8
0
  6
CONTINUOUS
 62
     7
 10
559.9765047278
 20
143.4848656106
 30
0.0
  0
VERTEX
  5
5E6
  8
0
  6
CONTINUOUS
 62
     7
 10
559.858922645
 20
143.8636710096
 30
0.0
  0
VERTEX
  5
5E7
  8
0
  6
CONTINUOUS
 62
     7
 10
559.6998199667
 20
144.209670012
 30
0.0
  0
VERTEX
  5
5E8
  8
0
  6
CONTINUOUS
 62
     7
 10
559.508065864
 20
144.5202996183
 30
0.0
  0
VERTEX
  5
5E9
  8
0
  6
CONTINUOUS
 62
     7
 10
559.2915937151
 20
144.7956313539
 30
0.0
  0
VERTEX
  5
5EA
  8
0
  6
CONTINUOUS
 62
     7
 10
559.055690452
 20
145.0387944627
 30
0.0
  0
VERTEX
  5
5EB
  8
0
  6
CONTINUOUS
 62
     7
 10
558.8011190142
 20
145.2556838441
 30
0.0
  0
VERTEX
  5
5EC
  8
0
  6
CONTINUOUS
 62
     7
 10
558.5219785418
 20
145.4545547414
 30
0.0
  0
VERTEX
  5
5ED
  8
0
  6
CONTINUOUS
 62
     7
 10
558.2000478949
 20
145.6468750883
 30
0.0
  0
VERTEX
  5
5EE
  8
0
  6
CONTINUOUS
 62
     7
 10
557.8146144594
 20
145.839374249
 30
0.0
  0
VERTEX
  5
5EF
  8
0
  6
CONTINUOUS
 62
     7
 10
557.3029681887
 20
146.0507323194
 30
0.0
  0
VERTEX
  5
5F0
  8
0
  6
CONTINUOUS
 62
     7
 10
556.7284807409
 20
146.2472905565
 30
0.0
  0
VERTEX
  5
5F1
  8
0
  6
CONTINUOUS
 62
     7
 10
556.153528377
 20
146.4142252851
 30
0.0
  0
VERTEX
  5
5F2
  8
0
  6
CONTINUOUS
 62
     7
 10
555.4979905333
 20
146.5782930303
 30
0.0
  0
VERTEX
  5
5F3
  8
0
  6
CONTINUOUS
 62
     7
 10
554.8238321985
 20
146.7247654844
 30
0.0
  0
VERTEX
  5
5F4
  8
0
  6
CONTINUOUS
 62
     7
 10
554.1235372271
 20
146.8579282213
 30
0.0
  0
VERTEX
  5
5F5
  8
0
  6
CONTINUOUS
 62
     7
 10
553.4112021174
 20
146.9765891481
 30
0.0
  0
VERTEX
  5
5F6
  8
0
  6
CONTINUOUS
 62
     7
 10
552.6477679457
 20
147.0879008222
 30
0.0
  0
VERTEX
  5
5F7
  8
0
  6
CONTINUOUS
 62
     7
 10
551.8511399473
 20
147.189032023
 30
0.0
  0
VERTEX
  5
5F8
  8
0
  6
CONTINUOUS
 62
     7
 10
551.0249122824
 20
147.2795476365
 30
0.0
  0
VERTEX
  5
5F9
  8
0
  6
CONTINUOUS
 62
     7
 10
550.1739725317
 20
147.3588039327
 30
0.0
  0
VERTEX
  5
5FA
  8
0
  6
CONTINUOUS
 62
     7
 10
549.3040665831
 20
147.4260856557
 30
0.0
  0
VERTEX
  5
5FB
  8
0
  6
CONTINUOUS
 62
     7
 10
548.4213277544
 20
147.4807073522
 30
0.0
  0
VERTEX
  5
5FC
  8
0
  6
CONTINUOUS
 62
     7
 10
547.5324079241
 20
147.5220848966
 30
0.0
  0
VERTEX
  5
5FD
  8
0
  6
CONTINUOUS
 62
     7
 10
546.6358288969
 20
147.5504865098
 30
0.0
  0
VERTEX
  5
5FE
  8
0
  6
CONTINUOUS
 62
     7
 10
545.7205578531
 20
147.5662578988
 30
0.0
  0
VERTEX
  5
5FF
  8
0
  6
CONTINUOUS
 62
     7
 10
545.0560435499
 20
147.5682248521
 30
0.0
  0
SEQEND
  5
94F
  8
0
  6
CONTINUOUS
 62
     7
  0
ARC
  5
22B
  8
0
  6
CONTINUOUS
 62
     7
 10
504.7573733046
 20
92.4153830917
 30
0.0
 40
55.15425742298642
 50
89.689920985
 51
97.9477118465
  0
LINE
  5
22C
  8
0
  6
CONTINUOUS
 62
     7
 10
545.0559720244
 20
147.5703646589
 30
0.0
 11
531.8559691156
 21
147.5703646589
 31
0.0
  0
LINE
  5
22D
  8
0
  6
CONTINUOUS
 62
     7
 10
526.4559700932
 20
147.5703646589
 30
0.0
 11
505.0559714283
 21
147.5703646589
 31
0.0
  0
POLYLINE
  5
22E
  8
0
  6
CONTINUOUS
 62
     7
 66
     1
 10
0.0
 20
0.0
 30
0.0
  0
VERTEX
  5
600
  8
0
  6
CONTINUOUS
 62
     7
 10
545.0558408941
 20
142.1888162542
 30
0.0
  0
VERTEX
  5
601
  8
0
  6
CONTINUOUS
 62
     7
 10
545.7837626185
 20
142.1852280546
 30
0.0
  0
VERTEX
  5
602
  8
0
  6
CONTINUOUS
 62
     7
 10
546.6244324888
 20
142.1690334726
 30
0.0
  0
VERTEX
  5
603
  8
0
  6
CONTINUOUS
 62
     7
 10
547.4537178721
 20
142.1409060407
 30
0.0
  0
VERTEX
  5
604
  8
0
  6
CONTINUOUS
 62
     7
 10
548.2656344618
 20
142.1010722566
 30
0.0
  0
VERTEX
  5
605
  8
0
  6
CONTINUOUS
 62
     7
 10
549.0546688284
 20
142.0502771783
 30
0.0
  0
VERTEX
  5
606
  8
0
  6
CONTINUOUS
 62
     7
 10
549.8279139246
 20
141.9886757779
 30
0.0
  0
VERTEX
  5
607
  8
0
  6
CONTINUOUS
 62
     7
 10
550.5802258696
 20
141.9169594694
 30
0.0
  0
VERTEX
  5
608
  8
0
  6
CONTINUOUS
 62
     7
 10
551.3026639666
 20
141.8363322664
 30
0.0
  0
VERTEX
  5
609
  8
0
  6
CONTINUOUS
 62
     7
 10
551.9850835051
 20
141.7484332967
 30
0.0
  0
VERTEX
  5
60A
  8
0
  6
CONTINUOUS
 62
     7
 10
552.6190504278
 20
141.6550745416
 30
0.0
  0
VERTEX
  5
60B
  8
0
  6
CONTINUOUS
 62
     7
 10
553.1967565264
 20
141.5583242822
 30
0.0
  0
VERTEX
  5
60C
  8
0
  6
CONTINUOUS
 62
     7
 10
553.7154182638
 20
141.4600064206
 30
0.0
  0
VERTEX
  5
60D
  8
0
  6
CONTINUOUS
 62
     7
 10
554.1928157057
 20
141.358016913
 30
0.0
  0
VERTEX
  5
60E
  8
0
  6
CONTINUOUS
 62
     7
 10
554.607801124
 20
141.2579168725
 30
0.0
  0
VERTEX
  5
60F
  8
0
  6
CONTINUOUS
 62
     7
 10
554.9572989191
 20
141.1624838758
 30
0.0
  0
VERTEX
  5
610
  8
0
  6
CONTINUOUS
 62
     7
 10
555.2359387125
 20
141.075955813
 30
0.0
  0
VERTEX
  5
611
  8
0
  6
CONTINUOUS
 62
     7
 10
555.4199620928
 20
141.011010592
 30
0.0
  0
VERTEX
  5
612
  8
0
  6
CONTINUOUS
 62
     7
 10
555.5415078844
 20
140.9624208856
 30
0.0
  0
VERTEX
  5
613
  8
0
  6
CONTINUOUS
 62
     7
 10
555.60458748
 20
140.9337987352
 30
0.0
  0
VERTEX
  5
614
  8
0
  6
CONTINUOUS
 62
     7
 10
555.6124374117
 20
140.9298946309
 30
0.0
  0
SEQEND
  5
94E
  8
0
  6
CONTINUOUS
 62
     7
  0
LINE
  5
22F
  8
0
  6
CONTINUOUS
 62
     7
 10
516.0559698786
 20
142.1903659749
 30
0.0
 11
526.4559700932
 21
142.1903659749
 31
0.0
  0
LINE
  5
230
  8
0
  6
CONTINUOUS
 62
     7
 10
531.8559691156
 20
142.1903659749
 30
0.0
 11
545.0559720244
 21
142.1903659749
 31
0.0
  0
LINE
  5
231
  8
0
  6
CONTINUOUS
 62
     7
 10
516.0559698786
 20
142.0878757882
 30
0.0
 11
526.4559700932
 21
142.0878757882
 31
0.0
  0
LINE
  5
232
  8
0
  6
CONTINUOUS
 62
     7
 10
531.8559691156
 20
142.0878757882
 30
0.0
 11
548.4706625189
 21
142.0878757882
 31
0.0
  0
ARC
  5
233
  8
0
  6
CONTINUOUS
 62
     7
 10
557.3659706892
 20
141.0878745105
 30
0.0
 40
2.690000000000055
 50
180.0
 51
270.0
  0
ARC
  5
234
  8
0
  6
CONTINUOUS
 62
     7
 10
557.3659706892
 20
141.0878745105
 30
0.0
 40
2.689999999999998
 50
270.0
 51
0.0
  0
LINE
  5
235
  8
0
  6
CONTINUOUS
 62
     7
 10
473.9559706147
 20
119.7998632837
 30
0.0
 11
473.1559708561
 21
119.7998632837
 31
0.0
  0
LINE
  5
236
  8
0
  6
CONTINUOUS
 62
     7
 10
473.1559708561
 20
119.7998632837
 30
0.0
 11
473.1559708561
 21
121.7998613763
 31
0.0
  0
LINE
  5
237
  8
0
  6
CONTINUOUS
 62
     7
 10
484.3559708293
 20
128.3998658109
 30
0.0
 11
484.3559708293
 21
121.7998613763
 31
0.0
  0
ARC
  5
238
  8
0
  6
CONTINUOUS
 62
     7
 10
483.9559706892
 20
128.399863236
 30
0.0
 40
0.4000000000000341
 50
0.0
 51
90.0
  0
LINE
  5
239
  8
0
  6
CONTINUOUS
 62
     7
 10
474.3559706803
 20
128.7998606611
 30
0.0
 11
474.9559707786
 21
128.7998606611
 31
0.0
  0
LINE
  5
23A
  8
0
  6
CONTINUOUS
 62
     7
 10
482.9559705998
 20
128.7998606611
 30
0.0
 11
483.9559707637
 21
128.7998606611
 31
0.0
  0
ARC
  5
23B
  8
0
  6
CONTINUOUS
 62
     7
 10
474.3559706892
 20
128.399863236
 30
0.0
 40
0.4000000000000341
 50
90.0
 51
180.0
  0
LINE
  5
23C
  8
0
  6
CONTINUOUS
 62
     7
 10
473.9559706147
 20
127.7998616147
 30
0.0
 11
473.9559706147
 21
128.3998658109
 31
0.0
  0
LINE
  5
23D
  8
0
  6
CONTINUOUS
 62
     7
 10
474.3559706803
 20
129.5998622823
 30
0.0
 11
483.9559707637
 21
129.5998622823
 31
0.0
  0
ARC
  5
23E
  8
0
  6
CONTINUOUS
 62
     7
 10
483.9559706892
 20
128.399863236
 30
0.0
 40
1.200000000000045
 50
0.0
 51
90.0
  0
LINE
  5
23F
  8
0
  6
CONTINUOUS
 62
     7
 10
485.1559705879
 20
128.3998658109
 30
0.0
 11
485.1559705879
 21
121.7998613763
 31
0.0
  0
LINE
  5
240
  8
0
  6
CONTINUOUS
 62
     7
 10
473.1559708561
 20
121.7998613763
 30
0.0
 11
473.1559708561
 21
128.3998658109
 31
0.0
  0
ARC
  5
241
  8
0
  6
CONTINUOUS
 62
     7
 10
474.3559706892
 20
128.399863236
 30
0.0
 40
1.200000000000017
 50
90.0
 51
180.0
  0
LINE
  5
242
  8
0
  6
CONTINUOUS
 62
     7
 10
485.1559705879
 20
119.7998632837
 30
0.0
 11
484.3559708293
 21
119.7998632837
 31
0.0
  0
LINE
  5
243
  8
0
  6
CONTINUOUS
 62
     7
 10
485.1559705879
 20
121.7998613763
 30
0.0
 11
485.1559705879
 21
119.7998632837
 31
0.0
  0
LINE
  5
244
  8
0
  6
CONTINUOUS
 62
     7
 10
484.3559708293
 20
119.7998632837
 30
0.0
 11
484.3559708293
 21
121.7998613763
 31
0.0
  0
POLYLINE
  5
245
  8
0
  6
CONTINUOUS
 62
     7
 66
     1
 10
0.0
 20
0.0
 30
0.0
  0
VERTEX
  5
615
  8
0
  6
CONTINUOUS
 62
     7
 10
457.9870968904
 20
233.7766935277
 30
0.0
  0
VERTEX
  5
616
  8
0
  6
CONTINUOUS
 62
     7
 10
458.021946236
 20
233.7809731412
 30
0.0
  0
VERTEX
  5
617
  8
0
  6
CONTINUOUS
 62
     7
 10
458.1024899925
 20
233.7908675123
 30
0.0
  0
SEQEND
  5
94D
  8
0
  6
CONTINUOUS
 62
     7
  0
POLYLINE
  5
246
  8
0
  6
CONTINUOUS
 62
     7
 66
     1
 10
0.0
 20
0.0
 30
0.0
  0
VERTEX
  5
618
  8
0
  6
CONTINUOUS
 62
     7
 10
455.297079667
 20
235.1598908353
 30
0.0
  0
VERTEX
  5
619
  8
0
  6
CONTINUOUS
 62
     7
 10
455.3006276335
 20
235.1532747198
 30
0.0
  0
VERTEX
  5
61A
  8
0
  6
CONTINUOUS
 62
     7
 10
455.2632376398
 20
235.224716847
 30
0.0
  0
VERTEX
  5
61B
  8
0
  6
CONTINUOUS
 62
     7
 10
455.1890745606
 20
235.3844215322
 30
0.0
  0
VERTEX
  5
61C
  8
0
  6
CONTINUOUS
 62
     7
 10
455.0967231239
 20
235.6349398542
 30
0.0
  0
VERTEX
  5
61D
  8
0
  6
CONTINUOUS
 62
     7
 10
455.0179466452
 20
235.9509517599
 30
0.0
  0
VERTEX
  5
61E
  8
0
  6
CONTINUOUS
 62
     7
 10
454.9919485892
 20
236.1191441465
 30
0.0
  0
SEQEND
  5
94C
  8
0
  6
CONTINUOUS
 62
     7
  0
POLYLINE
  5
247
  8
0
  6
CONTINUOUS
 62
     7
 66
     1
 10
0.0
 20
0.0
 30
0.0
  0
VERTEX
  5
61F
  8
0
  6
CONTINUOUS
 62
     7
 10
459.0364679541
 20
239.325945561
 30
0.0
  0
VERTEX
  5
620
  8
0
  6
CONTINUOUS
 62
     7
 10
458.5846260037
 20
239.2704655576
 30
0.0
  0
VERTEX
  5
621
  8
0
  6
CONTINUOUS
 62
     7
 10
458.2020088877
 20
239.2234851766
 30
0.0
  0
VERTEX
  5
622
  8
0
  6
CONTINUOUS
 62
     7
 10
457.8887626375
 20
239.1850282598
 30
0.0
  0
VERTEX
  5
623
  8
0
  6
CONTINUOUS
 62
     7
 10
457.6450019921
 20
239.1550948072
 30
0.0
  0
VERTEX
  5
624
  8
0
  6
CONTINUOUS
 62
     7
 10
457.4708223189
 20
239.1337086606
 30
0.0
  0
VERTEX
  5
625
  8
0
  6
CONTINUOUS
 62
     7
 10
457.3662891831
 20
239.1208698202
 30
0.0
  0
VERTEX
  5
626
  8
0
  6
CONTINUOUS
 62
     7
 10
457.3314398374
 20
239.1165902067
 30
0.0
  0
SEQEND
  5
94B
  8
0
  6
CONTINUOUS
 62
     7
  0
ARC
  5
248
  8
0
  6
CONTINUOUS
 62
     7
 10
457.6833236716
 20
236.4519828741
 30
0.0
 40
2.711877846168831
 50
165.6589414934
 51
187.0498969927
  0
POLYLINE
  5
249
  8
0
  6
CONTINUOUS
 62
     7
 66
     1
 10
0.0
 20
0.0
 30
0.0
  0
VERTEX
  5
627
  8
0
  6
CONTINUOUS
 62
     7
 10
465.3233244862
 20
174.9925901342
 30
0.0
  0
VERTEX
  5
628
  8
0
  6
CONTINUOUS
 62
     7
 10
465.2414858188
 20
174.9825407911
 30
0.0
  0
VERTEX
  5
629
  8
0
  6
CONTINUOUS
 62
     7
 10
465.2066364731
 20
174.9782611776
 30
0.0
  0
SEQEND
  5
94A
  8
0
  6
CONTINUOUS
 62
     7
  0
ARC
  5
24A
  8
0
  6
CONTINUOUS
 62
     7
 10
465.5595853665
 20
172.3135860314
 30
0.0
 40
2.712926520727876
 50
165.6631254354
 51
187.0459686315
  0
POLYLINE
  5
24B
  8
0
  6
CONTINUOUS
 62
     7
 66
     1
 10
0.0
 20
0.0
 30
0.0
  0
VERTEX
  5
62A
  8
0
  6
CONTINUOUS
 62
     7
 10
465.8622935261
 20
169.6383644987
 30
0.0
  0
VERTEX
  5
62B
  8
0
  6
CONTINUOUS
 62
     7
 10
465.8971428718
 20
169.6426441121
 30
0.0
  0
VERTEX
  5
62C
  8
0
  6
CONTINUOUS
 62
     7
 10
466.0016774978
 20
169.6554829526
 30
0.0
  0
VERTEX
  5
62D
  8
0
  6
CONTINUOUS
 62
     7
 10
466.175857171
 20
169.6768690992
 30
0.0
  0
VERTEX
  5
62E
  8
0
  6
CONTINUOUS
 62
     7
 10
466.4196163262
 20
169.7067906309
 30
0.0
  0
VERTEX
  5
62F
  8
0
  6
CONTINUOUS
 62
     7
 10
466.7328633215
 20
169.7452594686
 30
0.0
  0
VERTEX
  5
630
  8
0
  6
CONTINUOUS
 62
     7
 10
467.1154796924
 20
169.7922398496
 30
0.0
  0
VERTEX
  5
631
  8
0
  6
CONTINUOUS
 62
     7
 10
467.5673216428
 20
169.847719853
 30
0.0
  0
SEQEND
  5
949
  8
0
  6
CONTINUOUS
 62
     7
  0
POLYLINE
  5
24C
  8
0
  6
CONTINUOUS
 62
     7
 66
     1
 10
0.0
 20
0.0
 30
0.0
  0
VERTEX
  5
632
  8
0
  6
CONTINUOUS
 62
     7
 10
463.1722777928
 20
171.0215618062
 30
0.0
  0
VERTEX
  5
633
  8
0
  6
CONTINUOUS
 62
     7
 10
463.1758242692
 20
171.0149337697
 30
0.0
  0
VERTEX
  5
634
  8
0
  6
CONTINUOUS
 62
     7
 10
463.1384342755
 20
171.0863878179
 30
0.0
  0
VERTEX
  5
635
  8
0
  6
CONTINUOUS
 62
     7
 10
463.0642726864
 20
171.2460925031
 30
0.0
  0
VERTEX
  5
636
  8
0
  6
CONTINUOUS
 62
     7
 10
462.9719197597
 20
171.4966108251
 30
0.0
  0
VERTEX
  5
637
  8
0
  6
CONTINUOUS
 62
     7
 10
462.8931432809
 20
171.8126227308
 30
0.0
  0
VERTEX
  5
638
  8
0
  6
CONTINUOUS
 62
     7
 10
462.8671467151
 20
171.9808031965
 30
0.0
  0
SEQEND
  5
948
  8
0
  6
CONTINUOUS
 62
     7
  0
LINE
  5
24D
  8
0
  6
CONTINUOUS
 62
     7
 10
467.5673216428
 20
169.847719853
 30
0.0
 11
467.6151662912
 21
169.8540379453
 31
0.0
  0
LINE
  5
24E
  8
0
  6
CONTINUOUS
 62
     7
 10
456.7964166249
 20
169.2304660726
 30
0.0
 11
448.4361782517
 21
237.3191406179
 31
0.0
  0
POLYLINE
  5
24F
  8
0
  6
CONTINUOUS
 62
     7
 66
     1
 10
0.0
 20
0.0
 30
0.0
  0
VERTEX
  5
639
  8
0
  6
CONTINUOUS
 62
     7
 10
448.4361782517
 20
237.3191406179
 30
0.0
  0
VERTEX
  5
63A
  8
0
  6
CONTINUOUS
 62
     7
 10
448.455251738
 20
237.32147712
 30
0.0
  0
VERTEX
  5
63B
  8
0
  6
CONTINUOUS
 62
     7
 10
448.5117330994
 20
237.3284151006
 30
0.0
  0
VERTEX
  5
63C
  8
0
  6
CONTINUOUS
 62
     7
 10
448.6034527268
 20
237.3396803785
 30
0.0
  0
VERTEX
  5
63D
  8
0
  6
CONTINUOUS
 62
     7
 10
448.7268879856
 20
237.3548318792
 30
0.0
  0
VERTEX
  5
63E
  8
0
  6
CONTINUOUS
 62
     7
 10
448.8772973265
 20
237.3732973981
 30
0.0
  0
VERTEX
  5
63F
  8
0
  6
CONTINUOUS
 62
     7
 10
449.0488931383
 20
237.3943736005
 30
0.0
  0
VERTEX
  5
640
  8
0
  6
CONTINUOUS
 62
     7
 10
449.2350891079
 20
237.4172260213
 30
0.0
  0
VERTEX
  5
641
  8
0
  6
CONTINUOUS
 62
     7
 10
449.4287267174
 20
237.4410082746
 30
0.0
  0
SEQEND
  5
947
  8
0
  6
CONTINUOUS
 62
     7
  0
POLYLINE
  5
250
  8
0
  6
CONTINUOUS
 62
     7
 66
     1
 10
0.0
 20
0.0
 30
0.0
  0
VERTEX
  5
642
  8
0
  6
CONTINUOUS
 62
     7
 10
457.7889621104
 20
169.3523456502
 30
0.0
  0
VERTEX
  5
643
  8
0
  6
CONTINUOUS
 62
     7
 10
457.5953259911
 20
169.328563397
 30
0.0
  0
VERTEX
  5
644
  8
0
  6
CONTINUOUS
 62
     7
 10
457.4091315116
 20
169.3056990552
 30
0.0
  0
VERTEX
  5
645
  8
0
  6
CONTINUOUS
 62
     7
 10
457.2375327195
 20
169.2846347738
 30
0.0
  0
VERTEX
  5
646
  8
0
  6
CONTINUOUS
 62
     7
 10
457.0871263589
 20
169.2661692548
 30
0.0
  0
VERTEX
  5
647
  8
0
  6
CONTINUOUS
 62
     7
 10
456.9636911
 20
169.2510058332
 30
0.0
  0
VERTEX
  5
648
  8
0
  6
CONTINUOUS
 62
     7
 10
456.8719699825
 20
169.2397524763
 30
0.0
  0
VERTEX
  5
649
  8
0
  6
CONTINUOUS
 62
     7
 10
456.815487131
 20
169.2328144956
 30
0.0
  0
VERTEX
  5
64A
  8
0
  6
CONTINUOUS
 62
     7
 10
456.7964166249
 20
169.2304660726
 30
0.0
  0
SEQEND
  5
946
  8
0
  6
CONTINUOUS
 62
     7
  0
LINE
  5
251
  8
0
  6
CONTINUOUS
 62
     7
 10
461.7591470327
 20
169.8398162771
 30
0.0
 11
457.7889621104
 21
169.3523456502
 31
0.0
  0
LINE
  5
252
  8
0
  6
CONTINUOUS
 62
     7
 10
453.3989086594
 20
237.9284789014
 30
0.0
 11
449.4287267174
 21
237.4410082746
 31
0.0
  0
LINE
  5
253
  8
0
  6
CONTINUOUS
 62
     7
 10
454.391455635
 20
238.0503584791
 30
0.0
 11
462.7516925181
 21
169.9616839338
 31
0.0
  0
POLYLINE
  5
254
  8
0
  6
CONTINUOUS
 62
     7
 66
     1
 10
0.0
 20
0.0
 30
0.0
  0
VERTEX
  5
64B
  8
0
  6
CONTINUOUS
 62
     7
 10
462.7516925181
 20
169.9616839338
 30
0.0
  0
VERTEX
  5
64C
  8
0
  6
CONTINUOUS
 62
     7
 10
462.7326220121
 20
169.9593474317
 30
0.0
  0
VERTEX
  5
64D
  8
0
  6
CONTINUOUS
 62
     7
 10
462.6761406507
 20
169.952409451
 30
0.0
  0
VERTEX
  5
64E
  8
0
  6
CONTINUOUS
 62
     7
 10
462.5844195332
 20
169.9411441732
 30
0.0
  0
VERTEX
  5
64F
  8
0
  6
CONTINUOUS
 62
     7
 10
462.4609827842
 20
169.9259926725
 30
0.0
  0
VERTEX
  5
650
  8
0
  6
CONTINUOUS
 62
     7
 10
462.3105764236
 20
169.9075271535
 30
0.0
  0
VERTEX
  5
651
  8
0
  6
CONTINUOUS
 62
     7
 10
462.1389776315
 20
169.8864509511
 30
0.0
  0
VERTEX
  5
652
  8
0
  6
CONTINUOUS
 62
     7
 10
461.952783152
 20
169.8635985303
 30
0.0
  0
VERTEX
  5
653
  8
0
  6
CONTINUOUS
 62
     7
 10
461.7591470327
 20
169.8398162771
 30
0.0
  0
SEQEND
  5
945
  8
0
  6
CONTINUOUS
 62
     7
  0
POLYLINE
  5
255
  8
0
  6
CONTINUOUS
 62
     7
 66
     1
 10
0.0
 20
0.0
 30
0.0
  0
VERTEX
  5
654
  8
0
  6
CONTINUOUS
 62
     7
 10
453.3989086594
 20
237.9284789014
 30
0.0
  0
VERTEX
  5
655
  8
0
  6
CONTINUOUS
 62
     7
 10
453.5925462689
 20
237.9522611547
 30
0.0
  0
VERTEX
  5
656
  8
0
  6
CONTINUOUS
 62
     7
 10
453.7787422384
 20
237.9751254964
 30
0.0
  0
VERTEX
  5
657
  8
0
  6
CONTINUOUS
 62
     7
 10
453.9503380503
 20
237.9961897779
 30
0.0
  0
VERTEX
  5
658
  8
0
  6
CONTINUOUS
 62
     7
 10
454.100745901
 20
238.0146552968
 30
0.0
  0
VERTEX
  5
659
  8
0
  6
CONTINUOUS
 62
     7
 10
454.22418265
 20
238.0298187185
 30
0.0
  0
VERTEX
  5
65A
  8
0
  6
CONTINUOUS
 62
     7
 10
454.3159037675
 20
238.0410720754
 30
0.0
  0
VERTEX
  5
65B
  8
0
  6
CONTINUOUS
 62
     7
 10
454.3723851289
 20
238.0480100561
 30
0.0
  0
VERTEX
  5
65C
  8
0
  6
CONTINUOUS
 62
     7
 10
454.391455635
 20
238.0503584791
 30
0.0
  0
SEQEND
  5
944
  8
0
  6
CONTINUOUS
 62
     7
  0
LINE
  5
256
  8
0
  6
CONTINUOUS
 62
     7
 10
473.9559706147
 20
118.5998608518
 30
0.0
 11
473.3559705164
 21
118.5998608518
 31
0.0
  0
LINE
  5
257
  8
0
  6
CONTINUOUS
 62
     7
 10
473.3559705164
 20
118.5998608518
 30
0.0
 11
473.3559705164
 21
119.5998658586
 31
0.0
  0
LINE
  5
258
  8
0
  6
CONTINUOUS
 62
     7
 10
484.9559705551
 20
119.5998658586
 30
0.0
 11
484.9559705551
 21
118.5998608518
 31
0.0
  0
LINE
  5
259
  8
0
  6
CONTINUOUS
 62
     7
 10
484.9559705551
 20
118.5998608518
 30
0.0
 11
484.3559708293
 21
118.5998608518
 31
0.0
  0
LINE
  5
25A
  8
0
  6
CONTINUOUS
 62
     7
 10
484.3559708293
 20
118.5998608518
 30
0.0
 11
484.3559708293
 21
119.5998658586
 31
0.0
  0
LINE
  5
25B
  8
0
  6
CONTINUOUS
 62
     7
 10
472.355970725
 20
118.5998608518
 30
0.0
 11
468.3559708144
 21
118.5998608518
 31
0.0
  0
LINE
  5
25C
  8
0
  6
CONTINUOUS
 62
     7
 10
457.5704514827
 20
162.9264642644
 30
0.0
 11
456.7964166249
 21
169.2304660726
 31
0.0
  0
POLYLINE
  5
25D
  8
0
  6
CONTINUOUS
 62
     7
 66
     1
 10
0.0
 20
0.0
 30
0.0
  0
VERTEX
  5
65D
  8
0
  6
CONTINUOUS
 62
     7
 10
457.7889621104
 20
169.3523456502
 30
0.0
  0
VERTEX
  5
65E
  8
0
  6
CONTINUOUS
 62
     7
 10
457.5953259911
 20
169.328563397
 30
0.0
  0
VERTEX
  5
65F
  8
0
  6
CONTINUOUS
 62
     7
 10
457.4091315116
 20
169.3056990552
 30
0.0
  0
VERTEX
  5
660
  8
0
  6
CONTINUOUS
 62
     7
 10
457.2375327195
 20
169.2846347738
 30
0.0
  0
VERTEX
  5
661
  8
0
  6
CONTINUOUS
 62
     7
 10
457.0871263589
 20
169.2661692548
 30
0.0
  0
VERTEX
  5
662
  8
0
  6
CONTINUOUS
 62
     7
 10
456.9636911
 20
169.2510058332
 30
0.0
  0
VERTEX
  5
663
  8
0
  6
CONTINUOUS
 62
     7
 10
456.8719699825
 20
169.2397524763
 30
0.0
  0
VERTEX
  5
664
  8
0
  6
CONTINUOUS
 62
     7
 10
456.815487131
 20
169.2328144956
 30
0.0
  0
VERTEX
  5
665
  8
0
  6
CONTINUOUS
 62
     7
 10
456.7964166249
 20
169.2304660726
 30
0.0
  0
SEQEND
  5
943
  8
0
  6
CONTINUOUS
 62
     7
  0
ARC
  5
25E
  8
0
  6
CONTINUOUS
 62
     7
 10
476.4288276724
 20
165.2419833888
 30
0.0
 40
13.00000000000002
 50
187.0
 51
203.0
  0
LINE
  5
25F
  8
0
  6
CONTINUOUS
 62
     7
 10
463.5257273759
 20
163.6576821256
 30
0.0
 11
462.7516925181
 21
169.9616839338
 31
0.0
  0
POLYLINE
  5
260
  8
0
  6
CONTINUOUS
 62
     7
 66
     1
 10
0.0
 20
0.0
 30
0.0
  0
VERTEX
  5
666
  8
0
  6
CONTINUOUS
 62
     7
 10
462.7516925181
 20
169.9616839338
 30
0.0
  0
VERTEX
  5
667
  8
0
  6
CONTINUOUS
 62
     7
 10
462.7326220121
 20
169.9593474317
 30
0.0
  0
VERTEX
  5
668
  8
0
  6
CONTINUOUS
 62
     7
 10
462.6761406507
 20
169.952409451
 30
0.0
  0
VERTEX
  5
669
  8
0
  6
CONTINUOUS
 62
     7
 10
462.5844195332
 20
169.9411441732
 30
0.0
  0
VERTEX
  5
66A
  8
0
  6
CONTINUOUS
 62
     7
 10
462.4609827842
 20
169.9259926725
 30
0.0
  0
VERTEX
  5
66B
  8
0
  6
CONTINUOUS
 62
     7
 10
462.3105764236
 20
169.9075271535
 30
0.0
  0
VERTEX
  5
66C
  8
0
  6
CONTINUOUS
 62
     7
 10
462.1389776315
 20
169.8864509511
 30
0.0
  0
VERTEX
  5
66D
  8
0
  6
CONTINUOUS
 62
     7
 10
461.952783152
 20
169.8635985303
 30
0.0
  0
VERTEX
  5
66E
  8
0
  6
CONTINUOUS
 62
     7
 10
461.7591470327
 20
169.8398162771
 30
0.0
  0
SEQEND
  5
942
  8
0
  6
CONTINUOUS
 62
     7
  0
ARC
  5
261
  8
0
  6
CONTINUOUS
 62
     7
 10
476.4288276724
 20
165.2419833888
 30
0.0
 40
19.00000000000004
 50
187.0
 51
203.0
  0
LINE
  5
262
  8
0
  6
CONTINUOUS
 62
     7
 10
458.9392348971
 20
157.8180958677
 30
0.0
 11
466.322533771
 21
140.4241313386
 31
0.0
  0
LINE
  5
263
  8
0
  6
CONTINUOUS
 62
     7
 10
467.355971023
 20
135.3446235109
 30
0.0
 11
467.355971023
 21
118.5998608518
 31
0.0
  0
LINE
  5
264
  8
0
  6
CONTINUOUS
 62
     7
 10
468.3559708144
 20
118.5998608518
 30
0.0
 11
467.355971023
 21
118.5998608518
 31
0.0
  0
ARC
  5
265
  8
0
  6
CONTINUOUS
 62
     7
 10
454.3559706892
 20
135.3446264452
 30
0.0
 40
13.00000000000002
 50
0.0
 51
23.0
  0
LINE
  5
266
  8
0
  6
CONTINUOUS
 62
     7
 10
464.4622638668
 20
160.1624776769
 30
0.0
 11
471.8455627407
 21
142.7685191083
 31
0.0
  0
ARC
  5
267
  8
0
  6
CONTINUOUS
 62
     7
 10
454.3559706892
 20
135.3446264452
 30
0.0
 40
19.00000000000003
 50
4.1945718162
 51
23.0
  0
LINE
  5
268
  8
0
  6
CONTINUOUS
 62
     7
 10
473.3559705164
 20
118.5998608518
 30
0.0
 11
472.355970725
 21
118.5998608518
 31
0.0
  0
ARC
  5
269
  8
0
  6
CONTINUOUS
 62
     7
 10
483.9559706892
 20
128.599863236
 30
0.0
 40
0.2000000000000455
 50
0.0
 51
90.0
  0
LINE
  5
26A
  8
0
  6
CONTINUOUS
 62
     7
 10
484.1559707965
 20
121.5998639512
 30
0.0
 11
484.1559707965
 21
128.599863236
 31
0.0
  0
ARC
  5
26B
  8
0
  6
CONTINUOUS
 62
     7
 10
474.1559706892
 20
128.599863236
 30
0.0
 40
1.0
 50
90.0
 51
180.0
  0
LINE
  5
26C
  8
0
  6
CONTINUOUS
 62
     7
 10
473.9559706147
 20
119.5998658586
 30
0.0
 11
473.1559708561
 21
119.5998658586
 31
0.0
  0
LINE
  5
26D
  8
0
  6
CONTINUOUS
 62
     7
 10
473.9559706147
 20
119.7998632837
 30
0.0
 11
473.9559706147
 21
119.5998658586
 31
0.0
  0
LINE
  5
26E
  8
0
  6
CONTINUOUS
 62
     7
 10
473.1559708561
 20
119.5998658586
 30
0.0
 11
473.1559708561
 21
119.7998632837
 31
0.0
  0
LINE
  5
26F
  8
0
  6
CONTINUOUS
 62
     7
 10
484.9559705551
 20
119.5998658586
 30
0.0
 11
484.1559707965
 21
119.5998658586
 31
0.0
  0
LINE
  5
270
  8
0
  6
CONTINUOUS
 62
     7
 10
484.9559705551
 20
119.7998632837
 30
0.0
 11
484.9559705551
 21
119.5998658586
 31
0.0
  0
LINE
  5
271
  8
0
  6
CONTINUOUS
 62
     7
 10
484.1559707965
 20
119.5998658586
 30
0.0
 11
484.1559707965
 21
121.5998639512
 31
0.0
  0
POLYLINE
  5
272
  8
0
  6
CONTINUOUS
 62
     7
 66
     1
 10
0.0
 20
0.0
 30
0.0
  0
VERTEX
  5
66F
  8
0
  6
CONTINUOUS
 62
     7
 10
497.0068767513
 20
144.9919571329
 30
0.0
  0
VERTEX
  5
670
  8
0
  6
CONTINUOUS
 62
     7
 10
497.1768438663
 20
145.3564276147
 30
0.0
  0
VERTEX
  5
671
  8
0
  6
CONTINUOUS
 62
     7
 10
497.424368545
 20
145.6946660924
 30
0.0
  0
VERTEX
  5
672
  8
0
  6
CONTINUOUS
 62
     7
 10
497.816379353
 20
146.0676898408
 30
0.0
  0
VERTEX
  5
673
  8
0
  6
CONTINUOUS
 62
     7
 10
498.2739955033
 20
146.3834752489
 30
0.0
  0
VERTEX
  5
674
  8
0
  6
CONTINUOUS
 62
     7
 10
499.047990128
 20
146.7620899129
 30
0.0
  0
VERTEX
  5
675
  8
0
  6
CONTINUOUS
 62
     7
 10
499.8821616019
 20
147.039865439
 30
0.0
  0
SEQEND
  5
941
  8
0
  6
CONTINUOUS
 62
     7
  0
POLYLINE
  5
273
  8
0
  6
CONTINUOUS
 62
     7
 66
     1
 10
0.0
 20
0.0
 30
0.0
  0
VERTEX
  5
676
  8
0
  6
CONTINUOUS
 62
     7
 10
502.7894303049
 20
142.2024359155
 30
0.0
  0
VERTEX
  5
677
  8
0
  6
CONTINUOUS
 62
     7
 10
500.7580384459
 20
142.2592033792
 30
0.0
  0
VERTEX
  5
678
  8
0
  6
CONTINUOUS
 62
     7
 10
499.6671825494
 20
142.3873354841
 30
0.0
  0
VERTEX
  5
679
  8
0
  6
CONTINUOUS
 62
     7
 10
498.6072137798
 20
142.6605810571
 30
0.0
  0
VERTEX
  5
67A
  8
0
  6
CONTINUOUS
 62
     7
 10
497.9159429516
 20
142.9842521596
 30
0.0
  0
VERTEX
  5
67B
  8
0
  6
CONTINUOUS
 62
     7
 10
497.6002365197
 20
143.205683415
 30
0.0
  0
VERTEX
  5
67C
  8
0
  6
CONTINUOUS
 62
     7
 10
497.3233982767
 20
143.4730936933
 30
0.0
  0
VERTEX
  5
67D
  8
0
  6
CONTINUOUS
 62
     7
 10
497.0343932356
 20
143.9355065275
 30
0.0
  0
VERTEX
  5
67E
  8
0
  6
CONTINUOUS
 62
     7
 10
496.9227343644
 20
144.472532456
 30
0.0
  0
VERTEX
  5
67F
  8
0
  6
CONTINUOUS
 62
     7
 10
497.0068767513
 20
144.9919571329
 30
0.0
  0
SEQEND
  5
940
  8
0
  6
CONTINUOUS
 62
     7
  0
LINE
  5
274
  8
0
  6
CONTINUOUS
 62
     7
 10
505.0559714283
 20
142.2108401704
 30
0.0
 11
502.7894303049
 21
142.2024359155
 31
0.0
  0
LINE
  5
275
  8
0
  6
CONTINUOUS
 62
     7
 10
516.0559698786
 20
142.2108401704
 30
0.0
 11
505.0559714283
 21
142.2108401704
 31
0.0
  0
ARC
  5
276
  8
0
  6
CONTINUOUS
 62
     7
 10
476.661952447
 20
255.0893728367
 30
0.0
 40
120.0
 50
280.9468409701
 51
289.1646231125
  0
LINE
  5
277
  8
0
  6
CONTINUOUS
 62
     7
 10
499.4497313942
 20
137.2729172159
 30
0.0
 11
495.0367852892
 21
136.4193787027
 31
0.0
  0
ARC
  5
278
  8
0
  6
CONTINUOUS
 62
     7
 10
496.5559706892
 20
128.5649456876
 30
0.0
 40
8.000000000000025
 50
100.9468409701
 51
180.0
  0
LINE
  5
279
  8
0
  6
CONTINUOUS
 62
     7
 10
488.5559707727
 20
128.5649468351
 30
0.0
 11
488.5559707727
 21
127.7998616147
 31
0.0
  0
ARC
  5
27A
  8
0
  6
CONTINUOUS
 62
     7
 10
486.5559706892
 20
127.799863236
 30
0.0
 40
2.0
 50
270.0
 51
0.0
  0
LINE
  5
27B
  8
0
  6
CONTINUOUS
 62
     7
 10
486.5559704448
 20
125.7998635221
 30
0.0
 11
485.1559705879
 21
125.7998635221
 31
0.0
  0
LINE
  5
27C
  8
0
  6
CONTINUOUS
 62
     7
 10
473.1559708561
 20
125.7998635221
 30
0.0
 11
472.355970725
 21
125.7998635221
 31
0.0
  0
ARC
  5
27D
  8
0
  6
CONTINUOUS
 62
     7
 10
472.3559706892
 20
127.799863236
 30
0.0
 40
2.0
 50
180.0
 51
270.0
  0
LINE
  5
27E
  8
0
  6
CONTINUOUS
 62
     7
 10
470.3559703971
 20
127.7998616147
 30
0.0
 11
470.3559703971
 21
130.3608884263
 31
0.0
  0
ARC
  5
27F
  8
0
  6
CONTINUOUS
 62
     7
 10
478.3559706892
 20
130.3608876864
 30
0.0
 40
8.000000000000025
 50
140.3596923241
 51
180.0
  0
ARC
  5
280
  8
0
  6
CONTINUOUS
 62
     7
 10
496.8375216486
 20
115.0497063428
 30
0.0
 40
32.00000000000001
 50
129.5627908875
 51
140.3596923241
  0
ARC
  5
281
  8
0
  6
CONTINUOUS
 62
     7
 10
496.8375216486
 20
115.0497063428
 30
0.0
 40
32.00000000000001
 50
91.4211498515
 51
117.9157975373
  0
LINE
  5
282
  8
0
  6
CONTINUOUS
 62
     7
 10
496.0438832487
 20
147.039865439
 30
0.0
 11
499.8821616019
 21
147.039865439
 31
0.0
  0
LINE
  5
283
  8
0
  6
CONTINUOUS
 62
     7
 10
516.0559698786
 20
142.2108401704
 30
0.0
 11
516.0559698786
 21
141.7398621488
 31
0.0
  0
LINE
  5
284
  8
0
  6
CONTINUOUS
 62
     7
 10
554.6759709562
 20
141.2045230317
 30
0.0
 11
554.6759709562
 21
141.0878767419
 31
0.0
  0
LINE
  5
285
  8
0
  6
CONTINUOUS
 62
     7
 10
560.0559696402
 20
141.0878767419
 30
0.0
 11
560.0559696402
 21
142.8057064462
 31
0.0
  0
LINE
  5
286
  8
0
  6
CONTINUOUS
 62
     7
 10
560.0559696402
 20
142.8057064462
 30
0.0
 11
560.0555285658
 21
142.8539623666
 31
0.0
  0
LINE
  5
287
  8
0
  6
CONTINUOUS
 62
     7
 10
482.9559705998
 20
118.7998642373
 30
0.0
 11
474.9559707786
 21
118.7998642373
 31
0.0
  0
LINE
  5
288
  8
0
  6
CONTINUOUS
 62
     7
 10
474.9559707786
 20
128.7998606611
 30
0.0
 11
482.9559705998
 21
128.7998606611
 31
0.0
  0
ARC
  5
289
  8
0
  6
CONTINUOUS
 62
     7
 10
474.9559706892
 20
119.799863236
 30
0.0
 40
1.0
 50
180.0
 51
270.0
  0
LINE
  5
28A
  8
0
  6
CONTINUOUS
 62
     7
 10
473.9559706147
 20
119.7998632837
 30
0.0
 11
473.9559706147
 21
127.7998616147
 31
0.0
  0
ARC
  5
28B
  8
0
  6
CONTINUOUS
 62
     7
 10
474.9559706892
 20
127.799863236
 30
0.0
 40
1.0
 50
90.0
 51
180.0
  0
ARC
  5
28C
  8
0
  6
CONTINUOUS
 62
     7
 10
482.9559706892
 20
127.799863236
 30
0.0
 40
1.0
 50
0.0
 51
90.0
  0
LINE
  5
28D
  8
0
  6
CONTINUOUS
 62
     7
 10
483.9559707637
 20
127.7998616147
 30
0.0
 11
483.9559707637
 21
119.7998632837
 31
0.0
  0
ARC
  5
28E
  8
0
  6
CONTINUOUS
 62
     7
 10
482.9559706892
 20
119.799863236
 30
0.0
 40
1.0
 50
270.0
 51
0.0
  0
LINE
  5
28F
  8
0
  6
CONTINUOUS
 62
     7
 10
470.955970868
 20
53.599863236
 30
0.0
 11
466.9559709574
 21
53.599863236
 31
0.0
  0
LINE
  5
290
  8
0
  6
CONTINUOUS
 62
     7
 10
466.9559709574
 20
53.599863236
 30
0.0
 11
466.9559709574
 21
54.7998632464
 31
0.0
  0
LINE
  5
291
  8
0
  6
CONTINUOUS
 62
     7
 10
466.9559709574
 20
54.7998632464
 30
0.0
 11
470.955970868
 21
54.7998632464
 31
0.0
  0
LINE
  5
292
  8
0
  6
CONTINUOUS
 62
     7
 10
470.955970868
 20
53.599863236
 30
0.0
 11
472.9559708233
 21
53.599863236
 31
0.0
  0
LINE
  5
293
  8
0
  6
CONTINUOUS
 62
     7
 10
470.955970868
 20
54.7998632464
 30
0.0
 11
472.9559708233
 21
54.7998632464
 31
0.0
  0
LINE
  5
294
  8
0
  6
CONTINUOUS
 62
     7
 10
472.9559708233
 20
53.599863236
 30
0.0
 11
500.3243923034
 21
53.599863236
 31
0.0
  0
LINE
  5
295
  8
0
  6
CONTINUOUS
 62
     7
 10
500.3243923034
 20
54.7998632464
 30
0.0
 11
472.9559708233
 21
54.7998632464
 31
0.0
  0
LINE
  5
296
  8
0
  6
CONTINUOUS
 62
     7
 10
502.9559701528
 20
54.7998632464
 30
0.0
 11
502.9559701528
 21
53.599863236
 31
0.0
  0
LINE
  5
297
  8
0
  6
CONTINUOUS
 62
     7
 10
502.9559701528
 20
53.599863236
 30
0.0
 11
500.3243923034
 21
53.599863236
 31
0.0
  0
LINE
  5
298
  8
0
  6
CONTINUOUS
 62
     7
 10
500.3243923034
 20
54.7998632464
 30
0.0
 11
502.9559701528
 21
54.7998632464
 31
0.0
  0
LINE
  5
299
  8
0
  6
CONTINUOUS
 62
     7
 10
473.9559706147
 20
54.7998632464
 30
0.0
 11
473.9559706147
 21
119.5998658586
 31
0.0
  0
LINE
  5
29A
  8
0
  6
CONTINUOUS
 62
     7
 10
483.9559707637
 20
119.7998632837
 30
0.0
 11
483.9559707637
 21
54.7998632464
 31
0.0
  0
LINE
  5
29B
  8
0
  6
CONTINUOUS
 62
     7
 10
144.4515647042
 20
-37.9652892209
 30
0.0
 11
144.4515647042
 21
-52.9652887226
 31
0.0
  0
LINE
  5
29C
  8
0
  6
CONTINUOUS
 62
     7
 10
149.8515607464
 20
-52.9652887226
 30
0.0
 11
149.8515607464
 21
-37.9652892209
 31
0.0
  0
LINE
  5
29D
  8
0
  6
CONTINUOUS
 62
     7
 10
149.8515607464
 20
-72.9652890206
 30
0.0
 11
149.8515607464
 21
-52.9652887226
 31
0.0
  0
LINE
  5
29E
  8
0
  6
CONTINUOUS
 62
     7
 10
144.4515647042
 20
-52.9652887226
 30
0.0
 11
144.4515647042
 21
-72.9652890206
 31
0.0
  0
LINE
  5
29F
  8
0
  6
CONTINUOUS
 62
     7
 10
144.4515647042
 20
-72.9652890206
 30
0.0
 11
144.4515647042
 21
-87.9652866365
 31
0.0
  0
LINE
  5
2A0
  8
0
  6
CONTINUOUS
 62
     7
 10
149.8515607464
 20
-87.9652866365
 30
0.0
 11
149.8515607464
 21
-72.9652890206
 31
0.0
  0
LINE
  5
2A1
  8
0
  6
CONTINUOUS
 62
     7
 10
24.4515599358
 20
-37.9652892209
 30
0.0
 11
24.4515599358
 21
-52.9652887226
 31
0.0
  0
LINE
  5
2A2
  8
0
  6
CONTINUOUS
 62
     7
 10
29.8515619385
 20
-52.9652887226
 30
0.0
 11
29.8515619385
 21
-37.9652892209
 31
0.0
  0
LINE
  5
2A3
  8
0
  6
CONTINUOUS
 62
     7
 10
29.8515619385
 20
-72.9652890206
 30
0.0
 11
29.8515619385
 21
-52.9652887226
 31
0.0
  0
LINE
  5
2A4
  8
0
  6
CONTINUOUS
 62
     7
 10
24.4515599358
 20
-52.9652887226
 30
0.0
 11
24.4515599358
 21
-72.9652890206
 31
0.0
  0
LINE
  5
2A5
  8
0
  6
CONTINUOUS
 62
     7
 10
24.4515599358
 20
-72.9652890206
 30
0.0
 11
24.4515599358
 21
-87.9652866365
 31
0.0
  0
LINE
  5
2A6
  8
0
  6
CONTINUOUS
 62
     7
 10
29.8515619385
 20
-87.9652866365
 30
0.0
 11
29.8515619385
 21
-72.9652890206
 31
0.0
  0
LINE
  5
2A7
  8
0
  6
CONTINUOUS
 62
     7
 10
264.4515635121
 20
-37.9652892209
 30
0.0
 11
264.4515635121
 21
-52.9652887226
 31
0.0
  0
LINE
  5
2A8
  8
0
  6
CONTINUOUS
 62
     7
 10
269.8515595543
 20
-52.9652887226
 30
0.0
 11
269.8515595543
 21
-37.9652892209
 31
0.0
  0
LINE
  5
2A9
  8
0
  6
CONTINUOUS
 62
     7
 10
269.8515595543
 20
-72.9652890206
 30
0.0
 11
269.8515595543
 21
-52.9652887226
 31
0.0
  0
LINE
  5
2AA
  8
0
  6
CONTINUOUS
 62
     7
 10
264.4515635121
 20
-52.9652887226
 30
0.0
 11
264.4515635121
 21
-72.9652890206
 31
0.0
  0
LINE
  5
2AB
  8
0
  6
CONTINUOUS
 62
     7
 10
264.4515635121
 20
-72.9652890206
 30
0.0
 11
264.4515635121
 21
-87.9652866365
 31
0.0
  0
LINE
  5
2AC
  8
0
  6
CONTINUOUS
 62
     7
 10
269.8515595543
 20
-87.9652866365
 30
0.0
 11
269.8515595543
 21
-72.9652890206
 31
0.0
  0
LINE
  5
2AD
  8
0
  6
CONTINUOUS
 62
     7
 10
384.45156232
 20
-37.9652892209
 30
0.0
 11
384.45156232
 21
-52.9652887226
 31
0.0
  0
LINE
  5
2AE
  8
0
  6
CONTINUOUS
 62
     7
 10
389.8515643227
 20
-52.9652887226
 30
0.0
 11
389.8515643227
 21
-37.9652892209
 31
0.0
  0
LINE
  5
2AF
  8
0
  6
CONTINUOUS
 62
     7
 10
389.8515643227
 20
-72.9652890206
 30
0.0
 11
389.8515643227
 21
-52.9652887226
 31
0.0
  0
LINE
  5
2B0
  8
0
  6
CONTINUOUS
 62
     7
 10
384.45156232
 20
-52.9652887226
 30
0.0
 11
384.45156232
 21
-72.9652890206
 31
0.0
  0
LINE
  5
2B1
  8
0
  6
CONTINUOUS
 62
     7
 10
384.45156232
 20
-72.9652890206
 30
0.0
 11
384.45156232
 21
-87.9652866365
 31
0.0
  0
LINE
  5
2B2
  8
0
  6
CONTINUOUS
 62
     7
 10
389.8515643227
 20
-87.9652866365
 30
0.0
 11
389.8515643227
 21
-72.9652890206
 31
0.0
  0
POLYLINE
  5
2B3
  8
0
  6
CONTINUOUS
 62
     7
 66
     1
 10
0.0
 20
0.0
 30
0.0
  0
VERTEX
  5
680
  8
0
  6
CONTINUOUS
 62
     7
 10
301.5687944043
 20
-15.5095764638
 30
0.0
  0
VERTEX
  5
681
  8
0
  6
CONTINUOUS
 62
     7
 10
300.7726968873
 20
-15.6215512396
 30
0.0
  0
VERTEX
  5
682
  8
0
  6
CONTINUOUS
 62
     7
 10
299.8660089123
 20
-15.7613479735
 30
0.0
  0
VERTEX
  5
683
  8
0
  6
CONTINUOUS
 62
     7
 10
298.9687682736
 20
-15.9121313335
 30
0.0
  0
VERTEX
  5
684
  8
0
  6
CONTINUOUS
 62
     7
 10
298.0855883706
 20
-16.0732471586
 30
0.0
  0
VERTEX
  5
685
  8
0
  6
CONTINUOUS
 62
     7
 10
297.2310783017
 20
-16.2415051104
 30
0.0
  0
VERTEX
  5
686
  8
0
  6
CONTINUOUS
 62
     7
 10
296.392136966
 20
-16.4187872053
 30
0.0
  0
VERTEX
  5
687
  8
0
  6
CONTINUOUS
 62
     7
 10
295.5700637448
 20
-16.6046344877
 30
0.0
  0
VERTEX
  5
688
  8
0
  6
CONTINUOUS
 62
     7
 10
294.7709621537
 20
-16.797589624
 30
0.0
  0
VERTEX
  5
689
  8
0
  6
CONTINUOUS
 62
     7
 10
294.0006734478
 20
-16.9961952807
 30
0.0
  0
VERTEX
  5
68A
  8
0
  6
CONTINUOUS
 62
     7
 10
293.264454757
 20
-17.1991073729
 30
0.0
  0
VERTEX
  5
68B
  8
0
  6
CONTINUOUS
 62
     7
 10
292.5665082085
 20
-17.4052992107
 30
0.0
  0
VERTEX
  5
68C
  8
0
  6
CONTINUOUS
 62
     7
 10
291.9123114693
 20
-17.6129409314
 30
0.0
  0
VERTEX
  5
68D
  8
0
  6
CONTINUOUS
 62
     7
 10
291.3131298172
 20
-17.8175145031
 30
0.0
  0
VERTEX
  5
68E
  8
0
  6
CONTINUOUS
 62
     7
 10
290.7289268124
 20
-18.0334546805
 30
0.0
  0
VERTEX
  5
68F
  8
0
  6
CONTINUOUS
 62
     7
 10
290.1754917252
 20
-18.25750556
 30
0.0
  0
VERTEX
  5
690
  8
0
  6
CONTINUOUS
 62
     7
 10
289.6451713192
 20
-18.4966334344
 30
0.0
  0
VERTEX
  5
691
  8
0
  6
CONTINUOUS
 62
     7
 10
289.1192199338
 20
-18.7687405587
 30
0.0
  0
VERTEX
  5
692
  8
0
  6
CONTINUOUS
 62
     7
 10
288.6775077927
 20
-19.0395483018
 30
0.0
  0
VERTEX
  5
693
  8
0
  6
CONTINUOUS
 62
     7
 10
288.3728863347
 20
-19.261568153
 30
0.0
  0
VERTEX
  5
694
  8
0
  6
CONTINUOUS
 62
     7
 10
288.1133557904
 20
-19.4845997931
 30
0.0
  0
VERTEX
  5
695
  8
0
  6
CONTINUOUS
 62
     7
 10
287.8790439713
 20
-19.7247141243
 30
0.0
  0
VERTEX
  5
696
  8
0
  6
CONTINUOUS
 62
     7
 10
287.6666070569
 20
-19.9894615651
 30
0.0
  0
VERTEX
  5
697
  8
0
  6
CONTINUOUS
 62
     7
 10
287.4769987214
 20
-20.2854969741
 30
0.0
  0
VERTEX
  5
698
  8
0
  6
CONTINUOUS
 62
     7
 10
287.3163761246
 20
-20.6150510551
 30
0.0
  0
VERTEX
  5
699
  8
0
  6
CONTINUOUS
 62
     7
 10
287.1935249913
 20
-20.9751361252
 30
0.0
  0
VERTEX
  5
69A
  8
0
  6
CONTINUOUS
 62
     7
 10
287.116885339
 20
-21.3585370422
 30
0.0
  0
VERTEX
  5
69B
  8
0
  6
CONTINUOUS
 62
     7
 10
287.0945097554
 20
-21.7245006205
 30
0.0
  0
SEQEND
  5
93F
  8
0
  6
CONTINUOUS
 62
     7
  0
POLYLINE
  5
2B4
  8
0
  6
CONTINUOUS
 62
     7
 66
     1
 10
0.0
 20
0.0
 30
0.0
  0
VERTEX
  5
69C
  8
0
  6
CONTINUOUS
 62
     7
 10
367.2047437775
 20
-21.737288797
 30
0.0
  0
VERTEX
  5
69D
  8
0
  6
CONTINUOUS
 62
     7
 10
367.2083319771
 20
-21.6640287281
 30
0.0
  0
VERTEX
  5
69E
  8
0
  6
CONTINUOUS
 62
     7
 10
367.1711386788
 20
-21.2651708366
 30
0.0
  0
VERTEX
  5
69F
  8
0
  6
CONTINUOUS
 62
     7
 10
367.0842112649
 20
-20.89075979
 30
0.0
  0
VERTEX
  5
6A0
  8
0
  6
CONTINUOUS
 62
     7
 10
366.9561089623
 20
-20.5460348369
 30
0.0
  0
VERTEX
  5
6A1
  8
0
  6
CONTINUOUS
 62
     7
 10
366.7956890214
 20
-20.234152043
 30
0.0
  0
VERTEX
  5
6A2
  8
0
  6
CONTINUOUS
 62
     7
 10
366.6109861481
 20
-19.9553900601
 30
0.0
  0
VERTEX
  5
6A3
  8
0
  6
CONTINUOUS
 62
     7
 10
366.4074243653
 20
-19.706539178
 30
0.0
  0
VERTEX
  5
6A4
  8
0
  6
CONTINUOUS
 62
     7
 10
366.1858381379
 20
-19.4810935498
 30
0.0
  0
VERTEX
  5
6A5
  8
0
  6
CONTINUOUS
 62
     7
 10
365.9407199967
 20
-19.2699023725
 30
0.0
  0
VERTEX
  5
6A6
  8
0
  6
CONTINUOUS
 62
     7
 10
365.6544984925
 20
-19.0592029334
 30
0.0
  0
VERTEX
  5
6A7
  8
0
  6
CONTINUOUS
 62
     7
 10
365.2815045464
 20
-18.8249596597
 30
0.0
  0
VERTEX
  5
6A8
  8
0
  6
CONTINUOUS
 62
     7
 10
364.801675235
 20
-18.5677119733
 30
0.0
  0
VERTEX
  5
6A9
  8
0
  6
CONTINUOUS
 62
     7
 10
364.2703594315
 20
-18.3201172591
 30
0.0
  0
VERTEX
  5
6AA
  8
0
  6
CONTINUOUS
 62
     7
 10
363.7332142937
 20
-18.0964731814
 30
0.0
  0
VERTEX
  5
6AB
  8
0
  6
CONTINUOUS
 62
     7
 10
363.1150545228
 20
-17.8627395273
 30
0.0
  0
VERTEX
  5
6AC
  8
0
  6
CONTINUOUS
 62
     7
 10
362.476891433
 20
-17.6415824534
 30
0.0
  0
VERTEX
  5
6AD
  8
0
  6
CONTINUOUS
 62
     7
 10
361.8140281785
 20
-17.4291112662
 30
0.0
  0
VERTEX
  5
6AE
  8
0
  6
CONTINUOUS
 62
     7
 10
361.1268819916
 20
-17.2242456318
 30
0.0
  0
VERTEX
  5
6AF
  8
0
  6
CONTINUOUS
 62
     7
 10
360.3938044655
 20
-17.020221913
 30
0.0
  0
VERTEX
  5
6B0
  8
0
  6
CONTINUOUS
 62
     7
 10
359.6275986779
 20
-16.8208428861
 30
0.0
  0
VERTEX
  5
6B1
  8
0
  6
CONTINUOUS
 62
     7
 10
358.8307561028
 20
-16.6268223168
 30
0.0
  0
VERTEX
  5
6B2
  8
0
  6
CONTINUOUS
 62
     7
 10
358.0064477074
 20
-16.4391108991
 30
0.0
  0
VERTEX
  5
6B3
  8
0
  6
CONTINUOUS
 62
     7
 10
357.158321296
 20
-16.2587934376
 30
0.0
  0
VERTEX
  5
6B4
  8
0
  6
CONTINUOUS
 62
     7
 10
356.2903465378
 20
-16.0869934798
 30
0.0
  0
VERTEX
  5
6B5
  8
0
  6
CONTINUOUS
 62
     7
 10
355.4066599953
 20
-15.9248375536
 30
0.0
  0
VERTEX
  5
6B6
  8
0
  6
CONTINUOUS
 62
     7
 10
354.5168699372
 20
-15.7741585017
 30
0.0
  0
VERTEX
  5
6B7
  8
0
  6
CONTINUOUS
 62
     7
 10
353.6153258431
 20
-15.6338998319
 30
0.0
  0
VERTEX
  5
6B8
  8
0
  6
CONTINUOUS
 62
     7
 10
352.7344049561
 20
-15.5087658406
 30
0.0
  0
SEQEND
  5
93E
  8
0
  6
CONTINUOUS
 62
     7
  0
ARC
  5
2B5
  8
0
  6
CONTINUOUS
 62
     7
 10
327.0291089798
 20
-202.6009042802
 30
0.0
 40
188.8172303875939
 50
90.2488982536
 51
97.7494271563
  0
ARC
  5
2B6
  8
0
  6
CONTINUOUS
 62
     7
 10
327.3584201657
 20
-201.6923021861
 30
0.0
 40
187.9055487928421
 50
82.2387174998
 51
89.7798336298
  0
POLYLINE
  5
2B7
  8
0
  6
CONTINUOUS
 62
     7
 66
     1
 10
0.0
 20
0.0
 30
0.0
  0
VERTEX
  5
6B9
  8
0
  6
CONTINUOUS
 62
     7
 10
291.6876138794
 20
-23.4985762478
 30
0.0
  0
VERTEX
  5
6BA
  8
0
  6
CONTINUOUS
 62
     7
 10
291.6861416447
 20
-23.4997057558
 30
0.0
  0
VERTEX
  5
6BB
  8
0
  6
CONTINUOUS
 62
     7
 10
291.7265476334
 20
-23.4751024486
 30
0.0
  0
VERTEX
  5
6BC
  8
0
  6
CONTINUOUS
 62
     7
 10
291.8179930794
 20
-23.4246277453
 30
0.0
  0
VERTEX
  5
6BD
  8
0
  6
CONTINUOUS
 62
     7
 10
291.9672133076
 20
-23.3497315289
 30
0.0
  0
VERTEX
  5
6BE
  8
0
  6
CONTINUOUS
 62
     7
 10
292.1792687523
 20
-23.2524284364
 30
0.0
  0
VERTEX
  5
6BF
  8
0
  6
CONTINUOUS
 62
     7
 10
292.4568058598
 20
-23.1353634239
 30
0.0
  0
VERTEX
  5
6C0
  8
0
  6
CONTINUOUS
 62
     7
 10
292.7999796021
 20
-23.0016329528
 30
0.0
  0
VERTEX
  5
6C1
  8
0
  6
CONTINUOUS
 62
     7
 10
293.2068409073
 20
-22.8545033575
 30
0.0
  0
VERTEX
  5
6C2
  8
0
  6
CONTINUOUS
 62
     7
 10
293.6739327061
 20
-22.6971888186
 30
0.0
  0
VERTEX
  5
6C3
  8
0
  6
CONTINUOUS
 62
     7
 10
294.1965641129
 20
-22.5327887775
 30
0.0
  0
VERTEX
  5
6C4
  8
0
  6
CONTINUOUS
 62
     7
 10
294.7718502629
 20
-22.3637395741
 30
0.0
  0
VERTEX
  5
6C5
  8
0
  6
CONTINUOUS
 62
     7
 10
295.3807653534
 20
-22.1961745263
 30
0.0
  0
VERTEX
  5
6C6
  8
0
  6
CONTINUOUS
 62
     7
 10
296.0414053547
 20
-22.0255517603
 30
0.0
  0
VERTEX
  5
6C7
  8
0
  6
CONTINUOUS
 62
     7
 10
296.7468799698
 20
-21.8545981885
 30
0.0
  0
VERTEX
  5
6C8
  8
0
  6
CONTINUOUS
 62
     7
 10
297.489851867
 20
-21.6858991624
 30
0.0
  0
VERTEX
  5
6C9
  8
0
  6
CONTINUOUS
 62
     7
 10
298.2623042214
 20
-21.5219625474
 30
0.0
  0
VERTEX
  5
6CA
  8
0
  6
CONTINUOUS
 62
     7
 10
299.0544201481
 20
-21.3654198886
 30
0.0
  0
VERTEX
  5
6CB
  8
0
  6
CONTINUOUS
 62
     7
 10
299.8576702225
 20
-21.2183528782
 30
0.0
  0
VERTEX
  5
6CC
  8
0
  6
CONTINUOUS
 62
     7
 10
300.6683172333
 20
-21.0814842225
 30
0.0
  0
VERTEX
  5
6CD
  8
0
  6
CONTINUOUS
 62
     7
 10
301.4973940003
 20
-20.9528886915
 30
0.0
  0
VERTEX
  5
6CE
  8
0
  6
CONTINUOUS
 62
     7
 10
302.2932530987
 20
-20.8401763083
 30
0.0
  0
SEQEND
  5
93D
  8
0
  6
CONTINUOUS
 62
     7
  0
POLYLINE
  5
2B8
  8
0
  6
CONTINUOUS
 62
     7
 66
     1
 10
0.0
 20
0.0
 30
0.0
  0
VERTEX
  5
6CF
  8
0
  6
CONTINUOUS
 62
     7
 10
352.0099224198
 20
-20.8405503274
 30
0.0
  0
VERTEX
  5
6D0
  8
0
  6
CONTINUOUS
 62
     7
 10
352.6698769677
 20
-20.932645464
 30
0.0
  0
VERTEX
  5
6D1
  8
0
  6
CONTINUOUS
 62
     7
 10
353.5073103058
 20
-21.0608654858
 30
0.0
  0
VERTEX
  5
6D2
  8
0
  6
CONTINUOUS
 62
     7
 10
354.3364943612
 20
-21.1992898227
 30
0.0
  0
VERTEX
  5
6D3
  8
0
  6
CONTINUOUS
 62
     7
 10
355.1509441483
 20
-21.3468157889
 30
0.0
  0
VERTEX
  5
6D4
  8
0
  6
CONTINUOUS
 62
     7
 10
355.9397639382
 20
-21.5010130049
 30
0.0
  0
VERTEX
  5
6D5
  8
0
  6
CONTINUOUS
 62
     7
 10
356.7079009163
 20
-21.6622733713
 30
0.0
  0
VERTEX
  5
6D6
  8
0
  6
CONTINUOUS
 62
     7
 10
357.4515523064
 20
-21.8294182063
 30
0.0
  0
VERTEX
  5
6D7
  8
0
  6
CONTINUOUS
 62
     7
 10
358.1646861184
 20
-22.000690663
 30
0.0
  0
VERTEX
  5
6D8
  8
0
  6
CONTINUOUS
 62
     7
 10
358.8412822831
 20
-22.1741595508
 30
0.0
  0
VERTEX
  5
6D9
  8
0
  6
CONTINUOUS
 62
     7
 10
359.4755829918
 20
-22.3477580787
 30
0.0
  0
VERTEX
  5
6DA
  8
0
  6
CONTINUOUS
 62
     7
 10
360.0619377244
 20
-22.519245112
 30
0.0
  0
VERTEX
  5
6DB
  8
0
  6
CONTINUOUS
 62
     7
 10
360.5953277695
 20
-22.6862766982
 30
0.0
  0
VERTEX
  5
6DC
  8
0
  6
CONTINUOUS
 62
     7
 10
361.0746564019
 20
-22.8473180176
 30
0.0
  0
VERTEX
  5
6DD
  8
0
  6
CONTINUOUS
 62
     7
 10
361.5008176911
 20
-23.0014213563
 30
0.0
  0
VERTEX
  5
6DE
  8
0
  6
CONTINUOUS
 62
     7
 10
361.8665994751
 20
-23.1445067764
 30
0.0
  0
VERTEX
  5
6DF
  8
0
  6
CONTINUOUS
 62
     7
 10
362.1652068245
 20
-23.2717388512
 30
0.0
  0
VERTEX
  5
6E0
  8
0
  6
CONTINUOUS
 62
     7
 10
362.3694242585
 20
-23.3668470026
 30
0.0
  0
VERTEX
  5
6E1
  8
0
  6
CONTINUOUS
 62
     7
 10
362.510794555
 20
-23.4389596821
 30
0.0
  0
VERTEX
  5
6E2
  8
0
  6
CONTINUOUS
 62
     7
 10
362.5929893601
 20
-23.4851577521
 30
0.0
  0
VERTEX
  5
6E3
  8
0
  6
CONTINUOUS
 62
     7
 10
362.6223982918
 20
-23.5033923031
 30
0.0
  0
VERTEX
  5
6E4
  8
0
  6
CONTINUOUS
 62
     7
 10
362.6202048409
 20
-23.5017904283
 30
0.0
  0
SEQEND
  5
93C
  8
0
  6
CONTINUOUS
 62
     7
  0
LINE
  5
2B9
  8
0
  6
CONTINUOUS
 62
     7
 10
326.1515678513
 20
-13.4432950259
 30
0.0
 11
326.1515678513
 21
-13.8012671114
 31
0.0
  0
LINE
  5
2BA
  8
0
  6
CONTINUOUS
 62
     7
 10
328.151565944
 20
-13.8012671114
 30
0.0
 11
328.151565944
 21
-13.4432950259
 31
0.0
  0
ARC
  5
2BB
  8
0
  6
CONTINUOUS
 62
     7
 10
327.1515609372
 20
-203.8500581517
 30
0.0
 40
184.6914943505448
 50
82.2647835432
 51
97.7352164568
  0
LINE
  5
2BC
  8
0
  6
CONTINUOUS
 62
     7
 10
287.0928050625
 20
-21.7330211044
 30
0.0
 11
287.0928050625
 21
-26.607795173
 31
0.0
  0
LINE
  5
2BD
  8
0
  6
CONTINUOUS
 62
     7
 10
367.2103227723
 20
-26.607795173
 30
0.0
 11
367.2103227723
 21
-21.7330211044
 31
0.0
  0
POLYLINE
  5
2BE
  8
0
  6
CONTINUOUS
 62
     7
 66
     1
 10
0.0
 20
0.0
 30
0.0
  0
VERTEX
  5
6E5
  8
0
  6
CONTINUOUS
 62
     7
 10
352.0101012337
 20
-28.7146167101
 30
0.0
  0
VERTEX
  5
6E6
  8
0
  6
CONTINUOUS
 62
     7
 10
352.7867497551
 20
-28.8188220204
 30
0.0
  0
VERTEX
  5
6E7
  8
0
  6
CONTINUOUS
 62
     7
 10
353.6691726792
 20
-28.9335944892
 30
0.0
  0
VERTEX
  5
6E8
  8
0
  6
CONTINUOUS
 62
     7
 10
354.5411171067
 20
-29.0433951856
 30
0.0
  0
VERTEX
  5
6E9
  8
0
  6
CONTINUOUS
 62
     7
 10
355.3986014473
 20
-29.1476519049
 30
0.0
  0
VERTEX
  5
6EA
  8
0
  6
CONTINUOUS
 62
     7
 10
356.2344850647
 20
-29.2451718093
 30
0.0
  0
VERTEX
  5
6EB
  8
0
  6
CONTINUOUS
 62
     7
 10
357.0559205163
 20
-29.3364876152
 30
0.0
  0
VERTEX
  5
6EC
  8
0
  6
CONTINUOUS
 62
     7
 10
357.8621090996
 20
-29.4210531951
 30
0.0
  0
VERTEX
  5
6ED
  8
0
  6
CONTINUOUS
 62
     7
 10
358.6466254342
 20
-29.4976578296
 30
0.0
  0
VERTEX
  5
6EE
  8
0
  6
CONTINUOUS
 62
     7
 10
359.4034136879
 20
-29.5651310326
 30
0.0
  0
VERTEX
  5
6EF
  8
0
  6
CONTINUOUS
 62
     7
 10
360.1271332848
 20
-29.6223611773
 30
0.0
  0
VERTEX
  5
6F0
  8
0
  6
CONTINUOUS
 62
     7
 10
360.813719188
 20
-29.6682880462
 30
0.0
  0
VERTEX
  5
6F1
  8
0
  6
CONTINUOUS
 62
     7
 10
361.461907779
 20
-29.7019229473
 30
0.0
  0
VERTEX
  5
6F2
  8
0
  6
CONTINUOUS
 62
     7
 10
362.0799483407
 20
-29.7225528599
 30
0.0
  0
VERTEX
  5
6F3
  8
0
  6
CONTINUOUS
 62
     7
 10
362.6729430306
 20
-29.7283963502
 30
0.0
  0
VERTEX
  5
6F4
  8
0
  6
CONTINUOUS
 62
     7
 10
363.2494033921
 20
-29.7159866632
 30
0.0
  0
VERTEX
  5
6F5
  8
0
  6
CONTINUOUS
 62
     7
 10
363.8313473809
 20
-29.6771989406
 30
0.0
  0
VERTEX
  5
6F6
  8
0
  6
CONTINUOUS
 62
     7
 10
364.3940867531
 20
-29.6016023697
 30
0.0
  0
VERTEX
  5
6F7
  8
0
  6
CONTINUOUS
 62
     7
 10
364.7600235093
 20
-29.5230129005
 30
0.0
  0
VERTEX
  5
6F8
  8
0
  6
CONTINUOUS
 62
     7
 10
365.097671901
 20
-29.422386104
 30
0.0
  0
VERTEX
  5
6F9
  8
0
  6
CONTINUOUS
 62
     7
 10
365.4105724442
 20
-29.2985827864
 30
0.0
  0
VERTEX
  5
6FA
  8
0
  6
CONTINUOUS
 62
     7
 10
365.7123269188
 20
-29.1444585861
 30
0.0
  0
VERTEX
  5
6FB
  8
0
  6
CONTINUOUS
 62
     7
 10
366.0052837479
 20
-28.9536991359
 30
0.0
  0
VERTEX
  5
6FC
  8
0
  6
CONTINUOUS
 62
     7
 10
366.2857951272
 20
-28.7213542701
 30
0.0
  0
VERTEX
  5
6FD
  8
0
  6
CONTINUOUS
 62
     7
 10
366.5452899086
 20
-28.4459815563
 30
0.0
  0
VERTEX
  5
6FE
  8
0
  6
CONTINUOUS
 62
     7
 10
366.773265754
 20
-28.1302103044
 30
0.0
  0
VERTEX
  5
6FF
  8
0
  6
CONTINUOUS
 62
     7
 10
366.9600309479
 20
-27.7799041213
 30
0.0
  0
VERTEX
  5
700
  8
0
  6
CONTINUOUS
 62
     7
 10
367.1098054993
 20
-27.3612060786
 30
0.0
  0
VERTEX
  5
701
  8
0
  6
CONTINUOUS
 62
     7
 10
367.1356262314
 20
-27.2273467125
 30
0.0
  0
SEQEND
  5
93B
  8
0
  6
CONTINUOUS
 62
     7
  0
POLYLINE
  5
2BF
  8
0
  6
CONTINUOUS
 62
     7
 66
     1
 10
0.0
 20
0.0
 30
0.0
  0
VERTEX
  5
702
  8
0
  6
CONTINUOUS
 62
     7
 10
287.1623577225
 20
-27.2280202449
 30
0.0
  0
VERTEX
  5
703
  8
0
  6
CONTINUOUS
 62
     7
 10
287.1633054364
 20
-27.2345305623
 30
0.0
  0
VERTEX
  5
704
  8
0
  6
CONTINUOUS
 62
     7
 10
287.2861386883
 20
-27.6399471999
 30
0.0
  0
VERTEX
  5
705
  8
0
  6
CONTINUOUS
 62
     7
 10
287.4593021023
 20
-28.0088582278
 30
0.0
  0
VERTEX
  5
706
  8
0
  6
CONTINUOUS
 62
     7
 10
287.6728357422
 20
-28.3369184674
 30
0.0
  0
VERTEX
  5
707
  8
0
  6
CONTINUOUS
 62
     7
 10
287.9167856324
 20
-28.6219061555
 30
0.0
  0
VERTEX
  5
708
  8
0
  6
CONTINUOUS
 62
     7
 10
288.1814779389
 20
-28.8635053874
 30
0.0
  0
VERTEX
  5
709
  8
0
  6
CONTINUOUS
 62
     7
 10
288.4584666836
 20
-29.0636138261
 30
0.0
  0
VERTEX
  5
70A
  8
0
  6
CONTINUOUS
 62
     7
 10
288.7422563183
 20
-29.2264403046
 30
0.0
  0
VERTEX
  5
70B
  8
0
  6
CONTINUOUS
 62
     7
 10
289.0322031128
 20
-29.3578841926
 30
0.0
  0
VERTEX
  5
70C
  8
0
  6
CONTINUOUS
 62
     7
 10
289.3354834664
 20
-29.4647679866
 30
0.0
  0
VERTEX
  5
70D
  8
0
  6
CONTINUOUS
 62
     7
 10
289.6690072167
 20
-29.5530119182
 30
0.0
  0
VERTEX
  5
70E
  8
0
  6
CONTINUOUS
 62
     7
 10
290.02618209
 20
-29.620779419
 30
0.0
  0
VERTEX
  5
70F
  8
0
  6
CONTINUOUS
 62
     7
 10
290.4917539704
 20
-29.6782606484
 30
0.0
  0
VERTEX
  5
710
  8
0
  6
CONTINUOUS
 62
     7
 10
291.1582292664
 20
-29.7189631702
 30
0.0
  0
VERTEX
  5
711
  8
0
  6
CONTINUOUS
 62
     7
 10
291.7315842259
 20
-29.7278748096
 30
0.0
  0
VERTEX
  5
712
  8
0
  6
CONTINUOUS
 62
     7
 10
292.312222873
 20
-29.7200181724
 30
0.0
  0
VERTEX
  5
713
  8
0
  6
CONTINUOUS
 62
     7
 10
292.9700316536
 20
-29.6960302831
 30
0.0
  0
VERTEX
  5
714
  8
0
  6
CONTINUOUS
 62
     7
 10
293.6439575303
 20
-29.6587796153
 30
0.0
  0
VERTEX
  5
715
  8
0
  6
CONTINUOUS
 62
     7
 10
294.34731022
 20
-29.609652722
 30
0.0
  0
VERTEX
  5
716
  8
0
  6
CONTINUOUS
 62
     7
 10
295.0823845017
 20
-29.5497180165
 30
0.0
  0
VERTEX
  5
717
  8
0
  6
CONTINUOUS
 62
     7
 10
295.8476604569
 20
-29.4798546673
 30
0.0
  0
VERTEX
  5
718
  8
0
  6
CONTINUOUS
 62
     7
 10
296.6406942952
 20
-29.4008956493
 30
0.0
  0
VERTEX
  5
719
  8
0
  6
CONTINUOUS
 62
     7
 10
297.4581719983
 20
-29.3136977793
 30
0.0
  0
VERTEX
  5
71A
  8
0
  6
CONTINUOUS
 62
     7
 10
298.2962550271
 20
-29.2191424609
 30
0.0
  0
VERTEX
  5
71B
  8
0
  6
CONTINUOUS
 62
     7
 10
299.1508306611
 20
-29.1181297244
 30
0.0
  0
VERTEX
  5
71C
  8
0
  6
CONTINUOUS
 62
     7
 10
300.0162185776
 20
-29.0117689611
 30
0.0
  0
VERTEX
  5
71D
  8
0
  6
CONTINUOUS
 62
     7
 10
300.8876921284
 20
-28.90101012
 30
0.0
  0
VERTEX
  5
71E
  8
0
  6
CONTINUOUS
 62
     7
 10
301.7672719109
 20
-28.7856140376
 30
0.0
  0
VERTEX
  5
71F
  8
0
  6
CONTINUOUS
 62
     7
 10
302.2930862057
 20
-28.7144706787
 30
0.0
  0
SEQEND
  5
93A
  8
0
  6
CONTINUOUS
 62
     7
  0
POLYLINE
  5
2C0
  8
0
  6
CONTINUOUS
 62
     7
 66
     1
 10
0.0
 20
0.0
 30
0.0
  0
VERTEX
  5
720
  8
0
  6
CONTINUOUS
 62
     7
 10
367.149120723
 20
-27.1574133278
 30
0.0
  0
VERTEX
  5
721
  8
0
  6
CONTINUOUS
 62
     7
 10
367.1916069138
 20
-26.9371145607
 30
0.0
  0
VERTEX
  5
722
  8
0
  6
CONTINUOUS
 62
     7
 10
367.2056259263
 20
-26.6086490096
 30
0.0
  0
SEQEND
  5
939
  8
0
  6
CONTINUOUS
 62
     7
  0
POLYLINE
  5
2C1
  8
0
  6
CONTINUOUS
 62
     7
 66
     1
 10
0.0
 20
0.0
 30
0.0
  0
VERTEX
  5
723
  8
0
  6
CONTINUOUS
 62
     7
 10
287.1009589779
 20
-26.601429397
 30
0.0
  0
VERTEX
  5
724
  8
0
  6
CONTINUOUS
 62
     7
 10
287.100535785
 20
-26.8012778104
 30
0.0
  0
VERTEX
  5
725
  8
0
  6
CONTINUOUS
 62
     7
 10
287.1623577225
 20
-27.2280202449
 30
0.0
  0
SEQEND
  5
938
  8
0
  6
CONTINUOUS
 62
     7
  0
ARC
  5
2C2
  8
0
  6
CONTINUOUS
 62
     7
 10
327.1515609372
 20
-211.7251877218
 30
0.0
 40
184.691427156843
 50
82.2647807118
 51
97.7352192882
  0
POLYLINE
  5
2C3
  8
0
  6
CONTINUOUS
 62
     7
 66
     1
 10
0.0
 20
0.0
 30
0.0
  0
VERTEX
  5
726
  8
0
  6
CONTINUOUS
 62
     7
 10
61.5688027489
 20
-15.5095764638
 30
0.0
  0
VERTEX
  5
727
  8
0
  6
CONTINUOUS
 62
     7
 10
60.7726992714
 20
-15.6215512396
 30
0.0
  0
VERTEX
  5
728
  8
0
  6
CONTINUOUS
 62
     7
 10
59.866005336
 20
-15.7613479735
 30
0.0
  0
VERTEX
  5
729
  8
0
  6
CONTINUOUS
 62
     7
 10
58.9687646973
 20
-15.9121313335
 30
0.0
  0
VERTEX
  5
72A
  8
0
  6
CONTINUOUS
 62
     7
 10
58.0855907547
 20
-16.0732471586
 30
0.0
  0
VERTEX
  5
72B
  8
0
  6
CONTINUOUS
 62
     7
 10
57.2310747254
 20
-16.2415051104
 30
0.0
  0
VERTEX
  5
72C
  8
0
  6
CONTINUOUS
 62
     7
 10
56.3921393502
 20
-16.4187872053
 30
0.0
  0
VERTEX
  5
72D
  8
0
  6
CONTINUOUS
 62
     7
 10
55.5700601685
 20
-16.6046344877
 30
0.0
  0
VERTEX
  5
72E
  8
0
  6
CONTINUOUS
 62
     7
 10
54.7709645379
 20
-16.797589624
 30
0.0
  0
VERTEX
  5
72F
  8
0
  6
CONTINUOUS
 62
     7
 10
54.0006817925
 20
-16.9961952807
 30
0.0
  0
VERTEX
  5
730
  8
0
  6
CONTINUOUS
 62
     7
 10
53.2644571412
 20
-17.1991073729
 30
0.0
  0
VERTEX
  5
731
  8
0
  6
CONTINUOUS
 62
     7
 10
52.5665105927
 20
-17.4052992107
 30
0.0
  0
VERTEX
  5
732
  8
0
  6
CONTINUOUS
 62
     7
 10
51.9123138535
 20
-17.6129409314
 30
0.0
  0
VERTEX
  5
733
  8
0
  6
CONTINUOUS
 62
     7
 10
51.3131322014
 20
-17.8175145031
 30
0.0
  0
VERTEX
  5
734
  8
0
  6
CONTINUOUS
 62
     7
 10
50.7289232361
 20
-18.0334546805
 30
0.0
  0
VERTEX
  5
735
  8
0
  6
CONTINUOUS
 62
     7
 10
50.1754941094
 20
-18.25750556
 30
0.0
  0
VERTEX
  5
736
  8
0
  6
CONTINUOUS
 62
     7
 10
49.645167743
 20
-18.4966334344
 30
0.0
  0
VERTEX
  5
737
  8
0
  6
CONTINUOUS
 62
     7
 10
49.1192163575
 20
-18.7687405587
 30
0.0
  0
VERTEX
  5
738
  8
0
  6
CONTINUOUS
 62
     7
 10
48.6775101769
 20
-19.0395483018
 30
0.0
  0
VERTEX
  5
739
  8
0
  6
CONTINUOUS
 62
     7
 10
48.3728827584
 20
-19.261568153
 30
0.0
  0
VERTEX
  5
73A
  8
0
  6
CONTINUOUS
 62
     7
 10
48.1133522141
 20
-19.4845997931
 30
0.0
  0
VERTEX
  5
73B
  8
0
  6
CONTINUOUS
 62
     7
 10
47.8790463555
 20
-19.7247141243
 30
0.0
  0
VERTEX
  5
73C
  8
0
  6
CONTINUOUS
 62
     7
 10
47.6666034806
 20
-19.9894615651
 30
0.0
  0
VERTEX
  5
73D
  8
0
  6
CONTINUOUS
 62
     7
 10
47.4770011055
 20
-20.2854969741
 30
0.0
  0
VERTEX
  5
73E
  8
0
  6
CONTINUOUS
 62
     7
 10
47.3163785088
 20
-20.6150510551
 30
0.0
  0
VERTEX
  5
73F
  8
0
  6
CONTINUOUS
 62
     7
 10
47.193521415
 20
-20.9751361252
 30
0.0
  0
VERTEX
  5
740
  8
0
  6
CONTINUOUS
 62
     7
 10
47.1168817627
 20
-21.3585370422
 30
0.0
  0
VERTEX
  5
741
  8
0
  6
CONTINUOUS
 62
     7
 10
47.0945061791
 20
-21.7245006205
 30
0.0
  0
SEQEND
  5
937
  8
0
  6
CONTINUOUS
 62
     7
  0
POLYLINE
  5
2C4
  8
0
  6
CONTINUOUS
 62
     7
 66
     1
 10
0.0
 20
0.0
 30
0.0
  0
VERTEX
  5
742
  8
0
  6
CONTINUOUS
 62
     7
 10
127.2047402012
 20
-21.737288797
 30
0.0
  0
VERTEX
  5
743
  8
0
  6
CONTINUOUS
 62
     7
 10
127.2083343613
 20
-21.6640287281
 30
0.0
  0
VERTEX
  5
744
  8
0
  6
CONTINUOUS
 62
     7
 10
127.171141063
 20
-21.2651708366
 30
0.0
  0
VERTEX
  5
745
  8
0
  6
CONTINUOUS
 62
     7
 10
127.084213649
 20
-20.89075979
 30
0.0
  0
VERTEX
  5
746
  8
0
  6
CONTINUOUS
 62
     7
 10
126.9561113465
 20
-20.5460348369
 30
0.0
  0
VERTEX
  5
747
  8
0
  6
CONTINUOUS
 62
     7
 10
126.7956854451
 20
-20.234152043
 30
0.0
  0
VERTEX
  5
748
  8
0
  6
CONTINUOUS
 62
     7
 10
126.6109885323
 20
-19.9553900601
 30
0.0
  0
VERTEX
  5
749
  8
0
  6
CONTINUOUS
 62
     7
 10
126.4074267495
 20
-19.706539178
 30
0.0
  0
VERTEX
  5
74A
  8
0
  6
CONTINUOUS
 62
     7
 10
126.1858405221
 20
-19.4810935498
 30
0.0
  0
VERTEX
  5
74B
  8
0
  6
CONTINUOUS
 62
     7
 10
125.9407164204
 20
-19.2699023725
 30
0.0
  0
VERTEX
  5
74C
  8
0
  6
CONTINUOUS
 62
     7
 10
125.6545008767
 20
-19.0592029334
 30
0.0
  0
VERTEX
  5
74D
  8
0
  6
CONTINUOUS
 62
     7
 10
125.2815009701
 20
-18.8249596597
 30
0.0
  0
VERTEX
  5
74E
  8
0
  6
CONTINUOUS
 62
     7
 10
124.8016835797
 20
-18.5677119733
 30
0.0
  0
VERTEX
  5
74F
  8
0
  6
CONTINUOUS
 62
     7
 10
124.2703558552
 20
-18.3201172591
 30
0.0
  0
VERTEX
  5
750
  8
0
  6
CONTINUOUS
 62
     7
 10
123.7332166779
 20
-18.0964731814
 30
0.0
  0
VERTEX
  5
751
  8
0
  6
CONTINUOUS
 62
     7
 10
123.1150569069
 20
-17.8627395273
 30
0.0
  0
VERTEX
  5
752
  8
0
  6
CONTINUOUS
 62
     7
 10
122.4768878567
 20
-17.6415824534
 30
0.0
  0
VERTEX
  5
753
  8
0
  6
CONTINUOUS
 62
     7
 10
121.8140246022
 20
-17.4291112662
 30
0.0
  0
VERTEX
  5
754
  8
0
  6
CONTINUOUS
 62
     7
 10
121.1268843758
 20
-17.2242456318
 30
0.0
  0
VERTEX
  5
755
  8
0
  6
CONTINUOUS
 62
     7
 10
120.3938008893
 20
-17.020221913
 30
0.0
  0
VERTEX
  5
756
  8
0
  6
CONTINUOUS
 62
     7
 10
119.6276010621
 20
-16.8208428861
 30
0.0
  0
VERTEX
  5
757
  8
0
  6
CONTINUOUS
 62
     7
 10
118.830758487
 20
-16.6268223168
 30
0.0
  0
VERTEX
  5
758
  8
0
  6
CONTINUOUS
 62
     7
 10
118.0064441311
 20
-16.4391108991
 30
0.0
  0
VERTEX
  5
759
  8
0
  6
CONTINUOUS
 62
     7
 10
117.1583236802
 20
-16.2587934376
 30
0.0
  0
VERTEX
  5
75A
  8
0
  6
CONTINUOUS
 62
     7
 10
116.2903429616
 20
-16.0869934798
 30
0.0
  0
VERTEX
  5
75B
  8
0
  6
CONTINUOUS
 62
     7
 10
115.4066623795
 20
-15.9248375536
 30
0.0
  0
VERTEX
  5
75C
  8
0
  6
CONTINUOUS
 62
     7
 10
114.5168663609
 20
-15.7741585017
 30
0.0
  0
VERTEX
  5
75D
  8
0
  6
CONTINUOUS
 62
     7
 10
113.6153222668
 20
-15.6338998319
 30
0.0
  0
VERTEX
  5
75E
  8
0
  6
CONTINUOUS
 62
     7
 10
112.7344073403
 20
-15.5087658406
 30
0.0
  0
SEQEND
  5
936
  8
0
  6
CONTINUOUS
 62
     7
  0
ARC
  5
2C5
  8
0
  6
CONTINUOUS
 62
     7
 10
87.029111364
 20
-202.6009042802
 30
0.0
 40
188.8172303875911
 50
90.2488982536
 51
97.7494271563
  0
ARC
  5
2C6
  8
0
  6
CONTINUOUS
 62
     7
 10
87.3584122667
 20
-201.6924495864
 30
0.0
 40
187.9056962316218
 50
82.2387204626
 51
89.779830667
  0
POLYLINE
  5
2C7
  8
0
  6
CONTINUOUS
 62
     7
 66
     1
 10
0.0
 20
0.0
 30
0.0
  0
VERTEX
  5
75F
  8
0
  6
CONTINUOUS
 62
     7
 10
51.6876162636
 20
-23.4985762478
 30
0.0
  0
VERTEX
  5
760
  8
0
  6
CONTINUOUS
 62
     7
 10
51.6861380684
 20
-23.4997057558
 30
0.0
  0
VERTEX
  5
761
  8
0
  6
CONTINUOUS
 62
     7
 10
51.7265500176
 20
-23.4751024486
 30
0.0
  0
VERTEX
  5
762
  8
0
  6
CONTINUOUS
 62
     7
 10
51.8179954636
 20
-23.4246277453
 30
0.0
  0
VERTEX
  5
763
  8
0
  6
CONTINUOUS
 62
     7
 10
51.9672097313
 20
-23.3497315289
 30
0.0
  0
VERTEX
  5
764
  8
0
  6
CONTINUOUS
 62
     7
 10
52.1792711365
 20
-23.2524284364
 30
0.0
  0
VERTEX
  5
765
  8
0
  6
CONTINUOUS
 62
     7
 10
52.4568022835
 20
-23.1353634239
 30
0.0
  0
VERTEX
  5
766
  8
0
  6
CONTINUOUS
 62
     7
 10
52.7999819863
 20
-23.0016329528
 30
0.0
  0
VERTEX
  5
767
  8
0
  6
CONTINUOUS
 62
     7
 10
53.2068432915
 20
-22.8545033575
 30
0.0
  0
VERTEX
  5
768
  8
0
  6
CONTINUOUS
 62
     7
 10
53.6739291298
 20
-22.6971888186
 30
0.0
  0
VERTEX
  5
769
  8
0
  6
CONTINUOUS
 62
     7
 10
54.1965664971
 20
-22.5327887775
 30
0.0
  0
VERTEX
  5
76A
  8
0
  6
CONTINUOUS
 62
     7
 10
54.7718466866
 20
-22.3637395741
 30
0.0
  0
VERTEX
  5
76B
  8
0
  6
CONTINUOUS
 62
     7
 10
55.3807677376
 20
-22.1961745263
 30
0.0
  0
VERTEX
  5
76C
  8
0
  6
CONTINUOUS
 62
     7
 10
56.0414017785
 20
-22.0255517603
 30
0.0
  0
VERTEX
  5
76D
  8
0
  6
CONTINUOUS
 62
     7
 10
56.746882354
 20
-21.8545981885
 30
0.0
  0
VERTEX
  5
76E
  8
0
  6
CONTINUOUS
 62
     7
 10
57.4898542511
 20
-21.6858991624
 30
0.0
  0
VERTEX
  5
76F
  8
0
  6
CONTINUOUS
 62
     7
 10
58.2623066056
 20
-21.5219625474
 30
0.0
  0
VERTEX
  5
770
  8
0
  6
CONTINUOUS
 62
     7
 10
59.0544165719
 20
-21.3654198886
 30
0.0
  0
VERTEX
  5
771
  8
0
  6
CONTINUOUS
 62
     7
 10
59.8576726067
 20
-21.2183528782
 30
0.0
  0
VERTEX
  5
772
  8
0
  6
CONTINUOUS
 62
     7
 10
60.6683196175
 20
-21.0814842225
 30
0.0
  0
VERTEX
  5
773
  8
0
  6
CONTINUOUS
 62
     7
 10
61.4973963845
 20
-20.9528886915
 30
0.0
  0
VERTEX
  5
774
  8
0
  6
CONTINUOUS
 62
     7
 10
62.2932495224
 20
-20.8401763083
 30
0.0
  0
SEQEND
  5
935
  8
0
  6
CONTINUOUS
 62
     7
  0
POLYLINE
  5
2C8
  8
0
  6
CONTINUOUS
 62
     7
 66
     1
 10
0.0
 20
0.0
 30
0.0
  0
VERTEX
  5
775
  8
0
  6
CONTINUOUS
 62
     7
 10
112.0099188435
 20
-20.8405503274
 30
0.0
  0
VERTEX
  5
776
  8
0
  6
CONTINUOUS
 62
     7
 10
112.6698793519
 20
-20.932645464
 30
0.0
  0
VERTEX
  5
777
  8
0
  6
CONTINUOUS
 62
     7
 10
113.50731269
 20
-21.0608654858
 30
0.0
  0
VERTEX
  5
778
  8
0
  6
CONTINUOUS
 62
     7
 10
114.3364907849
 20
-21.1992898227
 30
0.0
  0
VERTEX
  5
779
  8
0
  6
CONTINUOUS
 62
     7
 10
115.1509465325
 20
-21.3468157889
 30
0.0
  0
VERTEX
  5
77A
  8
0
  6
CONTINUOUS
 62
     7
 10
115.9397603619
 20
-21.5010130049
 30
0.0
  0
VERTEX
  5
77B
  8
0
  6
CONTINUOUS
 62
     7
 10
116.7079033005
 20
-21.6622733713
 30
0.0
  0
VERTEX
  5
77C
  8
0
  6
CONTINUOUS
 62
     7
 10
117.4515487301
 20
-21.8294182063
 30
0.0
  0
VERTEX
  5
77D
  8
0
  6
CONTINUOUS
 62
     7
 10
118.1646825421
 20
-22.000690663
 30
0.0
  0
VERTEX
  5
77E
  8
0
  6
CONTINUOUS
 62
     7
 10
118.8412846673
 20
-22.1741595508
 30
0.0
  0
VERTEX
  5
77F
  8
0
  6
CONTINUOUS
 62
     7
 10
119.4755794156
 20
-22.3477580787
 30
0.0
  0
VERTEX
  5
780
  8
0
  6
CONTINUOUS
 62
     7
 10
120.0619341481
 20
-22.519245112
 30
0.0
  0
VERTEX
  5
781
  8
0
  6
CONTINUOUS
 62
     7
 10
120.5953301537
 20
-22.6862766982
 30
0.0
  0
VERTEX
  5
782
  8
0
  6
CONTINUOUS
 62
     7
 10
121.0746528256
 20
-22.8473180176
 30
0.0
  0
VERTEX
  5
783
  8
0
  6
CONTINUOUS
 62
     7
 10
121.5008260357
 20
-23.0014213563
 30
0.0
  0
VERTEX
  5
784
  8
0
  6
CONTINUOUS
 62
     7
 10
121.8666018593
 20
-23.1445067764
 30
0.0
  0
VERTEX
  5
785
  8
0
  6
CONTINUOUS
 62
     7
 10
122.1652092087
 20
-23.2717388512
 30
0.0
  0
VERTEX
  5
786
  8
0
  6
CONTINUOUS
 62
     7
 10
122.3694206822
 20
-23.3668470026
 30
0.0
  0
VERTEX
  5
787
  8
0
  6
CONTINUOUS
 62
     7
 10
122.5107969391
 20
-23.4389596821
 30
0.0
  0
VERTEX
  5
788
  8
0
  6
CONTINUOUS
 62
     7
 10
122.5929857838
 20
-23.4851577521
 30
0.0
  0
VERTEX
  5
789
  8
0
  6
CONTINUOUS
 62
     7
 10
122.622400676
 20
-23.5033923031
 30
0.0
  0
VERTEX
  5
78A
  8
0
  6
CONTINUOUS
 62
     7
 10
122.6202012646
 20
-23.5017904283
 30
0.0
  0
SEQEND
  5
934
  8
0
  6
CONTINUOUS
 62
     7
  0
LINE
  5
2C9
  8
0
  6
CONTINUOUS
 62
     7
 10
86.1515583146
 20
-13.4432950259
 30
0.0
 11
86.1515583146
 21
-13.8012671114
 31
0.0
  0
LINE
  5
2CA
  8
0
  6
CONTINUOUS
 62
     7
 10
88.1515564072
 20
-13.8012671114
 30
0.0
 11
88.1515564072
 21
-13.4432950259
 31
0.0
  0
ARC
  5
2CB
  8
0
  6
CONTINUOUS
 62
     7
 10
87.1515633214
 20
-203.8500178167
 30
0.0
 40
184.6914543825224
 50
82.264781859
 51
97.735218141
  0
LINE
  5
2CC
  8
0
  6
CONTINUOUS
 62
     7
 10
127.210319196
 20
-26.607795173
 30
0.0
 11
127.210319196
 21
-21.7330211044
 31
0.0
  0
LINE
  5
2CD
  8
0
  6
CONTINUOUS
 62
     7
 10
47.0928014863
 20
-21.7330211044
 30
0.0
 11
47.0928014863
 21
-26.607795173
 31
0.0
  0
POLYLINE
  5
2CE
  8
0
  6
CONTINUOUS
 62
     7
 66
     1
 10
0.0
 20
0.0
 30
0.0
  0
VERTEX
  5
78B
  8
0
  6
CONTINUOUS
 62
     7
 10
112.0100976574
 20
-28.7146167101
 30
0.0
  0
VERTEX
  5
78C
  8
0
  6
CONTINUOUS
 62
     7
 10
112.7867461789
 20
-28.8188220204
 30
0.0
  0
VERTEX
  5
78D
  8
0
  6
CONTINUOUS
 62
     7
 10
113.6691750634
 20
-28.9335944892
 30
0.0
  0
VERTEX
  5
78E
  8
0
  6
CONTINUOUS
 62
     7
 10
114.5411135304
 20
-29.0433951856
 30
0.0
  0
VERTEX
  5
78F
  8
0
  6
CONTINUOUS
 62
     7
 10
115.3986038315
 20
-29.1476519049
 30
0.0
  0
VERTEX
  5
790
  8
0
  6
CONTINUOUS
 62
     7
 10
116.2344874489
 20
-29.2451718093
 30
0.0
  0
VERTEX
  5
791
  8
0
  6
CONTINUOUS
 62
     7
 10
117.0559229004
 20
-29.3364876152
 30
0.0
  0
VERTEX
  5
792
  8
0
  6
CONTINUOUS
 62
     7
 10
117.8621114838
 20
-29.4210531951
 30
0.0
  0
VERTEX
  5
793
  8
0
  6
CONTINUOUS
 62
     7
 10
118.6466278183
 20
-29.4976578296
 30
0.0
  0
VERTEX
  5
794
  8
0
  6
CONTINUOUS
 62
     7
 10
119.4034101117
 20
-29.5651310326
 30
0.0
  0
VERTEX
  5
795
  8
0
  6
CONTINUOUS
 62
     7
 10
120.127135669
 20
-29.6223611773
 30
0.0
  0
VERTEX
  5
796
  8
0
  6
CONTINUOUS
 62
     7
 10
120.8137215722
 20
-29.6682880462
 30
0.0
  0
VERTEX
  5
797
  8
0
  6
CONTINUOUS
 62
     7
 10
121.4619101632
 20
-29.7019229473
 30
0.0
  0
VERTEX
  5
798
  8
0
  6
CONTINUOUS
 62
     7
 10
122.0799507248
 20
-29.7225528599
 30
0.0
  0
VERTEX
  5
799
  8
0
  6
CONTINUOUS
 62
     7
 10
122.6729394543
 20
-29.7283963502
 30
0.0
  0
VERTEX
  5
79A
  8
0
  6
CONTINUOUS
 62
     7
 10
123.2494057763
 20
-29.7159866632
 30
0.0
  0
VERTEX
  5
79B
  8
0
  6
CONTINUOUS
 62
     7
 10
123.8313497651
 20
-29.6771989406
 30
0.0
  0
VERTEX
  5
79C
  8
0
  6
CONTINUOUS
 62
     7
 10
124.3940891373
 20
-29.6016023697
 30
0.0
  0
VERTEX
  5
79D
  8
0
  6
CONTINUOUS
 62
     7
 10
124.760019933
 20
-29.5230129005
 30
0.0
  0
VERTEX
  5
79E
  8
0
  6
CONTINUOUS
 62
     7
 10
125.0976683247
 20
-29.422386104
 30
0.0
  0
VERTEX
  5
79F
  8
0
  6
CONTINUOUS
 62
     7
 10
125.4105688679
 20
-29.2985827864
 30
0.0
  0
VERTEX
  5
7A0
  8
0
  6
CONTINUOUS
 62
     7
 10
125.7123233426
 20
-29.1444585861
 30
0.0
  0
VERTEX
  5
7A1
  8
0
  6
CONTINUOUS
 62
     7
 10
126.0052861321
 20
-28.9536991359
 30
0.0
  0
VERTEX
  5
7A2
  8
0
  6
CONTINUOUS
 62
     7
 10
126.2857975113
 20
-28.7213542701
 30
0.0
  0
VERTEX
  5
7A3
  8
0
  6
CONTINUOUS
 62
     7
 10
126.5452922928
 20
-28.4459815563
 30
0.0
  0
VERTEX
  5
7A4
  8
0
  6
CONTINUOUS
 62
     7
 10
126.7732681382
 20
-28.1302103044
 30
0.0
  0
VERTEX
  5
7A5
  8
0
  6
CONTINUOUS
 62
     7
 10
126.9600333321
 20
-27.7799041213
 30
0.0
  0
VERTEX
  5
7A6
  8
0
  6
CONTINUOUS
 62
     7
 10
127.109801923
 20
-27.3612060786
 30
0.0
  0
VERTEX
  5
7A7
  8
0
  6
CONTINUOUS
 62
     7
 10
127.1356226552
 20
-27.2273467125
 30
0.0
  0
SEQEND
  5
933
  8
0
  6
CONTINUOUS
 62
     7
  0
POLYLINE
  5
2CF
  8
0
  6
CONTINUOUS
 62
     7
 66
     1
 10
0.0
 20
0.0
 30
0.0
  0
VERTEX
  5
7A8
  8
0
  6
CONTINUOUS
 62
     7
 10
47.1623601067
 20
-27.2280202449
 30
0.0
  0
VERTEX
  5
7A9
  8
0
  6
CONTINUOUS
 62
     7
 10
47.1633018601
 20
-27.2345305623
 30
0.0
  0
VERTEX
  5
7AA
  8
0
  6
CONTINUOUS
 62
     7
 10
47.286135112
 20
-27.6399471999
 30
0.0
  0
VERTEX
  5
7AB
  8
0
  6
CONTINUOUS
 62
     7
 10
47.4592985261
 20
-28.0088582278
 30
0.0
  0
VERTEX
  5
7AC
  8
0
  6
CONTINUOUS
 62
     7
 10
47.6728381264
 20
-28.3369184674
 30
0.0
  0
VERTEX
  5
7AD
  8
0
  6
CONTINUOUS
 62
     7
 10
47.9167880166
 20
-28.6219061555
 30
0.0
  0
VERTEX
  5
7AE
  8
0
  6
CONTINUOUS
 62
     7
 10
48.1814803231
 20
-28.8635053874
 30
0.0
  0
VERTEX
  5
7AF
  8
0
  6
CONTINUOUS
 62
     7
 10
48.4584631073
 20
-29.0636138261
 30
0.0
  0
VERTEX
  5
7B0
  8
0
  6
CONTINUOUS
 62
     7
 10
48.7422527421
 20
-29.2264403046
 30
0.0
  0
VERTEX
  5
7B1
  8
0
  6
CONTINUOUS
 62
     7
 10
49.032205497
 20
-29.3578841926
 30
0.0
  0
VERTEX
  5
7B2
  8
0
  6
CONTINUOUS
 62
     7
 10
49.3354858506
 20
-29.4647679866
 30
0.0
  0
VERTEX
  5
7B3
  8
0
  6
CONTINUOUS
 62
     7
 10
49.6690096009
 20
-29.5530119182
 30
0.0
  0
VERTEX
  5
7B4
  8
0
  6
CONTINUOUS
 62
     7
 10
50.0261844742
 20
-29.620779419
 30
0.0
  0
VERTEX
  5
7B5
  8
0
  6
CONTINUOUS
 62
     7
 10
50.4917563546
 20
-29.6782606484
 30
0.0
  0
VERTEX
  5
7B6
  8
0
  6
CONTINUOUS
 62
     7
 10
51.1582316506
 20
-29.7189631702
 30
0.0
  0
VERTEX
  5
7B7
  8
0
  6
CONTINUOUS
 62
     7
 10
51.7315806496
 20
-29.7278748096
 30
0.0
  0
VERTEX
  5
7B8
  8
0
  6
CONTINUOUS
 62
     7
 10
52.3122252572
 20
-29.7200181724
 30
0.0
  0
VERTEX
  5
7B9
  8
0
  6
CONTINUOUS
 62
     7
 10
52.9700340378
 20
-29.6960302831
 30
0.0
  0
VERTEX
  5
7BA
  8
0
  6
CONTINUOUS
 62
     7
 10
53.6439599144
 20
-29.6587796153
 30
0.0
  0
VERTEX
  5
7BB
  8
0
  6
CONTINUOUS
 62
     7
 10
54.3473066437
 20
-29.609652722
 30
0.0
  0
VERTEX
  5
7BC
  8
0
  6
CONTINUOUS
 62
     7
 10
55.0823868859
 20
-29.5497180165
 30
0.0
  0
VERTEX
  5
7BD
  8
0
  6
CONTINUOUS
 62
     7
 10
55.8476628411
 20
-29.4798546673
 30
0.0
  0
VERTEX
  5
7BE
  8
0
  6
CONTINUOUS
 62
     7
 10
56.6406907189
 20
-29.4008956493
 30
0.0
  0
VERTEX
  5
7BF
  8
0
  6
CONTINUOUS
 62
     7
 10
57.458168422
 20
-29.3136977793
 30
0.0
  0
VERTEX
  5
7C0
  8
0
  6
CONTINUOUS
 62
     7
 10
58.2962574112
 20
-29.2191424609
 30
0.0
  0
VERTEX
  5
7C1
  8
0
  6
CONTINUOUS
 62
     7
 10
59.1508330452
 20
-29.1181297244
 30
0.0
  0
VERTEX
  5
7C2
  8
0
  6
CONTINUOUS
 62
     7
 10
60.0162209618
 20
-29.0117689611
 30
0.0
  0
VERTEX
  5
7C3
  8
0
  6
CONTINUOUS
 62
     7
 10
60.8877004731
 20
-28.90101012
 30
0.0
  0
VERTEX
  5
7C4
  8
0
  6
CONTINUOUS
 62
     7
 10
61.7672742951
 20
-28.7856140376
 30
0.0
  0
VERTEX
  5
7C5
  8
0
  6
CONTINUOUS
 62
     7
 10
62.2930826294
 20
-28.7144706787
 30
0.0
  0
SEQEND
  5
932
  8
0
  6
CONTINUOUS
 62
     7
  0
POLYLINE
  5
2D0
  8
0
  6
CONTINUOUS
 62
     7
 66
     1
 10
0.0
 20
0.0
 30
0.0
  0
VERTEX
  5
7C6
  8
0
  6
CONTINUOUS
 62
     7
 10
127.1491171467
 20
-27.1574133278
 30
0.0
  0
VERTEX
  5
7C7
  8
0
  6
CONTINUOUS
 62
     7
 10
127.191609298
 20
-26.9371145607
 30
0.0
  0
VERTEX
  5
7C8
  8
0
  6
CONTINUOUS
 62
     7
 10
127.2056283104
 20
-26.6086490096
 30
0.0
  0
SEQEND
  5
931
  8
0
  6
CONTINUOUS
 62
     7
  0
POLYLINE
  5
2D1
  8
0
  6
CONTINUOUS
 62
     7
 66
     1
 10
0.0
 20
0.0
 30
0.0
  0
VERTEX
  5
7C9
  8
0
  6
CONTINUOUS
 62
     7
 10
47.1009554017
 20
-26.601429397
 30
0.0
  0
VERTEX
  5
7CA
  8
0
  6
CONTINUOUS
 62
     7
 10
47.1005381691
 20
-26.8012778104
 30
0.0
  0
VERTEX
  5
7CB
  8
0
  6
CONTINUOUS
 62
     7
 10
47.1623601067
 20
-27.2280202449
 30
0.0
  0
SEQEND
  5
930
  8
0
  6
CONTINUOUS
 62
     7
  0
ARC
  5
2D2
  8
0
  6
CONTINUOUS
 62
     7
 10
87.1515633214
 20
-211.7251473867
 30
0.0
 40
184.6913871888202
 50
82.2647790276
 51
97.7352209724
  0
POLYLINE
  5
2D3
  8
0
  6
CONTINUOUS
 62
     7
 66
     1
 10
0.0
 20
0.0
 30
0.0
  0
VERTEX
  5
7CC
  8
0
  6
CONTINUOUS
 62
     7
 10
181.5687955964
 20
-15.5095764638
 30
0.0
  0
VERTEX
  5
7CD
  8
0
  6
CONTINUOUS
 62
     7
 10
180.7726950991
 20
-15.6215512396
 30
0.0
  0
VERTEX
  5
7CE
  8
0
  6
CONTINUOUS
 62
     7
 10
179.8660101044
 20
-15.7613479735
 30
0.0
  0
VERTEX
  5
7CF
  8
0
  6
CONTINUOUS
 62
     7
 10
178.9687664855
 20
-15.9121313335
 30
0.0
  0
VERTEX
  5
7D0
  8
0
  6
CONTINUOUS
 62
     7
 10
178.0855925429
 20
-16.0732471586
 30
0.0
  0
VERTEX
  5
7D1
  8
0
  6
CONTINUOUS
 62
     7
 10
177.2310794938
 20
-16.2415051104
 30
0.0
  0
VERTEX
  5
7D2
  8
0
  6
CONTINUOUS
 62
     7
 10
176.3921351779
 20
-16.4187872053
 30
0.0
  0
VERTEX
  5
7D3
  8
0
  6
CONTINUOUS
 62
     7
 10
175.5700619566
 20
-16.6046344877
 30
0.0
  0
VERTEX
  5
7D4
  8
0
  6
CONTINUOUS
 62
     7
 10
174.7709603655
 20
-16.797589624
 30
0.0
  0
VERTEX
  5
7D5
  8
0
  6
CONTINUOUS
 62
     7
 10
174.0006746399
 20
-16.9961952807
 30
0.0
  0
VERTEX
  5
7D6
  8
0
  6
CONTINUOUS
 62
     7
 10
173.2644559491
 20
-17.1991073729
 30
0.0
  0
VERTEX
  5
7D7
  8
0
  6
CONTINUOUS
 62
     7
 10
172.5665094006
 20
-17.4052992107
 30
0.0
  0
VERTEX
  5
7D8
  8
0
  6
CONTINUOUS
 62
     7
 10
171.9123096812
 20
-17.6129409314
 30
0.0
  0
VERTEX
  5
7D9
  8
0
  6
CONTINUOUS
 62
     7
 10
171.3131280291
 20
-17.8175145031
 30
0.0
  0
VERTEX
  5
7DA
  8
0
  6
CONTINUOUS
 62
     7
 10
170.7289250243
 20
-18.0334546805
 30
0.0
  0
VERTEX
  5
7DB
  8
0
  6
CONTINUOUS
 62
     7
 10
170.1754899371
 20
-18.25750556
 30
0.0
  0
VERTEX
  5
7DC
  8
0
  6
CONTINUOUS
 62
     7
 10
169.6451695311
 20
-18.4966334344
 30
0.0
  0
VERTEX
  5
7DD
  8
0
  6
CONTINUOUS
 62
     7
 10
169.1192181456
 20
-18.7687405587
 30
0.0
  0
VERTEX
  5
7DE
  8
0
  6
CONTINUOUS
 62
     7
 10
168.677511965
 20
-19.0395483018
 30
0.0
  0
VERTEX
  5
7DF
  8
0
  6
CONTINUOUS
 62
     7
 10
168.3728845465
 20
-19.261568153
 30
0.0
  0
VERTEX
  5
7E0
  8
0
  6
CONTINUOUS
 62
     7
 10
168.1133569825
 20
-19.4845997931
 30
0.0
  0
VERTEX
  5
7E1
  8
0
  6
CONTINUOUS
 62
     7
 10
167.8790451634
 20
-19.7247141243
 30
0.0
  0
VERTEX
  5
7E2
  8
0
  6
CONTINUOUS
 62
     7
 10
167.666608249
 20
-19.9894615651
 30
0.0
  0
VERTEX
  5
7E3
  8
0
  6
CONTINUOUS
 62
     7
 10
167.4769999135
 20
-20.2854969741
 30
0.0
  0
VERTEX
  5
7E4
  8
0
  6
CONTINUOUS
 62
     7
 10
167.3163773167
 20
-20.6150510551
 30
0.0
  0
VERTEX
  5
7E5
  8
0
  6
CONTINUOUS
 62
     7
 10
167.1935261834
 20
-20.9751361252
 30
0.0
  0
VERTEX
  5
7E6
  8
0
  6
CONTINUOUS
 62
     7
 10
167.1168835509
 20
-21.3585370422
 30
0.0
  0
VERTEX
  5
7E7
  8
0
  6
CONTINUOUS
 62
     7
 10
167.0945079672
 20
-21.7245006205
 30
0.0
  0
SEQEND
  5
92F
  8
0
  6
CONTINUOUS
 62
     7
  0
POLYLINE
  5
2D4
  8
0
  6
CONTINUOUS
 62
     7
 66
     1
 10
0.0
 20
0.0
 30
0.0
  0
VERTEX
  5
7E8
  8
0
  6
CONTINUOUS
 62
     7
 10
247.2047390091
 20
-21.737288797
 30
0.0
  0
VERTEX
  5
7E9
  8
0
  6
CONTINUOUS
 62
     7
 10
247.2083331692
 20
-21.6640287281
 30
0.0
  0
VERTEX
  5
7EA
  8
0
  6
CONTINUOUS
 62
     7
 10
247.1711428511
 20
-21.2651708366
 30
0.0
  0
VERTEX
  5
7EB
  8
0
  6
CONTINUOUS
 62
     7
 10
247.0842124569
 20
-20.89075979
 30
0.0
  0
VERTEX
  5
7EC
  8
0
  6
CONTINUOUS
 62
     7
 10
246.9561101544
 20
-20.5460348369
 30
0.0
  0
VERTEX
  5
7ED
  8
0
  6
CONTINUOUS
 62
     7
 10
246.7956872332
 20
-20.234152043
 30
0.0
  0
VERTEX
  5
7EE
  8
0
  6
CONTINUOUS
 62
     7
 10
246.6109873402
 20
-19.9553900601
 30
0.0
  0
VERTEX
  5
7EF
  8
0
  6
CONTINUOUS
 62
     7
 10
246.4074285376
 20
-19.706539178
 30
0.0
  0
VERTEX
  5
7F0
  8
0
  6
CONTINUOUS
 62
     7
 10
246.1858423102
 20
-19.4810935498
 30
0.0
  0
VERTEX
  5
7F1
  8
0
  6
CONTINUOUS
 62
     7
 10
245.9407152283
 20
-19.2699023725
 30
0.0
  0
VERTEX
  5
7F2
  8
0
  6
CONTINUOUS
 62
     7
 10
245.6544996846
 20
-19.0592029334
 30
0.0
  0
VERTEX
  5
7F3
  8
0
  6
CONTINUOUS
 62
     7
 10
245.2815027583
 20
-18.8249596597
 30
0.0
  0
VERTEX
  5
7F4
  8
0
  6
CONTINUOUS
 62
     7
 10
244.8016823876
 20
-18.5677119733
 30
0.0
  0
VERTEX
  5
7F5
  8
0
  6
CONTINUOUS
 62
     7
 10
244.2703546631
 20
-18.3201172591
 30
0.0
  0
VERTEX
  5
7F6
  8
0
  6
CONTINUOUS
 62
     7
 10
243.733218466
 20
-18.0964731814
 30
0.0
  0
VERTEX
  5
7F7
  8
0
  6
CONTINUOUS
 62
     7
 10
243.1150557148
 20
-17.8627395273
 30
0.0
  0
VERTEX
  5
7F8
  8
0
  6
CONTINUOUS
 62
     7
 10
242.4768866646
 20
-17.6415824534
 30
0.0
  0
VERTEX
  5
7F9
  8
0
  6
CONTINUOUS
 62
     7
 10
241.8140234101
 20
-17.4291112662
 30
0.0
  0
VERTEX
  5
7FA
  8
0
  6
CONTINUOUS
 62
     7
 10
241.126886164
 20
-17.2242456318
 30
0.0
  0
VERTEX
  5
7FB
  8
0
  6
CONTINUOUS
 62
     7
 10
240.3938026774
 20
-17.020221913
 30
0.0
  0
VERTEX
  5
7FC
  8
0
  6
CONTINUOUS
 62
     7
 10
239.62759987
 20
-16.8208428861
 30
0.0
  0
VERTEX
  5
7FD
  8
0
  6
CONTINUOUS
 62
     7
 10
238.8307572949
 20
-16.6268223168
 30
0.0
  0
VERTEX
  5
7FE
  8
0
  6
CONTINUOUS
 62
     7
 10
238.006442939
 20
-16.4391108991
 30
0.0
  0
VERTEX
  5
7FF
  8
0
  6
CONTINUOUS
 62
     7
 10
237.1583254683
 20
-16.2587934376
 30
0.0
  0
VERTEX
  5
800
  8
0
  6
CONTINUOUS
 62
     7
 10
236.2903447497
 20
-16.0869934798
 30
0.0
  0
VERTEX
  5
801
  8
0
  6
CONTINUOUS
 62
     7
 10
235.4066641676
 20
-15.9248375536
 30
0.0
  0
VERTEX
  5
802
  8
0
  6
CONTINUOUS
 62
     7
 10
234.5168651688
 20
-15.7741585017
 30
0.0
  0
VERTEX
  5
803
  8
0
  6
CONTINUOUS
 62
     7
 10
233.6153210747
 20
-15.6338998319
 30
0.0
  0
VERTEX
  5
804
  8
0
  6
CONTINUOUS
 62
     7
 10
232.7344091284
 20
-15.5087658406
 30
0.0
  0
SEQEND
  5
92E
  8
0
  6
CONTINUOUS
 62
     7
  0
ARC
  5
2D5
  8
0
  6
CONTINUOUS
 62
     7
 10
207.029120956
 20
-202.6011044425
 30
0.0
 40
188.817430577797
 50
90.2489000752
 51
97.7494231048
  0
ARC
  5
2D6
  8
0
  6
CONTINUOUS
 62
     7
 10
207.3584027137
 20
-201.6926145354
 30
0.0
 40
187.9058612011226
 50
82.2387238284
 51
89.7798291344
  0
POLYLINE
  5
2D7
  8
0
  6
CONTINUOUS
 62
     7
 66
     1
 10
0.0
 20
0.0
 30
0.0
  0
VERTEX
  5
805
  8
0
  6
CONTINUOUS
 62
     7
 10
171.6876150715
 20
-23.4985762478
 30
0.0
  0
VERTEX
  5
806
  8
0
  6
CONTINUOUS
 62
     7
 10
171.6861398566
 20
-23.4997057558
 30
0.0
  0
VERTEX
  5
807
  8
0
  6
CONTINUOUS
 62
     7
 10
171.7265518057
 20
-23.4751024486
 30
0.0
  0
VERTEX
  5
808
  8
0
  6
CONTINUOUS
 62
     7
 10
171.8179942715
 20
-23.4246277453
 30
0.0
  0
VERTEX
  5
809
  8
0
  6
CONTINUOUS
 62
     7
 10
171.9672115195
 20
-23.3497315289
 30
0.0
  0
VERTEX
  5
80A
  8
0
  6
CONTINUOUS
 62
     7
 10
172.1792669642
 20
-23.2524284364
 30
0.0
  0
VERTEX
  5
80B
  8
0
  6
CONTINUOUS
 62
     7
 10
172.4568040717
 20
-23.1353634239
 30
0.0
  0
VERTEX
  5
80C
  8
0
  6
CONTINUOUS
 62
     7
 10
172.7999807942
 20
-23.0016329528
 30
0.0
  0
VERTEX
  5
80D
  8
0
  6
CONTINUOUS
 62
     7
 10
173.2068420994
 20
-22.8545033575
 30
0.0
  0
VERTEX
  5
80E
  8
0
  6
CONTINUOUS
 62
     7
 10
173.6739338982
 20
-22.6971888186
 30
0.0
  0
VERTEX
  5
80F
  8
0
  6
CONTINUOUS
 62
     7
 10
174.196565305
 20
-22.5327887775
 30
0.0
  0
VERTEX
  5
810
  8
0
  6
CONTINUOUS
 62
     7
 10
174.7718484747
 20
-22.3637395741
 30
0.0
  0
VERTEX
  5
811
  8
0
  6
CONTINUOUS
 62
     7
 10
175.3807635653
 20
-22.1961745263
 30
0.0
  0
VERTEX
  5
812
  8
0
  6
CONTINUOUS
 62
     7
 10
176.0414035666
 20
-22.0255517603
 30
0.0
  0
VERTEX
  5
813
  8
0
  6
CONTINUOUS
 62
     7
 10
176.7468781817
 20
-21.8545981885
 30
0.0
  0
VERTEX
  5
814
  8
0
  6
CONTINUOUS
 62
     7
 10
177.4898530591
 20
-21.6858991624
 30
0.0
  0
VERTEX
  5
815
  8
0
  6
CONTINUOUS
 62
     7
 10
178.2623054135
 20
-21.5219625474
 30
0.0
  0
VERTEX
  5
816
  8
0
  6
CONTINUOUS
 62
     7
 10
179.0544213402
 20
-21.3654198886
 30
0.0
  0
VERTEX
  5
817
  8
0
  6
CONTINUOUS
 62
     7
 10
179.8576684344
 20
-21.2183528782
 30
0.0
  0
VERTEX
  5
818
  8
0
  6
CONTINUOUS
 62
     7
 10
180.6683154452
 20
-21.0814842225
 30
0.0
  0
VERTEX
  5
819
  8
0
  6
CONTINUOUS
 62
     7
 10
181.4973922122
 20
-20.9528886915
 30
0.0
  0
VERTEX
  5
81A
  8
0
  6
CONTINUOUS
 62
     7
 10
182.2932542908
 20
-20.8401763083
 30
0.0
  0
SEQEND
  5
92D
  8
0
  6
CONTINUOUS
 62
     7
  0
POLYLINE
  5
2D8
  8
0
  6
CONTINUOUS
 62
     7
 66
     1
 10
0.0
 20
0.0
 30
0.0
  0
VERTEX
  5
81B
  8
0
  6
CONTINUOUS
 62
     7
 10
232.0099206316
 20
-20.8405503274
 30
0.0
  0
VERTEX
  5
81C
  8
0
  6
CONTINUOUS
 62
     7
 10
232.66988114
 20
-20.932645464
 30
0.0
  0
VERTEX
  5
81D
  8
0
  6
CONTINUOUS
 62
     7
 10
233.5073114979
 20
-21.0608654858
 30
0.0
  0
VERTEX
  5
81E
  8
0
  6
CONTINUOUS
 62
     7
 10
234.3364895928
 20
-21.1992898227
 30
0.0
  0
VERTEX
  5
81F
  8
0
  6
CONTINUOUS
 62
     7
 10
235.1509453404
 20
-21.3468157889
 30
0.0
  0
VERTEX
  5
820
  8
0
  6
CONTINUOUS
 62
     7
 10
235.9397621501
 20
-21.5010130049
 30
0.0
  0
VERTEX
  5
821
  8
0
  6
CONTINUOUS
 62
     7
 10
236.7079050887
 20
-21.6622733713
 30
0.0
  0
VERTEX
  5
822
  8
0
  6
CONTINUOUS
 62
     7
 10
237.451547538
 20
-21.8294182063
 30
0.0
  0
VERTEX
  5
823
  8
0
  6
CONTINUOUS
 62
     7
 10
238.16468135
 20
-22.000690663
 30
0.0
  0
VERTEX
  5
824
  8
0
  6
CONTINUOUS
 62
     7
 10
238.8412864554
 20
-22.1741595508
 30
0.0
  0
VERTEX
  5
825
  8
0
  6
CONTINUOUS
 62
     7
 10
239.4755782235
 20
-22.3477580787
 30
0.0
  0
VERTEX
  5
826
  8
0
  6
CONTINUOUS
 62
     7
 10
240.0619359362
 20
-22.519245112
 30
0.0
  0
VERTEX
  5
827
  8
0
  6
CONTINUOUS
 62
     7
 10
240.5953289616
 20
-22.6862766982
 30
0.0
  0
VERTEX
  5
828
  8
0
  6
CONTINUOUS
 62
     7
 10
241.0746546137
 20
-22.8473180176
 30
0.0
  0
VERTEX
  5
829
  8
0
  6
CONTINUOUS
 62
     7
 10
241.5008218634
 20
-23.0014213563
 30
0.0
  0
VERTEX
  5
82A
  8
0
  6
CONTINUOUS
 62
     7
 10
241.8666006672
 20
-23.1445067764
 30
0.0
  0
VERTEX
  5
82B
  8
0
  6
CONTINUOUS
 62
     7
 10
242.1652109969
 20
-23.2717388512
 30
0.0
  0
VERTEX
  5
82C
  8
0
  6
CONTINUOUS
 62
     7
 10
242.3694224703
 20
-23.3668470026
 30
0.0
  0
VERTEX
  5
82D
  8
0
  6
CONTINUOUS
 62
     7
 10
242.510795747
 20
-23.4389596821
 30
0.0
  0
VERTEX
  5
82E
  8
0
  6
CONTINUOUS
 62
     7
 10
242.5929845917
 20
-23.4851577521
 30
0.0
  0
VERTEX
  5
82F
  8
0
  6
CONTINUOUS
 62
     7
 10
242.6224024642
 20
-23.5033923031
 30
0.0
  0
VERTEX
  5
830
  8
0
  6
CONTINUOUS
 62
     7
 10
242.6202030528
 20
-23.5017904283
 30
0.0
  0
SEQEND
  5
92C
  8
0
  6
CONTINUOUS
 62
     7
  0
LINE
  5
2D9
  8
0
  6
CONTINUOUS
 62
     7
 10
206.1515621516
 20
-13.4432950259
 30
0.0
 11
206.1515621516
 21
-13.8012671114
 31
0.0
  0
LINE
  5
2DA
  8
0
  6
CONTINUOUS
 62
     7
 10
208.1515621069
 20
-13.8012671114
 30
0.0
 11
208.1515621069
 21
-13.4432950259
 31
0.0
  0
ARC
  5
2DB
  8
0
  6
CONTINUOUS
 62
     7
 10
207.1515621293
 20
-203.850030567
 30
0.0
 40
184.6914670168482
 50
82.2647823914
 51
97.7352176086
  0
LINE
  5
2DC
  8
0
  6
CONTINUOUS
 62
     7
 10
247.2103180039
 20
-26.607795173
 30
0.0
 11
247.2103180039
 21
-21.7330211044
 31
0.0
  0
LINE
  5
2DD
  8
0
  6
CONTINUOUS
 62
     7
 10
167.0928062546
 20
-21.7330211044
 30
0.0
 11
167.0928062546
 21
-26.607795173
 31
0.0
  0
POLYLINE
  5
2DE
  8
0
  6
CONTINUOUS
 62
     7
 66
     1
 10
0.0
 20
0.0
 30
0.0
  0
VERTEX
  5
831
  8
0
  6
CONTINUOUS
 62
     7
 10
232.0100994456
 20
-28.7146167101
 30
0.0
  0
VERTEX
  5
832
  8
0
  6
CONTINUOUS
 62
     7
 10
232.786747967
 20
-28.8188220204
 30
0.0
  0
VERTEX
  5
833
  8
0
  6
CONTINUOUS
 62
     7
 10
233.6691768515
 20
-28.9335944892
 30
0.0
  0
VERTEX
  5
834
  8
0
  6
CONTINUOUS
 62
     7
 10
234.5411123383
 20
-29.0433951856
 30
0.0
  0
VERTEX
  5
835
  8
0
  6
CONTINUOUS
 62
     7
 10
235.3986026394
 20
-29.1476519049
 30
0.0
  0
VERTEX
  5
836
  8
0
  6
CONTINUOUS
 62
     7
 10
236.2344862568
 20
-29.2451718093
 30
0.0
  0
VERTEX
  5
837
  8
0
  6
CONTINUOUS
 62
     7
 10
237.0559217083
 20
-29.3364876152
 30
0.0
  0
VERTEX
  5
838
  8
0
  6
CONTINUOUS
 62
     7
 10
237.8621073115
 20
-29.4210531951
 30
0.0
  0
VERTEX
  5
839
  8
0
  6
CONTINUOUS
 62
     7
 10
238.6466266263
 20
-29.4976578296
 30
0.0
  0
VERTEX
  5
83A
  8
0
  6
CONTINUOUS
 62
     7
 10
239.4034118998
 20
-29.5651310326
 30
0.0
  0
VERTEX
  5
83B
  8
0
  6
CONTINUOUS
 62
     7
 10
240.1271344769
 20
-29.6223611773
 30
0.0
  0
VERTEX
  5
83C
  8
0
  6
CONTINUOUS
 62
     7
 10
240.8137203801
 20
-29.6682880462
 30
0.0
  0
VERTEX
  5
83D
  8
0
  6
CONTINUOUS
 62
     7
 10
241.4619089711
 20
-29.7019229473
 30
0.0
  0
VERTEX
  5
83E
  8
0
  6
CONTINUOUS
 62
     7
 10
242.079952513
 20
-29.7225528599
 30
0.0
  0
VERTEX
  5
83F
  8
0
  6
CONTINUOUS
 62
     7
 10
242.6729382622
 20
-29.7283963502
 30
0.0
  0
VERTEX
  5
840
  8
0
  6
CONTINUOUS
 62
     7
 10
243.2494045842
 20
-29.7159866632
 30
0.0
  0
VERTEX
  5
841
  8
0
  6
CONTINUOUS
 62
     7
 10
243.8313515532
 20
-29.6771989406
 30
0.0
  0
VERTEX
  5
842
  8
0
  6
CONTINUOUS
 62
     7
 10
244.3940909255
 20
-29.6016023697
 30
0.0
  0
VERTEX
  5
843
  8
0
  6
CONTINUOUS
 62
     7
 10
244.7600217211
 20
-29.5230129005
 30
0.0
  0
VERTEX
  5
844
  8
0
  6
CONTINUOUS
 62
     7
 10
245.0976701129
 20
-29.422386104
 30
0.0
  0
VERTEX
  5
845
  8
0
  6
CONTINUOUS
 62
     7
 10
245.4105676758
 20
-29.2985827864
 30
0.0
  0
VERTEX
  5
846
  8
0
  6
CONTINUOUS
 62
     7
 10
245.7123251307
 20
-29.1444585861
 30
0.0
  0
VERTEX
  5
847
  8
0
  6
CONTINUOUS
 62
     7
 10
246.0052819598
 20
-28.9536991359
 30
0.0
  0
VERTEX
  5
848
  8
0
  6
CONTINUOUS
 62
     7
 10
246.2857992995
 20
-28.7213542701
 30
0.0
  0
VERTEX
  5
849
  8
0
  6
CONTINUOUS
 62
     7
 10
246.545294081
 20
-28.4459815563
 30
0.0
  0
VERTEX
  5
84A
  8
0
  6
CONTINUOUS
 62
     7
 10
246.7732669461
 20
-28.1302103044
 30
0.0
  0
VERTEX
  5
84B
  8
0
  6
CONTINUOUS
 62
     7
 10
246.96003214
 20
-27.7799041213
 30
0.0
  0
VERTEX
  5
84C
  8
0
  6
CONTINUOUS
 62
     7
 10
247.1098037112
 20
-27.3612060786
 30
0.0
  0
VERTEX
  5
84D
  8
0
  6
CONTINUOUS
 62
     7
 10
247.1356244433
 20
-27.2273467125
 30
0.0
  0
SEQEND
  5
92B
  8
0
  6
CONTINUOUS
 62
     7
  0
POLYLINE
  5
2DF
  8
0
  6
CONTINUOUS
 62
     7
 66
     1
 10
0.0
 20
0.0
 30
0.0
  0
VERTEX
  5
84E
  8
0
  6
CONTINUOUS
 62
     7
 10
167.1623589146
 20
-27.2280202449
 30
0.0
  0
VERTEX
  5
84F
  8
0
  6
CONTINUOUS
 62
     7
 10
167.1633036482
 20
-27.2345305623
 30
0.0
  0
VERTEX
  5
850
  8
0
  6
CONTINUOUS
 62
     7
 10
167.2861369002
 20
-27.6399471999
 30
0.0
  0
VERTEX
  5
851
  8
0
  6
CONTINUOUS
 62
     7
 10
167.4593032944
 20
-28.0088582278
 30
0.0
  0
VERTEX
  5
852
  8
0
  6
CONTINUOUS
 62
     7
 10
167.6728339541
 20
-28.3369184674
 30
0.0
  0
VERTEX
  5
853
  8
0
  6
CONTINUOUS
 62
     7
 10
167.9167838442
 20
-28.6219061555
 30
0.0
  0
VERTEX
  5
854
  8
0
  6
CONTINUOUS
 62
     7
 10
168.1814761508
 20
-28.8635053874
 30
0.0
  0
VERTEX
  5
855
  8
0
  6
CONTINUOUS
 62
     7
 10
168.4584648955
 20
-29.0636138261
 30
0.0
  0
VERTEX
  5
856
  8
0
  6
CONTINUOUS
 62
     7
 10
168.7422575104
 20
-29.2264403046
 30
0.0
  0
VERTEX
  5
857
  8
0
  6
CONTINUOUS
 62
     7
 10
169.0322013247
 20
-29.3578841926
 30
0.0
  0
VERTEX
  5
858
  8
0
  6
CONTINUOUS
 62
     7
 10
169.3354816782
 20
-29.4647679866
 30
0.0
  0
VERTEX
  5
859
  8
0
  6
CONTINUOUS
 62
     7
 10
169.6690084088
 20
-29.5530119182
 30
0.0
  0
VERTEX
  5
85A
  8
0
  6
CONTINUOUS
 62
     7
 10
170.0261832821
 20
-29.620779419
 30
0.0
  0
VERTEX
  5
85B
  8
0
  6
CONTINUOUS
 62
     7
 10
170.4917521822
 20
-29.6782606484
 30
0.0
  0
VERTEX
  5
85C
  8
0
  6
CONTINUOUS
 62
     7
 10
171.1582304585
 20
-29.7189631702
 30
0.0
  0
VERTEX
  5
85D
  8
0
  6
CONTINUOUS
 62
     7
 10
171.7315824378
 20
-29.7278748096
 30
0.0
  0
VERTEX
  5
85E
  8
0
  6
CONTINUOUS
 62
     7
 10
172.3122240651
 20
-29.7200181724
 30
0.0
  0
VERTEX
  5
85F
  8
0
  6
CONTINUOUS
 62
     7
 10
172.9700298655
 20
-29.6960302831
 30
0.0
  0
VERTEX
  5
860
  8
0
  6
CONTINUOUS
 62
     7
 10
173.6439587224
 20
-29.6587796153
 30
0.0
  0
VERTEX
  5
861
  8
0
  6
CONTINUOUS
 62
     7
 10
174.3473114121
 20
-29.609652722
 30
0.0
  0
VERTEX
  5
862
  8
0
  6
CONTINUOUS
 62
     7
 10
175.0823856938
 20
-29.5497180165
 30
0.0
  0
VERTEX
  5
863
  8
0
  6
CONTINUOUS
 62
     7
 10
175.847661649
 20
-29.4798546673
 30
0.0
  0
VERTEX
  5
864
  8
0
  6
CONTINUOUS
 62
     7
 10
176.640692507
 20
-29.4008956493
 30
0.0
  0
VERTEX
  5
865
  8
0
  6
CONTINUOUS
 62
     7
 10
177.4581702101
 20
-29.3136977793
 30
0.0
  0
VERTEX
  5
866
  8
0
  6
CONTINUOUS
 62
     7
 10
178.2962591994
 20
-29.2191424609
 30
0.0
  0
VERTEX
  5
867
  8
0
  6
CONTINUOUS
 62
     7
 10
179.1508348334
 20
-29.1181297244
 30
0.0
  0
VERTEX
  5
868
  8
0
  6
CONTINUOUS
 62
     7
 10
180.0162197697
 20
-29.0117689611
 30
0.0
  0
VERTEX
  5
869
  8
0
  6
CONTINUOUS
 62
     7
 10
180.8876963007
 20
-28.90101012
 30
0.0
  0
VERTEX
  5
86A
  8
0
  6
CONTINUOUS
 62
     7
 10
181.767273103
 20
-28.7856140376
 30
0.0
  0
VERTEX
  5
86B
  8
0
  6
CONTINUOUS
 62
     7
 10
182.2930844176
 20
-28.7144706787
 30
0.0
  0
SEQEND
  5
92A
  8
0
  6
CONTINUOUS
 62
     7
  0
POLYLINE
  5
2E0
  8
0
  6
CONTINUOUS
 62
     7
 66
     1
 10
0.0
 20
0.0
 30
0.0
  0
VERTEX
  5
86C
  8
0
  6
CONTINUOUS
 62
     7
 10
247.1491159546
 20
-27.1574133278
 30
0.0
  0
VERTEX
  5
86D
  8
0
  6
CONTINUOUS
 62
     7
 10
247.1916110861
 20
-26.9371145607
 30
0.0
  0
VERTEX
  5
86E
  8
0
  6
CONTINUOUS
 62
     7
 10
247.2056271184
 20
-26.6086490096
 30
0.0
  0
SEQEND
  5
929
  8
0
  6
CONTINUOUS
 62
     7
  0
POLYLINE
  5
2E1
  8
0
  6
CONTINUOUS
 62
     7
 66
     1
 10
0.0
 20
0.0
 30
0.0
  0
VERTEX
  5
86F
  8
0
  6
CONTINUOUS
 62
     7
 10
167.1009571898
 20
-26.601429397
 30
0.0
  0
VERTEX
  5
870
  8
0
  6
CONTINUOUS
 62
     7
 10
167.1005369771
 20
-26.8012778104
 30
0.0
  0
VERTEX
  5
871
  8
0
  6
CONTINUOUS
 62
     7
 10
167.1623589146
 20
-27.2280202449
 30
0.0
  0
SEQEND
  5
928
  8
0
  6
CONTINUOUS
 62
     7
  0
ARC
  5
2E2
  8
0
  6
CONTINUOUS
 62
     7
 10
207.1515621293
 20
-211.7251601371
 30
0.0
 40
184.6913998231545
 50
82.26477956
 51
97.73522044
  0
ARC
  5
2E3
  8
0
  6
CONTINUOUS
 62
     7
 10
352.3352190066
 20
-103.9884132219
 30
0.0
 40
14.86825785155776
 50
270.8245313927
 51
0.4742368036
  0
ARC
  5
2E4
  8
0
  6
CONTINUOUS
 62
     7
 10
301.9671156279
 20
-103.9918822002
 30
0.0
 40
14.8665806114313
 50
179.5129140953
 51
269.3234192169
  0
ARC
  5
2E5
  8
0
  6
CONTINUOUS
 62
     7
 10
352.3240139725
 20
-63.7769496322
 30
0.0
 40
14.87766591083065
 50
359.6599374309
 51
32.6990507799
  0
ARC
  5
2E6
  8
0
  6
CONTINUOUS
 62
     7
 10
302.0711275115
 20
-63.8094943764
 30
0.0
 40
14.97538311868258
 50
147.3882343326
 51
180.2160511768
  0
ARC
  5
2E7
  8
0
  6
CONTINUOUS
 62
     7
 10
301.8952364196
 20
-63.5722796124
 30
0.0
 40
14.69879240743514
 50
90.6992139336
 51
141.1138693626
  0
ARC
  5
2E8
  8
0
  6
CONTINUOUS
 62
     7
 10
352.4109215499
 20
-63.5489681756
 30
0.0
 40
14.67825125822204
 50
38.7742112389
 51
89.7632057327
  0
LINE
  5
2E9
  8
0
  6
CONTINUOUS
 62
     7
 10
287.0928050625
 20
-63.8652899505
 30
0.0
 11
287.0928050625
 21
-103.8652905465
 31
0.0
  0
LINE
  5
2EA
  8
0
  6
CONTINUOUS
 62
     7
 10
367.2103227723
 20
-103.8652905465
 30
0.0
 11
367.2103227723
 21
-63.8652899505
 31
0.0
  0
ARC
  5
2EB
  8
0
  6
CONTINUOUS
 62
     7
 10
112.3352215556
 20
-103.988413298
 30
0.0
 40
14.86825768737818
 50
270.8245077952
 51
0.4742371019
  0
ARC
  5
2EC
  8
0
  6
CONTINUOUS
 62
     7
 10
61.9671155203
 20
-103.9918846419
 30
0.0
 40
14.86657814047842
 50
179.5129046037
 51
269.3234287085
  0
ARC
  5
2ED
  8
0
  6
CONTINUOUS
 62
     7
 10
112.3240163567
 20
-63.7769496322
 30
0.0
 40
14.87766591083114
 50
359.6599374309
 51
32.6990507799
  0
ARC
  5
2EE
  8
0
  6
CONTINUOUS
 62
     7
 10
62.0709947863
 20
-63.8094458779
 30
0.0
 40
14.97524819321603
 50
147.3881243277
 51
180.2162386816
  0
ARC
  5
2EF
  8
0
  6
CONTINUOUS
 62
     7
 10
61.8952470236
 20
-63.5723091978
 30
0.0
 40
14.69882201824254
 50
90.6992213323
 51
141.113814295
  0
ARC
  5
2F0
  8
0
  6
CONTINUOUS
 62
     7
 10
112.4109229257
 20
-63.5489578343
 30
0.0
 40
14.67824092118787
 50
38.7741918739
 51
89.7632016299
  0
LINE
  5
2F1
  8
0
  6
CONTINUOUS
 62
     7
 10
47.0928014863
 20
-63.8652899505
 30
0.0
 11
47.0928014863
 21
-103.8652905465
 31
0.0
  0
LINE
  5
2F2
  8
0
  6
CONTINUOUS
 62
     7
 10
127.210319196
 20
-103.8652905465
 30
0.0
 11
127.210319196
 21
-63.8652899505
 31
0.0
  0
ARC
  5
2F3
  8
0
  6
CONTINUOUS
 62
     7
 10
232.3352221581
 20
-103.9884150524
 30
0.0
 40
14.86825590731779
 50
270.8245009774
 51
0.4742439197
  0
ARC
  5
2F4
  8
0
  6
CONTINUOUS
 62
     7
 10
181.96711391
 20
-103.9918850516
 30
0.0
 40
14.86657772581384
 50
179.5129030109
 51
269.3234303013
  0
ARC
  5
2F5
  8
0
  6
CONTINUOUS
 62
     7
 10
232.3240674035
 20
-63.7769298838
 30
0.0
 40
14.87761379013413
 50
359.6598601843
 51
32.699089261
  0
ARC
  5
2F6
  8
0
  6
CONTINUOUS
 62
     7
 10
182.0710947702
 20
-63.8094798937
 30
0.0
 40
14.97534924019697
 50
147.3882171823
 51
180.2161070771
  0
ARC
  5
2F7
  8
0
  6
CONTINUOUS
 62
     7
 10
181.8952417216
 20
-63.5722944051
 30
0.0
 40
14.69880721282059
 50
90.699217633
 51
141.1138418288
  0
ARC
  5
2F8
  8
0
  6
CONTINUOUS
 62
     7
 10
232.4109262049
 20
-63.5489485566
 30
0.0
 40
14.6782316250524
 50
38.7741745702
 51
89.7632189336
  0
LINE
  5
2F9
  8
0
  6
CONTINUOUS
 62
     7
 10
167.0928062546
 20
-63.8652899505
 30
0.0
 11
167.0928062546
 21
-103.8652905465
 31
0.0
  0
LINE
  5
2FA
  8
0
  6
CONTINUOUS
 62
     7
 10
247.2103180039
 20
-103.8652905465
 30
0.0
 11
247.2103180039
 21
-63.8652899505
 31
0.0
  0
ARC
  5
2FB
  8
0
  6
CONTINUOUS
 62
     7
 10
147.1515621293
 20
-37.9652892114
 30
0.0
 40
2.700000000000017
 50
0.0
 51
180.0
  0
ARC
  5
2FC
  8
0
  6
CONTINUOUS
 62
     7
 10
147.1515621293
 20
-87.9652892114
 30
0.0
 40
2.700000000000017
 50
180.0
 51
0.0
  0
LINE
  5
2FD
  8
0
  6
CONTINUOUS
 62
     7
 10
141.1515595067
 20
-33.1652892024
 30
0.0
 11
141.1515595067
 21
-31.9652893783
 31
0.0
  0
LINE
  5
2FE
  8
0
  6
CONTINUOUS
 62
     7
 10
141.1515595067
 20
-31.9652893783
 30
0.0
 11
153.1515599835
 21
-31.9652893783
 31
0.0
  0
LINE
  5
2FF
  8
0
  6
CONTINUOUS
 62
     7
 10
153.1515599835
 20
-31.9652893783
 30
0.0
 11
153.1515599835
 21
-33.1652892024
 31
0.0
  0
LINE
  5
300
  8
0
  6
CONTINUOUS
 62
     7
 10
141.1515595067
 20
-33.1652892024
 30
0.0
 11
141.1515595067
 21
-42.7652892859
 31
0.0
  0
LINE
  5
301
  8
0
  6
CONTINUOUS
 62
     7
 10
153.1515599835
 20
-33.1652892024
 30
0.0
 11
153.1515599835
 21
-42.7652892859
 31
0.0
  0
LINE
  5
302
  8
0
  6
CONTINUOUS
 62
     7
 10
153.1515599835
 20
-43.96528911
 30
0.0
 11
149.8515607464
 21
-43.96528911
 31
0.0
  0
LINE
  5
303
  8
0
  6
CONTINUOUS
 62
     7
 10
144.4515647042
 20
-43.96528911
 30
0.0
 11
141.1515595067
 21
-43.96528911
 31
0.0
  0
LINE
  5
304
  8
0
  6
CONTINUOUS
 62
     7
 10
141.1515595067
 20
-43.96528911
 30
0.0
 11
141.1515595067
 21
-42.7652892859
 31
0.0
  0
LINE
  5
305
  8
0
  6
CONTINUOUS
 62
     7
 10
153.1515599835
 20
-42.7652892859
 30
0.0
 11
153.1515599835
 21
-43.96528911
 31
0.0
  0
ARC
  5
306
  8
0
  6
CONTINUOUS
 62
     7
 10
27.1515621293
 20
-37.9652892114
 30
0.0
 40
2.699999999999982
 50
0.0
 51
180.0
  0
ARC
  5
307
  8
0
  6
CONTINUOUS
 62
     7
 10
27.1515621293
 20
-87.9652892114
 30
0.0
 40
2.699999999999982
 50
180.0
 51
0.0
  0
LINE
  5
308
  8
0
  6
CONTINUOUS
 62
     7
 10
21.1515606987
 20
-33.1652892024
 30
0.0
 11
21.1515606987
 21
-31.9652893783
 31
0.0
  0
LINE
  5
309
  8
0
  6
CONTINUOUS
 62
     7
 10
21.1515606987
 20
-31.9652893783
 30
0.0
 11
33.1515611756
 21
-31.9652893783
 31
0.0
  0
LINE
  5
30A
  8
0
  6
CONTINUOUS
 62
     7
 10
33.1515611756
 20
-31.9652893783
 30
0.0
 11
33.1515611756
 21
-33.1652892024
 31
0.0
  0
LINE
  5
30B
  8
0
  6
CONTINUOUS
 62
     7
 10
33.1515611756
 20
-33.1652892024
 30
0.0
 11
33.1515611756
 21
-42.7652892859
 31
0.0
  0
LINE
  5
30C
  8
0
  6
CONTINUOUS
 62
     7
 10
21.1515606987
 20
-33.1652892024
 30
0.0
 11
21.1515606987
 21
-42.7652892859
 31
0.0
  0
LINE
  5
30D
  8
0
  6
CONTINUOUS
 62
     7
 10
33.1515611756
 20
-43.96528911
 30
0.0
 11
29.8515619385
 21
-43.96528911
 31
0.0
  0
LINE
  5
30E
  8
0
  6
CONTINUOUS
 62
     7
 10
24.4515599358
 20
-43.96528911
 30
0.0
 11
21.1515606987
 21
-43.96528911
 31
0.0
  0
LINE
  5
30F
  8
0
  6
CONTINUOUS
 62
     7
 10
33.1515611756
 20
-42.7652892859
 30
0.0
 11
33.1515611756
 21
-43.96528911
 31
0.0
  0
LINE
  5
310
  8
0
  6
CONTINUOUS
 62
     7
 10
21.1515606987
 20
-43.96528911
 30
0.0
 11
21.1515606987
 21
-42.7652892859
 31
0.0
  0
ARC
  5
311
  8
0
  6
CONTINUOUS
 62
     7
 10
267.1515621293
 20
-37.9652892114
 30
0.0
 40
2.700000000000045
 50
0.0
 51
180.0
  0
ARC
  5
312
  8
0
  6
CONTINUOUS
 62
     7
 10
267.1515621293
 20
-87.9652892114
 30
0.0
 40
2.700000000000045
 50
180.0
 51
0.0
  0
LINE
  5
313
  8
0
  6
CONTINUOUS
 62
     7
 10
261.151564275
 20
-33.1652892024
 30
0.0
 11
261.151564275
 21
-31.9652893783
 31
0.0
  0
LINE
  5
314
  8
0
  6
CONTINUOUS
 62
     7
 10
261.151564275
 20
-31.9652893783
 30
0.0
 11
273.1515647519
 21
-31.9652893783
 31
0.0
  0
LINE
  5
315
  8
0
  6
CONTINUOUS
 62
     7
 10
273.1515647519
 20
-31.9652893783
 30
0.0
 11
273.1515647519
 21
-33.1652892024
 31
0.0
  0
LINE
  5
316
  8
0
  6
CONTINUOUS
 62
     7
 10
273.1515647519
 20
-33.1652892024
 30
0.0
 11
273.1515647519
 21
-42.7652892859
 31
0.0
  0
LINE
  5
317
  8
0
  6
CONTINUOUS
 62
     7
 10
261.151564275
 20
-33.1652892024
 30
0.0
 11
261.151564275
 21
-42.7652892859
 31
0.0
  0
LINE
  5
318
  8
0
  6
CONTINUOUS
 62
     7
 10
273.1515647519
 20
-43.96528911
 30
0.0
 11
269.8515595543
 21
-43.96528911
 31
0.0
  0
LINE
  5
319
  8
0
  6
CONTINUOUS
 62
     7
 10
264.4515635121
 20
-43.96528911
 30
0.0
 11
261.151564275
 21
-43.96528911
 31
0.0
  0
LINE
  5
31A
  8
0
  6
CONTINUOUS
 62
     7
 10
273.1515647519
 20
-42.7652892859
 30
0.0
 11
273.1515647519
 21
-43.96528911
 31
0.0
  0
LINE
  5
31B
  8
0
  6
CONTINUOUS
 62
     7
 10
261.151564275
 20
-43.96528911
 30
0.0
 11
261.151564275
 21
-42.7652892859
 31
0.0
  0
ARC
  5
31C
  8
0
  6
CONTINUOUS
 62
     7
 10
387.1515621293
 20
-37.9652892114
 30
0.0
 40
2.700000000000045
 50
0.0
 51
180.0
  0
ARC
  5
31D
  8
0
  6
CONTINUOUS
 62
     7
 10
387.1515621293
 20
-87.9652892114
 30
0.0
 40
2.700000000000045
 50
180.0
 51
0.0
  0
LINE
  5
31E
  8
0
  6
CONTINUOUS
 62
     7
 10
381.1515630829
 20
-33.1652892024
 30
0.0
 11
381.1515630829
 21
-31.9652893783
 31
0.0
  0
LINE
  5
31F
  8
0
  6
CONTINUOUS
 62
     7
 10
381.1515630829
 20
-31.9652893783
 30
0.0
 11
393.1515635598
 21
-31.9652893783
 31
0.0
  0
LINE
  5
320
  8
0
  6
CONTINUOUS
 62
     7
 10
393.1515635598
 20
-31.9652893783
 30
0.0
 11
393.1515635598
 21
-33.1652892024
 31
0.0
  0
LINE
  5
321
  8
0
  6
CONTINUOUS
 62
     7
 10
393.1515635598
 20
-33.1652892024
 30
0.0
 11
393.1515635598
 21
-42.7652892859
 31
0.0
  0
LINE
  5
322
  8
0
  6
CONTINUOUS
 62
     7
 10
381.1515630829
 20
-33.1652892024
 30
0.0
 11
381.1515630829
 21
-42.7652892859
 31
0.0
  0
LINE
  5
323
  8
0
  6
CONTINUOUS
 62
     7
 10
393.1515635598
 20
-43.96528911
 30
0.0
 11
389.8515643227
 21
-43.96528911
 31
0.0
  0
LINE
  5
324
  8
0
  6
CONTINUOUS
 62
     7
 10
384.45156232
 20
-43.96528911
 30
0.0
 11
381.1515630829
 21
-43.96528911
 31
0.0
  0
LINE
  5
325
  8
0
  6
CONTINUOUS
 62
     7
 10
393.1515635598
 20
-42.7652892859
 30
0.0
 11
393.1515635598
 21
-43.96528911
 31
0.0
  0
LINE
  5
326
  8
0
  6
CONTINUOUS
 62
     7
 10
381.1515630829
 20
-43.96528911
 30
0.0
 11
381.1515630829
 21
-42.7652892859
 31
0.0
  0
ARC
  5
327
  8
0
  6
CONTINUOUS
 62
     7
 10
327.159178922
 20
-7.5675401653
 30
0.0
 40
6.286138045188752
 50
261.304642316
 51
278.4276822735
  0
ARC
  5
328
  8
0
  6
CONTINUOUS
 62
     7
 10
329.155271683
 20
-12.2044816584
 30
0.0
 40
0.9962993941203313
 50
269.7868328114
 51
359.7845997126
  0
LINE
  5
329
  8
0
  6
CONTINUOUS
 62
     7
 10
330.1515640366
 20
-12.2082271815
 30
0.0
 11
330.1515640366
 21
-13.8032698275
 31
0.0
  0
LINE
  5
32A
  8
0
  6
CONTINUOUS
 62
     7
 10
324.1515578377
 20
-13.8077982904
 30
0.0
 11
324.1515578377
 21
-12.2082271815
 31
0.0
  0
ARC
  5
32B
  8
0
  6
CONTINUOUS
 62
     7
 10
325.1478551295
 20
-12.2044766831
 30
0.0
 40
0.9963043510304513
 50
180.2156853392
 51
270.2128821369
  0
LINE
  5
32C
  8
0
  6
CONTINUOUS
 62
     7
 10
324.1515578377
 20
-12.2082271815
 30
0.0
 11
324.1515578377
 21
-8.2380452396
 31
0.0
  0
ARC
  5
32D
  8
0
  6
CONTINUOUS
 62
     7
 10
325.1478587343
 20
-8.2417978741
 30
0.0
 40
0.996307963838458
 50
89.7873259411
 51
179.7841925988
  0
LINE
  5
32E
  8
0
  6
CONTINUOUS
 62
     7
 10
325.1515568841
 20
-7.2454967738
 30
0.0
 11
329.1515649903
 21
-7.2454967738
 31
0.0
  0
ARC
  5
32F
  8
0
  6
CONTINUOUS
 62
     7
 10
329.1552680784
 20
-8.2417928987
 30
0.0
 40
0.9963030067544246
 50
0.2155223422
 51
90.2129591179
  0
LINE
  5
330
  8
0
  6
CONTINUOUS
 62
     7
 10
330.1515640366
 20
-8.2380452396
 30
0.0
 11
330.1515640366
 21
-12.2082271815
 31
0.0
  0
LINE
  5
331
  8
0
  6
CONTINUOUS
 62
     7
 10
329.1515649903
 20
-13.2007741572
 30
0.0
 11
325.1515568841
 21
-13.2007741572
 31
0.0
  0
POLYLINE
  5
332
  8
0
  6
CONTINUOUS
 62
     7
 66
     1
 10
0.0
 20
0.0
 30
0.0
  0
VERTEX
  5
872
  8
0
  6
CONTINUOUS
 62
     7
 10
327.1515668976
 20
-13.3214258791
 30
0.0
  0
VERTEX
  5
873
  8
0
  6
CONTINUOUS
 62
     7
 10
326.8817605126
 20
-13.3259454013
 30
0.0
  0
VERTEX
  5
874
  8
0
  6
CONTINUOUS
 62
     7
 10
326.6319812882
 20
-13.3391672016
 30
0.0
  0
VERTEX
  5
875
  8
0
  6
CONTINUOUS
 62
     7
 10
326.4207305062
 20
-13.3601122738
 30
0.0
  0
VERTEX
  5
876
  8
0
  6
CONTINUOUS
 62
     7
 10
326.2636722672
 20
-13.3872264267
 30
0.0
  0
VERTEX
  5
877
  8
0
  6
CONTINUOUS
 62
     7
 10
326.1724771607
 20
-13.4184994937
 30
0.0
  0
VERTEX
  5
878
  8
0
  6
CONTINUOUS
 62
     7
 10
326.1515678513
 20
-13.4432950259
 30
0.0
  0
SEQEND
  5
927
  8
0
  6
CONTINUOUS
 62
     7
  0
POLYLINE
  5
333
  8
0
  6
CONTINUOUS
 62
     7
 66
     1
 10
0.0
 20
0.0
 30
0.0
  0
VERTEX
  5
879
  8
0
  6
CONTINUOUS
 62
     7
 10
328.151565944
 20
-13.4432950259
 30
0.0
  0
VERTEX
  5
87A
  8
0
  6
CONTINUOUS
 62
     7
 10
328.1306447136
 20
-13.4184994937
 30
0.0
  0
VERTEX
  5
87B
  8
0
  6
CONTINUOUS
 62
     7
 10
328.0394496071
 20
-13.3872264267
 30
0.0
  0
VERTEX
  5
87C
  8
0
  6
CONTINUOUS
 62
     7
 10
327.8824032891
 20
-13.3601122738
 30
0.0
  0
VERTEX
  5
87D
  8
0
  6
CONTINUOUS
 62
     7
 10
327.6711405861
 20
-13.3391672016
 30
0.0
  0
VERTEX
  5
87E
  8
0
  6
CONTINUOUS
 62
     7
 10
327.4213613617
 20
-13.3259454013
 30
0.0
  0
VERTEX
  5
87F
  8
0
  6
CONTINUOUS
 62
     7
 10
327.1515668976
 20
-13.3214258791
 30
0.0
  0
SEQEND
  5
926
  8
0
  6
CONTINUOUS
 62
     7
  0
POLYLINE
  5
334
  8
0
  6
CONTINUOUS
 62
     7
 66
     1
 10
0.0
 20
0.0
 30
0.0
  0
VERTEX
  5
880
  8
0
  6
CONTINUOUS
 62
     7
 10
353.8521112549
 20
-27.5791735591
 30
0.0
  0
VERTEX
  5
881
  8
0
  6
CONTINUOUS
 62
     7
 10
354.9332679856
 20
-27.7085215987
 30
0.0
  0
VERTEX
  5
882
  8
0
  6
CONTINUOUS
 62
     7
 10
355.9820593941
 20
-27.8244213403
 30
0.0
  0
VERTEX
  5
883
  8
0
  6
CONTINUOUS
 62
     7
 10
356.9788993943
 20
-27.9240043105
 30
0.0
  0
VERTEX
  5
884
  8
0
  6
CONTINUOUS
 62
     7
 10
357.9138220894
 20
-28.0052998305
 30
0.0
  0
VERTEX
  5
885
  8
0
  6
CONTINUOUS
 62
     7
 10
358.7791384804
 20
-28.0667835117
 30
0.0
  0
VERTEX
  5
886
  8
0
  6
CONTINUOUS
 62
     7
 10
359.5591487038
 20
-28.1063036264
 30
0.0
  0
VERTEX
  5
887
  8
0
  6
CONTINUOUS
 62
     7
 10
360.249430095
 20
-28.1221502663
 30
0.0
  0
VERTEX
  5
888
  8
0
  6
CONTINUOUS
 62
     7
 10
360.8406247246
 20
-28.1132259608
 30
0.0
  0
VERTEX
  5
889
  8
0
  6
CONTINUOUS
 62
     7
 10
361.32230178
 20
-28.0787752212
 30
0.0
  0
VERTEX
  5
88A
  8
0
  6
CONTINUOUS
 62
     7
 10
361.6918505776
 20
-28.0171775461
 30
0.0
  0
VERTEX
  5
88B
  8
0
  6
CONTINUOUS
 62
     7
 10
361.942643081
 20
-27.9290051402
 30
0.0
  0
VERTEX
  5
88C
  8
0
  6
CONTINUOUS
 62
     7
 10
362.0702923882
 20
-27.8154359401
 30
0.0
  0
VERTEX
  5
88D
  8
0
  6
CONTINUOUS
 62
     7
 10
362.0871724236
 20
-27.7463675679
 30
0.0
  0
SEQEND
  5
925
  8
0
  6
CONTINUOUS
 62
     7
  0
ARC
  5
335
  8
0
  6
CONTINUOUS
 62
     7
 10
327.1515609372
 20
-211.4173186281
 30
0.0
 40
185.7670125983006
 50
81.7361764983
 51
98.2638235017
  0
POLYLINE
  5
336
  8
0
  6
CONTINUOUS
 62
     7
 66
     1
 10
0.0
 20
0.0
 30
0.0
  0
VERTEX
  5
88E
  8
0
  6
CONTINUOUS
 62
     7
 10
292.2159554112
 20
-27.7463675679
 30
0.0
  0
VERTEX
  5
88F
  8
0
  6
CONTINUOUS
 62
     7
 10
292.2800423253
 20
-27.8739006461
 30
0.0
  0
VERTEX
  5
890
  8
0
  6
CONTINUOUS
 62
     7
 10
292.4700619328
 20
-27.9761986078
 30
0.0
  0
VERTEX
  5
891
  8
0
  6
CONTINUOUS
 62
     7
 10
292.7826465714
 20
-28.0516901256
 30
0.0
  0
VERTEX
  5
892
  8
0
  6
CONTINUOUS
 62
     7
 10
293.2167114365
 20
-28.0997515858
 30
0.0
  0
VERTEX
  5
893
  8
0
  6
CONTINUOUS
 62
     7
 10
293.7669576752
 20
-28.1211742402
 30
0.0
  0
VERTEX
  5
894
  8
0
  6
CONTINUOUS
 62
     7
 10
294.4233955491
 20
-28.116461748
 30
0.0
  0
VERTEX
  5
895
  8
0
  6
CONTINUOUS
 62
     7
 10
295.1767624962
 20
-28.0865528823
 30
0.0
  0
VERTEX
  5
896
  8
0
  6
CONTINUOUS
 62
     7
 10
296.0225762475
 20
-28.0332305671
 30
0.0
  0
VERTEX
  5
897
  8
0
  6
CONTINUOUS
 62
     7
 10
296.9450475323
 20
-27.9585928858
 30
0.0
  0
VERTEX
  5
898
  8
0
  6
CONTINUOUS
 62
     7
 10
297.926867162
 20
-27.8651491941
 30
0.0
  0
VERTEX
  5
899
  8
0
  6
CONTINUOUS
 62
     7
 10
298.9663423646
 20
-27.7543180824
 30
0.0
  0
VERTEX
  5
89A
  8
0
  6
CONTINUOUS
 62
     7
 10
300.0438214886
 20
-27.6289836706
 30
0.0
  0
VERTEX
  5
89B
  8
0
  6
CONTINUOUS
 62
     7
 10
300.4510106194
 20
-27.5791735591
 30
0.0
  0
SEQEND
  5
924
  8
0
  6
CONTINUOUS
 62
     7
  0
LINE
  5
337
  8
0
  6
CONTINUOUS
 62
     7
 10
292.2159554112
 20
-23.2369535805
 30
0.0
 11
292.2159554112
 21
-27.7463675679
 31
0.0
  0
LINE
  5
338
  8
0
  6
CONTINUOUS
 62
     7
 10
362.0871724236
 20
-27.7463675679
 30
0.0
 11
362.0871724236
 21
-23.2384884001
 31
0.0
  0
POLYLINE
  5
339
  8
0
  6
CONTINUOUS
 62
     7
 66
     1
 10
0.0
 20
0.0
 30
0.0
  0
VERTEX
  5
89C
  8
0
  6
CONTINUOUS
 62
     7
 10
367.2103227723
 20
-26.607795173
 30
0.0
  0
VERTEX
  5
89D
  8
0
  6
CONTINUOUS
 62
     7
 10
367.2081054795
 20
-26.7161839844
 30
0.0
  0
VERTEX
  5
89E
  8
0
  6
CONTINUOUS
 62
     7
 10
367.1473802674
 20
-27.181977892
 30
0.0
  0
SEQEND
  5
923
  8
0
  6
CONTINUOUS
 62
     7
  0
ARC
  5
33A
  8
0
  6
CONTINUOUS
 62
     7
 10
87.1591815181
 20
-7.5674494578
 30
0.0
 40
6.286227742112843
 50
261.304765396
 51
278.4275591935
  0
ARC
  5
33B
  8
0
  6
CONTINUOUS
 62
     7
 10
85.1478525755
 20
-12.2044816584
 30
0.0
 40
0.9962993941203429
 50
180.2154002874
 51
270.2131671886
  0
LINE
  5
33C
  8
0
  6
CONTINUOUS
 62
     7
 10
84.1515602219
 20
-12.2082271815
 30
0.0
 11
84.1515602219
 21
-8.2380452396
 31
0.0
  0
ARC
  5
33D
  8
0
  6
CONTINUOUS
 62
     7
 10
85.1478561801
 20
-8.2417928987
 30
0.0
 40
0.9963030067544246
 50
89.7870408821
 51
179.7844776578
  0
LINE
  5
33E
  8
0
  6
CONTINUOUS
 62
     7
 10
85.1515592682
 20
-7.2454967738
 30
0.0
 11
89.1515673745
 21
-7.2454967738
 31
0.0
  0
ARC
  5
33F
  8
0
  6
CONTINUOUS
 62
     7
 10
89.1552655242
 20
-8.2417978741
 30
0.0
 40
0.9963079638385275
 50
0.2158074012
 51
90.2126740589
  0
LINE
  5
340
  8
0
  6
CONTINUOUS
 62
     7
 10
90.1515664208
 20
-8.2380452396
 30
0.0
 11
90.1515664208
 21
-12.2082271815
 31
0.0
  0
ARC
  5
341
  8
0
  6
CONTINUOUS
 62
     7
 10
89.155269129
 20
-12.2044766831
 30
0.0
 40
0.9963043510305188
 50
269.7871178631
 51
359.7843146608
  0
LINE
  5
342
  8
0
  6
CONTINUOUS
 62
     7
 10
89.1515673745
 20
-13.2007741572
 30
0.0
 11
85.1515592682
 21
-13.2007741572
 31
0.0
  0
POLYLINE
  5
343
  8
0
  6
CONTINUOUS
 62
     7
 66
     1
 10
0.0
 20
0.0
 30
0.0
  0
VERTEX
  5
89F
  8
0
  6
CONTINUOUS
 62
     7
 10
87.1515573609
 20
-13.3214258791
 30
0.0
  0
VERTEX
  5
8A0
  8
0
  6
CONTINUOUS
 62
     7
 10
86.8817628968
 20
-13.3259454013
 30
0.0
  0
VERTEX
  5
8A1
  8
0
  6
CONTINUOUS
 62
     7
 10
86.6319836724
 20
-13.3391672016
 30
0.0
  0
VERTEX
  5
8A2
  8
0
  6
CONTINUOUS
 62
     7
 10
86.4207209694
 20
-13.3601122738
 30
0.0
  0
VERTEX
  5
8A3
  8
0
  6
CONTINUOUS
 62
     7
 10
86.2636746514
 20
-13.3872264267
 30
0.0
  0
VERTEX
  5
8A4
  8
0
  6
CONTINUOUS
 62
     7
 10
86.1724795449
 20
-13.4184994937
 30
0.0
  0
VERTEX
  5
8A5
  8
0
  6
CONTINUOUS
 62
     7
 10
86.1515583146
 20
-13.4432950259
 30
0.0
  0
SEQEND
  5
922
  8
0
  6
CONTINUOUS
 62
     7
  0
POLYLINE
  5
344
  8
0
  6
CONTINUOUS
 62
     7
 66
     1
 10
0.0
 20
0.0
 30
0.0
  0
VERTEX
  5
8A6
  8
0
  6
CONTINUOUS
 62
     7
 10
88.1515564072
 20
-13.4432950259
 30
0.0
  0
VERTEX
  5
8A7
  8
0
  6
CONTINUOUS
 62
     7
 10
88.1306470978
 20
-13.4184994937
 30
0.0
  0
VERTEX
  5
8A8
  8
0
  6
CONTINUOUS
 62
     7
 10
88.0394519913
 20
-13.3872264267
 30
0.0
  0
VERTEX
  5
8A9
  8
0
  6
CONTINUOUS
 62
     7
 10
87.8823937523
 20
-13.3601122738
 30
0.0
  0
VERTEX
  5
8AA
  8
0
  6
CONTINUOUS
 62
     7
 10
87.6711429703
 20
-13.3391672016
 30
0.0
  0
VERTEX
  5
8AB
  8
0
  6
CONTINUOUS
 62
     7
 10
87.4213637459
 20
-13.3259454013
 30
0.0
  0
VERTEX
  5
8AC
  8
0
  6
CONTINUOUS
 62
     7
 10
87.1515573609
 20
-13.3214258791
 30
0.0
  0
SEQEND
  5
921
  8
0
  6
CONTINUOUS
 62
     7
  0
LINE
  5
345
  8
0
  6
CONTINUOUS
 62
     7
 10
90.1515664208
 20
-12.2082271815
 30
0.0
 11
90.1515664208
 21
-13.8032698275
 31
0.0
  0
LINE
  5
346
  8
0
  6
CONTINUOUS
 62
     7
 10
84.1515602219
 20
-13.8077982904
 30
0.0
 11
84.1515602219
 21
-12.2082271815
 31
0.0
  0
POLYLINE
  5
347
  8
0
  6
CONTINUOUS
 62
     7
 66
     1
 10
0.0
 20
0.0
 30
0.0
  0
VERTEX
  5
8AD
  8
0
  6
CONTINUOUS
 62
     7
 10
113.8521136391
 20
-27.5791735591
 30
0.0
  0
VERTEX
  5
8AE
  8
0
  6
CONTINUOUS
 62
     7
 10
114.9332703698
 20
-27.7085215987
 30
0.0
  0
VERTEX
  5
8AF
  8
0
  6
CONTINUOUS
 62
     7
 10
115.9820558178
 20
-27.8244213403
 30
0.0
  0
VERTEX
  5
8B0
  8
0
  6
CONTINUOUS
 62
     7
 10
116.978895818
 20
-27.9240043105
 30
0.0
  0
VERTEX
  5
8B1
  8
0
  6
CONTINUOUS
 62
     7
 10
117.9138185132
 20
-28.0052998305
 30
0.0
  0
VERTEX
  5
8B2
  8
0
  6
CONTINUOUS
 62
     7
 10
118.7791349041
 20
-28.0667835117
 30
0.0
  0
VERTEX
  5
8B3
  8
0
  6
CONTINUOUS
 62
     7
 10
119.5591451275
 20
-28.1063036264
 30
0.0
  0
VERTEX
  5
8B4
  8
0
  6
CONTINUOUS
 62
     7
 10
120.2494384396
 20
-28.1221502663
 30
0.0
  0
VERTEX
  5
8B5
  8
0
  6
CONTINUOUS
 62
     7
 10
120.8406271088
 20
-28.1132259608
 30
0.0
  0
VERTEX
  5
8B6
  8
0
  6
CONTINUOUS
 62
     7
 10
121.3223041642
 20
-28.0787752212
 30
0.0
  0
VERTEX
  5
8B7
  8
0
  6
CONTINUOUS
 62
     7
 10
121.6918529618
 20
-28.0171775461
 30
0.0
  0
VERTEX
  5
8B8
  8
0
  6
CONTINUOUS
 62
     7
 10
121.9426395047
 20
-27.9290051402
 30
0.0
  0
VERTEX
  5
8B9
  8
0
  6
CONTINUOUS
 62
     7
 10
122.0702888119
 20
-27.8154359401
 30
0.0
  0
VERTEX
  5
8BA
  8
0
  6
CONTINUOUS
 62
     7
 10
122.0871688473
 20
-27.7463675679
 30
0.0
  0
SEQEND
  5
920
  8
0
  6
CONTINUOUS
 62
     7
  0
ARC
  5
348
  8
0
  6
CONTINUOUS
 62
     7
 10
87.1515633214
 20
-211.4173186281
 30
0.0
 40
185.7670125983
 50
81.7361764983
 51
98.2638235017
  0
POLYLINE
  5
349
  8
0
  6
CONTINUOUS
 62
     7
 66
     1
 10
0.0
 20
0.0
 30
0.0
  0
VERTEX
  5
8BB
  8
0
  6
CONTINUOUS
 62
     7
 10
52.2159518349
 20
-27.7463675679
 30
0.0
  0
VERTEX
  5
8BC
  8
0
  6
CONTINUOUS
 62
     7
 10
52.280038749
 20
-27.8739006461
 30
0.0
  0
VERTEX
  5
8BD
  8
0
  6
CONTINUOUS
 62
     7
 10
52.4700583565
 20
-27.9761986078
 30
0.0
  0
VERTEX
  5
8BE
  8
0
  6
CONTINUOUS
 62
     7
 10
52.7826489556
 20
-28.0516901256
 30
0.0
  0
VERTEX
  5
8BF
  8
0
  6
CONTINUOUS
 62
     7
 10
53.2167138207
 20
-28.0997515858
 30
0.0
  0
VERTEX
  5
8C0
  8
0
  6
CONTINUOUS
 62
     7
 10
53.7669600594
 20
-28.1211742402
 30
0.0
  0
VERTEX
  5
8C1
  8
0
  6
CONTINUOUS
 62
     7
 10
54.4233979332
 20
-28.116461748
 30
0.0
  0
VERTEX
  5
8C2
  8
0
  6
CONTINUOUS
 62
     7
 10
55.1767648804
 20
-28.0865528823
 30
0.0
  0
VERTEX
  5
8C3
  8
0
  6
CONTINUOUS
 62
     7
 10
56.0225786316
 20
-28.0332305671
 30
0.0
  0
VERTEX
  5
8C4
  8
0
  6
CONTINUOUS
 62
     7
 10
56.945043956
 20
-27.9585928858
 30
0.0
  0
VERTEX
  5
8C5
  8
0
  6
CONTINUOUS
 62
     7
 10
57.9268635857
 20
-27.8651491941
 30
0.0
  0
VERTEX
  5
8C6
  8
0
  6
CONTINUOUS
 62
     7
 10
58.9663447487
 20
-27.7543180824
 30
0.0
  0
VERTEX
  5
8C7
  8
0
  6
CONTINUOUS
 62
     7
 10
60.0438179123
 20
-27.6289836706
 30
0.0
  0
VERTEX
  5
8C8
  8
0
  6
CONTINUOUS
 62
     7
 10
60.4510130036
 20
-27.5791735591
 30
0.0
  0
SEQEND
  5
91F
  8
0
  6
CONTINUOUS
 62
     7
  0
LINE
  5
34A
  8
0
  6
CONTINUOUS
 62
     7
 10
52.2159518349
 20
-23.2369535805
 30
0.0
 11
52.2159518349
 21
-27.7463675679
 31
0.0
  0
LINE
  5
34B
  8
0
  6
CONTINUOUS
 62
     7
 10
122.0871688473
 20
-27.7463675679
 30
0.0
 11
122.0871688473
 21
-23.2384884001
 31
0.0
  0
POLYLINE
  5
34C
  8
0
  6
CONTINUOUS
 62
     7
 66
     1
 10
0.0
 20
0.0
 30
0.0
  0
VERTEX
  5
8C9
  8
0
  6
CONTINUOUS
 62
     7
 10
127.210319196
 20
-26.607795173
 30
0.0
  0
VERTEX
  5
8CA
  8
0
  6
CONTINUOUS
 62
     7
 10
127.2081019032
 20
-26.7161839844
 30
0.0
  0
VERTEX
  5
8CB
  8
0
  6
CONTINUOUS
 62
     7
 10
127.1473766911
 20
-27.181977892
 30
0.0
  0
SEQEND
  5
91E
  8
0
  6
CONTINUOUS
 62
     7
  0
ARC
  5
34D
  8
0
  6
CONTINUOUS
 62
     7
 10
207.1591796421
 20
-7.5674421236
 30
0.0
 40
6.286235465926656
 50
261.304747261
 51
278.4275782342
  0
LINE
  5
34E
  8
0
  6
CONTINUOUS
 62
     7
 10
204.1515621963
 20
-13.8077982904
 30
0.0
 11
204.1515621963
 21
-12.2082271815
 31
0.0
  0
ARC
  5
34F
  8
0
  6
CONTINUOUS
 62
     7
 10
205.1478468534
 20
-12.2044894161
 30
0.0
 40
0.9962916685299502
 50
180.214955812
 51
270.2136650234
  0
LINE
  5
350
  8
0
  6
CONTINUOUS
 62
     7
 10
204.1515621963
 20
-12.2082271815
 30
0.0
 11
204.1515621963
 21
-8.2380452396
 31
0.0
  0
ARC
  5
351
  8
0
  6
CONTINUOUS
 62
     7
 10
205.147850458
 20
-8.2417851409
 30
0.0
 40
0.9962952811582189
 50
89.7865430513
 51
179.7849221292
  0
LINE
  5
352
  8
0
  6
CONTINUOUS
 62
     7
 10
205.151562174
 20
-7.2454967738
 30
0.0
 11
209.1515620846
 21
-7.2454967738
 31
0.0
  0
ARC
  5
353
  8
0
  6
CONTINUOUS
 62
     7
 10
209.1552738005
 20
-8.2417851409
 30
0.0
 40
0.9962952811582795
 50
0.2150778708
 51
90.2134569487
  0
LINE
  5
354
  8
0
  6
CONTINUOUS
 62
     7
 10
210.1515620622
 20
-8.2380452396
 30
0.0
 11
210.1515620622
 21
-12.2082271815
 31
0.0
  0
ARC
  5
355
  8
0
  6
CONTINUOUS
 62
     7
 10
209.1552774051
 20
-12.2044894161
 30
0.0
 40
0.9962916685299743
 50
269.7863349766
 51
359.785044188
  0
LINE
  5
356
  8
0
  6
CONTINUOUS
 62
     7
 10
209.1515620846
 20
-13.2007741572
 30
0.0
 11
205.151562174
 21
-13.2007741572
 31
0.0
  0
LINE
  5
357
  8
0
  6
CONTINUOUS
 62
     7
 10
210.1515620622
 20
-12.2082271815
 30
0.0
 11
210.1515620622
 21
-13.8032698275
 31
0.0
  0
POLYLINE
  5
358
  8
0
  6
CONTINUOUS
 62
     7
 66
     1
 10
0.0
 20
0.0
 30
0.0
  0
VERTEX
  5
8CC
  8
0
  6
CONTINUOUS
 62
     7
 10
207.1515621293
 20
-13.3214258791
 30
0.0
  0
VERTEX
  5
8CD
  8
0
  6
CONTINUOUS
 62
     7
 10
206.8817653601
 20
-13.3259454013
 30
0.0
  0
VERTEX
  5
8CE
  8
0
  6
CONTINUOUS
 62
     7
 10
206.6319781962
 20
-13.3391672016
 30
0.0
  0
VERTEX
  5
8CF
  8
0
  6
CONTINUOUS
 62
     7
 10
206.4207261569
 20
-13.3601122738
 30
0.0
  0
VERTEX
  5
8D0
  8
0
  6
CONTINUOUS
 62
     7
 10
206.2636769052
 20
-13.3872264267
 30
0.0
  0
VERTEX
  5
8D1
  8
0
  6
CONTINUOUS
 62
     7
 10
206.1724780734
 20
-13.4184994937
 30
0.0
  0
VERTEX
  5
8D2
  8
0
  6
CONTINUOUS
 62
     7
 10
206.1515621516
 20
-13.4432950259
 30
0.0
  0
SEQEND
  5
91D
  8
0
  6
CONTINUOUS
 62
     7
  0
POLYLINE
  5
359
  8
0
  6
CONTINUOUS
 62
     7
 66
     1
 10
0.0
 20
0.0
 30
0.0
  0
VERTEX
  5
8D3
  8
0
  6
CONTINUOUS
 62
     7
 10
208.1515621069
 20
-13.4432950259
 30
0.0
  0
VERTEX
  5
8D4
  8
0
  6
CONTINUOUS
 62
     7
 10
208.1306461851
 20
-13.4184994937
 30
0.0
  0
VERTEX
  5
8D5
  8
0
  6
CONTINUOUS
 62
     7
 10
208.0394473533
 20
-13.3872264267
 30
0.0
  0
VERTEX
  5
8D6
  8
0
  6
CONTINUOUS
 62
     7
 10
207.8823981016
 20
-13.3601122738
 30
0.0
  0
VERTEX
  5
8D7
  8
0
  6
CONTINUOUS
 62
     7
 10
207.6711460623
 20
-13.3391672016
 30
0.0
  0
VERTEX
  5
8D8
  8
0
  6
CONTINUOUS
 62
     7
 10
207.4213588984
 20
-13.3259454013
 30
0.0
  0
VERTEX
  5
8D9
  8
0
  6
CONTINUOUS
 62
     7
 10
207.1515621293
 20
-13.3214258791
 30
0.0
  0
SEQEND
  5
91C
  8
0
  6
CONTINUOUS
 62
     7
  0
POLYLINE
  5
35A
  8
0
  6
CONTINUOUS
 62
     7
 66
     1
 10
0.0
 20
0.0
 30
0.0
  0
VERTEX
  5
8DA
  8
0
  6
CONTINUOUS
 62
     7
 10
233.8521154273
 20
-27.5791735591
 30
0.0
  0
VERTEX
  5
8DB
  8
0
  6
CONTINUOUS
 62
     7
 10
234.9332691777
 20
-27.7085215987
 30
0.0
  0
VERTEX
  5
8DC
  8
0
  6
CONTINUOUS
 62
     7
 10
235.982057606
 20
-27.8244213403
 30
0.0
  0
VERTEX
  5
8DD
  8
0
  6
CONTINUOUS
 62
     7
 10
236.9788976061
 20
-27.9240043105
 30
0.0
  0
VERTEX
  5
8DE
  8
0
  6
CONTINUOUS
 62
     7
 10
237.9138203013
 20
-28.0052998305
 30
0.0
  0
VERTEX
  5
8DF
  8
0
  6
CONTINUOUS
 62
     7
 10
238.7791337121
 20
-28.0667835117
 30
0.0
  0
VERTEX
  5
8E0
  8
0
  6
CONTINUOUS
 62
     7
 10
239.5591469157
 20
-28.1063036264
 30
0.0
  0
VERTEX
  5
8E1
  8
0
  6
CONTINUOUS
 62
     7
 10
240.2494372475
 20
-28.1221502663
 30
0.0
  0
VERTEX
  5
8E2
  8
0
  6
CONTINUOUS
 62
     7
 10
240.840628897
 20
-28.1132259608
 30
0.0
  0
VERTEX
  5
8E3
  8
0
  6
CONTINUOUS
 62
     7
 10
241.3223029721
 20
-28.0787752212
 30
0.0
  0
VERTEX
  5
8E4
  8
0
  6
CONTINUOUS
 62
     7
 10
241.6918517697
 20
-28.0171775461
 30
0.0
  0
VERTEX
  5
8E5
  8
0
  6
CONTINUOUS
 62
     7
 10
241.9426383126
 20
-27.9290051402
 30
0.0
  0
VERTEX
  5
8E6
  8
0
  6
CONTINUOUS
 62
     7
 10
242.0702876198
 20
-27.8154359401
 30
0.0
  0
VERTEX
  5
8E7
  8
0
  6
CONTINUOUS
 62
     7
 10
242.0871706355
 20
-27.7463675679
 30
0.0
  0
SEQEND
  5
91B
  8
0
  6
CONTINUOUS
 62
     7
  0
ARC
  5
35B
  8
0
  6
CONTINUOUS
 62
     7
 10
207.1515621293
 20
-211.4173966464
 30
0.0
 40
185.7670902348658
 50
81.7361790473
 51
98.2638209527
  0
POLYLINE
  5
35C
  8
0
  6
CONTINUOUS
 62
     7
 66
     1
 10
0.0
 20
0.0
 30
0.0
  0
VERTEX
  5
8E8
  8
0
  6
CONTINUOUS
 62
     7
 10
172.2159536231
 20
-27.7463675679
 30
0.0
  0
VERTEX
  5
8E9
  8
0
  6
CONTINUOUS
 62
     7
 10
172.2800405371
 20
-27.8739006461
 30
0.0
  0
VERTEX
  5
8EA
  8
0
  6
CONTINUOUS
 62
     7
 10
172.4700601447
 20
-27.9761986078
 30
0.0
  0
VERTEX
  5
8EB
  8
0
  6
CONTINUOUS
 62
     7
 10
172.7826447833
 20
-28.0516901256
 30
0.0
  0
VERTEX
  5
8EC
  8
0
  6
CONTINUOUS
 62
     7
 10
173.2167126286
 20
-28.0997515858
 30
0.0
  0
VERTEX
  5
8ED
  8
0
  6
CONTINUOUS
 62
     7
 10
173.7669558871
 20
-28.1211742402
 30
0.0
  0
VERTEX
  5
8EE
  8
0
  6
CONTINUOUS
 62
     7
 10
174.4233937609
 20
-28.116461748
 30
0.0
  0
VERTEX
  5
8EF
  8
0
  6
CONTINUOUS
 62
     7
 10
175.1767607081
 20
-28.0865528823
 30
0.0
  0
VERTEX
  5
8F0
  8
0
  6
CONTINUOUS
 62
     7
 10
176.0225744593
 20
-28.0332305671
 30
0.0
  0
VERTEX
  5
8F1
  8
0
  6
CONTINUOUS
 62
     7
 10
176.9450487244
 20
-27.9585928858
 30
0.0
  0
VERTEX
  5
8F2
  8
0
  6
CONTINUOUS
 62
     7
 10
177.9268683541
 20
-27.8651491941
 30
0.0
  0
VERTEX
  5
8F3
  8
0
  6
CONTINUOUS
 62
     7
 10
178.9663435566
 20
-27.7543180824
 30
0.0
  0
VERTEX
  5
8F4
  8
0
  6
CONTINUOUS
 62
     7
 10
180.0438197005
 20
-27.6289836706
 30
0.0
  0
VERTEX
  5
8F5
  8
0
  6
CONTINUOUS
 62
     7
 10
180.4510088313
 20
-27.5791735591
 30
0.0
  0
SEQEND
  5
91A
  8
0
  6
CONTINUOUS
 62
     7
  0
LINE
  5
35D
  8
0
  6
CONTINUOUS
 62
     7
 10
172.2159536231
 20
-23.2369535805
 30
0.0
 11
172.2159536231
 21
-27.7463675679
 31
0.0
  0
LINE
  5
35E
  8
0
  6
CONTINUOUS
 62
     7
 10
242.0871706355
 20
-27.7463675679
 30
0.0
 11
242.0871706355
 21
-23.2384884001
 31
0.0
  0
POLYLINE
  5
35F
  8
0
  6
CONTINUOUS
 62
     7
 66
     1
 10
0.0
 20
0.0
 30
0.0
  0
VERTEX
  5
8F6
  8
0
  6
CONTINUOUS
 62
     7
 10
247.2103180039
 20
-26.607795173
 30
0.0
  0
VERTEX
  5
8F7
  8
0
  6
CONTINUOUS
 62
     7
 10
247.2081007111
 20
-26.7161839844
 30
0.0
  0
VERTEX
  5
8F8
  8
0
  6
CONTINUOUS
 62
     7
 10
247.1473784792
 20
-27.181977892
 30
0.0
  0
SEQEND
  5
919
  8
0
  6
CONTINUOUS
 62
     7
  0
LINE
  5
360
  8
0
  6
CONTINUOUS
 62
     7
 10
84.1515602219
 20
-27.06036281
 30
0.0
 11
84.1515602219
 21
-29.7343769313
 31
0.0
  0
LINE
  5
361
  8
0
  6
CONTINUOUS
 62
     7
 10
90.1515664208
 20
-27.0648912729
 30
0.0
 11
90.1515664208
 21
-29.7343769313
 31
0.0
  0
ARC
  5
362
  8
0
  6
CONTINUOUS
 62
     7
 10
85.1515621293
 20
-31.1652892114
 30
0.0
 40
1.0
 50
180.0
 51
270.0
  0
LINE
  5
363
  8
0
  6
CONTINUOUS
 62
     7
 10
84.1515602219
 20
-29.7343769313
 30
0.0
 11
84.1515602219
 21
-31.1652892471
 31
0.0
  0
ARC
  5
364
  8
0
  6
CONTINUOUS
 62
     7
 10
89.1515621293
 20
-31.1652892114
 30
0.0
 40
1.0
 50
270.0
 51
0.0
  0
LINE
  5
365
  8
0
  6
CONTINUOUS
 62
     7
 10
90.1515664208
 20
-29.7343769313
 30
0.0
 11
90.1515664208
 21
-31.1652892471
 31
0.0
  0
LINE
  5
366
  8
0
  6
CONTINUOUS
 62
     7
 10
89.1515673745
 20
-32.1652890385
 30
0.0
 11
85.1515592682
 21
-32.1652890385
 31
0.0
  0
LINE
  5
367
  8
0
  6
CONTINUOUS
 62
     7
 10
69.1515626061
 20
-33.1652892024
 30
0.0
 11
69.1515626061
 21
-42.7652892859
 31
0.0
  0
LINE
  5
368
  8
0
  6
CONTINUOUS
 62
     7
 10
105.1515640366
 20
-33.1652892024
 30
0.0
 11
105.1515640366
 21
-42.7652892859
 31
0.0
  0
LINE
  5
369
  8
0
  6
CONTINUOUS
 62
     7
 10
105.1515640366
 20
-43.7652890773
 30
0.0
 11
69.1515626061
 21
-43.7652890773
 31
0.0
  0
LINE
  5
36A
  8
0
  6
CONTINUOUS
 62
     7
 10
69.1515626061
 20
-42.7652892859
 30
0.0
 11
69.1515626061
 21
-43.7652890773
 31
0.0
  0
LINE
  5
36B
  8
0
  6
CONTINUOUS
 62
     7
 10
105.1515640366
 20
-42.7652892859
 30
0.0
 11
105.1515640366
 21
-43.7652890773
 31
0.0
  0
LINE
  5
36C
  8
0
  6
CONTINUOUS
 62
     7
 10
85.1515592682
 20
-32.1652890385
 30
0.0
 11
69.1515626061
 21
-32.1652890385
 31
0.0
  0
LINE
  5
36D
  8
0
  6
CONTINUOUS
 62
     7
 10
105.1515640366
 20
-32.1652890385
 30
0.0
 11
89.1515673745
 21
-32.1652890385
 31
0.0
  0
LINE
  5
36E
  8
0
  6
CONTINUOUS
 62
     7
 10
69.1515626061
 20
-32.1652890385
 30
0.0
 11
69.1515626061
 21
-33.1652892024
 31
0.0
  0
LINE
  5
36F
  8
0
  6
CONTINUOUS
 62
     7
 10
105.1515640366
 20
-32.1652890385
 30
0.0
 11
105.1515640366
 21
-33.1652892024
 31
0.0
  0
LINE
  5
370
  8
0
  6
CONTINUOUS
 62
     7
 10
330.1515640366
 20
-27.0648912729
 30
0.0
 11
330.1515640366
 21
-29.7343769313
 31
0.0
  0
LINE
  5
371
  8
0
  6
CONTINUOUS
 62
     7
 10
324.1515578377
 20
-27.06036281
 30
0.0
 11
324.1515578377
 21
-29.7343769313
 31
0.0
  0
LINE
  5
372
  8
0
  6
CONTINUOUS
 62
     7
 10
329.1515649903
 20
-32.1652890385
 30
0.0
 11
325.1515568841
 21
-32.1652890385
 31
0.0
  0
ARC
  5
373
  8
0
  6
CONTINUOUS
 62
     7
 10
329.1515621293
 20
-31.1652892114
 30
0.0
 40
1.0
 50
270.0
 51
0.0
  0
LINE
  5
374
  8
0
  6
CONTINUOUS
 62
     7
 10
330.1515640366
 20
-29.7343769313
 30
0.0
 11
330.1515640366
 21
-31.1652892471
 31
0.0
  0
ARC
  5
375
  8
0
  6
CONTINUOUS
 62
     7
 10
325.1515621293
 20
-31.1652892114
 30
0.0
 40
1.0
 50
180.0
 51
270.0
  0
LINE
  5
376
  8
0
  6
CONTINUOUS
 62
     7
 10
324.1515578377
 20
-29.7343769313
 30
0.0
 11
324.1515578377
 21
-31.1652892471
 31
0.0
  0
LINE
  5
377
  8
0
  6
CONTINUOUS
 62
     7
 10
345.1515616524
 20
-33.1652892024
 30
0.0
 11
345.1515616524
 21
-42.7652892859
 31
0.0
  0
LINE
  5
378
  8
0
  6
CONTINUOUS
 62
     7
 10
309.1515602219
 20
-33.1652892024
 30
0.0
 11
309.1515602219
 21
-42.7652892859
 31
0.0
  0
LINE
  5
379
  8
0
  6
CONTINUOUS
 62
     7
 10
345.1515616524
 20
-43.7652890773
 30
0.0
 11
309.1515602219
 21
-43.7652890773
 31
0.0
  0
LINE
  5
37A
  8
0
  6
CONTINUOUS
 62
     7
 10
345.1515616524
 20
-42.7652892859
 30
0.0
 11
345.1515616524
 21
-43.7652890773
 31
0.0
  0
LINE
  5
37B
  8
0
  6
CONTINUOUS
 62
     7
 10
309.1515602219
 20
-42.7652892859
 30
0.0
 11
309.1515602219
 21
-43.7652890773
 31
0.0
  0
LINE
  5
37C
  8
0
  6
CONTINUOUS
 62
     7
 10
325.1515568841
 20
-32.1652890385
 30
0.0
 11
309.1515602219
 21
-32.1652890385
 31
0.0
  0
LINE
  5
37D
  8
0
  6
CONTINUOUS
 62
     7
 10
345.1515616524
 20
-32.1652890385
 30
0.0
 11
329.1515649903
 21
-32.1652890385
 31
0.0
  0
LINE
  5
37E
  8
0
  6
CONTINUOUS
 62
     7
 10
345.1515616524
 20
-32.1652890385
 30
0.0
 11
345.1515616524
 21
-33.1652892024
 31
0.0
  0
LINE
  5
37F
  8
0
  6
CONTINUOUS
 62
     7
 10
309.1515602219
 20
-32.1652890385
 30
0.0
 11
309.1515602219
 21
-33.1652892024
 31
0.0
  0
LINE
  5
380
  8
0
  6
CONTINUOUS
 62
     7
 10
210.1515620622
 20
-27.0648912729
 30
0.0
 11
210.1515620622
 21
-29.7343769313
 31
0.0
  0
LINE
  5
381
  8
0
  6
CONTINUOUS
 62
     7
 10
204.1515621963
 20
-27.06036281
 30
0.0
 11
204.1515621963
 21
-29.7343769313
 31
0.0
  0
ARC
  5
382
  8
0
  6
CONTINUOUS
 62
     7
 10
205.1515621293
 20
-31.1652892114
 30
0.0
 40
1.0
 50
180.0
 51
270.0
  0
LINE
  5
383
  8
0
  6
CONTINUOUS
 62
     7
 10
204.1515621963
 20
-29.7343769313
 30
0.0
 11
204.1515621963
 21
-31.1652892471
 31
0.0
  0
LINE
  5
384
  8
0
  6
CONTINUOUS
 62
     7
 10
209.1515620846
 20
-32.1652890385
 30
0.0
 11
205.151562174
 21
-32.1652890385
 31
0.0
  0
ARC
  5
385
  8
0
  6
CONTINUOUS
 62
     7
 10
209.1515621293
 20
-31.1652892114
 30
0.0
 40
1.0
 50
270.0
 51
0.0
  0
LINE
  5
386
  8
0
  6
CONTINUOUS
 62
     7
 10
210.1515620622
 20
-29.7343769313
 30
0.0
 11
210.1515620622
 21
-31.1652892471
 31
0.0
  0
LINE
  5
387
  8
0
  6
CONTINUOUS
 62
     7
 10
189.151561414
 20
-33.1652892024
 30
0.0
 11
189.151561414
 21
-42.7652892859
 31
0.0
  0
LINE
  5
388
  8
0
  6
CONTINUOUS
 62
     7
 10
225.1515628445
 20
-33.1652892024
 30
0.0
 11
225.1515628445
 21
-42.7652892859
 31
0.0
  0
LINE
  5
389
  8
0
  6
CONTINUOUS
 62
     7
 10
225.1515628445
 20
-43.7652890773
 30
0.0
 11
189.151561414
 21
-43.7652890773
 31
0.0
  0
LINE
  5
38A
  8
0
  6
CONTINUOUS
 62
     7
 10
189.151561414
 20
-42.7652892859
 30
0.0
 11
189.151561414
 21
-43.7652890773
 31
0.0
  0
LINE
  5
38B
  8
0
  6
CONTINUOUS
 62
     7
 10
225.1515628445
 20
-42.7652892859
 30
0.0
 11
225.1515628445
 21
-43.7652890773
 31
0.0
  0
LINE
  5
38C
  8
0
  6
CONTINUOUS
 62
     7
 10
205.151562174
 20
-32.1652890385
 30
0.0
 11
189.151561414
 21
-32.1652890385
 31
0.0
  0
LINE
  5
38D
  8
0
  6
CONTINUOUS
 62
     7
 10
225.1515628445
 20
-32.1652890385
 30
0.0
 11
209.1515620846
 21
-32.1652890385
 31
0.0
  0
LINE
  5
38E
  8
0
  6
CONTINUOUS
 62
     7
 10
189.151561414
 20
-32.1652890385
 30
0.0
 11
189.151561414
 21
-33.1652892024
 31
0.0
  0
LINE
  5
38F
  8
0
  6
CONTINUOUS
 62
     7
 10
225.1515628445
 20
-32.1652890385
 30
0.0
 11
225.1515628445
 21
-33.1652892024
 31
0.0
  0
POLYLINE
  5
390
  8
0
  6
CONTINUOUS
 62
     7
 66
     1
 10
0.0
 20
0.0
 30
0.0
  0
VERTEX
  5
8F9
  8
0
  6
CONTINUOUS
 62
     7
 10
290.4515625584
 20
-57.2220572473
 30
0.0
  0
VERTEX
  5
8FA
  8
0
  6
CONTINUOUS
 62
     7
 10
289.9159552205
 20
-57.9262905956
 30
0.0
  0
VERTEX
  5
8FB
  8
0
  6
CONTINUOUS
 62
     7
 10
289.4515635121
 20
-58.6914801241
 30
0.0
  0
SEQEND
  5
918
  8
0
  6
CONTINUOUS
 62
     7
  0
LINE
  5
391
  8
0
  6
CONTINUOUS
 62
     7
 10
301.8073441136
 20
-48.8706284405
 30
0.0
 11
301.9308807004
 21
-48.8652893544
 31
0.0
  0
ARC
  5
392
  8
0
  6
CONTINUOUS
 62
     7
 10
302.291133069
 20
-63.7714467752
 30
0.0
 40
10.07561468985352
 50
100.5230623293
 51
180.5336543515
  0
ARC
  5
393
  8
0
  6
CONTINUOUS
 62
     7
 10
352.0119825626
 20
-103.9591181472
 30
0.0
 40
10.07562674746263
 50
280.5230856997
 51
0.5335651429
  0
LINE
  5
394
  8
0
  6
CONTINUOUS
 62
     7
 10
352.4834932435
 20
-118.8589045049
 30
0.0
 11
352.3722471344
 21
-118.8652881623
 31
0.0
  0
POLYLINE
  5
395
  8
0
  6
CONTINUOUS
 62
     7
 66
     1
 10
0.0
 20
0.0
 30
0.0
  0
VERTEX
  5
8FC
  8
0
  6
CONTINUOUS
 62
     7
 10
363.8515652764
 20
-57.2220572473
 30
0.0
  0
VERTEX
  5
8FD
  8
0
  6
CONTINUOUS
 62
     7
 10
364.3871726143
 20
-57.9262905956
 30
0.0
  0
VERTEX
  5
8FE
  8
0
  6
CONTINUOUS
 62
     7
 10
364.8515643227
 20
-58.6914801241
 30
0.0
  0
SEQEND
  5
917
  8
0
  6
CONTINUOUS
 62
     7
  0
ARC
  5
396
  8
0
  6
CONTINUOUS
 62
     7
 10
352.0297145717
 20
-63.7568555047
 30
0.0
 40
10.05804237770599
 50
359.3822896921
 51
79.5610343275
  0
ARC
  5
397
  8
0
  6
CONTINUOUS
 62
     7
 10
302.2733963965
 20
-103.9737355464
 30
0.0
 40
10.05802562587854
 50
179.3822285381
 51
259.5610799189
  0
LINE
  5
398
  8
0
  6
CONTINUOUS
 62
     7
 10
301.9308807004
 20
-118.8652881623
 30
0.0
 11
301.8377424824
 21
-118.8600369931
 31
0.0
  0
LINE
  5
399
  8
0
  6
CONTINUOUS
 62
     7
 10
292.2159554112
 20
-63.8652899505
 30
0.0
 11
292.2159554112
 21
-103.8652905465
 31
0.0
  0
LINE
  5
39A
  8
0
  6
CONTINUOUS
 62
     7
 10
362.0871724236
 20
-103.8652905465
 30
0.0
 11
362.0871724236
 21
-63.8652899505
 31
0.0
  0
LINE
  5
39B
  8
0
  6
CONTINUOUS
 62
     7
 10
290.4515625584
 20
-54.8532017709
 30
0.0
 11
289.4515635121
 21
-54.8532017709
 31
0.0
  0
LINE
  5
39C
  8
0
  6
CONTINUOUS
 62
     7
 10
289.4515635121
 20
-31.0047724486
 30
0.0
 11
289.4515635121
 21
-54.8532017709
 31
0.0
  0
LINE
  5
39D
  8
0
  6
CONTINUOUS
 62
     7
 10
290.4515625584
 20
-31.0047724486
 30
0.0
 11
290.4515625584
 21
-54.8532017709
 31
0.0
  0
LINE
  5
39E
  8
0
  6
CONTINUOUS
 62
     7
 10
363.8515652764
 20
-54.8532017709
 30
0.0
 11
364.8515643227
 21
-54.8532017709
 31
0.0
  0
LINE
  5
39F
  8
0
  6
CONTINUOUS
 62
     7
 10
364.8515643227
 20
-31.0047724486
 30
0.0
 11
364.8515643227
 21
-54.8532017709
 31
0.0
  0
LINE
  5
3A0
  8
0
  6
CONTINUOUS
 62
     7
 10
363.8515652764
 20
-31.0047724486
 30
0.0
 11
363.8515652764
 21
-54.8532017709
 31
0.0
  0
LINE
  5
3A1
  8
0
  6
CONTINUOUS
 62
     7
 10
364.8515643227
 20
-54.8532017709
 30
0.0
 11
364.8515643227
 21
-58.6914801241
 31
0.0
  0
LINE
  5
3A2
  8
0
  6
CONTINUOUS
 62
     7
 10
363.8515652764
 20
-54.8532017709
 30
0.0
 11
363.8515652764
 21
-57.2220572473
 31
0.0
  0
LINE
  5
3A3
  8
0
  6
CONTINUOUS
 62
     7
 10
289.4515635121
 20
-54.8532017709
 30
0.0
 11
289.4515635121
 21
-58.6914801241
 31
0.0
  0
LINE
  5
3A4
  8
0
  6
CONTINUOUS
 62
     7
 10
290.4515625584
 20
-54.8532017709
 30
0.0
 11
290.4515625584
 21
-57.2220572473
 31
0.0
  0
LINE
  5
3A5
  8
0
  6
CONTINUOUS
 62
     7
 10
300.4510106194
 20
-113.8652869702
 30
0.0
 11
353.8521112549
 21
-113.8652869702
 31
0.0
  0
LINE
  5
3A6
  8
0
  6
CONTINUOUS
 62
     7
 10
300.4510106194
 20
-53.8652890564
 30
0.0
 11
353.8521112549
 21
-53.8652890564
 31
0.0
  0
LINE
  5
3A7
  8
0
  6
CONTINUOUS
 62
     7
 10
301.9308807004
 20
-48.8652893544
 30
0.0
 11
352.3722471344
 21
-48.8652893544
 31
0.0
  0
LINE
  5
3A8
  8
0
  6
CONTINUOUS
 62
     7
 10
352.3722471344
 20
-118.8652881623
 30
0.0
 11
301.9308807004
 21
-118.8652881623
 31
0.0
  0
LINE
  5
3A9
  8
0
  6
CONTINUOUS
 62
     7
 10
364.8515643227
 20
-29.4622884334
 30
0.0
 11
364.8515643227
 21
-31.0047724486
 31
0.0
  0
LINE
  5
3AA
  8
0
  6
CONTINUOUS
 62
     7
 10
363.8515652764
 20
-29.6616294623
 30
0.0
 11
363.8515652764
 21
-31.0047724486
 31
0.0
  0
LINE
  5
3AB
  8
0
  6
CONTINUOUS
 62
     7
 10
289.4515635121
 20
-29.4620425643
 30
0.0
 11
289.4515635121
 21
-31.0047724486
 31
0.0
  0
LINE
  5
3AC
  8
0
  6
CONTINUOUS
 62
     7
 10
290.4515625584
 20
-29.6601453067
 30
0.0
 11
290.4515625584
 21
-31.0047724486
 31
0.0
  0
LINE
  5
3AD
  8
0
  6
CONTINUOUS
 62
     7
 10
294.6515621293
 20
-42.7652892859
 30
0.0
 11
294.6515621293
 21
-32.9652891697
 31
0.0
  0
LINE
  5
3AE
  8
0
  6
CONTINUOUS
 62
     7
 10
359.6515597451
 20
-42.7652892859
 30
0.0
 11
359.6515597451
 21
-32.9652891697
 31
0.0
  0
LINE
  5
3AF
  8
0
  6
CONTINUOUS
 62
     7
 10
363.8515652764
 20
-31.9652893783
 30
0.0
 11
359.6515597451
 21
-31.9652893783
 31
0.0
  0
LINE
  5
3B0
  8
0
  6
CONTINUOUS
 62
     7
 10
359.6515597451
 20
-32.9652891697
 30
0.0
 11
359.6515597451
 21
-31.9652893783
 31
0.0
  0
LINE
  5
3B1
  8
0
  6
CONTINUOUS
 62
     7
 10
294.6515621293
 20
-31.9652893783
 30
0.0
 11
290.4515625584
 21
-31.9652893783
 31
0.0
  0
LINE
  5
3B2
  8
0
  6
CONTINUOUS
 62
     7
 10
294.6515621293
 20
-31.9652893783
 30
0.0
 11
294.6515621293
 21
-32.9652891697
 31
0.0
  0
LINE
  5
3B3
  8
0
  6
CONTINUOUS
 62
     7
 10
363.8515652764
 20
-43.7652890773
 30
0.0
 11
359.6515597451
 21
-43.7652890773
 31
0.0
  0
LINE
  5
3B4
  8
0
  6
CONTINUOUS
 62
     7
 10
359.6515597451
 20
-43.7652890773
 30
0.0
 11
359.6515597451
 21
-42.7652892859
 31
0.0
  0
LINE
  5
3B5
  8
0
  6
CONTINUOUS
 62
     7
 10
294.6515621293
 20
-43.7652890773
 30
0.0
 11
290.4515625584
 21
-43.7652890773
 31
0.0
  0
LINE
  5
3B6
  8
0
  6
CONTINUOUS
 62
     7
 10
294.6515621293
 20
-42.7652892859
 30
0.0
 11
294.6515621293
 21
-43.7652890773
 31
0.0
  0
LINE
  5
3B7
  8
0
  6
CONTINUOUS
 62
     7
 10
369.6515621293
 20
-42.7652892859
 30
0.0
 11
369.6515621293
 21
-32.9652891697
 31
0.0
  0
LINE
  5
3B8
  8
0
  6
CONTINUOUS
 62
     7
 10
284.6515597451
 20
-32.9652891697
 30
0.0
 11
284.6515597451
 21
-31.9652893783
 31
0.0
  0
LINE
  5
3B9
  8
0
  6
CONTINUOUS
 62
     7
 10
289.4515635121
 20
-31.9652893783
 30
0.0
 11
284.6515597451
 21
-31.9652893783
 31
0.0
  0
LINE
  5
3BA
  8
0
  6
CONTINUOUS
 62
     7
 10
284.6515597451
 20
-42.7652892859
 30
0.0
 11
284.6515597451
 21
-32.9652891697
 31
0.0
  0
LINE
  5
3BB
  8
0
  6
CONTINUOUS
 62
     7
 10
369.6515621293
 20
-31.9652893783
 30
0.0
 11
364.8515643227
 21
-31.9652893783
 31
0.0
  0
LINE
  5
3BC
  8
0
  6
CONTINUOUS
 62
     7
 10
369.6515621293
 20
-32.9652891697
 30
0.0
 11
369.6515621293
 21
-31.9652893783
 31
0.0
  0
LINE
  5
3BD
  8
0
  6
CONTINUOUS
 62
     7
 10
369.6515621293
 20
-43.7652890773
 30
0.0
 11
364.8515643227
 21
-43.7652890773
 31
0.0
  0
LINE
  5
3BE
  8
0
  6
CONTINUOUS
 62
     7
 10
369.6515621293
 20
-43.7652890773
 30
0.0
 11
369.6515621293
 21
-42.7652892859
 31
0.0
  0
LINE
  5
3BF
  8
0
  6
CONTINUOUS
 62
     7
 10
289.4515635121
 20
-43.7652890773
 30
0.0
 11
284.6515597451
 21
-43.7652890773
 31
0.0
  0
LINE
  5
3C0
  8
0
  6
CONTINUOUS
 62
     7
 10
284.6515597451
 20
-43.7652890773
 30
0.0
 11
284.6515597451
 21
-42.7652892859
 31
0.0
  0
POLYLINE
  5
3C1
  8
0
  6
CONTINUOUS
 62
     7
 66
     1
 10
0.0
 20
0.0
 30
0.0
  0
VERTEX
  5
8FF
  8
0
  6
CONTINUOUS
 62
     7
 10
50.4515589821
 20
-57.2220572473
 30
0.0
  0
VERTEX
  5
900
  8
0
  6
CONTINUOUS
 62
     7
 10
49.9159516442
 20
-57.9262905956
 30
0.0
  0
VERTEX
  5
901
  8
0
  6
CONTINUOUS
 62
     7
 10
49.4515599358
 20
-58.6914801241
 30
0.0
  0
SEQEND
  5
916
  8
0
  6
CONTINUOUS
 62
     7
  0
LINE
  5
3C2
  8
0
  6
CONTINUOUS
 62
     7
 10
61.8073405373
 20
-48.8706284405
 30
0.0
 11
61.9308771241
 21
-48.8652893544
 31
0.0
  0
ARC
  5
3C3
  8
0
  6
CONTINUOUS
 62
     7
 10
62.2911476423
 20
-63.7714628182
 30
0.0
 40
10.0756326892288
 50
100.5231138163
 51
180.5335621641
  0
ARC
  5
3C4
  8
0
  6
CONTINUOUS
 62
     7
 10
112.0119971359
 20
-103.9591341904
 30
0.0
 40
10.07560874805422
 50
280.5230342125
 51
0.5336573306
  0
LINE
  5
3C5
  8
0
  6
CONTINUOUS
 62
     7
 10
112.4834896672
 20
-118.8589045049
 30
0.0
 11
112.3722435582
 21
-118.8652881623
 31
0.0
  0
POLYLINE
  5
3C6
  8
0
  6
CONTINUOUS
 62
     7
 66
     1
 10
0.0
 20
0.0
 30
0.0
  0
VERTEX
  5
902
  8
0
  6
CONTINUOUS
 62
     7
 10
123.8515617001
 20
-57.2220572473
 30
0.0
  0
VERTEX
  5
903
  8
0
  6
CONTINUOUS
 62
     7
 10
124.3871690381
 20
-57.9262905956
 30
0.0
  0
VERTEX
  5
904
  8
0
  6
CONTINUOUS
 62
     7
 10
124.8515607464
 20
-58.6914801241
 30
0.0
  0
SEQEND
  5
915
  8
0
  6
CONTINUOUS
 62
     7
  0
ARC
  5
3C7
  8
0
  6
CONTINUOUS
 62
     7
 10
112.0297210635
 20
-63.7568461273
 30
0.0
 40
10.05803241131265
 50
359.3822356586
 51
79.5610476606
  0
LINE
  5
3C8
  8
0
  6
CONTINUOUS
 62
     7
 10
61.9308771241
 20
-118.8652881623
 30
0.0
 11
61.8377389061
 21
-118.8600369931
 31
0.0
  0
ARC
  5
3C9
  8
0
  6
CONTINUOUS
 62
     7
 10
62.2734028883
 20
-103.973726169
 30
0.0
 40
10.05803559228834
 50
179.3822825717
 51
259.5610665857
  0
LINE
  5
3CA
  8
0
  6
CONTINUOUS
 62
     7
 10
52.2159518349
 20
-63.8652899505
 30
0.0
 11
52.2159518349
 21
-103.8652905465
 31
0.0
  0
LINE
  5
3CB
  8
0
  6
CONTINUOUS
 62
     7
 10
122.0871688473
 20
-103.8652905465
 30
0.0
 11
122.0871688473
 21
-63.8652899505
 31
0.0
  0
LINE
  5
3CC
  8
0
  6
CONTINUOUS
 62
     7
 10
50.4515589821
 20
-54.8532017709
 30
0.0
 11
49.4515599358
 21
-54.8532017709
 31
0.0
  0
LINE
  5
3CD
  8
0
  6
CONTINUOUS
 62
     7
 10
49.4515599358
 20
-31.0047724486
 30
0.0
 11
49.4515599358
 21
-54.8532017709
 31
0.0
  0
LINE
  5
3CE
  8
0
  6
CONTINUOUS
 62
     7
 10
50.4515589821
 20
-31.0047724486
 30
0.0
 11
50.4515589821
 21
-54.8532017709
 31
0.0
  0
LINE
  5
3CF
  8
0
  6
CONTINUOUS
 62
     7
 10
123.8515617001
 20
-54.8532017709
 30
0.0
 11
124.8515607464
 21
-54.8532017709
 31
0.0
  0
LINE
  5
3D0
  8
0
  6
CONTINUOUS
 62
     7
 10
123.8515617001
 20
-31.0047724486
 30
0.0
 11
123.8515617001
 21
-54.8532017709
 31
0.0
  0
LINE
  5
3D1
  8
0
  6
CONTINUOUS
 62
     7
 10
124.8515607464
 20
-31.0047724486
 30
0.0
 11
124.8515607464
 21
-54.8532017709
 31
0.0
  0
LINE
  5
3D2
  8
0
  6
CONTINUOUS
 62
     7
 10
123.8515617001
 20
-54.8532017709
 30
0.0
 11
123.8515617001
 21
-57.2220572473
 31
0.0
  0
LINE
  5
3D3
  8
0
  6
CONTINUOUS
 62
     7
 10
124.8515607464
 20
-54.8532017709
 30
0.0
 11
124.8515607464
 21
-58.6914801241
 31
0.0
  0
LINE
  5
3D4
  8
0
  6
CONTINUOUS
 62
     7
 10
49.4515599358
 20
-54.8532017709
 30
0.0
 11
49.4515599358
 21
-58.6914801241
 31
0.0
  0
LINE
  5
3D5
  8
0
  6
CONTINUOUS
 62
     7
 10
50.4515589821
 20
-54.8532017709
 30
0.0
 11
50.4515589821
 21
-57.2220572473
 31
0.0
  0
LINE
  5
3D6
  8
0
  6
CONTINUOUS
 62
     7
 10
60.4510130036
 20
-113.8652869702
 30
0.0
 11
113.8521136391
 21
-113.8652869702
 31
0.0
  0
LINE
  5
3D7
  8
0
  6
CONTINUOUS
 62
     7
 10
60.4510130036
 20
-53.8652890564
 30
0.0
 11
113.8521136391
 21
-53.8652890564
 31
0.0
  0
LINE
  5
3D8
  8
0
  6
CONTINUOUS
 62
     7
 10
61.9308771241
 20
-48.8652893544
 30
0.0
 11
112.3722435582
 21
-48.8652893544
 31
0.0
  0
LINE
  5
3D9
  8
0
  6
CONTINUOUS
 62
     7
 10
112.3722435582
 20
-118.8652881623
 30
0.0
 11
61.9308771241
 21
-118.8652881623
 31
0.0
  0
LINE
  5
3DA
  8
0
  6
CONTINUOUS
 62
     7
 10
123.8515617001
 20
-29.6616294623
 30
0.0
 11
123.8515617001
 21
-31.0047724486
 31
0.0
  0
LINE
  5
3DB
  8
0
  6
CONTINUOUS
 62
     7
 10
124.8515607464
 20
-29.4622884334
 30
0.0
 11
124.8515607464
 21
-31.0047724486
 31
0.0
  0
LINE
  5
3DC
  8
0
  6
CONTINUOUS
 62
     7
 10
49.4515599358
 20
-29.4620425643
 30
0.0
 11
49.4515599358
 21
-31.0047724486
 31
0.0
  0
LINE
  5
3DD
  8
0
  6
CONTINUOUS
 62
     7
 10
50.4515589821
 20
-29.6601453067
 30
0.0
 11
50.4515589821
 21
-31.0047724486
 31
0.0
  0
LINE
  5
3DE
  8
0
  6
CONTINUOUS
 62
     7
 10
119.6515621293
 20
-42.7652892859
 30
0.0
 11
119.6515621293
 21
-32.9652891697
 31
0.0
  0
LINE
  5
3DF
  8
0
  6
CONTINUOUS
 62
     7
 10
54.6515645134
 20
-42.7652892859
 30
0.0
 11
54.6515645134
 21
-32.9652891697
 31
0.0
  0
LINE
  5
3E0
  8
0
  6
CONTINUOUS
 62
     7
 10
123.8515617001
 20
-31.9652893783
 30
0.0
 11
119.6515621293
 21
-31.9652893783
 31
0.0
  0
LINE
  5
3E1
  8
0
  6
CONTINUOUS
 62
     7
 10
119.6515621293
 20
-32.9652891697
 30
0.0
 11
119.6515621293
 21
-31.9652893783
 31
0.0
  0
LINE
  5
3E2
  8
0
  6
CONTINUOUS
 62
     7
 10
54.6515645134
 20
-31.9652893783
 30
0.0
 11
50.4515589821
 21
-31.9652893783
 31
0.0
  0
LINE
  5
3E3
  8
0
  6
CONTINUOUS
 62
     7
 10
54.6515645134
 20
-31.9652893783
 30
0.0
 11
54.6515645134
 21
-32.9652891697
 31
0.0
  0
LINE
  5
3E4
  8
0
  6
CONTINUOUS
 62
     7
 10
54.6515645134
 20
-43.7652890773
 30
0.0
 11
50.4515589821
 21
-43.7652890773
 31
0.0
  0
LINE
  5
3E5
  8
0
  6
CONTINUOUS
 62
     7
 10
54.6515645134
 20
-42.7652892859
 30
0.0
 11
54.6515645134
 21
-43.7652890773
 31
0.0
  0
LINE
  5
3E6
  8
0
  6
CONTINUOUS
 62
     7
 10
123.8515617001
 20
-43.7652890773
 30
0.0
 11
119.6515621293
 21
-43.7652890773
 31
0.0
  0
LINE
  5
3E7
  8
0
  6
CONTINUOUS
 62
     7
 10
119.6515621293
 20
-43.7652890773
 30
0.0
 11
119.6515621293
 21
-42.7652892859
 31
0.0
  0
LINE
  5
3E8
  8
0
  6
CONTINUOUS
 62
     7
 10
129.6515645134
 20
-32.9652891697
 30
0.0
 11
129.6515645134
 21
-31.9652893783
 31
0.0
  0
LINE
  5
3E9
  8
0
  6
CONTINUOUS
 62
     7
 10
129.6515645134
 20
-31.9652893783
 30
0.0
 11
124.8515607464
 21
-31.9652893783
 31
0.0
  0
LINE
  5
3EA
  8
0
  6
CONTINUOUS
 62
     7
 10
129.6515645134
 20
-42.7652892859
 30
0.0
 11
129.6515645134
 21
-32.9652891697
 31
0.0
  0
LINE
  5
3EB
  8
0
  6
CONTINUOUS
 62
     7
 10
44.6515621293
 20
-42.7652892859
 30
0.0
 11
44.6515621293
 21
-32.9652891697
 31
0.0
  0
LINE
  5
3EC
  8
0
  6
CONTINUOUS
 62
     7
 10
49.4515599358
 20
-31.9652893783
 30
0.0
 11
44.6515621293
 21
-31.9652893783
 31
0.0
  0
LINE
  5
3ED
  8
0
  6
CONTINUOUS
 62
     7
 10
44.6515621293
 20
-32.9652891697
 30
0.0
 11
44.6515621293
 21
-31.9652893783
 31
0.0
  0
LINE
  5
3EE
  8
0
  6
CONTINUOUS
 62
     7
 10
129.6515645134
 20
-43.7652890773
 30
0.0
 11
124.8515607464
 21
-43.7652890773
 31
0.0
  0
LINE
  5
3EF
  8
0
  6
CONTINUOUS
 62
     7
 10
129.6515645134
 20
-43.7652890773
 30
0.0
 11
129.6515645134
 21
-42.7652892859
 31
0.0
  0
LINE
  5
3F0
  8
0
  6
CONTINUOUS
 62
     7
 10
49.4515599358
 20
-43.7652890773
 30
0.0
 11
44.6515621293
 21
-43.7652890773
 31
0.0
  0
LINE
  5
3F1
  8
0
  6
CONTINUOUS
 62
     7
 10
44.6515621293
 20
-43.7652890773
 30
0.0
 11
44.6515621293
 21
-42.7652892859
 31
0.0
  0
POLYLINE
  5
3F2
  8
0
  6
CONTINUOUS
 62
     7
 66
     1
 10
0.0
 20
0.0
 30
0.0
  0
VERTEX
  5
905
  8
0
  6
CONTINUOUS
 62
     7
 10
170.4515607703
 20
-57.2220572473
 30
0.0
  0
VERTEX
  5
906
  8
0
  6
CONTINUOUS
 62
     7
 10
169.9159534323
 20
-57.9262905956
 30
0.0
  0
VERTEX
  5
907
  8
0
  6
CONTINUOUS
 62
     7
 10
169.4515617239
 20
-58.6914801241
 30
0.0
  0
SEQEND
  5
914
  8
0
  6
CONTINUOUS
 62
     7
  0
LINE
  5
3F3
  8
0
  6
CONTINUOUS
 62
     7
 10
181.8073423255
 20
-48.8706284405
 30
0.0
 11
181.9308789122
 21
-48.8652893544
 31
0.0
  0
ARC
  5
3F4
  8
0
  6
CONTINUOUS
 62
     7
 10
182.2911389812
 20
-63.7714531164
 30
0.0
 40
10.07562233077796
 50
100.5230987956
 51
180.5336178852
  0
LINE
  5
3F5
  8
0
  6
CONTINUOUS
 62
     7
 10
232.4834884751
 20
-118.8589045049
 30
0.0
 11
232.3722453463
 21
-118.8652881623
 31
0.0
  0
ARC
  5
3F6
  8
0
  6
CONTINUOUS
 62
     7
 10
232.0119912237
 20
-103.9591278491
 30
0.0
 40
10.07561638898615
 50
280.5230706788
 51
0.5336208642
  0
POLYLINE
  5
3F7
  8
0
  6
CONTINUOUS
 62
     7
 66
     1
 10
0.0
 20
0.0
 30
0.0
  0
VERTEX
  5
908
  8
0
  6
CONTINUOUS
 62
     7
 10
243.8515634882
 20
-57.2220572473
 30
0.0
  0
VERTEX
  5
909
  8
0
  6
CONTINUOUS
 62
     7
 10
244.3871708262
 20
-57.9262905956
 30
0.0
  0
VERTEX
  5
90A
  8
0
  6
CONTINUOUS
 62
     7
 10
244.8515625346
 20
-58.6914801241
 30
0.0
  0
SEQEND
  5
913
  8
0
  6
CONTINUOUS
 62
     7
  0
ARC
  5
3F8
  8
0
  6
CONTINUOUS
 62
     7
 10
232.0297205634
 20
-63.7568480117
 30
0.0
 40
10.05803467908727
 50
359.3822465328
 51
79.5610367863
  0
LINE
  5
3F9
  8
0
  6
CONTINUOUS
 62
     7
 10
181.9308789122
 20
-118.8652881623
 30
0.0
 11
181.8377436745
 21
-118.8600369931
 31
0.0
  0
ARC
  5
3FA
  8
0
  6
CONTINUOUS
 62
     7
 10
182.2733968966
 20
-103.9737336621
 30
0.0
 40
10.05802789364268
 50
179.3822394123
 51
259.5610690447
  0
LINE
  5
3FB
  8
0
  6
CONTINUOUS
 62
     7
 10
172.2159536231
 20
-63.8652899505
 30
0.0
 11
172.2159536231
 21
-103.8652905465
 31
0.0
  0
LINE
  5
3FC
  8
0
  6
CONTINUOUS
 62
     7
 10
242.0871706355
 20
-103.8652905465
 30
0.0
 11
242.0871706355
 21
-63.8652899505
 31
0.0
  0
LINE
  5
3FD
  8
0
  6
CONTINUOUS
 62
     7
 10
243.8515634882
 20
-54.8532017709
 30
0.0
 11
244.8515625346
 21
-54.8532017709
 31
0.0
  0
LINE
  5
3FE
  8
0
  6
CONTINUOUS
 62
     7
 10
244.8515625346
 20
-31.0047724486
 30
0.0
 11
244.8515625346
 21
-54.8532017709
 31
0.0
  0
LINE
  5
3FF
  8
0
  6
CONTINUOUS
 62
     7
 10
243.8515634882
 20
-31.0047724486
 30
0.0
 11
243.8515634882
 21
-54.8532017709
 31
0.0
  0
LINE
  5
400
  8
0
  6
CONTINUOUS
 62
     7
 10
170.4515607703
 20
-54.8532017709
 30
0.0
 11
169.4515617239
 21
-54.8532017709
 31
0.0
  0
LINE
  5
401
  8
0
  6
CONTINUOUS
 62
     7
 10
169.4515617239
 20
-31.0047724486
 30
0.0
 11
169.4515617239
 21
-54.8532017709
 31
0.0
  0
LINE
  5
402
  8
0
  6
CONTINUOUS
 62
     7
 10
170.4515607703
 20
-31.0047724486
 30
0.0
 11
170.4515607703
 21
-54.8532017709
 31
0.0
  0
LINE
  5
403
  8
0
  6
CONTINUOUS
 62
     7
 10
244.8515625346
 20
-54.8532017709
 30
0.0
 11
244.8515625346
 21
-58.6914801241
 31
0.0
  0
LINE
  5
404
  8
0
  6
CONTINUOUS
 62
     7
 10
243.8515634882
 20
-54.8532017709
 30
0.0
 11
243.8515634882
 21
-57.2220572473
 31
0.0
  0
LINE
  5
405
  8
0
  6
CONTINUOUS
 62
     7
 10
169.4515617239
 20
-54.8532017709
 30
0.0
 11
169.4515617239
 21
-58.6914801241
 31
0.0
  0
LINE
  5
406
  8
0
  6
CONTINUOUS
 62
     7
 10
170.4515607703
 20
-54.8532017709
 30
0.0
 11
170.4515607703
 21
-57.2220572473
 31
0.0
  0
LINE
  5
407
  8
0
  6
CONTINUOUS
 62
     7
 10
180.4510088313
 20
-113.8652869702
 30
0.0
 11
233.8521154273
 21
-113.8652869702
 31
0.0
  0
LINE
  5
408
  8
0
  6
CONTINUOUS
 62
     7
 10
180.4510088313
 20
-53.8652890564
 30
0.0
 11
233.8521154273
 21
-53.8652890564
 31
0.0
  0
LINE
  5
409
  8
0
  6
CONTINUOUS
 62
     7
 10
181.9308789122
 20
-48.8652893544
 30
0.0
 11
232.3722453463
 21
-48.8652893544
 31
0.0
  0
LINE
  5
40A
  8
0
  6
CONTINUOUS
 62
     7
 10
232.3722453463
 20
-118.8652881623
 30
0.0
 11
181.9308789122
 21
-118.8652881623
 31
0.0
  0
LINE
  5
40B
  8
0
  6
CONTINUOUS
 62
     7
 10
169.4515617239
 20
-29.4620425643
 30
0.0
 11
169.4515617239
 21
-31.0047724486
 31
0.0
  0
LINE
  5
40C
  8
0
  6
CONTINUOUS
 62
     7
 10
170.4515607703
 20
-29.6601453067
 30
0.0
 11
170.4515607703
 21
-31.0047724486
 31
0.0
  0
LINE
  5
40D
  8
0
  6
CONTINUOUS
 62
     7
 10
244.8515625346
 20
-29.4622884334
 30
0.0
 11
244.8515625346
 21
-31.0047724486
 31
0.0
  0
LINE
  5
40E
  8
0
  6
CONTINUOUS
 62
     7
 10
243.8515634882
 20
-29.6616294623
 30
0.0
 11
243.8515634882
 21
-31.0047724486
 31
0.0
  0
LINE
  5
40F
  8
0
  6
CONTINUOUS
 62
     7
 10
239.6515609372
 20
-42.7652892859
 30
0.0
 11
239.6515609372
 21
-32.9652891697
 31
0.0
  0
LINE
  5
410
  8
0
  6
CONTINUOUS
 62
     7
 10
174.6515633214
 20
-42.7652892859
 30
0.0
 11
174.6515633214
 21
-32.9652891697
 31
0.0
  0
LINE
  5
411
  8
0
  6
CONTINUOUS
 62
     7
 10
243.8515634882
 20
-31.9652893783
 30
0.0
 11
239.6515609372
 21
-31.9652893783
 31
0.0
  0
LINE
  5
412
  8
0
  6
CONTINUOUS
 62
     7
 10
239.6515609372
 20
-32.9652891697
 30
0.0
 11
239.6515609372
 21
-31.9652893783
 31
0.0
  0
LINE
  5
413
  8
0
  6
CONTINUOUS
 62
     7
 10
174.6515633214
 20
-31.9652893783
 30
0.0
 11
170.4515607703
 21
-31.9652893783
 31
0.0
  0
LINE
  5
414
  8
0
  6
CONTINUOUS
 62
     7
 10
174.6515633214
 20
-31.9652893783
 30
0.0
 11
174.6515633214
 21
-32.9652891697
 31
0.0
  0
LINE
  5
415
  8
0
  6
CONTINUOUS
 62
     7
 10
243.8515634882
 20
-43.7652890773
 30
0.0
 11
239.6515609372
 21
-43.7652890773
 31
0.0
  0
LINE
  5
416
  8
0
  6
CONTINUOUS
 62
     7
 10
239.6515609372
 20
-43.7652890773
 30
0.0
 11
239.6515609372
 21
-42.7652892859
 31
0.0
  0
LINE
  5
417
  8
0
  6
CONTINUOUS
 62
     7
 10
174.6515633214
 20
-43.7652890773
 30
0.0
 11
170.4515607703
 21
-43.7652890773
 31
0.0
  0
LINE
  5
418
  8
0
  6
CONTINUOUS
 62
     7
 10
174.6515633214
 20
-42.7652892859
 30
0.0
 11
174.6515633214
 21
-43.7652890773
 31
0.0
  0
LINE
  5
419
  8
0
  6
CONTINUOUS
 62
     7
 10
164.6515609372
 20
-32.9652891697
 30
0.0
 11
164.6515609372
 21
-31.9652893783
 31
0.0
  0
LINE
  5
41A
  8
0
  6
CONTINUOUS
 62
     7
 10
169.4515617239
 20
-31.9652893783
 30
0.0
 11
164.6515609372
 21
-31.9652893783
 31
0.0
  0
LINE
  5
41B
  8
0
  6
CONTINUOUS
 62
     7
 10
164.6515609372
 20
-42.7652892859
 30
0.0
 11
164.6515609372
 21
-32.9652891697
 31
0.0
  0
LINE
  5
41C
  8
0
  6
CONTINUOUS
 62
     7
 10
249.6515633214
 20
-32.9652891697
 30
0.0
 11
249.6515633214
 21
-31.9652893783
 31
0.0
  0
LINE
  5
41D
  8
0
  6
CONTINUOUS
 62
     7
 10
249.6515633214
 20
-31.9652893783
 30
0.0
 11
244.8515625346
 21
-31.9652893783
 31
0.0
  0
LINE
  5
41E
  8
0
  6
CONTINUOUS
 62
     7
 10
249.6515633214
 20
-42.7652892859
 30
0.0
 11
249.6515633214
 21
-32.9652891697
 31
0.0
  0
LINE
  5
41F
  8
0
  6
CONTINUOUS
 62
     7
 10
169.4515617239
 20
-43.7652890773
 30
0.0
 11
164.6515609372
 21
-43.7652890773
 31
0.0
  0
LINE
  5
420
  8
0
  6
CONTINUOUS
 62
     7
 10
164.6515609372
 20
-43.7652890773
 30
0.0
 11
164.6515609372
 21
-42.7652892859
 31
0.0
  0
LINE
  5
421
  8
0
  6
CONTINUOUS
 62
     7
 10
249.6515633214
 20
-43.7652890773
 30
0.0
 11
244.8515625346
 21
-43.7652890773
 31
0.0
  0
LINE
  5
422
  8
0
  6
CONTINUOUS
 62
     7
 10
249.6515633214
 20
-43.7652890773
 30
0.0
 11
249.6515633214
 21
-42.7652892859
 31
0.0
  0
LINE
  5
423
  8
0
  6
CONTINUOUS
 62
     7
 10
18.7515677559
 20
-32.7652891369
 30
0.0
 11
21.1515606987
 21
-32.7652891369
 31
0.0
  0
LINE
  5
424
  8
0
  6
CONTINUOUS
 62
     7
 10
33.1515611756
 20
-32.7652891369
 30
0.0
 11
44.6515621293
 21
-32.7652891369
 31
0.0
  0
LINE
  5
425
  8
0
  6
CONTINUOUS
 62
     7
 10
54.6515645134
 20
-32.7652891369
 30
0.0
 11
69.1515626061
 21
-32.7652891369
 31
0.0
  0
LINE
  5
426
  8
0
  6
CONTINUOUS
 62
     7
 10
105.1515640366
 20
-32.7652891369
 30
0.0
 11
119.6515621293
 21
-32.7652891369
 31
0.0
  0
LINE
  5
427
  8
0
  6
CONTINUOUS
 62
     7
 10
129.6515645134
 20
-32.7652891369
 30
0.0
 11
141.1515595067
 21
-32.7652891369
 31
0.0
  0
LINE
  5
428
  8
0
  6
CONTINUOUS
 62
     7
 10
153.1515599835
 20
-32.7652891369
 30
0.0
 11
164.6515609372
 21
-32.7652891369
 31
0.0
  0
LINE
  5
429
  8
0
  6
CONTINUOUS
 62
     7
 10
174.6515633214
 20
-32.7652891369
 30
0.0
 11
189.151561414
 21
-32.7652891369
 31
0.0
  0
LINE
  5
42A
  8
0
  6
CONTINUOUS
 62
     7
 10
225.1515628445
 20
-32.7652891369
 30
0.0
 11
239.6515609372
 21
-32.7652891369
 31
0.0
  0
LINE
  5
42B
  8
0
  6
CONTINUOUS
 62
     7
 10
249.6515633214
 20
-32.7652891369
 30
0.0
 11
261.151564275
 21
-32.7652891369
 31
0.0
  0
LINE
  5
42C
  8
0
  6
CONTINUOUS
 62
     7
 10
273.1515647519
 20
-32.7652891369
 30
0.0
 11
284.6515597451
 21
-32.7652891369
 31
0.0
  0
LINE
  5
42D
  8
0
  6
CONTINUOUS
 62
     7
 10
294.6515621293
 20
-32.7652891369
 30
0.0
 11
309.1515602219
 21
-32.7652891369
 31
0.0
  0
LINE
  5
42E
  8
0
  6
CONTINUOUS
 62
     7
 10
345.1515616524
 20
-32.7652891369
 30
0.0
 11
359.6515597451
 21
-32.7652891369
 31
0.0
  0
LINE
  5
42F
  8
0
  6
CONTINUOUS
 62
     7
 10
369.6515621293
 20
-32.7652891369
 30
0.0
 11
381.1515630829
 21
-32.7652891369
 31
0.0
  0
LINE
  5
430
  8
0
  6
CONTINUOUS
 62
     7
 10
393.1515635598
 20
-32.7652891369
 30
0.0
 11
395.5515565026
 21
-32.7652891369
 31
0.0
  0
LINE
  5
431
  8
0
  6
CONTINUOUS
 62
     7
 10
395.9515632737
 20
-33.1652892024
 30
0.0
 11
395.9515632737
 21
-33.7652893008
 31
0.0
  0
ARC
  5
432
  8
0
  6
CONTINUOUS
 62
     7
 10
395.5515621293
 20
-33.1652892114
 30
0.0
 40
0.4000000000000341
 50
0.0
 51
90.0
  0
LINE
  5
433
  8
0
  6
CONTINUOUS
 62
     7
 10
18.3515609849
 20
-33.7652893008
 30
0.0
 11
18.3515609849
 21
-33.1652892024
 31
0.0
  0
ARC
  5
434
  8
0
  6
CONTINUOUS
 62
     7
 10
18.7515621293
 20
-33.1652892114
 30
0.0
 40
0.3999999999999986
 50
90.0
 51
180.0
  0
LINE
  5
435
  8
0
  6
CONTINUOUS
 62
     7
 10
395.9515632737
 20
-33.7652893008
 30
0.0
 11
395.9515632737
 21
-41.765289122
 31
0.0
  0
LINE
  5
436
  8
0
  6
CONTINUOUS
 62
     7
 10
18.3515609849
 20
-41.765289122
 30
0.0
 11
18.3515609849
 21
-33.7652893008
 31
0.0
  0
ARC
  5
437
  8
0
  6
CONTINUOUS
 62
     7
 10
18.7515621293
 20
-42.3652892114
 30
0.0
 40
0.3999999999999986
 50
180.0
 51
270.0
  0
LINE
  5
438
  8
0
  6
CONTINUOUS
 62
     7
 10
18.3515609849
 20
-42.3652892203
 30
0.0
 11
18.3515609849
 21
-41.765289122
 31
0.0
  0
LINE
  5
439
  8
0
  6
CONTINUOUS
 62
     7
 10
395.5515565026
 20
-42.7652892859
 30
0.0
 11
393.1515635598
 21
-42.7652892859
 31
0.0
  0
LINE
  5
43A
  8
0
  6
CONTINUOUS
 62
     7
 10
381.1515630829
 20
-42.7652892859
 30
0.0
 11
369.6515621293
 21
-42.7652892859
 31
0.0
  0
LINE
  5
43B
  8
0
  6
CONTINUOUS
 62
     7
 10
359.6515597451
 20
-42.7652892859
 30
0.0
 11
345.1515616524
 21
-42.7652892859
 31
0.0
  0
LINE
  5
43C
  8
0
  6
CONTINUOUS
 62
     7
 10
309.1515602219
 20
-42.7652892859
 30
0.0
 11
294.6515621293
 21
-42.7652892859
 31
0.0
  0
LINE
  5
43D
  8
0
  6
CONTINUOUS
 62
     7
 10
284.6515597451
 20
-42.7652892859
 30
0.0
 11
273.1515647519
 21
-42.7652892859
 31
0.0
  0
LINE
  5
43E
  8
0
  6
CONTINUOUS
 62
     7
 10
261.151564275
 20
-42.7652892859
 30
0.0
 11
249.6515633214
 21
-42.7652892859
 31
0.0
  0
LINE
  5
43F
  8
0
  6
CONTINUOUS
 62
     7
 10
239.6515609372
 20
-42.7652892859
 30
0.0
 11
225.1515628445
 21
-42.7652892859
 31
0.0
  0
LINE
  5
440
  8
0
  6
CONTINUOUS
 62
     7
 10
189.151561414
 20
-42.7652892859
 30
0.0
 11
174.6515633214
 21
-42.7652892859
 31
0.0
  0
LINE
  5
441
  8
0
  6
CONTINUOUS
 62
     7
 10
164.6515609372
 20
-42.7652892859
 30
0.0
 11
153.1515599835
 21
-42.7652892859
 31
0.0
  0
LINE
  5
442
  8
0
  6
CONTINUOUS
 62
     7
 10
141.1515595067
 20
-42.7652892859
 30
0.0
 11
129.6515645134
 21
-42.7652892859
 31
0.0
  0
LINE
  5
443
  8
0
  6
CONTINUOUS
 62
     7
 10
119.6515621293
 20
-42.7652892859
 30
0.0
 11
105.1515640366
 21
-42.7652892859
 31
0.0
  0
LINE
  5
444
  8
0
  6
CONTINUOUS
 62
     7
 10
69.1515626061
 20
-42.7652892859
 30
0.0
 11
54.6515645134
 21
-42.7652892859
 31
0.0
  0
LINE
  5
445
  8
0
  6
CONTINUOUS
 62
     7
 10
44.6515621293
 20
-42.7652892859
 30
0.0
 11
33.1515611756
 21
-42.7652892859
 31
0.0
  0
LINE
  5
446
  8
0
  6
CONTINUOUS
 62
     7
 10
21.1515606987
 20
-42.7652892859
 30
0.0
 11
18.7515677559
 21
-42.7652892859
 31
0.0
  0
LINE
  5
447
  8
0
  6
CONTINUOUS
 62
     7
 10
395.9515632737
 20
-41.765289122
 30
0.0
 11
395.9515632737
 21
-42.3652892203
 31
0.0
  0
ARC
  5
448
  8
0
  6
CONTINUOUS
 62
     7
 10
395.5515621293
 20
-42.3652892114
 30
0.0
 40
0.4000000000000341
 50
270.0
 51
0.0
  0
POLYLINE
  5
449
  8
0
  6
CONTINUOUS
 62
     7
 66
     1
 10
0.0
 20
0.0
 30
0.0
  0
VERTEX
  5
90B
  8
0
  6
CONTINUOUS
 62
     7
 10
354.1515649903
 20
-29.7652893902
 30
0.0
  0
VERTEX
  5
90C
  8
0
  6
CONTINUOUS
 62
     7
 10
354.110843097
 20
-29.1960300149
 30
0.0
  0
VERTEX
  5
90D
  8
0
  6
CONTINUOUS
 62
     7
 10
354.0731491196
 20
-28.977146113
 30
0.0
  0
SEQEND
  5
912
  8
0
  6
CONTINUOUS
 62
     7
  0
LINE
  5
44A
  8
0
  6
CONTINUOUS
 62
     7
 10
354.1515649903
 20
-31.7652893455
 30
0.0
 11
354.1515649903
 21
-29.7652893902
 31
0.0
  0
LINE
  5
44B
  8
0
  6
CONTINUOUS
 62
     7
 10
354.1515649903
 20
-31.7652893455
 30
0.0
 11
354.1453065026
 21
-32.7652891369
 31
0.0
  0
ARC
  5
44C
  8
0
  6
CONTINUOUS
 62
     7
 10
274.1515621293
 20
-31.7652892114
 30
0.0
 40
80.00000000000004
 50
347.6577971128
 51
352.0967922665
  0
ARC
  5
44D
  8
0
  6
CONTINUOUS
 62
     7
 10
410.1515621293
 20
-31.7652892114
 30
0.0
 40
80.00000000000004
 50
188.6269265587
 51
192.3422028872
  0
LINE
  5
44E
  8
0
  6
CONTINUOUS
 62
     7
 10
330.1525653946
 20
-32.1652890385
 30
0.0
 11
330.1515640366
 21
-31.7652893455
 31
0.0
  0
LINE
  5
44F
  8
0
  6
CONTINUOUS
 62
     7
 10
330.1515640366
 20
-31.1652892471
 30
0.0
 11
330.1515640366
 21
-31.7652893455
 31
0.0
  0
ARC
  5
450
  8
0
  6
CONTINUOUS
 62
     7
 10
334.1515621293
 20
-29.7652892114
 30
0.0
 40
4.0
 50
137.5994299178
 51
180.0
  0
ARC
  5
451
  8
0
  6
CONTINUOUS
 62
     7
 10
350.1515621293
 20
-29.7652892114
 30
0.0
 40
1.500000000000033
 50
114.2154858328
 51
51.3575194393
  0
CIRCLE
  5
452
  8
0
  6
CONTINUOUS
 62
     7
 10
334.1515621293
 20
-29.7652892114
 30
0.0
 40
1.500000000000014
  0
ARC
  5
453
  8
0
  6
CONTINUOUS
 62
     7
 10
140.1515621293
 20
-31.7652892114
 30
0.0
 40
80.00000000000001
 50
187.9032077335
 51
192.3422028872
  0
LINE
  5
454
  8
0
  6
CONTINUOUS
 62
     7
 10
60.1578177559
 20
-32.7652891369
 30
0.0
 11
60.1515592682
 21
-31.7652893455
 31
0.0
  0
LINE
  5
455
  8
0
  6
CONTINUOUS
 62
     7
 10
60.1515592682
 20
-29.7652893902
 30
0.0
 11
60.1515592682
 21
-31.7652893455
 31
0.0
  0
POLYLINE
  5
456
  8
0
  6
CONTINUOUS
 62
     7
 66
     1
 10
0.0
 20
0.0
 30
0.0
  0
VERTEX
  5
90E
  8
0
  6
CONTINUOUS
 62
     7
 10
60.2295340645
 20
-28.9793470145
 30
0.0
  0
VERTEX
  5
90F
  8
0
  6
CONTINUOUS
 62
     7
 10
60.1922811615
 20
-29.1960300149
 30
0.0
  0
VERTEX
  5
910
  8
0
  6
CONTINUOUS
 62
     7
 10
60.1515592682
 20
-29.7652893902
 30
0.0
  0
SEQEND
  5
911
  8
0
  6
CONTINUOUS
 62
     7
  0
ARC
  5
457
  8
0
  6
CONTINUOUS
 62
     7
 10
80.1515621293
 20
-29.7652892114
 30
0.0
 40
4.000000000000014
 50
0.0
 51
42.3395639092
  0
LINE
  5
458
  8
0
  6
CONTINUOUS
 62
     7
 10
84.1515602219
 20
-31.7652893455
 30
0.0
 11
84.1515602219
 21
-31.1652892471
 31
0.0
  0
LINE
  5
459
  8
0
  6
CONTINUOUS
 62
     7
 10
84.1515602219
 20
-31.7652893455
 30
0.0
 11
84.1505588639
 21
-32.1652890385
 31
0.0
  0
ARC
  5
45A
  8
0
  6
CONTINUOUS
 62
     7
 10
4.1515621293
 20
-31.7652892114
 30
0.0
 40
80.00000000000001
 50
347.6577971128
 51
351.3730734413
  0
ARC
  5
45B
  8
0
  6
CONTINUOUS
 62
     7
 10
64.1515621293
 20
-29.7652892114
 30
0.0
 40
1.500000000000021
 50
270.0
 51
66.6219492715
  0
ARC
  5
45C
  8
0
  6
CONTINUOUS
 62
     7
 10
64.1515621293
 20
-29.7652892114
 30
0.0
 40
1.500000000000014
 50
126.6959892436
 51
270.0
  0
CIRCLE
  5
45D
  8
0
  6
CONTINUOUS
 62
     7
 10
80.1515621293
 20
-29.7652892114
 30
0.0
 40
1.500000000000014
  0
ENDSEC
  0
EOF
