  0
SECTION
  2
HEADER
  9
$ACADVER
  1
AC1009
  9
$DWGCODEPAGE
  3
ansi_1252
  9
$INSBASE
 10
0.0
 20
0.0
 30
0.0
  9
$EXTMIN
 10
0.0
 20
0.0
 30
0.0
  9
$EXTMAX
 10
420.0
 20
297.0
 30
0.0
  9
$LIMMIN
 10
0.0
 20
0.0
  9
$LIMMAX
 10
420.0
 20
297.0
  9
$ORTHOMODE
 70
     0
  9
$REGENMODE
 70
     1
  9
$FILLMODE
 70
     1
  9
$QTEXTMODE
 70
     0
  9
$MIRRTEXT
 70
     1
  9
$DRAGMODE
 70
     2
  9
$LTSCALE
 40
1.0
  9
$OSMODE
 70
    37
  9
$ATTMODE
 70
     1
  9
$TEXTSIZE
 40
3.5
  9
$TRACEWID
 40
1.0
  9
$TEXTSTYLE
  7
STANDARD
  9
$CLAYER
  8
0
  9
$CELTYPE
  6
BYLAYER
  9
$CECOLOR
 62
   256
  9
$DIMSCALE
 40
1.0
  9
$DIMASZ
 40
4.0
  9
$DIMEXO
 40
0.0
  9
$DIMDLI
 40
3.75
  9
$DIMRND
 40
0.0
  9
$DIMDLE
 40
0.0
  9
$DIMEXE
 40
2.0
  9
$DIMTP
 40
0.0
  9
$DIMTM
 40
0.0
  9
$DIMTXT
 40
3.5
  9
$DIMCEN
 40
2.5
  9
$DIMTSZ
 40
0.0
  9
$DIMTOL
 70
     0
  9
$DIMLIM
 70
     0
  9
$DIMTIH
 70
     1
  9
$DIMTOH
 70
     1
  9
$DIMSE1
 70
     0
  9
$DIMSE2
 70
     0
  9
$DIMTAD
 70
     1
  9
$DIMZIN
 70
     0
  9
$DIMBLK
  1

  9
$DIMASO
 70
     1
  9
$DIMSHO
 70
     1
  9
$DIMPOST
  1

  9
$DIMAPOST
  1

  9
$DIMALT
 70
     0
  9
$DIMALTD
 70
     3
  9
$DIMALTF
 40
0.0393700787
  9
$DIMLFAC
 40
5.0
  9
$DIMTOFL
 70
     1
  9
$DIMTVP
 40
0.0
  9
$DIMTIX
 70
     0
  9
$DIMSOXD
 70
     0
  9
$DIMSAH
 70
     0
  9
$DIMBLK1
  1

  9
$DIMBLK2
  1

  9
$DIMSTYLE
  2
ISO-25
  9
$DIMCLRD
 70
     0
  9
$DIMCLRE
 70
     0
  9
$DIMCLRT
 70
     0
  9
$DIMTFAC
 40
1.0
  9
$DIMGAP
 40
1.524
  9
$LUNITS
 70
     2
  9
$LUPREC
 70
     2
  9
$SKETCHINC
 40
1.0
  9
$FILLETRAD
 40
10.0
  9
$AUNITS
 70
     0
  9
$AUPREC
 70
     2
  9
$MENU
  1
.
  9
$ELEVATION
 40
0.0
  9
$PELEVATION
 40
0.0
  9
$THICKNESS
 40
0.0
  9
$LIMCHECK
 70
     0
  9
$CHAMFERA
 40
10.0
  9
$CHAMFERB
 40
10.0
  9
$SKPOLY
 70
     0
  9
$TDCREATE
 40
2457802.38815184
  9
$TDUPDATE
 40
2457802.388152164
  9
$TDINDWG
 40
0.0000000116
  9
$TDUSRTIMER
 40
0.0000000116
  9
$USRTIMER
 70
     1
  9
$ANGBASE
 50
0.0
  9
$ANGDIR
 70
     0
  9
$PDMODE
 70
     0
  9
$PDSIZE
 40
-1.0
  9
$PLINEWID
 40
0.0
  9
$COORDS
 70
     1
  9
$SPLFRAME
 70
     0
  9
$SPLINETYPE
 70
     6
  9
$SPLINESEGS
 70
     8
  9
$ATTDIA
 70
     0
  9
$ATTREQ
 70
     1
  9
$HANDLING
 70
     1
  9
$HANDSEED
  5
8C4
  9
$SURFTAB1
 70
     6
  9
$SURFTAB2
 70
     6
  9
$SURFTYPE
 70
     6
  9
$SURFU
 70
     6
  9
$SURFV
 70
     6
  9
$UCSNAME
  2

  9
$UCSORG
 10
0.0
 20
0.0
 30
0.0
  9
$UCSXDIR
 10
1.0
 20
0.0
 30
0.0
  9
$UCSYDIR
 10
0.0
 20
1.0
 30
0.0
  9
$PUCSNAME
  2

  9
$PUCSORG
 10
0.0
 20
0.0
 30
0.0
  9
$PUCSXDIR
 10
1.0
 20
0.0
 30
0.0
  9
$PUCSYDIR
 10
0.0
 20
1.0
 30
0.0
  9
$USERI1
 70
     0
  9
$USERI2
 70
     0
  9
$USERI3
 70
     0
  9
$USERI4
 70
     0
  9
$USERI5
 70
     0
  9
$USERR1
 40
0.0
  9
$USERR2
 40
0.0
  9
$USERR3
 40
0.0
  9
$USERR4
 40
0.0
  9
$USERR5
 40
0.0
  9
$WORLDVIEW
 70
     1
  9
$SHADEDGE
 70
     3
  9
$SHADEDIF
 70
    70
  9
$TILEMODE
 70
     1
  9
$MAXACTVP
 70
    64
  9
$PLIMCHECK
 70
     0
  9
$PEXTMIN
 10
1.0000000000E+20
 20
1.0000000000E+20
 30
1.0000000000E+20
  9
$PEXTMAX
 10
-1.0000000000E+20
 20
-1.0000000000E+20
 30
-1.0000000000E+20
  9
$PLIMMIN
 10
0.0
 20
0.0
  9
$PLIMMAX
 10
420.0
 20
297.0
  9
$UNITMODE
 70
     0
  9
$VISRETAIN
 70
     1
  9
$PLINEGEN
 70
     0
  9
$PSLTSCALE
 70
     1
  0
ENDSEC
  0
SECTION
  2
TABLES
  0
TABLE
  2
VPORT
 70
     1
  0
VPORT
  2
*ACTIVE
 70
     0
 10
0.0
 20
0.0
 11
1.0
 21
1.0
 12
210.0
 22
148.5
 13
0.0
 23
0.0
 14
10.0
 24
10.0
 15
10.0
 25
10.0
 16
0.0
 26
0.0
 36
1.0
 17
0.0
 27
0.0
 37
0.0
 40
297.0
 41
1.4141414141
 42
50.0
 43
0.0
 44
0.0
 50
0.0
 51
0.0
 71
     0
 72
  2000
 73
     1
 74
     3
 75
     0
 76
     0
 77
     0
 78
     0
  0
ENDTAB
  0
TABLE
  2
LTYPE
 70
     6
  0
LTYPE
  2
CONTINUOUS
 70
     0
  3
Solid line
 72
    65
 73
     0
 40
0.0
  0
LTYPE
  2
HIDDEN
 70
     0
  3
Hidden __ __ __ __ __ __ __ __ __ __ __ __ __ __
 72
    65
 73
     2
 40
1.905
 49
1.27
 49
-0.635
  0
LTYPE
  2
PHANTOM
 70
     0
  3
Phantom ______  __  __  ______  __  __  ______
 72
    65
 73
     6
 40
12.7
 49
6.35
 49
-1.27
 49
1.27
 49
-1.27
 49
1.27
 49
-1.27
  0
LTYPE
  2
CENTER
 70
     0
  3
Center ____ _ ____ _ ____ _ ____ _ ____ _ ____
 72
    65
 73
     4
 40
10.16
 49
6.35
 49
-1.27
 49
1.27
 49
-1.27
  0
LTYPE
  2
CENTERX2
 70
     0
  3
Center (2x) ________  __  ________  __  _____
 72
    65
 73
     4
 40
20.32
 49
12.7
 49
-2.54
 49
2.54
 49
-2.54
  0
LTYPE
  2
DOT2
 70
     0
  3
Dot (.5x) ........................................
 72
    65
 73
     2
 40
0.635
 49
0.0
 49
-0.635
  0
ENDTAB
  0
TABLE
  2
LAYER
 70
     2
  0
LAYER
  2
0
 70
     0
 62
     7
  6
CONTINUOUS
  0
LAYER
  2
FORMAT
 70
     0
 62
     7
  6
CONTINUOUS
  0
ENDTAB
  0
TABLE
  2
STYLE
 70
     1
  0
STYLE
  2
STANDARD
 70
     0
 40
0.0
 41
1.0
 50
0.0
 71
     0
 42
3.5
  3
txt
  4

  0
ENDTAB
  0
TABLE
  2
VIEW
 70
     0
  0
ENDTAB
  0
TABLE
  2
UCS
 70
     0
  0
ENDTAB
  0
TABLE
  2
APPID
 70
     1
  0
APPID
  2
ACAD
 70
     0
  0
ENDTAB
  0
TABLE
  2
DIMSTYLE
 70
     1
  0
DIMSTYLE
  2
ISO-25
 70
     0
  3

  4

  5

  6

  7

 40
1.0
 41
2.5
 42
0.625
 43
3.75
 44
1.25
 45
0.0
 46
0.0
 47
0.0
 48
0.0
140
2.5
141
2.5
142
0.0
143
0.0393700787
144
1.0
145
0.0
146
1.0
147
0.625
 71
     0
 72
     0
 73
     0
 74
     0
 75
     0
 76
     0
 77
     1
 78
     8
170
     0
171
     3
172
     1
173
     0
174
     0
175
     0
176
     0
177
     0
178
     0
  0
ENDTAB
  0
ENDSEC
  0
SECTION
  2
BLOCKS
  0
BLOCK
  8
0
  2
$MODEL_SPACE
 70
     0
 10
0.0
 20
0.0
 30
0.0
  3
$MODEL_SPACE
  1

  0
ENDBLK
  5
21
  8
0
  0
BLOCK
 67
     1
  8
0
  2
$PAPER_SPACE
 70
     0
 10
0.0
 20
0.0
 30
0.0
  3
$PAPER_SPACE
  1

  0
ENDBLK
  5
1D
 67
     1
  8
0
  0
ENDSEC
  0
SECTION
  2
ENTITIES
  0
ARC
  5
45
  8
0
  6
CONTINUOUS
 62
     7
 10
349.4325998163
 20
180.3432138499
 30
0.0
 40
15.1005397799929
 50
271.1940959134
 51
0.2074317098
  0
ARC
  5
46
  8
0
  6
CONTINUOUS
 62
     7
 10
299.5288925222
 20
180.3393861367
 30
0.0
 40
15.09768090214238
 50
179.7788170429
 51
268.8139113785
  0
LINE
  5
47
  8
0
  6
CONTINUOUS
 62
     7
 10
284.4230092682
 20
220.0999768172
 30
0.0
 11
284.4230092682
 21
180.3981335555
 31
0.0
  0
LINE
  5
48
  8
0
  6
CONTINUOUS
 62
     7
 10
364.540526978
 20
180.3981335555
 30
0.0
 11
364.540526978
 21
220.0999768172
 31
0.0
  0
POLYLINE
  5
49
  8
0
  6
CONTINUOUS
 62
     7
 66
     1
 10
0.0
 20
0.0
 30
0.0
  0
VERTEX
  5
3B1
  8
0
  6
CONTINUOUS
 62
     7
 10
299.2162264504
 20
165.2374298964
 30
0.0
  0
VERTEX
  5
3B2
  8
0
  6
CONTINUOUS
 62
     7
 10
301.0080314793
 20
165.2086170111
 30
0.0
  0
VERTEX
  5
3B3
  8
0
  6
CONTINUOUS
 62
     7
 10
304.4186032929
 20
165.1597292815
 30
0.0
  0
VERTEX
  5
3B4
  8
0
  6
CONTINUOUS
 62
     7
 10
307.835970036
 20
165.1184947882
 30
0.0
  0
VERTEX
  5
3B5
  8
0
  6
CONTINUOUS
 62
     7
 10
311.2589336552
 20
165.0849492941
 30
0.0
  0
VERTEX
  5
3B6
  8
0
  6
CONTINUOUS
 62
     7
 10
314.686343781
 20
165.0591047202
 30
0.0
  0
VERTEX
  5
3B7
  8
0
  6
CONTINUOUS
 62
     7
 10
318.117056004
 20
165.0409610663
 30
0.0
  0
VERTEX
  5
3B8
  8
0
  6
CONTINUOUS
 62
     7
 10
321.5499020733
 20
165.0305183325
 30
0.0
  0
VERTEX
  5
3B9
  8
0
  6
CONTINUOUS
 62
     7
 10
324.9837375798
 20
165.0277884398
 30
0.0
  0
VERTEX
  5
3BA
  8
0
  6
CONTINUOUS
 62
     7
 10
328.4174061932
 20
165.0327713881
 30
0.0
  0
VERTEX
  5
3BB
  8
0
  6
CONTINUOUS
 62
     7
 10
331.8497396626
 20
165.0454671774
 30
0.0
  0
VERTEX
  5
3BC
  8
0
  6
CONTINUOUS
 62
     7
 10
335.2795816579
 20
165.0658638869
 30
0.0
  0
VERTEX
  5
3BD
  8
0
  6
CONTINUOUS
 62
     7
 10
338.7057877698
 20
165.0939615164
 30
0.0
  0
VERTEX
  5
3BE
  8
0
  6
CONTINUOUS
 62
     7
 10
342.1272016682
 20
165.1297600661
 30
0.0
  0
VERTEX
  5
3BF
  8
0
  6
CONTINUOUS
 62
     7
 10
345.5426670231
 20
165.173223773
 30
0.0
  0
VERTEX
  5
3C0
  8
0
  6
CONTINUOUS
 62
     7
 10
348.771891705
 20
165.2214796935
 30
0.0
  0
VERTEX
  5
3C1
  8
0
  6
CONTINUOUS
 62
     7
 10
349.7473097958
 20
165.2374298964
 30
0.0
  0
SEQEND
  5
8C3
  8
0
  6
CONTINUOUS
 62
     7
  0
ARC
  5
4A
  8
0
  6
CONTINUOUS
 62
     7
 10
298.9414944708
 20
220.4978461861
 30
0.0
 40
14.25366498439768
 50
88.5350965507
 51
113.3277776377
  0
ARC
  5
4B
  8
0
  6
CONTINUOUS
 62
     7
 10
350.0206248028
 20
220.4604126977
 30
0.0
 40
14.29227827634161
 50
66.7644532757
 51
91.4553581978
  0
POLYLINE
  5
4C
  8
0
  6
CONTINUOUS
 62
     7
 66
     1
 10
0.0
 20
0.0
 30
0.0
  0
VERTEX
  5
3C2
  8
0
  6
CONTINUOUS
 62
     7
 10
290.6053460755
 20
232.1005852614
 30
0.0
  0
VERTEX
  5
3C3
  8
0
  6
CONTINUOUS
 62
     7
 10
290.559963099
 20
232.0707590971
 30
0.0
  0
VERTEX
  5
3C4
  8
0
  6
CONTINUOUS
 62
     7
 10
290.2281798043
 20
231.8198354636
 30
0.0
  0
SEQEND
  5
8C2
  8
0
  6
CONTINUOUS
 62
     7
  0
ARC
  5
4D
  8
0
  6
CONTINUOUS
 62
     7
 10
298.9882121887
 20
220.1971558822
 30
0.0
 40
14.55831582141697
 50
128.4665550329
 51
180.3828835017
  0
ARC
  5
4E
  8
0
  6
CONTINUOUS
 62
     7
 10
349.9527748289
 20
220.1924059618
 30
0.0
 40
14.57977291437432
 50
359.6362061477
 51
54.8680472801
  0
POLYLINE
  5
4F
  8
0
  6
CONTINUOUS
 62
     7
 66
     1
 10
0.0
 20
0.0
 30
0.0
  0
VERTEX
  5
3C5
  8
0
  6
CONTINUOUS
 62
     7
 10
349.6575928845
 20
234.7550185118
 30
0.0
  0
VERTEX
  5
3C6
  8
0
  6
CONTINUOUS
 62
     7
 10
347.8722430386
 20
234.7263129149
 30
0.0
  0
VERTEX
  5
3C7
  8
0
  6
CONTINUOUS
 62
     7
 10
344.4740391888
 20
234.6775920783
 30
0.0
  0
VERTEX
  5
3C8
  8
0
  6
CONTINUOUS
 62
     7
 10
341.0689450421
 20
234.6365125571
 30
0.0
  0
VERTEX
  5
3C9
  8
0
  6
CONTINUOUS
 62
     7
 10
337.6581646123
 20
234.6030862723
 30
0.0
  0
VERTEX
  5
3CA
  8
0
  6
CONTINUOUS
 62
     7
 10
334.2428661503
 20
234.5773251448
 30
0.0
  0
VERTEX
  5
3CB
  8
0
  6
CONTINUOUS
 62
     7
 10
330.8242179074
 20
234.5592410956
 30
0.0
  0
VERTEX
  5
3CC
  8
0
  6
CONTINUOUS
 62
     7
 10
327.4033881344
 20
234.5488341246
 30
0.0
  0
VERTEX
  5
3CD
  8
0
  6
CONTINUOUS
 62
     7
 10
323.9815570035
 20
234.5461161528
 30
0.0
  0
VERTEX
  5
3CE
  8
0
  6
CONTINUOUS
 62
     7
 10
320.5598927655
 20
234.5510871802
 30
0.0
  0
VERTEX
  5
3CF
  8
0
  6
CONTINUOUS
 62
     7
 10
317.1395636716
 20
234.5637352858
 30
0.0
  0
VERTEX
  5
3D0
  8
0
  6
CONTINUOUS
 62
     7
 10
313.7217498936
 20
234.5840604697
 30
0.0
  0
VERTEX
  5
3D1
  8
0
  6
CONTINUOUS
 62
     7
 10
310.3076196828
 20
234.6120627318
 30
0.0
  0
VERTEX
  5
3D2
  8
0
  6
CONTINUOUS
 62
     7
 10
306.89834129
 20
234.6477301512
 30
0.0
  0
VERTEX
  5
3D3
  8
0
  6
CONTINUOUS
 62
     7
 10
303.4950829663
 20
234.691050807
 30
0.0
  0
VERTEX
  5
3D4
  8
0
  6
CONTINUOUS
 62
     7
 10
300.2775646367
 20
234.7391279135
 30
0.0
  0
VERTEX
  5
3D5
  8
0
  6
CONTINUOUS
 62
     7
 10
299.3059433617
 20
234.7550185118
 30
0.0
  0
SEQEND
  5
8C1
  8
0
  6
CONTINUOUS
 62
     7
  0
ARC
  5
50
  8
0
  6
CONTINUOUS
 62
     7
 10
229.4325992742
 20
180.3432154803
 30
0.0
 40
15.10054150829806
 50
271.1941136686
 51
0.2074254998
  0
ARC
  5
51
  8
0
  6
CONTINUOUS
 62
     7
 10
179.528894044
 20
180.3393893664
 30
0.0
 40
15.09768419967058
 50
179.7788293481
 51
268.8138990734
  0
LINE
  5
52
  8
0
  6
CONTINUOUS
 62
     7
 10
164.4230104603
 20
220.0999768172
 30
0.0
 11
164.4230104603
 21
180.3981335555
 31
0.0
  0
LINE
  5
53
  8
0
  6
CONTINUOUS
 62
     7
 10
244.5405222096
 20
180.3981335555
 30
0.0
 11
244.5405222096
 21
220.0999768172
 31
0.0
  0
POLYLINE
  5
54
  8
0
  6
CONTINUOUS
 62
     7
 66
     1
 10
0.0
 20
0.0
 30
0.0
  0
VERTEX
  5
3D6
  8
0
  6
CONTINUOUS
 62
     7
 10
179.2162246623
 20
165.2374298964
 30
0.0
  0
VERTEX
  5
3D7
  8
0
  6
CONTINUOUS
 62
     7
 10
181.0080311813
 20
165.2086170111
 30
0.0
  0
VERTEX
  5
3D8
  8
0
  6
CONTINUOUS
 62
     7
 10
184.418604485
 20
165.1597292815
 30
0.0
  0
VERTEX
  5
3D9
  8
0
  6
CONTINUOUS
 62
     7
 10
187.8359667577
 20
165.1184947882
 30
0.0
  0
VERTEX
  5
3DA
  8
0
  6
CONTINUOUS
 62
     7
 10
191.2589318671
 20
165.0849492941
 30
0.0
  0
VERTEX
  5
3DB
  8
0
  6
CONTINUOUS
 62
     7
 10
194.6863464632
 20
165.0591047202
 30
0.0
  0
VERTEX
  5
3DC
  8
0
  6
CONTINUOUS
 62
     7
 10
198.117055706
 20
165.0409610663
 30
0.0
  0
VERTEX
  5
3DD
  8
0
  6
CONTINUOUS
 62
     7
 10
201.5499056869
 20
165.0305183325
 30
0.0
  0
VERTEX
  5
3DE
  8
0
  6
CONTINUOUS
 62
     7
 10
204.9837398429
 20
165.0277884398
 30
0.0
  0
VERTEX
  5
3DF
  8
0
  6
CONTINUOUS
 62
     7
 10
208.4174021699
 20
165.0327713881
 30
0.0
  0
VERTEX
  5
3E0
  8
0
  6
CONTINUOUS
 62
     7
 10
211.8497348942
 20
165.0454671774
 30
0.0
  0
VERTEX
  5
3E1
  8
0
  6
CONTINUOUS
 62
     7
 10
215.2795813598
 20
165.0658638869
 30
0.0
  0
VERTEX
  5
3E2
  8
0
  6
CONTINUOUS
 62
     7
 10
218.7057874717
 20
165.0939615164
 30
0.0
  0
VERTEX
  5
3E3
  8
0
  6
CONTINUOUS
 62
     7
 10
222.12719839
 20
165.1297600661
 30
0.0
  0
VERTEX
  5
3E4
  8
0
  6
CONTINUOUS
 62
     7
 10
225.5426637449
 20
165.173223773
 30
0.0
  0
VERTEX
  5
3E5
  8
0
  6
CONTINUOUS
 62
     7
 10
228.7718884267
 20
165.2214796935
 30
0.0
  0
VERTEX
  5
3E6
  8
0
  6
CONTINUOUS
 62
     7
 10
229.7473080077
 20
165.2374298964
 30
0.0
  0
SEQEND
  5
8C0
  8
0
  6
CONTINUOUS
 62
     7
  0
ARC
  5
55
  8
0
  6
CONTINUOUS
 62
     7
 10
178.9415046185
 20
220.4977853224
 30
0.0
 40
14.25372559924707
 50
88.5351387924
 51
113.3277248135
  0
ARC
  5
56
  8
0
  6
CONTINUOUS
 62
     7
 10
230.020619838
 20
220.4603825691
 30
0.0
 40
14.29230839019035
 50
66.7644782449
 51
91.4553543428
  0
POLYLINE
  5
57
  8
0
  6
CONTINUOUS
 62
     7
 66
     1
 10
0.0
 20
0.0
 30
0.0
  0
VERTEX
  5
3E7
  8
0
  6
CONTINUOUS
 62
     7
 10
170.6053472676
 20
232.1005852614
 30
0.0
  0
VERTEX
  5
3E8
  8
0
  6
CONTINUOUS
 62
     7
 10
170.5599613108
 20
232.0707590971
 30
0.0
  0
VERTEX
  5
3E9
  8
0
  6
CONTINUOUS
 62
     7
 10
170.2281780162
 20
231.8198354636
 30
0.0
  0
SEQEND
  5
8BF
  8
0
  6
CONTINUOUS
 62
     7
  0
ARC
  5
58
  8
0
  6
CONTINUOUS
 62
     7
 10
178.9882246902
 20
220.1971528173
 30
0.0
 40
14.55832711012314
 50
128.4665915627
 51
180.3828711424
  0
ARC
  5
59
  8
0
  6
CONTINUOUS
 62
     7
 10
229.9527806655
 20
220.1924155859
 30
0.0
 40
14.57976237068472
 50
359.6361680626
 51
54.8680404426
  0
POLYLINE
  5
5A
  8
0
  6
CONTINUOUS
 62
     7
 66
     1
 10
0.0
 20
0.0
 30
0.0
  0
VERTEX
  5
3EA
  8
0
  6
CONTINUOUS
 62
     7
 10
229.6575881161
 20
234.7550185118
 30
0.0
  0
VERTEX
  5
3EB
  8
0
  6
CONTINUOUS
 62
     7
 10
227.8722487011
 20
234.7263129149
 30
0.0
  0
VERTEX
  5
3EC
  8
0
  6
CONTINUOUS
 62
     7
 10
224.4740344205
 20
234.6775920783
 30
0.0
  0
VERTEX
  5
3ED
  8
0
  6
CONTINUOUS
 62
     7
 10
221.0689417638
 20
234.6365125571
 30
0.0
  0
VERTEX
  5
3EE
  8
0
  6
CONTINUOUS
 62
     7
 10
217.658161334
 20
234.6030862723
 30
0.0
  0
VERTEX
  5
3EF
  8
0
  6
CONTINUOUS
 62
     7
 10
214.242861382
 20
234.5773251448
 30
0.0
  0
VERTEX
  5
3F0
  8
0
  6
CONTINUOUS
 62
     7
 10
210.824212394
 20
234.5592410956
 30
0.0
  0
VERTEX
  5
3F1
  8
0
  6
CONTINUOUS
 62
     7
 10
207.4033863463
 20
234.5488341246
 30
0.0
  0
VERTEX
  5
3F2
  8
0
  6
CONTINUOUS
 62
     7
 10
203.9815540977
 20
234.5461161528
 30
0.0
  0
VERTEX
  5
3F3
  8
0
  6
CONTINUOUS
 62
     7
 10
200.5598883696
 20
234.5510871802
 30
0.0
  0
VERTEX
  5
3F4
  8
0
  6
CONTINUOUS
 62
     7
 10
197.1395626285
 20
234.5637352858
 30
0.0
  0
VERTEX
  5
3F5
  8
0
  6
CONTINUOUS
 62
     7
 10
193.7217488505
 20
234.5840604697
 30
0.0
  0
VERTEX
  5
3F6
  8
0
  6
CONTINUOUS
 62
     7
 10
190.3076193847
 20
234.6120627318
 30
0.0
  0
VERTEX
  5
3F7
  8
0
  6
CONTINUOUS
 62
     7
 10
186.8983409919
 20
234.6477301512
 30
0.0
  0
VERTEX
  5
3F8
  8
0
  6
CONTINUOUS
 62
     7
 10
183.4950856485
 20
234.691050807
 30
0.0
  0
VERTEX
  5
3F9
  8
0
  6
CONTINUOUS
 62
     7
 10
180.2775643386
 20
234.7391279135
 30
0.0
  0
VERTEX
  5
3FA
  8
0
  6
CONTINUOUS
 62
     7
 10
179.3059445538
 20
234.7550185118
 30
0.0
  0
SEQEND
  5
8BE
  8
0
  6
CONTINUOUS
 62
     7
  0
ARC
  5
5B
  8
0
  6
CONTINUOUS
 62
     7
 10
109.4325959163
 20
180.3432199822
 30
0.0
 40
15.10054604195758
 50
271.1941192674
 51
0.2074083558
  0
ARC
  5
5C
  8
0
  6
CONTINUOUS
 62
     7
 10
59.5288848644
 20
180.3393763384
 30
0.0
 40
15.09767089807235
 50
179.7787797115
 51
268.81394871
  0
LINE
  5
5D
  8
0
  6
CONTINUOUS
 62
     7
 10
44.423005692
 20
220.0999768172
 30
0.0
 11
44.423005692
 21
180.3981335555
 31
0.0
  0
LINE
  5
5E
  8
0
  6
CONTINUOUS
 62
     7
 10
124.5405234017
 20
180.3981335555
 30
0.0
 11
124.5405234017
 21
220.0999768172
 31
0.0
  0
POLYLINE
  5
5F
  8
0
  6
CONTINUOUS
 62
     7
 66
     1
 10
0.0
 20
0.0
 30
0.0
  0
VERTEX
  5
3FB
  8
0
  6
CONTINUOUS
 62
     7
 10
59.2162228741
 20
165.2374298964
 30
0.0
  0
VERTEX
  5
3FC
  8
0
  6
CONTINUOUS
 62
     7
 10
61.0080338635
 20
165.2086170111
 30
0.0
  0
VERTEX
  5
3FD
  8
0
  6
CONTINUOUS
 62
     7
 10
64.4185997166
 20
165.1597292815
 30
0.0
  0
VERTEX
  5
3FE
  8
0
  6
CONTINUOUS
 62
     7
 10
67.8359724202
 20
165.1184947882
 30
0.0
  0
VERTEX
  5
3FF
  8
0
  6
CONTINUOUS
 62
     7
 10
71.2589360394
 20
165.0849492941
 30
0.0
  0
VERTEX
  5
400
  8
0
  6
CONTINUOUS
 62
     7
 10
74.6863461651
 20
165.0591047202
 30
0.0
  0
VERTEX
  5
401
  8
0
  6
CONTINUOUS
 62
     7
 10
78.1170583882
 20
165.0409610663
 30
0.0
  0
VERTEX
  5
402
  8
0
  6
CONTINUOUS
 62
     7
 10
81.5499044575
 20
165.0305183325
 30
0.0
  0
VERTEX
  5
403
  8
0
  6
CONTINUOUS
 62
     7
 10
84.983739964
 20
165.0277884398
 30
0.0
  0
VERTEX
  5
404
  8
0
  6
CONTINUOUS
 62
     7
 10
88.4173966565
 20
165.0327713881
 30
0.0
  0
VERTEX
  5
405
  8
0
  6
CONTINUOUS
 62
     7
 10
91.8497301259
 20
165.0454671774
 30
0.0
  0
VERTEX
  5
406
  8
0
  6
CONTINUOUS
 62
     7
 10
95.279584042
 20
165.0658638869
 30
0.0
  0
VERTEX
  5
407
  8
0
  6
CONTINUOUS
 62
     7
 10
98.7057901539
 20
165.0939615164
 30
0.0
  0
VERTEX
  5
408
  8
0
  6
CONTINUOUS
 62
     7
 10
102.1272040524
 20
165.1297600661
 30
0.0
  0
VERTEX
  5
409
  8
0
  6
CONTINUOUS
 62
     7
 10
105.5426634469
 20
165.173223773
 30
0.0
  0
VERTEX
  5
40A
  8
0
  6
CONTINUOUS
 62
     7
 10
108.7718881287
 20
165.2214796935
 30
0.0
  0
VERTEX
  5
40B
  8
0
  6
CONTINUOUS
 62
     7
 10
109.7473062195
 20
165.2374298964
 30
0.0
  0
SEQEND
  5
8BD
  8
0
  6
CONTINUOUS
 62
     7
  0
ARC
  5
60
  8
0
  6
CONTINUOUS
 62
     7
 10
58.9415081416
 20
220.4977568871
 30
0.0
 40
14.25375381331557
 50
88.5351750327
 51
113.3276991557
  0
ARC
  5
61
  8
0
  6
CONTINUOUS
 62
     7
 10
110.0206194783
 20
220.4603745035
 30
0.0
 40
14.29231641385383
 50
66.7644852849
 51
91.4553473028
  0
POLYLINE
  5
62
  8
0
  6
CONTINUOUS
 62
     7
 66
     1
 10
0.0
 20
0.0
 30
0.0
  0
VERTEX
  5
40C
  8
0
  6
CONTINUOUS
 62
     7
 10
50.6053424992
 20
232.1005852614
 30
0.0
  0
VERTEX
  5
40D
  8
0
  6
CONTINUOUS
 62
     7
 10
50.5599595227
 20
232.0707590971
 30
0.0
  0
VERTEX
  5
40E
  8
0
  6
CONTINUOUS
 62
     7
 10
50.228176228
 20
231.8198354636
 30
0.0
  0
SEQEND
  5
8BC
  8
0
  6
CONTINUOUS
 62
     7
  0
ARC
  5
63
  8
0
  6
CONTINUOUS
 62
     7
 10
58.9882248388
 20
220.1971481164
 30
0.0
 40
14.55833199556966
 50
128.466586022
 51
180.3828525126
  0
ARC
  5
64
  8
0
  6
CONTINUOUS
 62
     7
 10
109.9527818576
 20
220.1924155859
 30
0.0
 40
14.57976237068486
 50
359.6361680626
 51
54.8680404426
  0
POLYLINE
  5
65
  8
0
  6
CONTINUOUS
 62
     7
 66
     1
 10
0.0
 20
0.0
 30
0.0
  0
VERTEX
  5
40F
  8
0
  6
CONTINUOUS
 62
     7
 10
109.6575893082
 20
234.7550185118
 30
0.0
  0
VERTEX
  5
410
  8
0
  6
CONTINUOUS
 62
     7
 10
107.8722513833
 20
234.7263129149
 30
0.0
  0
VERTEX
  5
411
  8
0
  6
CONTINUOUS
 62
     7
 10
104.4740296521
 20
234.6775920783
 30
0.0
  0
VERTEX
  5
412
  8
0
  6
CONTINUOUS
 62
     7
 10
101.0689474263
 20
234.6365125571
 30
0.0
  0
VERTEX
  5
413
  8
0
  6
CONTINUOUS
 62
     7
 10
97.6581669964
 20
234.6030862723
 30
0.0
  0
VERTEX
  5
414
  8
0
  6
CONTINUOUS
 62
     7
 10
94.2428566136
 20
234.5773251448
 30
0.0
  0
VERTEX
  5
415
  8
0
  6
CONTINUOUS
 62
     7
 10
90.8242083707
 20
234.5592410956
 30
0.0
  0
VERTEX
  5
416
  8
0
  6
CONTINUOUS
 62
     7
 10
87.4033905186
 20
234.5488341246
 30
0.0
  0
VERTEX
  5
417
  8
0
  6
CONTINUOUS
 62
     7
 10
83.9815593876
 20
234.5461161528
 30
0.0
  0
VERTEX
  5
418
  8
0
  6
CONTINUOUS
 62
     7
 10
80.5598832287
 20
234.5510871802
 30
0.0
  0
VERTEX
  5
419
  8
0
  6
CONTINUOUS
 62
     7
 10
77.1395660557
 20
234.5637352858
 30
0.0
  0
VERTEX
  5
41A
  8
0
  6
CONTINUOUS
 62
     7
 10
73.7217522778
 20
234.5840604697
 30
0.0
  0
VERTEX
  5
41B
  8
0
  6
CONTINUOUS
 62
     7
 10
70.3076220669
 20
234.6120627318
 30
0.0
  0
VERTEX
  5
41C
  8
0
  6
CONTINUOUS
 62
     7
 10
66.8983436741
 20
234.6477301512
 30
0.0
  0
VERTEX
  5
41D
  8
0
  6
CONTINUOUS
 62
     7
 10
63.4950853505
 20
234.691050807
 30
0.0
  0
VERTEX
  5
41E
  8
0
  6
CONTINUOUS
 62
     7
 10
60.2775670209
 20
234.7391279135
 30
0.0
  0
VERTEX
  5
41F
  8
0
  6
CONTINUOUS
 62
     7
 10
59.3059397854
 20
234.7550185118
 30
0.0
  0
SEQEND
  5
8BB
  8
0
  6
CONTINUOUS
 62
     7
  0
POLYLINE
  5
66
  8
0
  6
CONTINUOUS
 62
     7
 66
     1
 10
0.0
 20
0.0
 30
0.0
  0
VERTEX
  5
420
  8
0
  6
CONTINUOUS
 62
     7
 10
121.3815904774
 20
142.9379613791
 30
0.0
  0
VERTEX
  5
421
  8
0
  6
CONTINUOUS
 62
     7
 10
121.3760293641
 20
142.9369957839
 30
0.0
  0
VERTEX
  5
422
  8
0
  6
CONTINUOUS
 62
     7
 10
121.3749743619
 20
142.936805049
 30
0.0
  0
SEQEND
  5
8BA
  8
0
  6
CONTINUOUS
 62
     7
  0
POLYLINE
  5
67
  8
0
  6
CONTINUOUS
 62
     7
 66
     1
 10
0.0
 20
0.0
 30
0.0
  0
VERTEX
  5
423
  8
0
  6
CONTINUOUS
 62
     7
 10
47.5888825574
 20
142.936715642
 30
0.0
  0
VERTEX
  5
424
  8
0
  6
CONTINUOUS
 62
     7
 10
47.5878931203
 20
142.9369004164
 30
0.0
  0
VERTEX
  5
425
  8
0
  6
CONTINUOUS
 62
     7
 10
47.5769735493
 20
142.9387839232
 30
0.0
  0
SEQEND
  5
8B9
  8
0
  6
CONTINUOUS
 62
     7
  0
LINE
  5
68
  8
0
  6
CONTINUOUS
 62
     7
 10
47.5886322178
 20
142.9367752467
 30
0.0
 11
47.5812531628
 21
142.9380865489
 31
0.0
  0
LINE
  5
69
  8
0
  6
CONTINUOUS
 62
     7
 10
122.2992993512
 20
137.6355917845
 30
0.0
 11
122.3559416451
 21
137.6470179949
 31
0.0
  0
ARC
  5
6A
  8
0
  6
CONTINUOUS
 62
     7
 10
30.5586839863
 20
57.8884805762
 30
0.0
 40
81.35717944216958
 50
78.4978212654
 51
78.6272874017
  0
LINE
  5
6B
  8
0
  6
CONTINUOUS
 62
     7
 10
46.5960718312
 20
137.6493187342
 30
0.0
 11
46.6005421795
 21
137.648430625
 31
0.0
  0
POLYLINE
  5
6C
  8
0
  6
CONTINUOUS
 62
     7
 66
     1
 10
0.0
 20
0.0
 30
0.0
  0
VERTEX
  5
426
  8
0
  6
CONTINUOUS
 62
     7
 10
241.3815892853
 20
142.9379613791
 30
0.0
  0
VERTEX
  5
427
  8
0
  6
CONTINUOUS
 62
     7
 10
241.3760311522
 20
142.9369957839
 30
0.0
  0
VERTEX
  5
428
  8
0
  6
CONTINUOUS
 62
     7
 10
241.37497615
 20
142.936805049
 30
0.0
  0
SEQEND
  5
8B8
  8
0
  6
CONTINUOUS
 62
     7
  0
POLYLINE
  5
6D
  8
0
  6
CONTINUOUS
 62
     7
 66
     1
 10
0.0
 20
0.0
 30
0.0
  0
VERTEX
  5
429
  8
0
  6
CONTINUOUS
 62
     7
 10
167.5888813653
 20
142.936715642
 30
0.0
  0
VERTEX
  5
42A
  8
0
  6
CONTINUOUS
 62
     7
 10
167.5878889479
 20
142.9369004164
 30
0.0
  0
VERTEX
  5
42B
  8
0
  6
CONTINUOUS
 62
     7
 10
167.5769723572
 20
142.9387839232
 30
0.0
  0
SEQEND
  5
8B7
  8
0
  6
CONTINUOUS
 62
     7
  0
LINE
  5
6E
  8
0
  6
CONTINUOUS
 62
     7
 10
167.5886310258
 20
142.9367752467
 30
0.0
 11
167.5812519707
 21
142.9380865489
 31
0.0
  0
LINE
  5
6F
  8
0
  6
CONTINUOUS
 62
     7
 10
242.2992951789
 20
137.6355917845
 30
0.0
 11
242.3559374728
 21
137.6470179949
 31
0.0
  0
ARC
  5
70
  8
0
  6
CONTINUOUS
 62
     7
 10
150.3980221872
 20
57.0956963399
 30
0.0
 40
82.16607885248807
 50
78.4982753699
 51
78.6264649151
  0
LINE
  5
71
  8
0
  6
CONTINUOUS
 62
     7
 10
166.5960765996
 20
137.6493187342
 30
0.0
 11
166.6005439677
 21
137.648430625
 31
0.0
  0
POLYLINE
  5
72
  8
0
  6
CONTINUOUS
 62
     7
 66
     1
 10
0.0
 20
0.0
 30
0.0
  0
VERTEX
  5
42C
  8
0
  6
CONTINUOUS
 62
     7
 10
361.3815880932
 20
142.9379613791
 30
0.0
  0
VERTEX
  5
42D
  8
0
  6
CONTINUOUS
 62
     7
 10
361.3760329404
 20
142.9369957839
 30
0.0
  0
VERTEX
  5
42E
  8
0
  6
CONTINUOUS
 62
     7
 10
361.3749719777
 20
142.936805049
 30
0.0
  0
SEQEND
  5
8B6
  8
0
  6
CONTINUOUS
 62
     7
  0
POLYLINE
  5
73
  8
0
  6
CONTINUOUS
 62
     7
 66
     1
 10
0.0
 20
0.0
 30
0.0
  0
VERTEX
  5
42F
  8
0
  6
CONTINUOUS
 62
     7
 10
287.5888801732
 20
142.936715642
 30
0.0
  0
VERTEX
  5
430
  8
0
  6
CONTINUOUS
 62
     7
 10
287.5878907361
 20
142.9369004164
 30
0.0
  0
VERTEX
  5
431
  8
0
  6
CONTINUOUS
 62
     7
 10
287.5769711651
 20
142.9387839232
 30
0.0
  0
SEQEND
  5
8B5
  8
0
  6
CONTINUOUS
 62
     7
  0
LINE
  5
74
  8
0
  6
CONTINUOUS
 62
     7
 10
287.5886298337
 20
142.9367752467
 30
0.0
 11
287.5812507786
 21
142.9380865489
 31
0.0
  0
LINE
  5
75
  8
0
  6
CONTINUOUS
 62
     7
 10
362.299296967
 20
137.6355917845
 30
0.0
 11
362.3559333005
 21
137.6470179949
 31
0.0
  0
ARC
  5
76
  8
0
  6
CONTINUOUS
 62
     7
 10
270.5469797811
 20
57.8332661413
 30
0.0
 40
81.41361841749453
 50
78.4974998086
 51
78.6268720826
  0
LINE
  5
77
  8
0
  6
CONTINUOUS
 62
     7
 10
286.5960754075
 20
137.6493187342
 30
0.0
 11
286.6005457558
 21
137.648430625
 31
0.0
  0
POLYLINE
  5
78
  8
0
  6
CONTINUOUS
 62
     7
 66
     1
 10
0.0
 20
0.0
 30
0.0
  0
VERTEX
  5
432
  8
0
  6
CONTINUOUS
 62
     7
 10
349.5155430951
 20
170.386269847
 30
0.0
  0
VERTEX
  5
433
  8
0
  6
CONTINUOUS
 62
     7
 10
350.3560639538
 20
170.4079420958
 30
0.0
  0
VERTEX
  5
434
  8
0
  6
CONTINUOUS
 62
     7
 10
351.1823154606
 20
170.442310134
 30
0.0
  0
SEQEND
  5
8B4
  8
0
  6
CONTINUOUS
 62
     7
  0
ARC
  5
79
  8
0
  6
CONTINUOUS
 62
     7
 10
349.1578408179
 20
180.500192695
 30
0.0
 40
10.25960521612569
 50
281.3805645855
 51
0.210749801
  0
ARC
  5
7A
  8
0
  6
CONTINUOUS
 62
     7
 10
300.440577117
 20
224.7231931168
 30
0.0
 40
54.34598849218084
 50
267.1951727346
 51
268.9534760982
  0
ARC
  5
7B
  8
0
  6
CONTINUOUS
 62
     7
 10
299.7931190148
 20
180.4899328473
 30
0.0
 40
10.2470718089011
 50
179.7316247056
 51
258.6770202835
  0
POLYLINE
  5
7C
  8
0
  6
CONTINUOUS
 62
     7
 66
     1
 10
0.0
 20
0.0
 30
0.0
  0
VERTEX
  5
435
  8
0
  6
CONTINUOUS
 62
     7
 10
297.7812148251
 20
170.442310134
 30
0.0
  0
VERTEX
  5
436
  8
0
  6
CONTINUOUS
 62
     7
 10
301.5741742768
 20
170.379558364
 30
0.0
  0
VERTEX
  5
437
  8
0
  6
CONTINUOUS
 62
     7
 10
305.3770042576
 20
170.3264148627
 30
0.0
  0
VERTEX
  5
438
  8
0
  6
CONTINUOUS
 62
     7
 10
309.1880656399
 20
170.282903472
 30
0.0
  0
VERTEX
  5
439
  8
0
  6
CONTINUOUS
 62
     7
 10
313.0057192959
 20
170.2490361128
 30
0.0
  0
VERTEX
  5
43A
  8
0
  6
CONTINUOUS
 62
     7
 10
316.8283201375
 20
170.2248366271
 30
0.0
  0
VERTEX
  5
43B
  8
0
  6
CONTINUOUS
 62
     7
 10
320.6542230763
 20
170.2103169356
 30
0.0
  0
VERTEX
  5
43C
  8
0
  6
CONTINUOUS
 62
     7
 10
324.4817711033
 20
170.2054770384
 30
0.0
  0
VERTEX
  5
43D
  8
0
  6
CONTINUOUS
 62
     7
 10
328.3093072095
 20
170.2103169356
 30
0.0
  0
VERTEX
  5
43E
  8
0
  6
CONTINUOUS
 62
     7
 10
332.1352101483
 20
170.2248366271
 30
0.0
  0
VERTEX
  5
43F
  8
0
  6
CONTINUOUS
 62
     7
 10
335.9578109898
 20
170.2490361128
 30
0.0
  0
VERTEX
  5
440
  8
0
  6
CONTINUOUS
 62
     7
 10
339.7754646458
 20
170.282903472
 30
0.0
  0
VERTEX
  5
441
  8
0
  6
CONTINUOUS
 62
     7
 10
343.5865260281
 20
170.3264148627
 30
0.0
  0
VERTEX
  5
442
  8
0
  6
CONTINUOUS
 62
     7
 10
347.3893619694
 20
170.379558364
 30
0.0
  0
VERTEX
  5
443
  8
0
  6
CONTINUOUS
 62
     7
 10
351.1823154606
 20
170.442310134
 30
0.0
  0
SEQEND
  5
8B3
  8
0
  6
CONTINUOUS
 62
     7
  0
LINE
  5
7D
  8
0
  6
CONTINUOUS
 62
     7
 10
289.5461596169
 20
220.239785472
 30
0.0
 11
289.5461596169
 21
180.5379302893
 31
0.0
  0
ARC
  5
7E
  8
0
  6
CONTINUOUS
 62
     7
 10
299.329302454
 20
220.3347270838
 30
0.0
 40
9.783603512046872
 50
99.1043403383
 51
180.5560158929
  0
POLYLINE
  5
7F
  8
0
  6
CONTINUOUS
 62
     7
 66
     1
 10
0.0
 20
0.0
 30
0.0
  0
VERTEX
  5
444
  8
0
  6
CONTINUOUS
 62
     7
 10
297.7812148251
 20
229.9950750266
 30
0.0
  0
VERTEX
  5
445
  8
0
  6
CONTINUOUS
 62
     7
 10
301.5741742768
 20
229.9323232565
 30
0.0
  0
VERTEX
  5
446
  8
0
  6
CONTINUOUS
 62
     7
 10
305.3770042576
 20
229.8791797553
 30
0.0
  0
VERTEX
  5
447
  8
0
  6
CONTINUOUS
 62
     7
 10
309.1880656399
 20
229.8356683646
 30
0.0
  0
VERTEX
  5
448
  8
0
  6
CONTINUOUS
 62
     7
 10
313.0057192959
 20
229.8018129263
 30
0.0
  0
VERTEX
  5
449
  8
0
  6
CONTINUOUS
 62
     7
 10
316.8283201375
 20
229.7776134406
 30
0.0
  0
VERTEX
  5
44A
  8
0
  6
CONTINUOUS
 62
     7
 10
320.6542230763
 20
229.7630818282
 30
0.0
  0
VERTEX
  5
44B
  8
0
  6
CONTINUOUS
 62
     7
 10
324.4817711033
 20
229.758241931
 30
0.0
  0
VERTEX
  5
44C
  8
0
  6
CONTINUOUS
 62
     7
 10
328.3093072095
 20
229.7630818282
 30
0.0
  0
VERTEX
  5
44D
  8
0
  6
CONTINUOUS
 62
     7
 10
332.1352101483
 20
229.7776134406
 30
0.0
  0
VERTEX
  5
44E
  8
0
  6
CONTINUOUS
 62
     7
 10
335.9578109898
 20
229.8018129263
 30
0.0
  0
VERTEX
  5
44F
  8
0
  6
CONTINUOUS
 62
     7
 10
339.7754646458
 20
229.8356683646
 30
0.0
  0
VERTEX
  5
450
  8
0
  6
CONTINUOUS
 62
     7
 10
343.5865260281
 20
229.8791797553
 30
0.0
  0
VERTEX
  5
451
  8
0
  6
CONTINUOUS
 62
     7
 10
347.3893619694
 20
229.9323232565
 30
0.0
  0
VERTEX
  5
452
  8
0
  6
CONTINUOUS
 62
     7
 10
351.1823154606
 20
229.9950750266
 30
0.0
  0
SEQEND
  5
8B2
  8
0
  6
CONTINUOUS
 62
     7
  0
ARC
  5
80
  8
0
  6
CONTINUOUS
 62
     7
 10
349.6456463387
 20
220.3443601953
 30
0.0
 40
9.772289841432064
 50
359.3868576609
 51
80.95282699
  0
LINE
  5
81
  8
0
  6
CONTINUOUS
 62
     7
 10
359.4173766293
 20
180.5379302893
 30
0.0
 11
359.4173766293
 21
220.239785472
 31
0.0
  0
POLYLINE
  5
82
  8
0
  6
CONTINUOUS
 62
     7
 66
     1
 10
0.0
 20
0.0
 30
0.0
  0
VERTEX
  5
453
  8
0
  6
CONTINUOUS
 62
     7
 10
299.4479871907
 20
170.386269847
 30
0.0
  0
VERTEX
  5
454
  8
0
  6
CONTINUOUS
 62
     7
 10
303.2807625451
 20
170.3273208533
 30
0.0
  0
VERTEX
  5
455
  8
0
  6
CONTINUOUS
 62
     7
 10
307.1228123822
 20
170.2781470213
 30
0.0
  0
VERTEX
  5
456
  8
0
  6
CONTINUOUS
 62
     7
 10
310.9724737324
 20
170.2387841139
 30
0.0
  0
VERTEX
  5
457
  8
0
  6
CONTINUOUS
 62
     7
 10
314.8280478634
 20
170.2092559729
 30
0.0
  0
VERTEX
  5
458
  8
0
  6
CONTINUOUS
 62
     7
 10
318.6878420033
 20
170.1895506773
 30
0.0
  0
VERTEX
  5
459
  8
0
  6
CONTINUOUS
 62
     7
 10
322.550175301
 20
170.17970399
 30
0.0
  0
VERTEX
  5
45A
  8
0
  6
CONTINUOUS
 62
     7
 10
326.4133549847
 20
170.17970399
 30
0.0
  0
VERTEX
  5
45B
  8
0
  6
CONTINUOUS
 62
     7
 10
330.2756882825
 20
170.1895506773
 30
0.0
  0
VERTEX
  5
45C
  8
0
  6
CONTINUOUS
 62
     7
 10
334.1354943432
 20
170.2092559729
 30
0.0
  0
VERTEX
  5
45D
  8
0
  6
CONTINUOUS
 62
     7
 10
337.9910565533
 20
170.2387841139
 30
0.0
  0
VERTEX
  5
45E
  8
0
  6
CONTINUOUS
 62
     7
 10
341.8407179036
 20
170.2781470213
 30
0.0
  0
VERTEX
  5
45F
  8
0
  6
CONTINUOUS
 62
     7
 10
345.6827737012
 20
170.3273208533
 30
0.0
  0
VERTEX
  5
460
  8
0
  6
CONTINUOUS
 62
     7
 10
349.5155430951
 20
170.386269847
 30
0.0
  0
SEQEND
  5
8B1
  8
0
  6
CONTINUOUS
 62
     7
  0
ARC
  5
83
  8
0
  6
CONTINUOUS
 62
     7
 10
297.5173534284
 20
222.8606912827
 30
0.0
 40
11.53050570869939
 50
111.5477753418
 51
126.7244895617
  0
ARC
  5
84
  8
0
  6
CONTINUOUS
 62
     7
 10
351.0610909382
 20
222.0910786488
 30
0.0
 40
12.38093886164449
 50
54.0748312159
 51
68.1456410017
  0
POLYLINE
  5
85
  8
0
  6
CONTINUOUS
 62
     7
 66
     1
 10
0.0
 20
0.0
 30
0.0
  0
VERTEX
  5
461
  8
0
  6
CONTINUOUS
 62
     7
 10
229.5155442872
 20
170.386269847
 30
0.0
  0
VERTEX
  5
462
  8
0
  6
CONTINUOUS
 62
     7
 10
230.3560621657
 20
170.4079420958
 30
0.0
  0
VERTEX
  5
463
  8
0
  6
CONTINUOUS
 62
     7
 10
231.182319633
 20
170.442310134
 30
0.0
  0
SEQEND
  5
8B0
  8
0
  6
CONTINUOUS
 62
     7
  0
ARC
  5
86
  8
0
  6
CONTINUOUS
 62
     7
 10
229.1578496599
 20
180.5001828288
 30
0.0
 40
10.25959462245354
 50
281.3805498929
 51
0.210805118
  0
ARC
  5
87
  8
0
  6
CONTINUOUS
 62
     7
 10
180.4406140274
 20
224.7243968916
 30
0.0
 40
54.34719271852804
 50
267.1951940867
 51
268.9534616272
  0
ARC
  5
88
  8
0
  6
CONTINUOUS
 62
     7
 10
179.7931196594
 20
180.4899348316
 30
0.0
 40
10.24707423228378
 50
179.7316358646
 51
258.6770091245
  0
POLYLINE
  5
89
  8
0
  6
CONTINUOUS
 62
     7
 66
     1
 10
0.0
 20
0.0
 30
0.0
  0
VERTEX
  5
464
  8
0
  6
CONTINUOUS
 62
     7
 10
177.781213037
 20
170.442310134
 30
0.0
  0
VERTEX
  5
465
  8
0
  6
CONTINUOUS
 62
     7
 10
181.5741739788
 20
170.379558364
 30
0.0
  0
VERTEX
  5
466
  8
0
  6
CONTINUOUS
 62
     7
 10
185.3770054497
 20
170.3264148627
 30
0.0
  0
VERTEX
  5
467
  8
0
  6
CONTINUOUS
 62
     7
 10
189.1880698123
 20
170.282903472
 30
0.0
  0
VERTEX
  5
468
  8
0
  6
CONTINUOUS
 62
     7
 10
193.0057242133
 20
170.2490361128
 30
0.0
  0
VERTEX
  5
469
  8
0
  6
CONTINUOUS
 62
     7
 10
196.8283235647
 20
170.2248366271
 30
0.0
  0
VERTEX
  5
46A
  8
0
  6
CONTINUOUS
 62
     7
 10
200.6542201706
 20
170.2103169356
 30
0.0
  0
VERTEX
  5
46B
  8
0
  6
CONTINUOUS
 62
     7
 10
204.481766335
 20
170.2054770384
 30
0.0
  0
VERTEX
  5
46C
  8
0
  6
CONTINUOUS
 62
     7
 10
208.3093124994
 20
170.2103169356
 30
0.0
  0
VERTEX
  5
46D
  8
0
  6
CONTINUOUS
 62
     7
 10
212.1352091052
 20
170.2248366271
 30
0.0
  0
VERTEX
  5
46E
  8
0
  6
CONTINUOUS
 62
     7
 10
215.9578084566
 20
170.2490361128
 30
0.0
  0
VERTEX
  5
46F
  8
0
  6
CONTINUOUS
 62
     7
 10
219.7754628577
 20
170.282903472
 30
0.0
  0
VERTEX
  5
470
  8
0
  6
CONTINUOUS
 62
     7
 10
223.5865272202
 20
170.3264148627
 30
0.0
  0
VERTEX
  5
471
  8
0
  6
CONTINUOUS
 62
     7
 10
227.3893586912
 20
170.379558364
 30
0.0
  0
VERTEX
  5
472
  8
0
  6
CONTINUOUS
 62
     7
 10
231.182319633
 20
170.442310134
 30
0.0
  0
SEQEND
  5
8AF
  8
0
  6
CONTINUOUS
 62
     7
  0
LINE
  5
8A
  8
0
  6
CONTINUOUS
 62
     7
 10
169.5461578288
 20
220.239785472
 30
0.0
 11
169.5461578288
 21
180.5379302893
 31
0.0
  0
ARC
  5
8B
  8
0
  6
CONTINUOUS
 62
     7
 10
179.3293079861
 20
220.3347209044
 30
0.0
 40
9.783610771991041
 50
99.1043769416
 51
180.5559792896
  0
POLYLINE
  5
8C
  8
0
  6
CONTINUOUS
 62
     7
 66
     1
 10
0.0
 20
0.0
 30
0.0
  0
VERTEX
  5
473
  8
0
  6
CONTINUOUS
 62
     7
 10
177.781213037
 20
229.9950750266
 30
0.0
  0
VERTEX
  5
474
  8
0
  6
CONTINUOUS
 62
     7
 10
181.5741739788
 20
229.9323232565
 30
0.0
  0
VERTEX
  5
475
  8
0
  6
CONTINUOUS
 62
     7
 10
185.3770054497
 20
229.8791797553
 30
0.0
  0
VERTEX
  5
476
  8
0
  6
CONTINUOUS
 62
     7
 10
189.1880698123
 20
229.8356683646
 30
0.0
  0
VERTEX
  5
477
  8
0
  6
CONTINUOUS
 62
     7
 10
193.0057242133
 20
229.8018129263
 30
0.0
  0
VERTEX
  5
478
  8
0
  6
CONTINUOUS
 62
     7
 10
196.8283235647
 20
229.7776134406
 30
0.0
  0
VERTEX
  5
479
  8
0
  6
CONTINUOUS
 62
     7
 10
200.6542201706
 20
229.7630818282
 30
0.0
  0
VERTEX
  5
47A
  8
0
  6
CONTINUOUS
 62
     7
 10
204.481766335
 20
229.758241931
 30
0.0
  0
VERTEX
  5
47B
  8
0
  6
CONTINUOUS
 62
     7
 10
208.3093124994
 20
229.7630818282
 30
0.0
  0
VERTEX
  5
47C
  8
0
  6
CONTINUOUS
 62
     7
 10
212.1352091052
 20
229.7776134406
 30
0.0
  0
VERTEX
  5
47D
  8
0
  6
CONTINUOUS
 62
     7
 10
215.9578084566
 20
229.8018129263
 30
0.0
  0
VERTEX
  5
47E
  8
0
  6
CONTINUOUS
 62
     7
 10
219.7754628577
 20
229.8356683646
 30
0.0
  0
VERTEX
  5
47F
  8
0
  6
CONTINUOUS
 62
     7
 10
223.5865272202
 20
229.8791797553
 30
0.0
  0
VERTEX
  5
480
  8
0
  6
CONTINUOUS
 62
     7
 10
227.3893586912
 20
229.9323232565
 30
0.0
  0
VERTEX
  5
481
  8
0
  6
CONTINUOUS
 62
     7
 10
231.182319633
 20
229.9950750266
 30
0.0
  0
SEQEND
  5
8AE
  8
0
  6
CONTINUOUS
 62
     7
  0
ARC
  5
8D
  8
0
  6
CONTINUOUS
 62
     7
 10
229.6456523311
 20
220.3443677022
 30
0.0
 40
9.77228214169688
 50
359.3868131615
 51
80.9528306073
  0
LINE
  5
8E
  8
0
  6
CONTINUOUS
 62
     7
 10
239.4173748412
 20
180.5379302893
 30
0.0
 11
239.4173748412
 21
220.239785472
 31
0.0
  0
POLYLINE
  5
8F
  8
0
  6
CONTINUOUS
 62
     7
 66
     1
 10
0.0
 20
0.0
 30
0.0
  0
VERTEX
  5
482
  8
0
  6
CONTINUOUS
 62
     7
 10
179.4479883828
 20
170.386269847
 30
0.0
  0
VERTEX
  5
483
  8
0
  6
CONTINUOUS
 62
     7
 10
183.2807622471
 20
170.3273208533
 30
0.0
  0
VERTEX
  5
484
  8
0
  6
CONTINUOUS
 62
     7
 10
187.1228165545
 20
170.2781470213
 30
0.0
  0
VERTEX
  5
485
  8
0
  6
CONTINUOUS
 62
     7
 10
190.9724734344
 20
170.2387841139
 30
0.0
  0
VERTEX
  5
486
  8
0
  6
CONTINUOUS
 62
     7
 10
194.8280438401
 20
170.2092559729
 30
0.0
  0
VERTEX
  5
487
  8
0
  6
CONTINUOUS
 62
     7
 10
198.6878417053
 20
170.1895506773
 30
0.0
  0
VERTEX
  5
488
  8
0
  6
CONTINUOUS
 62
     7
 10
202.5501761206
 20
170.17970399
 30
0.0
  0
VERTEX
  5
489
  8
0
  6
CONTINUOUS
 62
     7
 10
206.4133565493
 20
170.17970399
 30
0.0
  0
VERTEX
  5
48A
  8
0
  6
CONTINUOUS
 62
     7
 10
210.2756909647
 20
170.1895506773
 30
0.0
  0
VERTEX
  5
48B
  8
0
  6
CONTINUOUS
 62
     7
 10
214.1354888298
 20
170.2092559729
 30
0.0
  0
VERTEX
  5
48C
  8
0
  6
CONTINUOUS
 62
     7
 10
217.9910592355
 20
170.2387841139
 30
0.0
  0
VERTEX
  5
48D
  8
0
  6
CONTINUOUS
 62
     7
 10
221.8407161154
 20
170.2781470213
 30
0.0
  0
VERTEX
  5
48E
  8
0
  6
CONTINUOUS
 62
     7
 10
225.6827704229
 20
170.3273208533
 30
0.0
  0
VERTEX
  5
48F
  8
0
  6
CONTINUOUS
 62
     7
 10
229.5155442872
 20
170.386269847
 30
0.0
  0
SEQEND
  5
8AD
  8
0
  6
CONTINUOUS
 62
     7
  0
ARC
  5
90
  8
0
  6
CONTINUOUS
 62
     7
 10
177.5171822356
 20
222.8610005382
 30
0.0
 40
11.53015475364825
 50
111.5475430071
 51
126.7247218963
  0
ARC
  5
91
  8
0
  6
CONTINUOUS
 62
     7
 10
231.0610541627
 20
222.0910487652
 30
0.0
 40
12.38098184039821
 50
54.0747924108
 51
68.1455166041
  0
POLYLINE
  5
92
  8
0
  6
CONTINUOUS
 62
     7
 66
     1
 10
0.0
 20
0.0
 30
0.0
  0
VERTEX
  5
490
  8
0
  6
CONTINUOUS
 62
     7
 10
109.5155454793
 20
170.386269847
 30
0.0
  0
VERTEX
  5
491
  8
0
  6
CONTINUOUS
 62
     7
 10
110.3560603776
 20
170.4079420958
 30
0.0
  0
VERTEX
  5
492
  8
0
  6
CONTINUOUS
 62
     7
 10
111.1823178448
 20
170.442310134
 30
0.0
  0
SEQEND
  5
8AC
  8
0
  6
CONTINUOUS
 62
     7
  0
ARC
  5
93
  8
0
  6
CONTINUOUS
 62
     7
 10
109.1578558445
 20
180.5001763253
 30
0.0
 40
10.25958667360992
 50
281.38051341
 51
0.210841601
  0
ARC
  5
94
  8
0
  6
CONTINUOUS
 62
     7
 10
60.4405099128
 20
224.7211233929
 30
0.0
 40
54.34391784259977
 50
267.195139234
 51
268.9535095989
  0
ARC
  5
95
  8
0
  6
CONTINUOUS
 62
     7
 10
59.7931256287
 20
180.4899423473
 30
0.0
 40
10.24708195450428
 50
179.7316780907
 51
258.6770075229
  0
POLYLINE
  5
96
  8
0
  6
CONTINUOUS
 62
     7
 66
     1
 10
0.0
 20
0.0
 30
0.0
  0
VERTEX
  5
493
  8
0
  6
CONTINUOUS
 62
     7
 10
57.7812172093
 20
170.442310134
 30
0.0
  0
VERTEX
  5
494
  8
0
  6
CONTINUOUS
 62
     7
 10
61.5741707005
 20
170.379558364
 30
0.0
  0
VERTEX
  5
495
  8
0
  6
CONTINUOUS
 62
     7
 10
65.3770066418
 20
170.3264148627
 30
0.0
  0
VERTEX
  5
496
  8
0
  6
CONTINUOUS
 62
     7
 10
69.1880680241
 20
170.282903472
 30
0.0
  0
VERTEX
  5
497
  8
0
  6
CONTINUOUS
 62
     7
 10
73.0057216801
 20
170.2490361128
 30
0.0
  0
VERTEX
  5
498
  8
0
  6
CONTINUOUS
 62
     7
 10
76.8283225217
 20
170.2248366271
 30
0.0
  0
VERTEX
  5
499
  8
0
  6
CONTINUOUS
 62
     7
 10
80.6542254605
 20
170.2103169356
 30
0.0
  0
VERTEX
  5
49A
  8
0
  6
CONTINUOUS
 62
     7
 10
84.4817615666
 20
170.2054770384
 30
0.0
  0
VERTEX
  5
49B
  8
0
  6
CONTINUOUS
 62
     7
 10
88.3093095936
 20
170.2103169356
 30
0.0
  0
VERTEX
  5
49C
  8
0
  6
CONTINUOUS
 62
     7
 10
92.1352125325
 20
170.2248366271
 30
0.0
  0
VERTEX
  5
49D
  8
0
  6
CONTINUOUS
 62
     7
 10
95.957813374
 20
170.2490361128
 30
0.0
  0
VERTEX
  5
49E
  8
0
  6
CONTINUOUS
 62
     7
 10
99.77546703
 20
170.282903472
 30
0.0
  0
VERTEX
  5
49F
  8
0
  6
CONTINUOUS
 62
     7
 10
103.5865284123
 20
170.3264148627
 30
0.0
  0
VERTEX
  5
4A0
  8
0
  6
CONTINUOUS
 62
     7
 10
107.3893583932
 20
170.379558364
 30
0.0
  0
VERTEX
  5
4A1
  8
0
  6
CONTINUOUS
 62
     7
 10
111.1823178448
 20
170.442310134
 30
0.0
  0
SEQEND
  5
8AB
  8
0
  6
CONTINUOUS
 62
     7
  0
LINE
  5
97
  8
0
  6
CONTINUOUS
 62
     7
 10
49.5461560406
 20
220.239785472
 30
0.0
 11
49.5461560406
 21
180.5379302893
 31
0.0
  0
ARC
  5
98
  8
0
  6
CONTINUOUS
 62
     7
 10
59.3293164197
 20
220.3347113297
 30
0.0
 40
9.783620900325412
 50
99.1043927098
 51
180.5559226392
  0
POLYLINE
  5
99
  8
0
  6
CONTINUOUS
 62
     7
 66
     1
 10
0.0
 20
0.0
 30
0.0
  0
VERTEX
  5
4A2
  8
0
  6
CONTINUOUS
 62
     7
 10
57.7812172093
 20
229.9950750266
 30
0.0
  0
VERTEX
  5
4A3
  8
0
  6
CONTINUOUS
 62
     7
 10
61.5741707005
 20
229.9323232565
 30
0.0
  0
VERTEX
  5
4A4
  8
0
  6
CONTINUOUS
 62
     7
 10
65.3770066418
 20
229.8791797553
 30
0.0
  0
VERTEX
  5
4A5
  8
0
  6
CONTINUOUS
 62
     7
 10
69.1880680241
 20
229.8356683646
 30
0.0
  0
VERTEX
  5
4A6
  8
0
  6
CONTINUOUS
 62
     7
 10
73.0057216801
 20
229.8018129263
 30
0.0
  0
VERTEX
  5
4A7
  8
0
  6
CONTINUOUS
 62
     7
 10
76.8283225217
 20
229.7776134406
 30
0.0
  0
VERTEX
  5
4A8
  8
0
  6
CONTINUOUS
 62
     7
 10
80.6542254605
 20
229.7630818282
 30
0.0
  0
VERTEX
  5
4A9
  8
0
  6
CONTINUOUS
 62
     7
 10
84.4817615666
 20
229.758241931
 30
0.0
  0
VERTEX
  5
4AA
  8
0
  6
CONTINUOUS
 62
     7
 10
88.3093095936
 20
229.7630818282
 30
0.0
  0
VERTEX
  5
4AB
  8
0
  6
CONTINUOUS
 62
     7
 10
92.1352125325
 20
229.7776134406
 30
0.0
  0
VERTEX
  5
4AC
  8
0
  6
CONTINUOUS
 62
     7
 10
95.957813374
 20
229.8018129263
 30
0.0
  0
VERTEX
  5
4AD
  8
0
  6
CONTINUOUS
 62
     7
 10
99.77546703
 20
229.8356683646
 30
0.0
  0
VERTEX
  5
4AE
  8
0
  6
CONTINUOUS
 62
     7
 10
103.5865284123
 20
229.8791797553
 30
0.0
  0
VERTEX
  5
4AF
  8
0
  6
CONTINUOUS
 62
     7
 10
107.3893583932
 20
229.9323232565
 30
0.0
  0
VERTEX
  5
4B0
  8
0
  6
CONTINUOUS
 62
     7
 10
111.1823178448
 20
229.9950750266
 30
0.0
  0
SEQEND
  5
8AA
  8
0
  6
CONTINUOUS
 62
     7
  0
ARC
  5
9A
  8
0
  6
CONTINUOUS
 62
     7
 10
109.6456526622
 20
220.3443694912
 30
0.0
 40
9.772280041685525
 50
359.3868025399
 51
80.9528412289
  0
LINE
  5
9B
  8
0
  6
CONTINUOUS
 62
     7
 10
119.417373053
 20
180.5379302893
 30
0.0
 11
119.417373053
 21
220.239785472
 31
0.0
  0
POLYLINE
  5
9C
  8
0
  6
CONTINUOUS
 62
     7
 66
     1
 10
0.0
 20
0.0
 30
0.0
  0
VERTEX
  5
4B1
  8
0
  6
CONTINUOUS
 62
     7
 10
59.4479895749
 20
170.386269847
 30
0.0
  0
VERTEX
  5
4B2
  8
0
  6
CONTINUOUS
 62
     7
 10
63.2807589688
 20
170.3273208533
 30
0.0
  0
VERTEX
  5
4B3
  8
0
  6
CONTINUOUS
 62
     7
 10
67.1228147664
 20
170.2781470213
 30
0.0
  0
VERTEX
  5
4B4
  8
0
  6
CONTINUOUS
 62
     7
 10
70.9724761166
 20
170.2387841139
 30
0.0
  0
VERTEX
  5
4B5
  8
0
  6
CONTINUOUS
 62
     7
 10
74.8280383267
 20
170.2092559729
 30
0.0
  0
VERTEX
  5
4B6
  8
0
  6
CONTINUOUS
 62
     7
 10
78.6878443875
 20
170.1895506773
 30
0.0
  0
VERTEX
  5
4B7
  8
0
  6
CONTINUOUS
 62
     7
 10
82.5501776852
 20
170.17970399
 30
0.0
  0
VERTEX
  5
4B8
  8
0
  6
CONTINUOUS
 62
     7
 10
86.4133573689
 20
170.17970399
 30
0.0
  0
VERTEX
  5
4B9
  8
0
  6
CONTINUOUS
 62
     7
 10
90.2756906666
 20
170.1895506773
 30
0.0
  0
VERTEX
  5
4BA
  8
0
  6
CONTINUOUS
 62
     7
 10
94.1354848065
 20
170.2092559729
 30
0.0
  0
VERTEX
  5
4BB
  8
0
  6
CONTINUOUS
 62
     7
 10
97.9910589375
 20
170.2387841139
 30
0.0
  0
VERTEX
  5
4BC
  8
0
  6
CONTINUOUS
 62
     7
 10
101.8407202878
 20
170.2781470213
 30
0.0
  0
VERTEX
  5
4BD
  8
0
  6
CONTINUOUS
 62
     7
 10
105.6827701249
 20
170.3273208533
 30
0.0
  0
VERTEX
  5
4BE
  8
0
  6
CONTINUOUS
 62
     7
 10
109.5155454793
 20
170.386269847
 30
0.0
  0
SEQEND
  5
8A9
  8
0
  6
CONTINUOUS
 62
     7
  0
ARC
  5
9D
  8
0
  6
CONTINUOUS
 62
     7
 10
57.5175506936
 20
222.8603586944
 30
0.0
 40
11.53088881757934
 50
111.5480965958
 51
126.724277509
  0
ARC
  5
9E
  8
0
  6
CONTINUOUS
 62
     7
 10
111.0611127462
 20
222.0911433993
 30
0.0
 40
12.38087153410796
 50
54.0747505299
 51
68.145612886
  0
LINE
  5
9F
  8
0
  6
CONTINUOUS
 62
     7
 10
222.4817670502
 20
123.8092573081
 30
0.0
 11
222.4817670502
 21
117.0092554484
 31
0.0
  0
ARC
  5
A0
  8
0
  6
CONTINUOUS
 62
     7
 10
219.481766335
 20
117.0092547331
 30
0.0
 40
3.0
 50
270.0
 51
0.0
  0
LINE
  5
A1
  8
0
  6
CONTINUOUS
 62
     7
 10
219.481766931
 20
114.0092523489
 30
0.0
 11
189.4817657389
 21
114.0092523489
 31
0.0
  0
ARC
  5
A2
  8
0
  6
CONTINUOUS
 62
     7
 10
189.481766335
 20
117.0092547331
 30
0.0
 40
3.000000000000028
 50
180.0
 51
270.0
  0
LINE
  5
A3
  8
0
  6
CONTINUOUS
 62
     7
 10
186.4817656197
 20
123.8092573081
 30
0.0
 11
186.4817656197
 21
117.0092554484
 31
0.0
  0
CIRCLE
  5
A4
  8
0
  6
CONTINUOUS
 62
     7
 10
189.481766335
 20
118.2092547331
 30
0.0
 40
1.100000000000023
  0
CIRCLE
  5
A5
  8
0
  6
CONTINUOUS
 62
     7
 10
219.481766335
 20
118.2092547331
 30
0.0
 40
1.100000000000009
  0
LINE
  5
A6
  8
0
  6
CONTINUOUS
 62
     7
 10
222.4817670502
 20
124.8092563544
 30
0.0
 11
186.4817656197
 21
124.8092563544
 31
0.0
  0
LINE
  5
A7
  8
0
  6
CONTINUOUS
 62
     7
 10
222.4817670502
 20
124.8092563544
 30
0.0
 11
222.4817670502
 21
123.8092573081
 31
0.0
  0
LINE
  5
A8
  8
0
  6
CONTINUOUS
 62
     7
 10
186.4817656197
 20
124.8092563544
 30
0.0
 11
186.4817656197
 21
123.8092573081
 31
0.0
  0
LINE
  5
A9
  8
0
  6
CONTINUOUS
 62
     7
 10
201.481766402
 20
130.754015008
 30
0.0
 11
201.481766402
 21
124.8092563544
 31
0.0
  0
LINE
  5
AA
  8
0
  6
CONTINUOUS
 62
     7
 10
207.4817662679
 20
130.754015008
 30
0.0
 11
207.4817662679
 21
124.8092563544
 31
0.0
  0
LINE
  5
AB
  8
0
  6
CONTINUOUS
 62
     7
 10
201.481766402
 20
133.8311167155
 30
0.0
 11
201.481766402
 21
130.754015008
 31
0.0
  0
LINE
  5
AC
  8
0
  6
CONTINUOUS
 62
     7
 10
207.4817662679
 20
133.8311167155
 30
0.0
 11
207.4817662679
 21
130.754015008
 31
0.0
  0
LINE
  5
AD
  8
0
  6
CONTINUOUS
 62
     7
 10
207.4817662679
 20
155.1811368857
 30
0.0
 11
207.4817662679
 21
139.2118187342
 31
0.0
  0
LINE
  5
AE
  8
0
  6
CONTINUOUS
 62
     7
 10
201.481766402
 20
155.1811368857
 30
0.0
 11
201.481766402
 21
139.2118187342
 31
0.0
  0
LINE
  5
AF
  8
0
  6
CONTINUOUS
 62
     7
 10
207.4817662679
 20
158.945205966
 30
0.0
 11
207.4817662679
 21
155.1811368857
 31
0.0
  0
LINE
  5
B0
  8
0
  6
CONTINUOUS
 62
     7
 10
201.481766402
 20
158.945205966
 30
0.0
 11
201.481766402
 21
155.1811368857
 31
0.0
  0
LINE
  5
B1
  8
0
  6
CONTINUOUS
 62
     7
 10
201.481766402
 20
158.945205966
 30
0.0
 11
201.481766402
 21
165.0307209883
 31
0.0
  0
LINE
  5
B2
  8
0
  6
CONTINUOUS
 62
     7
 10
207.4817662679
 20
158.945205966
 30
0.0
 11
207.4817662679
 21
165.0314124022
 31
0.0
  0
LINE
  5
B3
  8
0
  6
CONTINUOUS
 62
     7
 10
342.4817658581
 20
123.8092573081
 30
0.0
 11
342.4817658581
 21
117.0092554484
 31
0.0
  0
ARC
  5
B4
  8
0
  6
CONTINUOUS
 62
     7
 10
339.481766335
 20
117.0092547331
 30
0.0
 40
3.0
 50
270.0
 51
0.0
  0
LINE
  5
B5
  8
0
  6
CONTINUOUS
 62
     7
 10
339.4817687192
 20
114.0092523489
 30
0.0
 11
309.4817615666
 21
114.0092523489
 31
0.0
  0
ARC
  5
B6
  8
0
  6
CONTINUOUS
 62
     7
 10
309.481766335
 20
117.0092547331
 30
0.0
 40
3.0
 50
180.0
 51
270.0
  0
LINE
  5
B7
  8
0
  6
CONTINUOUS
 62
     7
 10
306.4817644276
 20
123.8092573081
 30
0.0
 11
306.4817644276
 21
117.0092554484
 31
0.0
  0
CIRCLE
  5
B8
  8
0
  6
CONTINUOUS
 62
     7
 10
309.481766335
 20
118.2092547331
 30
0.0
 40
1.100000000000023
  0
CIRCLE
  5
B9
  8
0
  6
CONTINUOUS
 62
     7
 10
339.481766335
 20
118.2092547331
 30
0.0
 40
1.100000000000009
  0
LINE
  5
BA
  8
0
  6
CONTINUOUS
 62
     7
 10
342.4817658581
 20
124.8092563544
 30
0.0
 11
306.4817644276
 21
124.8092563544
 31
0.0
  0
LINE
  5
BB
  8
0
  6
CONTINUOUS
 62
     7
 10
342.4817658581
 20
124.8092563544
 30
0.0
 11
342.4817658581
 21
123.8092573081
 31
0.0
  0
LINE
  5
BC
  8
0
  6
CONTINUOUS
 62
     7
 10
306.4817644276
 20
124.8092563544
 30
0.0
 11
306.4817644276
 21
123.8092573081
 31
0.0
  0
LINE
  5
BD
  8
0
  6
CONTINUOUS
 62
     7
 10
327.4817682423
 20
130.754015008
 30
0.0
 11
327.4817682423
 21
124.8092563544
 31
0.0
  0
LINE
  5
BE
  8
0
  6
CONTINUOUS
 62
     7
 10
321.4817620434
 20
130.754015008
 30
0.0
 11
321.4817620434
 21
124.8092563544
 31
0.0
  0
LINE
  5
BF
  8
0
  6
CONTINUOUS
 62
     7
 10
321.4817620434
 20
133.8311167155
 30
0.0
 11
321.4817620434
 21
130.754015008
 31
0.0
  0
LINE
  5
C0
  8
0
  6
CONTINUOUS
 62
     7
 10
327.4817682423
 20
133.8311167155
 30
0.0
 11
327.4817682423
 21
130.754015008
 31
0.0
  0
LINE
  5
C1
  8
0
  6
CONTINUOUS
 62
     7
 10
327.4817682423
 20
155.1811368857
 30
0.0
 11
327.4817682423
 21
139.2118187342
 31
0.0
  0
LINE
  5
C2
  8
0
  6
CONTINUOUS
 62
     7
 10
321.4817620434
 20
155.1811368857
 30
0.0
 11
321.4817620434
 21
139.2118187342
 31
0.0
  0
LINE
  5
C3
  8
0
  6
CONTINUOUS
 62
     7
 10
327.4817682423
 20
158.945205966
 30
0.0
 11
327.4817682423
 21
155.1811368857
 31
0.0
  0
LINE
  5
C4
  8
0
  6
CONTINUOUS
 62
     7
 10
321.4817620434
 20
158.945205966
 30
0.0
 11
321.4817620434
 21
155.1811368857
 31
0.0
  0
LINE
  5
C5
  8
0
  6
CONTINUOUS
 62
     7
 10
321.4817620434
 20
158.945205966
 30
0.0
 11
321.4817620434
 21
165.0307209883
 31
0.0
  0
LINE
  5
C6
  8
0
  6
CONTINUOUS
 62
     7
 10
327.4817682423
 20
158.945205966
 30
0.0
 11
327.4817682423
 21
165.0314124022
 31
0.0
  0
LINE
  5
C7
  8
0
  6
CONTINUOUS
 62
     7
 10
102.4817682423
 20
123.8092573081
 30
0.0
 11
102.4817682423
 21
117.0092554484
 31
0.0
  0
ARC
  5
C8
  8
0
  6
CONTINUOUS
 62
     7
 10
99.481766335
 20
117.0092547331
 30
0.0
 40
3.000000000000014
 50
270.0
 51
0.0
  0
LINE
  5
C9
  8
0
  6
CONTINUOUS
 62
     7
 10
99.4817711033
 20
114.0092523489
 30
0.0
 11
69.4817639508
 21
114.0092523489
 31
0.0
  0
ARC
  5
CA
  8
0
  6
CONTINUOUS
 62
     7
 10
69.481766335
 20
117.0092547331
 30
0.0
 40
3.0
 50
180.0
 51
270.0
  0
LINE
  5
CB
  8
0
  6
CONTINUOUS
 62
     7
 10
66.4817668118
 20
123.8092573081
 30
0.0
 11
66.4817668118
 21
117.0092554484
 31
0.0
  0
CIRCLE
  5
CC
  8
0
  6
CONTINUOUS
 62
     7
 10
69.481766335
 20
118.2092547331
 30
0.0
 40
1.100000000000023
  0
CIRCLE
  5
CD
  8
0
  6
CONTINUOUS
 62
     7
 10
99.481766335
 20
118.2092547331
 30
0.0
 40
1.100000000000009
  0
LINE
  5
CE
  8
0
  6
CONTINUOUS
 62
     7
 10
102.4817682423
 20
124.8092563544
 30
0.0
 11
66.4817668118
 21
124.8092563544
 31
0.0
  0
LINE
  5
CF
  8
0
  6
CONTINUOUS
 62
     7
 10
102.4817682423
 20
124.8092563544
 30
0.0
 11
102.4817682423
 21
123.8092573081
 31
0.0
  0
LINE
  5
D0
  8
0
  6
CONTINUOUS
 62
     7
 10
66.4817668118
 20
124.8092563544
 30
0.0
 11
66.4817668118
 21
123.8092573081
 31
0.0
  0
LINE
  5
D1
  8
0
  6
CONTINUOUS
 62
     7
 10
81.4817644276
 20
130.754015008
 30
0.0
 11
81.4817644276
 21
124.8092563544
 31
0.0
  0
LINE
  5
D2
  8
0
  6
CONTINUOUS
 62
     7
 10
87.4817706265
 20
130.754015008
 30
0.0
 11
87.4817706265
 21
124.8092563544
 31
0.0
  0
LINE
  5
D3
  8
0
  6
CONTINUOUS
 62
     7
 10
81.4817644276
 20
133.8311167155
 30
0.0
 11
81.4817644276
 21
130.754015008
 31
0.0
  0
LINE
  5
D4
  8
0
  6
CONTINUOUS
 62
     7
 10
87.4817706265
 20
133.8311167155
 30
0.0
 11
87.4817706265
 21
130.754015008
 31
0.0
  0
LINE
  5
D5
  8
0
  6
CONTINUOUS
 62
     7
 10
87.4817706265
 20
155.1811368857
 30
0.0
 11
87.4817706265
 21
139.2118187342
 31
0.0
  0
LINE
  5
D6
  8
0
  6
CONTINUOUS
 62
     7
 10
81.4817644276
 20
155.1811368857
 30
0.0
 11
81.4817644276
 21
139.2118187342
 31
0.0
  0
LINE
  5
D7
  8
0
  6
CONTINUOUS
 62
     7
 10
87.4817706265
 20
158.945205966
 30
0.0
 11
87.4817706265
 21
155.1811368857
 31
0.0
  0
LINE
  5
D8
  8
0
  6
CONTINUOUS
 62
     7
 10
81.4817644276
 20
158.945205966
 30
0.0
 11
81.4817644276
 21
155.1811368857
 31
0.0
  0
LINE
  5
D9
  8
0
  6
CONTINUOUS
 62
     7
 10
81.4817644276
 20
158.945205966
 30
0.0
 11
81.4817644276
 21
165.0307209883
 31
0.0
  0
LINE
  5
DA
  8
0
  6
CONTINUOUS
 62
     7
 10
87.4817706265
 20
158.945205966
 30
0.0
 11
87.4817706265
 21
165.0314124022
 31
0.0
  0
ARC
  5
DB
  8
0
  6
CONTINUOUS
 62
     7
 10
84.4815900971
 20
322.4982383209
 30
0.0
 40
183.3109878346468
 50
277.7930441774
 51
281.5887865078
  0
ARC
  5
DC
  8
0
  6
CONTINUOUS
 62
     7
 10
121.8505229678
 20
140.2897578536
 30
0.0
 40
2.690000000000005
 50
12.4186815058
 51
100.0467259554
  0
ARC
  5
DD
  8
0
  6
CONTINUOUS
 62
     7
 10
84.4947840981
 20
322.4211438134
 30
0.0
 40
188.6128163939025
 50
277.7922483053
 51
281.5895411613
  0
ARC
  5
DE
  8
0
  6
CONTINUOUS
 62
     7
 10
121.8505229678
 20
140.2897578536
 30
0.0
 40
2.690000000000002
 50
281.5900201068
 51
12.4186815058
  0
ARC
  5
DF
  8
0
  6
CONTINUOUS
 62
     7
 10
84.5016625496
 20
322.6138988689
 30
0.0
 40
188.8082539015628
 50
258.4125519674
 51
262.2057871943
  0
ARC
  5
E0
  8
0
  6
CONTINUOUS
 62
     7
 10
47.1130097021
 20
140.2897578536
 30
0.0
 40
2.690000000000008
 50
167.5813184942
 51
258.4099798932
  0
ARC
  5
E1
  8
0
  6
CONTINUOUS
 62
     7
 10
47.1130097021
 20
140.2897578536
 30
0.0
 40
2.690000000000008
 50
80.0567778886
 51
167.5813184942
  0
ARC
  5
E2
  8
0
  6
CONTINUOUS
 62
     7
 10
84.5011919809
 20
322.6114317497
 30
0.0
 40
183.4257456875686
 50
258.4125297998
 51
262.2057935849
  0
ARC
  5
E3
  8
0
  6
CONTINUOUS
 62
     7
 10
84.481766335
 20
322.4972660077
 30
0.0
 40
188.69
 50
262.2069690737
 51
277.7930309263
  0
ARC
  5
E4
  8
0
  6
CONTINUOUS
 62
     7
 10
84.481766335
 20
322.4972660077
 30
0.0
 40
183.3100000000001
 50
262.2069690737
 51
277.7930309263
  0
LINE
  5
E5
  8
0
  6
CONTINUOUS
 62
     7
 10
121.1817659058
 20
137.1492536459
 30
0.0
 11
121.1817659058
 21
132.682308713
 31
0.0
  0
LINE
  5
E6
  8
0
  6
CONTINUOUS
 62
     7
 10
121.1817659058
 20
137.1492536459
 30
0.0
 11
122.1817649521
 21
137.1492536459
 31
0.0
  0
LINE
  5
E7
  8
0
  6
CONTINUOUS
 62
     7
 10
122.1817649521
 20
137.1492536459
 30
0.0
 11
122.1817649521
 21
132.682308713
 31
0.0
  0
LINE
  5
E8
  8
0
  6
CONTINUOUS
 62
     7
 10
47.7817631879
 20
137.1492536459
 30
0.0
 11
46.7817641415
 21
137.1492536459
 31
0.0
  0
LINE
  5
E9
  8
0
  6
CONTINUOUS
 62
     7
 10
47.7817631879
 20
137.1492536459
 30
0.0
 11
47.7817631879
 21
132.682308713
 31
0.0
  0
LINE
  5
EA
  8
0
  6
CONTINUOUS
 62
     7
 10
46.7817641415
 20
137.1492536459
 30
0.0
 11
46.7817641415
 21
132.682308713
 31
0.0
  0
LINE
  5
EB
  8
0
  6
CONTINUOUS
 62
     7
 10
122.1817649521
 20
137.6202316676
 30
0.0
 11
122.1817649521
 21
137.1492536459
 31
0.0
  0
LINE
  5
EC
  8
0
  6
CONTINUOUS
 62
     7
 10
121.1817659058
 20
137.4107034598
 30
0.0
 11
121.1817659058
 21
137.1492536459
 31
0.0
  0
LINE
  5
ED
  8
0
  6
CONTINUOUS
 62
     7
 10
47.7817631879
 20
137.4107273016
 30
0.0
 11
47.7817631879
 21
137.1492536459
 31
0.0
  0
LINE
  5
EE
  8
0
  6
CONTINUOUS
 62
     7
 10
46.7817641415
 20
137.6202316676
 30
0.0
 11
46.7817641415
 21
137.1492536459
 31
0.0
  0
LINE
  5
EF
  8
0
  6
CONTINUOUS
 62
     7
 10
47.6534463086
 20
142.9249079619
 30
0.0
 11
47.6573682942
 21
142.9241032992
 31
0.0
  0
LINE
  5
F0
  8
0
  6
CONTINUOUS
 62
     7
 10
121.3058508553
 20
142.9240377341
 30
0.0
 11
121.3100827851
 21
142.9249079619
 31
0.0
  0
LINE
  5
F1
  8
0
  6
CONTINUOUS
 62
     7
 10
122.1817649521
 20
132.682308713
 30
0.0
 11
122.1817649521
 21
131.8287701998
 31
0.0
  0
LINE
  5
F2
  8
0
  6
CONTINUOUS
 62
     7
 10
121.1817659058
 20
132.682308713
 30
0.0
 11
121.1817659058
 21
131.8287701998
 31
0.0
  0
LINE
  5
F3
  8
0
  6
CONTINUOUS
 62
     7
 10
47.7817631879
 20
132.682308713
 30
0.0
 11
47.7817631879
 21
131.8287701998
 31
0.0
  0
LINE
  5
F4
  8
0
  6
CONTINUOUS
 62
     7
 10
46.7817641415
 20
132.682308713
 30
0.0
 11
46.7817641415
 21
131.8287701998
 31
0.0
  0
LINE
  5
F5
  8
0
  6
CONTINUOUS
 62
     7
 10
47.7817631879
 20
131.8287701998
 30
0.0
 11
47.7817631879
 21
123.9743383322
 31
0.0
  0
LINE
  5
F6
  8
0
  6
CONTINUOUS
 62
     7
 10
46.7817641415
 20
131.8287701998
 30
0.0
 11
46.7817641415
 21
123.9743383322
 31
0.0
  0
LINE
  5
F7
  8
0
  6
CONTINUOUS
 62
     7
 10
122.1817649521
 20
131.8287701998
 30
0.0
 11
122.1817649521
 21
123.9743383322
 31
0.0
  0
LINE
  5
F8
  8
0
  6
CONTINUOUS
 62
     7
 10
121.1817659058
 20
131.8287701998
 30
0.0
 11
121.1817659058
 21
123.9743383322
 31
0.0
  0
LINE
  5
F9
  8
0
  6
CONTINUOUS
 62
     7
 10
47.7817631879
 20
123.9743383322
 30
0.0
 11
47.7817631879
 21
123.2092531119
 31
0.0
  0
LINE
  5
FA
  8
0
  6
CONTINUOUS
 62
     7
 10
46.7817641415
 20
123.9743383322
 30
0.0
 11
46.7817641415
 21
123.2092531119
 31
0.0
  0
LINE
  5
FB
  8
0
  6
CONTINUOUS
 62
     7
 10
47.7817631879
 20
121.2092550192
 30
0.0
 11
46.7817641415
 21
121.2092550192
 31
0.0
  0
LINE
  5
FC
  8
0
  6
CONTINUOUS
 62
     7
 10
47.7817631879
 20
123.2092531119
 30
0.0
 11
47.7817631879
 21
121.2092550192
 31
0.0
  0
LINE
  5
FD
  8
0
  6
CONTINUOUS
 62
     7
 10
46.7817641415
 20
123.2092531119
 30
0.0
 11
46.7817641415
 21
121.2092550192
 31
0.0
  0
LINE
  5
FE
  8
0
  6
CONTINUOUS
 62
     7
 10
122.1817649521
 20
123.9743383322
 30
0.0
 11
122.1817649521
 21
123.2092531119
 31
0.0
  0
LINE
  5
FF
  8
0
  6
CONTINUOUS
 62
     7
 10
121.1817659058
 20
123.9743383322
 30
0.0
 11
121.1817659058
 21
123.2092531119
 31
0.0
  0
LINE
  5
100
  8
0
  6
CONTINUOUS
 62
     7
 10
121.1817659058
 20
121.2092550192
 30
0.0
 11
122.1817649521
 21
121.2092550192
 31
0.0
  0
LINE
  5
101
  8
0
  6
CONTINUOUS
 62
     7
 10
122.1817649521
 20
123.2092531119
 30
0.0
 11
122.1817649521
 21
121.2092550192
 31
0.0
  0
LINE
  5
102
  8
0
  6
CONTINUOUS
 62
     7
 10
121.1817659058
 20
123.2092531119
 30
0.0
 11
121.1817659058
 21
121.2092550192
 31
0.0
  0
LINE
  5
103
  8
0
  6
CONTINUOUS
 62
     7
 10
121.1817659058
 20
125.0092537795
 30
0.0
 11
116.981766335
 21
125.0092537795
 31
0.0
  0
LINE
  5
104
  8
0
  6
CONTINUOUS
 62
     7
 10
116.981766335
 20
124.0092547331
 30
0.0
 11
116.981766335
 21
125.0092537795
 31
0.0
  0
LINE
  5
105
  8
0
  6
CONTINUOUS
 62
     7
 10
41.981766335
 20
124.0092547331
 30
0.0
 11
41.981766335
 21
125.0092537795
 31
0.0
  0
LINE
  5
106
  8
0
  6
CONTINUOUS
 62
     7
 10
46.7817641415
 20
125.0092537795
 30
0.0
 11
41.981766335
 21
125.0092537795
 31
0.0
  0
LINE
  5
107
  8
0
  6
CONTINUOUS
 62
     7
 10
126.9817687192
 20
117.0092554484
 30
0.0
 11
126.9817687192
 21
124.0092547331
 31
0.0
  0
LINE
  5
108
  8
0
  6
CONTINUOUS
 62
     7
 10
124.981764666
 20
115.0092573557
 30
0.0
 11
118.9817644276
 21
115.0092573557
 31
0.0
  0
ARC
  5
109
  8
0
  6
CONTINUOUS
 62
     7
 10
118.981766335
 20
117.0092547331
 30
0.0
 40
2.0
 50
180.0
 51
270.0
  0
ARC
  5
10A
  8
0
  6
CONTINUOUS
 62
     7
 10
124.981766335
 20
117.0092547331
 30
0.0
 40
2.000000000000014
 50
270.0
 51
0.0
  0
LINE
  5
10B
  8
0
  6
CONTINUOUS
 62
     7
 10
116.981766335
 20
124.0092547331
 30
0.0
 11
116.981766335
 21
117.0092554484
 31
0.0
  0
CIRCLE
  5
10C
  8
0
  6
CONTINUOUS
 62
     7
 10
121.981766335
 20
118.4092547331
 30
0.0
 40
1.000000000000014
  0
LINE
  5
10D
  8
0
  6
CONTINUOUS
 62
     7
 10
49.9817706265
 20
115.0092573557
 30
0.0
 11
43.9817644276
 21
115.0092573557
 31
0.0
  0
ARC
  5
10E
  8
0
  6
CONTINUOUS
 62
     7
 10
43.981766335
 20
117.0092547331
 30
0.0
 40
2.0
 50
180.0
 51
270.0
  0
CIRCLE
  5
10F
  8
0
  6
CONTINUOUS
 62
     7
 10
46.981766335
 20
118.4092547331
 30
0.0
 40
1.0
  0
LINE
  5
110
  8
0
  6
CONTINUOUS
 62
     7
 10
41.981766335
 20
117.0092554484
 30
0.0
 11
41.981766335
 21
124.0092547331
 31
0.0
  0
ARC
  5
111
  8
0
  6
CONTINUOUS
 62
     7
 10
49.981766335
 20
117.0092547331
 30
0.0
 40
2.000000000000007
 50
270.0
 51
0.0
  0
LINE
  5
112
  8
0
  6
CONTINUOUS
 62
     7
 10
51.9817687192
 20
117.0092554484
 30
0.0
 11
51.9817687192
 21
124.0092547331
 31
0.0
  0
LINE
  5
113
  8
0
  6
CONTINUOUS
 62
     7
 10
51.9817687192
 20
125.0092537795
 30
0.0
 11
47.7817631879
 21
125.0092537795
 31
0.0
  0
LINE
  5
114
  8
0
  6
CONTINUOUS
 62
     7
 10
51.9817687192
 20
125.0092537795
 30
0.0
 11
51.9817687192
 21
124.0092547331
 31
0.0
  0
LINE
  5
115
  8
0
  6
CONTINUOUS
 62
     7
 10
126.9817687192
 20
124.0092547331
 30
0.0
 11
126.9817687192
 21
125.0092537795
 31
0.0
  0
LINE
  5
116
  8
0
  6
CONTINUOUS
 62
     7
 10
126.9817687192
 20
125.0092537795
 30
0.0
 11
122.1817649521
 21
125.0092537795
 31
0.0
  0
ARC
  5
117
  8
0
  6
CONTINUOUS
 62
     7
 10
204.4818291941
 20
322.4968131071
 30
0.0
 40
183.3095434037166
 50
277.7930306306
 51
281.588802422
  0
ARC
  5
118
  8
0
  6
CONTINUOUS
 62
     7
 10
241.8505229678
 20
140.2897578536
 30
0.0
 40
2.69000000000003
 50
12.4186815058
 51
100.0467259554
  0
ARC
  5
119
  8
0
  6
CONTINUOUS
 62
     7
 10
204.4948414628
 20
322.4207646886
 30
0.0
 40
188.6124332347845
 50
277.7922471931
 51
281.5895468731
  0
ARC
  5
11A
  8
0
  6
CONTINUOUS
 62
     7
 10
241.8505229678
 20
140.2897578536
 30
0.0
 40
2.690000000000002
 50
281.5900201068
 51
12.4186815058
  0
ARC
  5
11B
  8
0
  6
CONTINUOUS
 62
     7
 10
167.1130097021
 20
140.2897578536
 30
0.0
 40
2.690000000000008
 50
80.0567778886
 51
167.5813184942
  0
ARC
  5
11C
  8
0
  6
CONTINUOUS
 62
     7
 10
204.5012098049
 20
322.6115249693
 30
0.0
 40
183.4258408268893
 50
258.4125298297
 51
262.2057911876
  0
ARC
  5
11D
  8
0
  6
CONTINUOUS
 62
     7
 10
204.5008141837
 20
322.6087941979
 30
0.0
 40
188.8030819041761
 50
258.4124944315
 51
262.2058309307
  0
ARC
  5
11E
  8
0
  6
CONTINUOUS
 62
     7
 10
167.1130097021
 20
140.2897578536
 30
0.0
 40
2.690000000000008
 50
167.5813184942
 51
258.4099798932
  0
ARC
  5
11F
  8
0
  6
CONTINUOUS
 62
     7
 10
204.481766335
 20
322.4972660077
 30
0.0
 40
188.69
 50
262.2069690737
 51
277.7930309263
  0
ARC
  5
120
  8
0
  6
CONTINUOUS
 62
     7
 10
204.481766335
 20
322.4972660077
 30
0.0
 40
183.3100000000001
 50
262.2069690737
 51
277.7930309263
  0
LINE
  5
121
  8
0
  6
CONTINUOUS
 62
     7
 10
241.181767694
 20
137.1492536459
 30
0.0
 11
242.1817667403
 21
137.1492536459
 31
0.0
  0
LINE
  5
122
  8
0
  6
CONTINUOUS
 62
     7
 10
242.1817667403
 20
137.6202316676
 30
0.0
 11
242.1817667403
 21
137.1492536459
 31
0.0
  0
LINE
  5
123
  8
0
  6
CONTINUOUS
 62
     7
 10
241.181767694
 20
137.4107034598
 30
0.0
 11
241.181767694
 21
137.1492536459
 31
0.0
  0
LINE
  5
124
  8
0
  6
CONTINUOUS
 62
     7
 10
167.781764976
 20
137.1492536459
 30
0.0
 11
166.7817659297
 21
137.1492536459
 31
0.0
  0
LINE
  5
125
  8
0
  6
CONTINUOUS
 62
     7
 10
167.781764976
 20
137.1492536459
 30
0.0
 11
167.781764976
 21
132.682308713
 31
0.0
  0
LINE
  5
126
  8
0
  6
CONTINUOUS
 62
     7
 10
166.7817659297
 20
137.1492536459
 30
0.0
 11
166.7817659297
 21
132.682308713
 31
0.0
  0
LINE
  5
127
  8
0
  6
CONTINUOUS
 62
     7
 10
242.1817667403
 20
137.1492536459
 30
0.0
 11
242.1817667403
 21
132.682308713
 31
0.0
  0
LINE
  5
128
  8
0
  6
CONTINUOUS
 62
     7
 10
241.181767694
 20
137.1492536459
 30
0.0
 11
241.181767694
 21
132.682308713
 31
0.0
  0
LINE
  5
129
  8
0
  6
CONTINUOUS
 62
     7
 10
167.781764976
 20
137.4107273016
 30
0.0
 11
167.781764976
 21
137.1492536459
 31
0.0
  0
LINE
  5
12A
  8
0
  6
CONTINUOUS
 62
     7
 10
166.7817659297
 20
137.6202316676
 30
0.0
 11
166.7817659297
 21
137.1492536459
 31
0.0
  0
LINE
  5
12B
  8
0
  6
CONTINUOUS
 62
     7
 10
167.6534510769
 20
142.9249079619
 30
0.0
 11
167.6573730626
 21
142.9241032992
 31
0.0
  0
LINE
  5
12C
  8
0
  6
CONTINUOUS
 62
     7
 10
241.3058496632
 20
142.9240377341
 30
0.0
 11
241.310081593
 21
142.9249079619
 31
0.0
  0
LINE
  5
12D
  8
0
  6
CONTINUOUS
 62
     7
 10
242.1817667403
 20
132.682308713
 30
0.0
 11
242.1817667403
 21
131.8287701998
 31
0.0
  0
LINE
  5
12E
  8
0
  6
CONTINUOUS
 62
     7
 10
241.181767694
 20
132.682308713
 30
0.0
 11
241.181767694
 21
131.8287701998
 31
0.0
  0
LINE
  5
12F
  8
0
  6
CONTINUOUS
 62
     7
 10
167.781764976
 20
132.682308713
 30
0.0
 11
167.781764976
 21
131.8287701998
 31
0.0
  0
LINE
  5
130
  8
0
  6
CONTINUOUS
 62
     7
 10
166.7817659297
 20
132.682308713
 30
0.0
 11
166.7817659297
 21
131.8287701998
 31
0.0
  0
LINE
  5
131
  8
0
  6
CONTINUOUS
 62
     7
 10
242.1817667403
 20
131.8287701998
 30
0.0
 11
242.1817667403
 21
123.9743383322
 31
0.0
  0
LINE
  5
132
  8
0
  6
CONTINUOUS
 62
     7
 10
241.181767694
 20
131.8287701998
 30
0.0
 11
241.181767694
 21
123.9743383322
 31
0.0
  0
LINE
  5
133
  8
0
  6
CONTINUOUS
 62
     7
 10
167.781764976
 20
131.8287701998
 30
0.0
 11
167.781764976
 21
123.9743383322
 31
0.0
  0
LINE
  5
134
  8
0
  6
CONTINUOUS
 62
     7
 10
166.7817659297
 20
131.8287701998
 30
0.0
 11
166.7817659297
 21
123.9743383322
 31
0.0
  0
LINE
  5
135
  8
0
  6
CONTINUOUS
 62
     7
 10
167.781764976
 20
121.2092550192
 30
0.0
 11
166.7817659297
 21
121.2092550192
 31
0.0
  0
LINE
  5
136
  8
0
  6
CONTINUOUS
 62
     7
 10
167.781764976
 20
123.2092531119
 30
0.0
 11
167.781764976
 21
121.2092550192
 31
0.0
  0
LINE
  5
137
  8
0
  6
CONTINUOUS
 62
     7
 10
166.7817659297
 20
123.2092531119
 30
0.0
 11
166.7817659297
 21
121.2092550192
 31
0.0
  0
LINE
  5
138
  8
0
  6
CONTINUOUS
 62
     7
 10
242.1817667403
 20
123.9743383322
 30
0.0
 11
242.1817667403
 21
123.2092531119
 31
0.0
  0
LINE
  5
139
  8
0
  6
CONTINUOUS
 62
     7
 10
241.181767694
 20
123.9743383322
 30
0.0
 11
241.181767694
 21
123.2092531119
 31
0.0
  0
LINE
  5
13A
  8
0
  6
CONTINUOUS
 62
     7
 10
167.781764976
 20
123.9743383322
 30
0.0
 11
167.781764976
 21
123.2092531119
 31
0.0
  0
LINE
  5
13B
  8
0
  6
CONTINUOUS
 62
     7
 10
166.7817659297
 20
123.9743383322
 30
0.0
 11
166.7817659297
 21
123.2092531119
 31
0.0
  0
LINE
  5
13C
  8
0
  6
CONTINUOUS
 62
     7
 10
241.181767694
 20
121.2092550192
 30
0.0
 11
242.1817667403
 21
121.2092550192
 31
0.0
  0
LINE
  5
13D
  8
0
  6
CONTINUOUS
 62
     7
 10
242.1817667403
 20
123.2092531119
 30
0.0
 11
242.1817667403
 21
121.2092550192
 31
0.0
  0
LINE
  5
13E
  8
0
  6
CONTINUOUS
 62
     7
 10
241.181767694
 20
123.2092531119
 30
0.0
 11
241.181767694
 21
121.2092550192
 31
0.0
  0
LINE
  5
13F
  8
0
  6
CONTINUOUS
 62
     7
 10
246.9817675271
 20
125.0092537795
 30
0.0
 11
242.1817667403
 21
125.0092537795
 31
0.0
  0
LINE
  5
140
  8
0
  6
CONTINUOUS
 62
     7
 10
246.9817675271
 20
124.0092547331
 30
0.0
 11
246.9817675271
 21
125.0092537795
 31
0.0
  0
LINE
  5
141
  8
0
  6
CONTINUOUS
 62
     7
 10
241.181767694
 20
125.0092537795
 30
0.0
 11
236.9817651429
 21
125.0092537795
 31
0.0
  0
LINE
  5
142
  8
0
  6
CONTINUOUS
 62
     7
 10
236.9817651429
 20
124.0092547331
 30
0.0
 11
236.9817651429
 21
125.0092537795
 31
0.0
  0
LINE
  5
143
  8
0
  6
CONTINUOUS
 62
     7
 10
244.9817664542
 20
115.0092573557
 30
0.0
 11
238.9817662158
 21
115.0092573557
 31
0.0
  0
ARC
  5
144
  8
0
  6
CONTINUOUS
 62
     7
 10
238.981766335
 20
117.0092547331
 30
0.0
 40
2.0
 50
180.0
 51
270.0
  0
CIRCLE
  5
145
  8
0
  6
CONTINUOUS
 62
     7
 10
241.981766335
 20
118.4092547331
 30
0.0
 40
1.0
  0
ARC
  5
146
  8
0
  6
CONTINUOUS
 62
     7
 10
244.981766335
 20
117.0092547331
 30
0.0
 40
2.0
 50
270.0
 51
0.0
  0
LINE
  5
147
  8
0
  6
CONTINUOUS
 62
     7
 10
236.9817651429
 20
124.0092547331
 30
0.0
 11
236.9817651429
 21
117.0092554484
 31
0.0
  0
LINE
  5
148
  8
0
  6
CONTINUOUS
 62
     7
 10
246.9817675271
 20
117.0092554484
 30
0.0
 11
246.9817675271
 21
124.0092547331
 31
0.0
  0
LINE
  5
149
  8
0
  6
CONTINUOUS
 62
     7
 10
171.9817675271
 20
125.0092537795
 30
0.0
 11
167.781764976
 21
125.0092537795
 31
0.0
  0
LINE
  5
14A
  8
0
  6
CONTINUOUS
 62
     7
 10
171.9817675271
 20
125.0092537795
 30
0.0
 11
171.9817675271
 21
124.0092547331
 31
0.0
  0
CIRCLE
  5
14B
  8
0
  6
CONTINUOUS
 62
     7
 10
166.981766335
 20
118.4092547331
 30
0.0
 40
1.0
  0
LINE
  5
14C
  8
0
  6
CONTINUOUS
 62
     7
 10
171.9817675271
 20
117.0092554484
 30
0.0
 11
171.9817675271
 21
124.0092547331
 31
0.0
  0
ARC
  5
14D
  8
0
  6
CONTINUOUS
 62
     7
 10
163.981766335
 20
117.0092547331
 30
0.0
 40
2.0
 50
180.0
 51
270.0
  0
ARC
  5
14E
  8
0
  6
CONTINUOUS
 62
     7
 10
169.981766335
 20
117.0092547331
 30
0.0
 40
2.0
 50
270.0
 51
0.0
  0
LINE
  5
14F
  8
0
  6
CONTINUOUS
 62
     7
 10
169.9817664542
 20
115.0092573557
 30
0.0
 11
163.9817662158
 21
115.0092573557
 31
0.0
  0
LINE
  5
150
  8
0
  6
CONTINUOUS
 62
     7
 10
161.9817651429
 20
117.0092554484
 30
0.0
 11
161.9817651429
 21
124.0092547331
 31
0.0
  0
LINE
  5
151
  8
0
  6
CONTINUOUS
 62
     7
 10
166.7817659297
 20
125.0092537795
 30
0.0
 11
161.9817651429
 21
125.0092537795
 31
0.0
  0
LINE
  5
152
  8
0
  6
CONTINUOUS
 62
     7
 10
161.9817651429
 20
124.0092547331
 30
0.0
 11
161.9817651429
 21
125.0092537795
 31
0.0
  0
ARC
  5
153
  8
0
  6
CONTINUOUS
 62
     7
 10
324.4822602899
 20
322.4942998234
 30
0.0
 40
183.3069945137211
 50
277.7930028174
 51
281.5888278678
  0
ARC
  5
154
  8
0
  6
CONTINUOUS
 62
     7
 10
361.8505229678
 20
140.2897578536
 30
0.0
 40
2.69000000000002
 50
12.4186815058
 51
100.0467259554
  0
ARC
  5
155
  8
0
  6
CONTINUOUS
 62
     7
 10
324.4954910419
 20
322.4169900991
 30
0.0
 40
188.6086048625208
 50
277.792205894
 51
281.5895835726
  0
ARC
  5
156
  8
0
  6
CONTINUOUS
 62
     7
 10
361.8505229678
 20
140.2897578536
 30
0.0
 40
2.689999999999974
 50
281.5900201068
 51
12.4186815058
  0
ARC
  5
157
  8
0
  6
CONTINUOUS
 62
     7
 10
287.1130097021
 20
140.2897578536
 30
0.0
 40
2.689999999999996
 50
80.0567778886
 51
167.5813184942
  0
ARC
  5
158
  8
0
  6
CONTINUOUS
 62
     7
 10
324.5012983736
 20
322.6120687342
 30
0.0
 40
183.4263915390943
 50
258.4125364803
 51
262.2057869043
  0
ARC
  5
159
  8
0
  6
CONTINUOUS
 62
     7
 10
324.5010890311
 20
322.6104469238
 30
0.0
 40
188.8047563925035
 50
258.4125131129
 51
262.2058168492
  0
ARC
  5
15A
  8
0
  6
CONTINUOUS
 62
     7
 10
287.1130097021
 20
140.2897578536
 30
0.0
 40
2.689999999999987
 50
167.5813184942
 51
258.4099798932
  0
ARC
  5
15B
  8
0
  6
CONTINUOUS
 62
     7
 10
324.481766335
 20
322.4972660077
 30
0.0
 40
188.69
 50
262.2069690737
 51
277.7930309263
  0
ARC
  5
15C
  8
0
  6
CONTINUOUS
 62
     7
 10
324.481766335
 20
322.4972660077
 30
0.0
 40
183.3100000000001
 50
262.2069690737
 51
277.7930309263
  0
LINE
  5
15D
  8
0
  6
CONTINUOUS
 62
     7
 10
361.1817694821
 20
137.1492536459
 30
0.0
 11
361.1817694821
 21
132.682308713
 31
0.0
  0
LINE
  5
15E
  8
0
  6
CONTINUOUS
 62
     7
 10
361.1817694821
 20
137.1492536459
 30
0.0
 11
362.1817685284
 21
137.1492536459
 31
0.0
  0
LINE
  5
15F
  8
0
  6
CONTINUOUS
 62
     7
 10
362.1817685284
 20
137.1492536459
 30
0.0
 11
362.1817685284
 21
132.682308713
 31
0.0
  0
LINE
  5
160
  8
0
  6
CONTINUOUS
 62
     7
 10
361.1817694821
 20
137.4107034598
 30
0.0
 11
361.1817694821
 21
137.1492536459
 31
0.0
  0
LINE
  5
161
  8
0
  6
CONTINUOUS
 62
     7
 10
362.1817685284
 20
137.6202316676
 30
0.0
 11
362.1817685284
 21
137.1492536459
 31
0.0
  0
LINE
  5
162
  8
0
  6
CONTINUOUS
 62
     7
 10
287.7817667641
 20
137.4107273016
 30
0.0
 11
287.7817667641
 21
137.1492536459
 31
0.0
  0
LINE
  5
163
  8
0
  6
CONTINUOUS
 62
     7
 10
287.7817667641
 20
137.1492536459
 30
0.0
 11
286.7817677178
 21
137.1492536459
 31
0.0
  0
LINE
  5
164
  8
0
  6
CONTINUOUS
 62
     7
 10
286.7817677178
 20
137.6202316676
 30
0.0
 11
286.7817677178
 21
137.1492536459
 31
0.0
  0
LINE
  5
165
  8
0
  6
CONTINUOUS
 62
     7
 10
287.7817667641
 20
137.1492536459
 30
0.0
 11
287.7817667641
 21
132.682308713
 31
0.0
  0
LINE
  5
166
  8
0
  6
CONTINUOUS
 62
     7
 10
286.7817677178
 20
137.1492536459
 30
0.0
 11
286.7817677178
 21
132.682308713
 31
0.0
  0
LINE
  5
167
  8
0
  6
CONTINUOUS
 62
     7
 10
287.6534498849
 20
142.9249079619
 30
0.0
 11
287.6573718705
 21
142.9241032992
 31
0.0
  0
LINE
  5
168
  8
0
  6
CONTINUOUS
 62
     7
 10
361.3058544316
 20
142.9240377341
 30
0.0
 11
361.3100863614
 21
142.9249079619
 31
0.0
  0
LINE
  5
169
  8
0
  6
CONTINUOUS
 62
     7
 10
287.7817667641
 20
132.682308713
 30
0.0
 11
287.7817667641
 21
131.8287701998
 31
0.0
  0
LINE
  5
16A
  8
0
  6
CONTINUOUS
 62
     7
 10
286.7817677178
 20
132.682308713
 30
0.0
 11
286.7817677178
 21
131.8287701998
 31
0.0
  0
LINE
  5
16B
  8
0
  6
CONTINUOUS
 62
     7
 10
361.1817694821
 20
132.682308713
 30
0.0
 11
361.1817694821
 21
131.8287701998
 31
0.0
  0
LINE
  5
16C
  8
0
  6
CONTINUOUS
 62
     7
 10
362.1817685284
 20
132.682308713
 30
0.0
 11
362.1817685284
 21
131.8287701998
 31
0.0
  0
LINE
  5
16D
  8
0
  6
CONTINUOUS
 62
     7
 10
287.7817667641
 20
131.8287701998
 30
0.0
 11
287.7817667641
 21
123.9743383322
 31
0.0
  0
LINE
  5
16E
  8
0
  6
CONTINUOUS
 62
     7
 10
286.7817677178
 20
131.8287701998
 30
0.0
 11
286.7817677178
 21
123.9743383322
 31
0.0
  0
LINE
  5
16F
  8
0
  6
CONTINUOUS
 62
     7
 10
361.1817694821
 20
131.8287701998
 30
0.0
 11
361.1817694821
 21
123.9743383322
 31
0.0
  0
LINE
  5
170
  8
0
  6
CONTINUOUS
 62
     7
 10
362.1817685284
 20
131.8287701998
 30
0.0
 11
362.1817685284
 21
123.9743383322
 31
0.0
  0
LINE
  5
171
  8
0
  6
CONTINUOUS
 62
     7
 10
361.1817694821
 20
123.9743383322
 30
0.0
 11
361.1817694821
 21
123.2092531119
 31
0.0
  0
LINE
  5
172
  8
0
  6
CONTINUOUS
 62
     7
 10
362.1817685284
 20
123.9743383322
 30
0.0
 11
362.1817685284
 21
123.2092531119
 31
0.0
  0
LINE
  5
173
  8
0
  6
CONTINUOUS
 62
     7
 10
361.1817694821
 20
121.2092550192
 30
0.0
 11
362.1817685284
 21
121.2092550192
 31
0.0
  0
LINE
  5
174
  8
0
  6
CONTINUOUS
 62
     7
 10
361.1817694821
 20
123.2092531119
 30
0.0
 11
361.1817694821
 21
121.2092550192
 31
0.0
  0
LINE
  5
175
  8
0
  6
CONTINUOUS
 62
     7
 10
362.1817685284
 20
123.2092531119
 30
0.0
 11
362.1817685284
 21
121.2092550192
 31
0.0
  0
LINE
  5
176
  8
0
  6
CONTINUOUS
 62
     7
 10
287.7817667641
 20
121.2092550192
 30
0.0
 11
286.7817677178
 21
121.2092550192
 31
0.0
  0
LINE
  5
177
  8
0
  6
CONTINUOUS
 62
     7
 10
287.7817667641
 20
123.2092531119
 30
0.0
 11
287.7817667641
 21
121.2092550192
 31
0.0
  0
LINE
  5
178
  8
0
  6
CONTINUOUS
 62
     7
 10
286.7817677178
 20
123.2092531119
 30
0.0
 11
286.7817677178
 21
121.2092550192
 31
0.0
  0
LINE
  5
179
  8
0
  6
CONTINUOUS
 62
     7
 10
287.7817667641
 20
123.9743383322
 30
0.0
 11
287.7817667641
 21
123.2092531119
 31
0.0
  0
LINE
  5
17A
  8
0
  6
CONTINUOUS
 62
     7
 10
286.7817677178
 20
123.9743383322
 30
0.0
 11
286.7817677178
 21
123.2092531119
 31
0.0
  0
LINE
  5
17B
  8
0
  6
CONTINUOUS
 62
     7
 10
366.981766335
 20
117.0092554484
 30
0.0
 11
366.981766335
 21
124.0092547331
 31
0.0
  0
ARC
  5
17C
  8
0
  6
CONTINUOUS
 62
     7
 10
364.981766335
 20
117.0092547331
 30
0.0
 40
2.0
 50
270.0
 51
0.0
  0
LINE
  5
17D
  8
0
  6
CONTINUOUS
 62
     7
 10
364.9817682423
 20
115.0092573557
 30
0.0
 11
358.9817620434
 21
115.0092573557
 31
0.0
  0
ARC
  5
17E
  8
0
  6
CONTINUOUS
 62
     7
 10
358.981766335
 20
117.0092547331
 30
0.0
 40
2.0
 50
180.0
 51
270.0
  0
CIRCLE
  5
17F
  8
0
  6
CONTINUOUS
 62
     7
 10
361.981766335
 20
118.4092547331
 30
0.0
 40
1.0
  0
LINE
  5
180
  8
0
  6
CONTINUOUS
 62
     7
 10
356.9817639508
 20
124.0092547331
 30
0.0
 11
356.9817639508
 21
117.0092554484
 31
0.0
  0
LINE
  5
181
  8
0
  6
CONTINUOUS
 62
     7
 10
361.1817694821
 20
125.0092537795
 30
0.0
 11
356.9817639508
 21
125.0092537795
 31
0.0
  0
LINE
  5
182
  8
0
  6
CONTINUOUS
 62
     7
 10
356.9817639508
 20
124.0092547331
 30
0.0
 11
356.9817639508
 21
125.0092537795
 31
0.0
  0
LINE
  5
183
  8
0
  6
CONTINUOUS
 62
     7
 10
366.981766335
 20
125.0092537795
 30
0.0
 11
362.1817685284
 21
125.0092537795
 31
0.0
  0
LINE
  5
184
  8
0
  6
CONTINUOUS
 62
     7
 10
366.981766335
 20
124.0092547331
 30
0.0
 11
366.981766335
 21
125.0092537795
 31
0.0
  0
LINE
  5
185
  8
0
  6
CONTINUOUS
 62
     7
 10
291.981766335
 20
117.0092554484
 30
0.0
 11
291.981766335
 21
124.0092547331
 31
0.0
  0
LINE
  5
186
  8
0
  6
CONTINUOUS
 62
     7
 10
289.9817682423
 20
115.0092573557
 30
0.0
 11
283.9817680039
 21
115.0092573557
 31
0.0
  0
ARC
  5
187
  8
0
  6
CONTINUOUS
 62
     7
 10
283.981766335
 20
117.0092547331
 30
0.0
 40
2.0
 50
180.0
 51
270.0
  0
CIRCLE
  5
188
  8
0
  6
CONTINUOUS
 62
     7
 10
286.981766335
 20
118.4092547331
 30
0.0
 40
1.0
  0
ARC
  5
189
  8
0
  6
CONTINUOUS
 62
     7
 10
289.981766335
 20
117.0092547331
 30
0.0
 40
2.0
 50
270.0
 51
0.0
  0
LINE
  5
18A
  8
0
  6
CONTINUOUS
 62
     7
 10
281.9817639508
 20
117.0092554484
 30
0.0
 11
281.9817639508
 21
124.0092547331
 31
0.0
  0
LINE
  5
18B
  8
0
  6
CONTINUOUS
 62
     7
 10
286.7817677178
 20
125.0092537795
 30
0.0
 11
281.9817639508
 21
125.0092537795
 31
0.0
  0
LINE
  5
18C
  8
0
  6
CONTINUOUS
 62
     7
 10
281.9817639508
 20
124.0092547331
 30
0.0
 11
281.9817639508
 21
125.0092537795
 31
0.0
  0
LINE
  5
18D
  8
0
  6
CONTINUOUS
 62
     7
 10
291.981766335
 20
125.0092537795
 30
0.0
 11
287.7817667641
 21
125.0092537795
 31
0.0
  0
LINE
  5
18E
  8
0
  6
CONTINUOUS
 62
     7
 10
291.981766335
 20
125.0092537795
 30
0.0
 11
291.981766335
 21
124.0092547331
 31
0.0
  0
LINE
  5
18F
  8
0
  6
CONTINUOUS
 62
     7
 10
62.3088337102
 20
50.2092547436
 30
0.0
 11
66.0674787678
 21
50.2092547436
 31
0.0
  0
LINE
  5
190
  8
0
  6
CONTINUOUS
 62
     7
 10
66.0674787678
 20
49.0092547331
 30
0.0
 11
62.3088337102
 21
49.0092547331
 31
0.0
  0
LINE
  5
191
  8
0
  6
CONTINUOUS
 62
     7
 10
72.8960491337
 20
50.2092547436
 30
0.0
 11
76.6546941914
 21
50.2092547436
 31
0.0
  0
LINE
  5
192
  8
0
  6
CONTINUOUS
 62
     7
 10
76.6546941914
 20
49.0092547331
 30
0.0
 11
72.8960491337
 21
49.0092547331
 31
0.0
  0
LINE
  5
193
  8
0
  6
CONTINUOUS
 62
     7
 10
66.0674787678
 20
50.2092547436
 30
0.0
 11
72.8960491337
 21
50.2092547436
 31
0.0
  0
LINE
  5
194
  8
0
  6
CONTINUOUS
 62
     7
 10
66.0674787678
 20
49.0092547331
 30
0.0
 11
72.8960491337
 21
49.0092547331
 31
0.0
  0
LINE
  5
195
  8
0
  6
CONTINUOUS
 62
     7
 10
332.3088384785
 20
50.2092547436
 30
0.0
 11
336.0674835362
 21
50.2092547436
 31
0.0
  0
LINE
  5
196
  8
0
  6
CONTINUOUS
 62
     7
 10
336.0674835362
 20
49.0092547331
 30
0.0
 11
332.3088384785
 21
49.0092547331
 31
0.0
  0
LINE
  5
197
  8
0
  6
CONTINUOUS
 62
     7
 10
342.8960539021
 20
50.2092547436
 30
0.0
 11
346.6546989598
 21
50.2092547436
 31
0.0
  0
LINE
  5
198
  8
0
  6
CONTINUOUS
 62
     7
 10
346.6546989598
 20
49.0092547331
 30
0.0
 11
342.8960539021
 21
49.0092547331
 31
0.0
  0
LINE
  5
199
  8
0
  6
CONTINUOUS
 62
     7
 10
336.0674835362
 20
50.2092547436
 30
0.0
 11
342.8960539021
 21
50.2092547436
 31
0.0
  0
LINE
  5
19A
  8
0
  6
CONTINUOUS
 62
     7
 10
336.0674835362
 20
49.0092547331
 30
0.0
 11
342.8960539021
 21
49.0092547331
 31
0.0
  0
LINE
  5
19B
  8
0
  6
CONTINUOUS
 62
     7
 10
81.4817644276
 20
49.0092547331
 30
0.0
 11
81.4817644276
 21
50.2092547436
 31
0.0
  0
LINE
  5
19C
  8
0
  6
CONTINUOUS
 62
     7
 10
81.4817644276
 20
50.2092547436
 30
0.0
 11
76.6546941914
 21
50.2092547436
 31
0.0
  0
LINE
  5
19D
  8
0
  6
CONTINUOUS
 62
     7
 10
76.6546941914
 20
49.0092547331
 30
0.0
 11
81.4817644276
 21
49.0092547331
 31
0.0
  0
LINE
  5
19E
  8
0
  6
CONTINUOUS
 62
     7
 10
57.481763474
 20
49.0092547331
 30
0.0
 11
57.481763474
 21
50.2092547436
 31
0.0
  0
LINE
  5
19F
  8
0
  6
CONTINUOUS
 62
     7
 10
62.3088337102
 20
50.2092547436
 30
0.0
 11
57.481763474
 21
50.2092547436
 31
0.0
  0
LINE
  5
1A0
  8
0
  6
CONTINUOUS
 62
     7
 10
57.481763474
 20
49.0092547331
 30
0.0
 11
62.3088337102
 21
49.0092547331
 31
0.0
  0
LINE
  5
1A1
  8
0
  6
CONTINUOUS
 62
     7
 10
327.4817682423
 20
49.0092547331
 30
0.0
 11
327.4817682423
 21
50.2092547436
 31
0.0
  0
LINE
  5
1A2
  8
0
  6
CONTINUOUS
 62
     7
 10
332.3088384785
 20
50.2092547436
 30
0.0
 11
327.4817682423
 21
50.2092547436
 31
0.0
  0
LINE
  5
1A3
  8
0
  6
CONTINUOUS
 62
     7
 10
327.4817682423
 20
49.0092547331
 30
0.0
 11
332.3088384785
 21
49.0092547331
 31
0.0
  0
LINE
  5
1A4
  8
0
  6
CONTINUOUS
 62
     7
 10
351.481769196
 20
49.0092547331
 30
0.0
 11
351.481769196
 21
50.2092547436
 31
0.0
  0
LINE
  5
1A5
  8
0
  6
CONTINUOUS
 62
     7
 10
351.481769196
 20
50.2092547436
 30
0.0
 11
346.6546989598
 21
50.2092547436
 31
0.0
  0
LINE
  5
1A6
  8
0
  6
CONTINUOUS
 62
     7
 10
346.6546989598
 20
49.0092547331
 30
0.0
 11
351.481769196
 21
49.0092547331
 31
0.0
  0
LINE
  5
1A7
  8
0
  6
CONTINUOUS
 62
     7
 10
64.4817687192
 20
50.2092547436
 30
0.0
 11
64.4817687192
 21
114.2092557345
 31
0.0
  0
POLYLINE
  5
1A8
  8
0
  6
CONTINUOUS
 62
     7
 66
     1
 10
0.0
 20
0.0
 30
0.0
  0
VERTEX
  5
4BF
  8
0
  6
CONTINUOUS
 62
     7
 10
64.4817687192
 20
114.2092557345
 30
0.0
  0
VERTEX
  5
4C0
  8
0
  6
CONTINUOUS
 62
     7
 10
64.5009852566
 20
114.228472272
 30
0.0
  0
VERTEX
  5
4C1
  8
0
  6
CONTINUOUS
 62
     7
 10
64.5578838505
 20
114.2853768263
 30
0.0
  0
VERTEX
  5
4C2
  8
0
  6
CONTINUOUS
 62
     7
 10
64.6502948918
 20
114.3777878676
 30
0.0
  0
VERTEX
  5
4C3
  8
0
  6
CONTINUOUS
 62
     7
 10
64.7746540227
 20
114.5021469985
 30
0.0
  0
VERTEX
  5
4C4
  8
0
  6
CONTINUOUS
 62
     7
 10
64.9261928715
 20
114.6536858473
 30
0.0
  0
VERTEX
  5
4C5
  8
0
  6
CONTINUOUS
 62
     7
 10
65.0990821042
 20
114.8265691195
 30
0.0
  0
VERTEX
  5
4C6
  8
0
  6
CONTINUOUS
 62
     7
 10
65.2866817631
 20
115.014162818
 30
0.0
  0
VERTEX
  5
4C7
  8
0
  6
CONTINUOUS
 62
     7
 10
65.4817677655
 20
115.2092547808
 30
0.0
  0
SEQEND
  5
8A8
  8
0
  6
CONTINUOUS
 62
     7
  0
LINE
  5
1A9
  8
0
  6
CONTINUOUS
 62
     7
 10
41.2817693867
 20
124.2092521582
 30
0.0
 11
41.981766335
 21
124.2092521582
 31
0.0
  0
LINE
  5
1AA
  8
0
  6
CONTINUOUS
 62
     7
 10
51.9817687192
 20
124.2092521582
 30
0.0
 11
66.4817668118
 21
124.2092521582
 31
0.0
  0
LINE
  5
1AB
  8
0
  6
CONTINUOUS
 62
     7
 10
102.4817682423
 20
124.2092521582
 30
0.0
 11
116.981766335
 21
124.2092521582
 31
0.0
  0
LINE
  5
1AC
  8
0
  6
CONTINUOUS
 62
     7
 10
126.9817687192
 20
124.2092521582
 30
0.0
 11
161.9817651429
 21
124.2092521582
 31
0.0
  0
LINE
  5
1AD
  8
0
  6
CONTINUOUS
 62
     7
 10
171.9817675271
 20
124.2092521582
 30
0.0
 11
186.4817656197
 21
124.2092521582
 31
0.0
  0
LINE
  5
1AE
  8
0
  6
CONTINUOUS
 62
     7
 10
222.4817670502
 20
124.2092521582
 30
0.0
 11
236.9817651429
 21
124.2092521582
 31
0.0
  0
LINE
  5
1AF
  8
0
  6
CONTINUOUS
 62
     7
 10
246.9817675271
 20
124.2092521582
 30
0.0
 11
281.9817639508
 21
124.2092521582
 31
0.0
  0
LINE
  5
1B0
  8
0
  6
CONTINUOUS
 62
     7
 10
291.981766335
 20
124.2092521582
 30
0.0
 11
306.4817644276
 21
124.2092521582
 31
0.0
  0
LINE
  5
1B1
  8
0
  6
CONTINUOUS
 62
     7
 10
342.4817658581
 20
124.2092521582
 30
0.0
 11
356.9817639508
 21
124.2092521582
 31
0.0
  0
LINE
  5
1B2
  8
0
  6
CONTINUOUS
 62
     7
 10
366.981766335
 20
124.2092521582
 30
0.0
 11
367.6817632832
 21
124.2092521582
 31
0.0
  0
LINE
  5
1B3
  8
0
  6
CONTINUOUS
 62
     7
 10
334.4817615666
 20
50.2092547436
 30
0.0
 11
334.4817615666
 21
114.0092523489
 31
0.0
  0
ARC
  5
1B4
  8
0
  6
CONTINUOUS
 62
     7
 10
367.681766335
 20
123.8092547331
 30
0.0
 40
0.4000000000000341
 50
0.0
 51
90.0
  0
LINE
  5
1B5
  8
0
  6
CONTINUOUS
 62
     7
 10
368.0817700543
 20
123.8092573081
 30
0.0
 11
368.0817700543
 21
123.2092531119
 31
0.0
  0
POLYLINE
  5
1B6
  8
0
  6
CONTINUOUS
 62
     7
 66
     1
 10
0.0
 20
0.0
 30
0.0
  0
VERTEX
  5
4C8
  8
0
  6
CONTINUOUS
 62
     7
 10
344.4817639508
 20
114.2092557345
 30
0.0
  0
VERTEX
  5
4C9
  8
0
  6
CONTINUOUS
 62
     7
 10
344.4625474133
 20
114.228472272
 30
0.0
  0
VERTEX
  5
4CA
  8
0
  6
CONTINUOUS
 62
     7
 10
344.4056488194
 20
114.2853768263
 30
0.0
  0
VERTEX
  5
4CB
  8
0
  6
CONTINUOUS
 62
     7
 10
344.3132377782
 20
114.3777878676
 30
0.0
  0
VERTEX
  5
4CC
  8
0
  6
CONTINUOUS
 62
     7
 10
344.1888786473
 20
114.5021469985
 30
0.0
  0
VERTEX
  5
4CD
  8
0
  6
CONTINUOUS
 62
     7
 10
344.0373397984
 20
114.6536858473
 30
0.0
  0
VERTEX
  5
4CE
  8
0
  6
CONTINUOUS
 62
     7
 10
343.8644505658
 20
114.8265691195
 30
0.0
  0
VERTEX
  5
4CF
  8
0
  6
CONTINUOUS
 62
     7
 10
343.6768509068
 20
115.014162818
 30
0.0
  0
VERTEX
  5
4D0
  8
0
  6
CONTINUOUS
 62
     7
 10
343.4817649045
 20
115.2092547808
 30
0.0
  0
SEQEND
  5
8A7
  8
0
  6
CONTINUOUS
 62
     7
  0
LINE
  5
1B7
  8
0
  6
CONTINUOUS
 62
     7
 10
344.4817639508
 20
114.2092557345
 30
0.0
 11
344.4817639508
 21
50.2092547436
 31
0.0
  0
LINE
  5
1B8
  8
0
  6
CONTINUOUS
 62
     7
 10
308.4047294774
 20
114.2092557345
 30
0.0
 11
220.5587990203
 21
114.2092557345
 31
0.0
  0
LINE
  5
1B9
  8
0
  6
CONTINUOUS
 62
     7
 10
188.4047336497
 20
114.2092557345
 30
0.0
 11
100.5588031926
 21
114.2092557345
 31
0.0
  0
LINE
  5
1BA
  8
0
  6
CONTINUOUS
 62
     7
 10
367.6817632832
 20
114.2092557345
 30
0.0
 11
344.4817639508
 21
114.2092557345
 31
0.0
  0
LINE
  5
1BB
  8
0
  6
CONTINUOUS
 62
     7
 10
368.0817700543
 20
115.2092547808
 30
0.0
 11
368.0817700543
 21
114.6092565451
 31
0.0
  0
ARC
  5
1BC
  8
0
  6
CONTINUOUS
 62
     7
 10
367.681766335
 20
114.6092547331
 30
0.0
 40
0.4000000000000341
 50
270.0
 51
0.0
  0
LINE
  5
1BD
  8
0
  6
CONTINUOUS
 62
     7
 10
74.4817711033
 20
114.0092523489
 30
0.0
 11
74.4817711033
 21
50.2092547436
 31
0.0
  0
LINE
  5
1BE
  8
0
  6
CONTINUOUS
 62
     7
 10
40.8817626156
 20
115.2092547808
 30
0.0
 11
40.8817626156
 21
123.2092531119
 31
0.0
  0
LINE
  5
1BF
  8
0
  6
CONTINUOUS
 62
     7
 10
40.8817626156
 20
114.6092565451
 30
0.0
 11
40.8817626156
 21
115.2092547808
 31
0.0
  0
ARC
  5
1C0
  8
0
  6
CONTINUOUS
 62
     7
 10
41.281766335
 20
114.6092547331
 30
0.0
 40
0.4000000000000057
 50
180.0
 51
270.0
  0
LINE
  5
1C1
  8
0
  6
CONTINUOUS
 62
     7
 10
368.0817700543
 20
123.2092531119
 30
0.0
 11
368.0817700543
 21
115.2092547808
 31
0.0
  0
LINE
  5
1C2
  8
0
  6
CONTINUOUS
 62
     7
 10
40.8817626156
 20
123.2092531119
 30
0.0
 11
40.8817626156
 21
123.8092573081
 31
0.0
  0
ARC
  5
1C3
  8
0
  6
CONTINUOUS
 62
     7
 10
41.281766335
 20
123.8092547331
 30
0.0
 40
0.3999999999999915
 50
90.0
 51
180.0
  0
LINE
  5
1C4
  8
0
  6
CONTINUOUS
 62
     7
 10
64.4817687192
 20
114.2092557345
 30
0.0
 11
41.2817693867
 21
114.2092557345
 31
0.0
  0
POLYLINE
  5
1C5
  8
0
  6
CONTINUOUS
 62
     7
 66
     1
 10
0.0
 20
0.0
 30
0.0
  0
VERTEX
  5
4D1
  8
0
  6
CONTINUOUS
 62
     7
 10
485.2436881549
 20
220.4277308379
 30
0.0
  0
VERTEX
  5
4D2
  8
0
  6
CONTINUOUS
 62
     7
 10
485.1495873219
 20
221.16768674
 30
0.0
  0
VERTEX
  5
4D3
  8
0
  6
CONTINUOUS
 62
     7
 10
485.0207772142
 20
222.0762761031
 30
0.0
  0
VERTEX
  5
4D4
  8
0
  6
CONTINUOUS
 62
     7
 10
484.8795529491
 20
222.9775579367
 30
0.0
  0
VERTEX
  5
4D5
  8
0
  6
CONTINUOUS
 62
     7
 10
484.7267340905
 20
223.8657029067
 30
0.0
  0
VERTEX
  5
4D6
  8
0
  6
CONTINUOUS
 62
     7
 10
484.5651876218
 20
224.7265251074
 30
0.0
  0
VERTEX
  5
4D7
  8
0
  6
CONTINUOUS
 62
     7
 10
484.3940909988
 20
225.5674274359
 30
0.0
  0
VERTEX
  5
4D8
  8
0
  6
CONTINUOUS
 62
     7
 10
484.2139538414
 20
226.3869913016
 30
0.0
  0
VERTEX
  5
4D9
  8
0
  6
CONTINUOUS
 62
     7
 10
484.0257402546
 20
227.1814020071
 30
0.0
  0
VERTEX
  5
4DA
  8
0
  6
CONTINUOUS
 62
     7
 10
483.8303726203
 20
227.9470475111
 30
0.0
  0
VERTEX
  5
4DB
  8
0
  6
CONTINUOUS
 62
     7
 10
483.6286451704
 20
228.6806972418
 30
0.0
  0
VERTEX
  5
4DC
  8
0
  6
CONTINUOUS
 62
     7
 10
483.421085406
 20
229.3797762785
 30
0.0
  0
VERTEX
  5
4DD
  8
0
  6
CONTINUOUS
 62
     7
 10
483.2079436666
 20
230.0421030913
 30
0.0
  0
VERTEX
  5
4DE
  8
0
  6
CONTINUOUS
 62
     7
 10
482.9921226985
 20
230.6584866438
 30
0.0
  0
VERTEX
  5
4DF
  8
0
  6
CONTINUOUS
 62
     7
 10
482.7686052806
 20
231.2417776976
 30
0.0
  0
VERTEX
  5
4E0
  8
0
  6
CONTINUOUS
 62
     7
 10
482.5315859205
 20
231.8005950842
 30
0.0
  0
VERTEX
  5
4E1
  8
0
  6
CONTINUOUS
 62
     7
 10
482.2718303687
 20
232.3431880866
 30
0.0
  0
VERTEX
  5
4E2
  8
0
  6
CONTINUOUS
 62
     7
 10
481.9647084958
 20
232.8915985022
 30
0.0
  0
VERTEX
  5
4E3
  8
0
  6
CONTINUOUS
 62
     7
 10
481.7129459268
 20
233.2686098013
 30
0.0
  0
VERTEX
  5
4E4
  8
0
  6
CONTINUOUS
 62
     7
 10
481.4594369418
 20
233.5876973067
 30
0.0
  0
VERTEX
  5
4E5
  8
0
  6
CONTINUOUS
 62
     7
 10
481.2108244783
 20
233.8490159903
 30
0.0
  0
VERTEX
  5
4E6
  8
0
  6
CONTINUOUS
 62
     7
 10
480.9421118385
 20
234.0826781188
 30
0.0
  0
VERTEX
  5
4E7
  8
0
  6
CONTINUOUS
 62
     7
 10
480.6475859172
 20
234.2894823943
 30
0.0
  0
VERTEX
  5
4E8
  8
0
  6
CONTINUOUS
 62
     7
 10
480.3228255398
 20
234.4668062125
 30
0.0
  0
VERTEX
  5
4E9
  8
0
  6
CONTINUOUS
 62
     7
 10
479.9680810458
 20
234.6080692206
 30
0.0
  0
VERTEX
  5
4EA
  8
0
  6
CONTINUOUS
 62
     7
 10
479.5881655104
 20
234.7054632102
 30
0.0
  0
VERTEX
  5
4EB
  8
0
  6
CONTINUOUS
 62
     7
 10
479.1911255605
 20
234.7523601447
 30
0.0
  0
VERTEX
  5
4EC
  8
0
  6
CONTINUOUS
 62
     7
 10
478.7426512725
 20
234.7402484808
 30
0.0
  0
VERTEX
  5
4ED
  8
0
  6
CONTINUOUS
 62
     7
 10
478.6896925456
 20
234.7306759749
 30
0.0
  0
SEQEND
  5
8A6
  8
0
  6
CONTINUOUS
 62
     7
  0
POLYLINE
  5
1C6
  8
0
  6
CONTINUOUS
 62
     7
 66
     1
 10
0.0
 20
0.0
 30
0.0
  0
VERTEX
  5
4EE
  8
0
  6
CONTINUOUS
 62
     7
 10
487.2209373898
 20
165.2643235121
 30
0.0
  0
VERTEX
  5
4EF
  8
0
  6
CONTINUOUS
 62
     7
 10
487.4876242167
 20
165.3024585638
 30
0.0
  0
VERTEX
  5
4F0
  8
0
  6
CONTINUOUS
 62
     7
 10
487.8833059258
 20
165.4187472258
 30
0.0
  0
VERTEX
  5
4F1
  8
0
  6
CONTINUOUS
 62
     7
 10
488.2449623234
 20
165.5816109572
 30
0.0
  0
VERTEX
  5
4F2
  8
0
  6
CONTINUOUS
 62
     7
 10
488.5689910538
 20
165.7817037497
 30
0.0
  0
VERTEX
  5
4F3
  8
0
  6
CONTINUOUS
 62
     7
 10
488.8539332933
 20
166.0098822508
 30
0.0
  0
VERTEX
  5
4F4
  8
0
  6
CONTINUOUS
 62
     7
 10
489.1008351034
 20
166.2582905684
 30
0.0
  0
VERTEX
  5
4F5
  8
0
  6
CONTINUOUS
 62
     7
 10
489.3134322054
 20
166.5220768843
 30
0.0
  0
VERTEX
  5
4F6
  8
0
  6
CONTINUOUS
 62
     7
 10
489.4976850635
 20
166.8011815939
 30
0.0
  0
VERTEX
  5
4F7
  8
0
  6
CONTINUOUS
 62
     7
 10
489.6610524542
 20
167.1024830733
 30
0.0
  0
VERTEX
  5
4F8
  8
0
  6
CONTINUOUS
 62
     7
 10
489.812706787
 20
167.4454481993
 30
0.0
  0
VERTEX
  5
4F9
  8
0
  6
CONTINUOUS
 62
     7
 10
489.9567965454
 20
167.8514631186
 30
0.0
  0
VERTEX
  5
4FA
  8
0
  6
CONTINUOUS
 62
     7
 10
490.104224909
 20
168.3850558196
 30
0.0
  0
VERTEX
  5
4FB
  8
0
  6
CONTINUOUS
 62
     7
 10
490.2293067462
 20
168.9792187605
 30
0.0
  0
VERTEX
  5
4FC
  8
0
  6
CONTINUOUS
 62
     7
 10
490.3249297327
 20
169.5702345763
 30
0.0
  0
VERTEX
  5
4FD
  8
0
  6
CONTINUOUS
 62
     7
 10
490.4078807718
 20
170.2408702765
 30
0.0
  0
VERTEX
  5
4FE
  8
0
  6
CONTINUOUS
 62
     7
 10
490.4711063988
 20
170.9278614912
 30
0.0
  0
VERTEX
  5
4FF
  8
0
  6
CONTINUOUS
 62
     7
 10
490.5179288275
 20
171.6391594801
 30
0.0
  0
VERTEX
  5
500
  8
0
  6
CONTINUOUS
 62
     7
 10
490.5488941855
 20
172.3606498633
 30
0.0
  0
VERTEX
  5
501
  8
0
  6
CONTINUOUS
 62
     7
 10
490.5663382298
 20
173.1319578085
 30
0.0
  0
VERTEX
  5
502
  8
0
  6
CONTINUOUS
 62
     7
 10
490.5696284062
 20
173.9349754248
 30
0.0
  0
VERTEX
  5
503
  8
0
  6
CONTINUOUS
 62
     7
 10
490.5587788708
 20
174.7660787497
 30
0.0
  0
VERTEX
  5
504
  8
0
  6
CONTINUOUS
 62
     7
 10
490.5337419397
 20
175.6203205977
 30
0.0
  0
VERTEX
  5
505
  8
0
  6
CONTINUOUS
 62
     7
 10
490.4945064372
 20
176.491955081
 30
0.0
  0
VERTEX
  5
506
  8
0
  6
CONTINUOUS
 62
     7
 10
490.4411423988
 20
177.3747594748
 30
0.0
  0
VERTEX
  5
507
  8
0
  6
CONTINUOUS
 62
     7
 10
490.3738822824
 20
178.2621057425
 30
0.0
  0
VERTEX
  5
508
  8
0
  6
CONTINUOUS
 62
     7
 10
490.2928050644
 20
179.1554601584
 30
0.0
  0
VERTEX
  5
509
  8
0
  6
CONTINUOUS
 62
     7
 10
490.1969123668
 20
180.0658257399
 30
0.0
  0
VERTEX
  5
50A
  8
0
  6
CONTINUOUS
 62
     7
 10
490.1178840584
 20
180.7256253157
 30
0.0
  0
SEQEND
  5
8A5
  8
0
  6
CONTINUOUS
 62
     7
  0
LINE
  5
1C7
  8
0
  6
CONTINUOUS
 62
     7
 10
490.1199992782
 20
180.7259591017
 30
0.0
 11
485.2452259547
 21
220.4278142844
 31
0.0
  0
POLYLINE
  5
1C8
  8
0
  6
CONTINUOUS
 62
     7
 66
     1
 10
0.0
 20
0.0
 30
0.0
  0
VERTEX
  5
50B
  8
0
  6
CONTINUOUS
 62
     7
 10
484.7785469181
 20
180.0702484045
 30
0.0
  0
VERTEX
  5
50C
  8
0
  6
CONTINUOUS
 62
     7
 10
484.8636981136
 20
179.347315589
 30
0.0
  0
VERTEX
  5
50D
  8
0
  6
CONTINUOUS
 62
     7
 10
484.9500741846
 20
178.5109432135
 30
0.0
  0
VERTEX
  5
50E
  8
0
  6
CONTINUOUS
 62
     7
 10
485.0232224948
 20
177.6844056044
 30
0.0
  0
VERTEX
  5
50F
  8
0
  6
CONTINUOUS
 62
     7
 10
485.0826334245
 20
176.873687068
 30
0.0
  0
VERTEX
  5
510
  8
0
  6
CONTINUOUS
 62
     7
 10
485.1283770091
 20
176.0843427573
 30
0.0
  0
VERTEX
  5
511
  8
0
  6
CONTINUOUS
 62
     7
 10
485.1614650375
 20
175.309351245
 30
0.0
  0
VERTEX
  5
512
  8
0
  6
CONTINUOUS
 62
     7
 10
485.1819705254
 20
174.5539100562
 30
0.0
  0
VERTEX
  5
513
  8
0
  6
CONTINUOUS
 62
     7
 10
485.1899873502
 20
173.8270314131
 30
0.0
  0
VERTEX
  5
514
  8
0
  6
CONTINUOUS
 62
     7
 10
485.1859103925
 20
173.1389911566
 30
0.0
  0
VERTEX
  5
515
  8
0
  6
CONTINUOUS
 62
     7
 10
485.170505572
 20
172.4983604346
 30
0.0
  0
VERTEX
  5
516
  8
0
  6
CONTINUOUS
 62
     7
 10
485.1448830253
 20
171.9131739531
 30
0.0
  0
VERTEX
  5
517
  8
0
  6
CONTINUOUS
 62
     7
 10
485.1105090267
 20
171.3864000235
 30
0.0
  0
VERTEX
  5
518
  8
0
  6
CONTINUOUS
 62
     7
 10
485.0674580819
 20
170.9001214896
 30
0.0
  0
VERTEX
  5
519
  8
0
  6
CONTINUOUS
 62
     7
 10
485.0186761505
 20
170.476034442
 30
0.0
  0
VERTEX
  5
51A
  8
0
  6
CONTINUOUS
 62
     7
 10
484.9665518886
 20
170.1175125037
 30
0.0
  0
VERTEX
  5
51B
  8
0
  6
CONTINUOUS
 62
     7
 10
484.914622832
 20
169.8304088507
 30
0.0
  0
VERTEX
  5
51C
  8
0
  6
CONTINUOUS
 62
     7
 10
484.8725896365
 20
169.6398408804
 30
0.0
  0
VERTEX
  5
51D
  8
0
  6
CONTINUOUS
 62
     7
 10
484.8391752726
 20
169.5132763777
 30
0.0
  0
VERTEX
  5
51E
  8
0
  6
CONTINUOUS
 62
     7
 10
484.8184537179
 20
169.4471748267
 30
0.0
  0
VERTEX
  5
51F
  8
0
  6
CONTINUOUS
 62
     7
 10
484.8155330903
 20
169.4389136229
 30
0.0
  0
SEQEND
  5
8A4
  8
0
  6
CONTINUOUS
 62
     7
  0
POLYLINE
  5
1C9
  8
0
  6
CONTINUOUS
 62
     7
 66
     1
 10
0.0
 20
0.0
 30
0.0
  0
VERTEX
  5
520
  8
0
  6
CONTINUOUS
 62
     7
 10
477.3657675869
 20
230.0989540015
 30
0.0
  0
VERTEX
  5
521
  8
0
  6
CONTINUOUS
 62
     7
 10
477.3644920475
 20
230.100551406
 30
0.0
  0
VERTEX
  5
522
  8
0
  6
CONTINUOUS
 62
     7
 10
477.3898389227
 20
230.0603897963
 30
0.0
  0
VERTEX
  5
523
  8
0
  6
CONTINUOUS
 62
     7
 10
477.4417828805
 20
229.96932582
 30
0.0
  0
VERTEX
  5
524
  8
0
  6
CONTINUOUS
 62
     7
 10
477.5187369472
 20
229.8203976546
 30
0.0
  0
VERTEX
  5
525
  8
0
  6
CONTINUOUS
 62
     7
 10
477.6185195929
 20
229.6082528029
 30
0.0
  0
VERTEX
  5
526
  8
0
  6
CONTINUOUS
 62
     7
 10
477.7381803877
 20
229.3300540839
 30
0.0
  0
VERTEX
  5
527
  8
0
  6
CONTINUOUS
 62
     7
 10
477.874159444
 20
228.9858372603
 30
0.0
  0
VERTEX
  5
528
  8
0
  6
CONTINUOUS
 62
     7
 10
478.0225854403
 20
228.5782010947
 30
0.0
  0
VERTEX
  5
529
  8
0
  6
CONTINUOUS
 62
     7
 10
478.1795766241
 20
228.1117828284
 30
0.0
  0
VERTEX
  5
52A
  8
0
  6
CONTINUOUS
 62
     7
 10
478.3415835387
 20
227.592185298
 30
0.0
  0
VERTEX
  5
52B
  8
0
  6
CONTINUOUS
 62
     7
 10
478.5055186636
 20
227.0261557494
 30
0.0
  0
VERTEX
  5
52C
  8
0
  6
CONTINUOUS
 62
     7
 10
478.6719735748
 20
226.4085085783
 30
0.0
  0
VERTEX
  5
52D
  8
0
  6
CONTINUOUS
 62
     7
 10
478.8384910709
 20
225.7445366774
 30
0.0
  0
VERTEX
  5
52E
  8
0
  6
CONTINUOUS
 62
     7
 10
479.0028583295
 20
225.0396283064
 30
0.0
  0
VERTEX
  5
52F
  8
0
  6
CONTINUOUS
 62
     7
 10
479.1630085594
 20
224.2994339858
 30
0.0
  0
VERTEX
  5
530
  8
0
  6
CONTINUOUS
 62
     7
 10
479.3170269615
 20
223.5298068915
 30
0.0
  0
VERTEX
  5
531
  8
0
  6
CONTINUOUS
 62
     7
 10
479.4631373174
 20
222.736886302
 30
0.0
  0
VERTEX
  5
532
  8
0
  6
CONTINUOUS
 62
     7
 10
479.5996066219
 20
221.9277770911
 30
0.0
  0
VERTEX
  5
533
  8
0
  6
CONTINUOUS
 62
     7
 10
479.7251384742
 20
221.1098940764
 30
0.0
  0
VERTEX
  5
534
  8
0
  6
CONTINUOUS
 62
     7
 10
479.8402529246
 20
220.2801378165
 30
0.0
  0
VERTEX
  5
535
  8
0
  6
CONTINUOUS
 62
     7
 10
479.9033861644
 20
219.7718770895
 30
0.0
  0
SEQEND
  5
8A3
  8
0
  6
CONTINUOUS
 62
     7
  0
LINE
  5
1CA
  8
0
  6
CONTINUOUS
 62
     7
 10
479.9053277857
 20
219.7721512709
 30
0.0
 11
484.7801011092
 21
180.0703080092
 31
0.0
  0
LINE
  5
1CB
  8
0
  6
CONTINUOUS
 62
     7
 10
479.3879251963
 20
223.1450589095
 30
0.0
 11
485.0945185906
 21
176.6685755644
 31
0.0
  0
ARC
  5
1CC
  8
0
  6
CONTINUOUS
 62
     7
 10
477.3108416951
 20
231.8560363853
 30
0.0
 40
2.69000000000001
 50
208.5742842993
 51
277.0
  0
ARC
  5
1CD
  8
0
  6
CONTINUOUS
 62
     7
 10
477.3108416951
 20
231.8560363853
 30
0.0
 40
2.690000000000031
 50
97.0
 51
165.4352045702
  0
ARC
  5
1CE
  8
0
  6
CONTINUOUS
 62
     7
 10
485.1860386659
 20
167.7177040662
 30
0.0
 40
2.690000000000041
 50
208.5742842993
 51
277.0
  0
ARC
  5
1CF
  8
0
  6
CONTINUOUS
 62
     7
 10
485.1860386659
 20
167.7177040662
 30
0.0
 40
2.69000000000001
 50
97.0
 51
165.4352045702
  0
LINE
  5
1D0
  8
0
  6
CONTINUOUS
 62
     7
 10
474.4074191934
 20
230.4920347128
 30
0.0
 11
474.9499883539
 21
230.5586488638
 31
0.0
  0
LINE
  5
1D1
  8
0
  6
CONTINUOUS
 62
     7
 10
474.7062500603
 20
232.5437457953
 30
0.0
 11
474.1636808998
 21
232.4771197234
 31
0.0
  0
LINE
  5
1D2
  8
0
  6
CONTINUOUS
 62
     7
 10
482.2826158292
 20
166.3536937628
 30
0.0
 11
482.8251864797
 21
166.4203198348
 31
0.0
  0
LINE
  5
1D3
  8
0
  6
CONTINUOUS
 62
     7
 10
482.581446696
 20
168.4054048453
 30
0.0
 11
482.0388775355
 21
168.3387906943
 31
0.0
  0
POLYLINE
  5
1D4
  8
0
  6
CONTINUOUS
 62
     7
 66
     1
 10
0.0
 20
0.0
 30
0.0
  0
VERTEX
  5
536
  8
0
  6
CONTINUOUS
 62
     7
 10
579.7006290442
 20
138.21800665
 30
0.0
  0
VERTEX
  5
537
  8
0
  6
CONTINUOUS
 62
     7
 10
579.6952765471
 20
138.4873540793
 30
0.0
  0
VERTEX
  5
538
  8
0
  6
CONTINUOUS
 62
     7
 10
579.6280782706
 20
138.8942571078
 30
0.0
  0
VERTEX
  5
539
  8
0
  6
CONTINUOUS
 62
     7
 10
579.5104961879
 20
139.2730625067
 30
0.0
  0
VERTEX
  5
53A
  8
0
  6
CONTINUOUS
 62
     7
 10
579.3513935096
 20
139.6190615092
 30
0.0
  0
VERTEX
  5
53B
  8
0
  6
CONTINUOUS
 62
     7
 10
579.1596394069
 20
139.9296911154
 30
0.0
  0
VERTEX
  5
53C
  8
0
  6
CONTINUOUS
 62
     7
 10
578.943167258
 20
140.205022851
 30
0.0
  0
VERTEX
  5
53D
  8
0
  6
CONTINUOUS
 62
     7
 10
578.7072639949
 20
140.4481859599
 30
0.0
  0
VERTEX
  5
53E
  8
0
  6
CONTINUOUS
 62
     7
 10
578.452692557
 20
140.6650753413
 30
0.0
  0
VERTEX
  5
53F
  8
0
  6
CONTINUOUS
 62
     7
 10
578.1735520846
 20
140.8639462386
 30
0.0
  0
VERTEX
  5
540
  8
0
  6
CONTINUOUS
 62
     7
 10
577.8516214377
 20
141.0562665854
 30
0.0
  0
VERTEX
  5
541
  8
0
  6
CONTINUOUS
 62
     7
 10
577.4661880023
 20
141.2487657462
 30
0.0
  0
VERTEX
  5
542
  8
0
  6
CONTINUOUS
 62
     7
 10
576.9545417315
 20
141.4601238165
 30
0.0
  0
VERTEX
  5
543
  8
0
  6
CONTINUOUS
 62
     7
 10
576.3800542838
 20
141.6566820536
 30
0.0
  0
VERTEX
  5
544
  8
0
  6
CONTINUOUS
 62
     7
 10
575.8051019198
 20
141.8236167822
 30
0.0
  0
VERTEX
  5
545
  8
0
  6
CONTINUOUS
 62
     7
 10
575.1495640761
 20
141.9876845274
 30
0.0
  0
VERTEX
  5
546
  8
0
  6
CONTINUOUS
 62
     7
 10
574.4754057414
 20
142.1341569815
 30
0.0
  0
VERTEX
  5
547
  8
0
  6
CONTINUOUS
 62
     7
 10
573.7751107699
 20
142.2673197184
 30
0.0
  0
VERTEX
  5
548
  8
0
  6
CONTINUOUS
 62
     7
 10
573.0627756602
 20
142.3859806452
 30
0.0
  0
VERTEX
  5
549
  8
0
  6
CONTINUOUS
 62
     7
 10
572.2993414885
 20
142.4972923193
 30
0.0
  0
VERTEX
  5
54A
  8
0
  6
CONTINUOUS
 62
     7
 10
571.5027134902
 20
142.5984235201
 30
0.0
  0
VERTEX
  5
54B
  8
0
  6
CONTINUOUS
 62
     7
 10
570.6764858252
 20
142.6889391337
 30
0.0
  0
VERTEX
  5
54C
  8
0
  6
CONTINUOUS
 62
     7
 10
569.8255460746
 20
142.7681954298
 30
0.0
  0
VERTEX
  5
54D
  8
0
  6
CONTINUOUS
 62
     7
 10
568.9556401259
 20
142.8354771529
 30
0.0
  0
VERTEX
  5
54E
  8
0
  6
CONTINUOUS
 62
     7
 10
568.0729012973
 20
142.8900988493
 30
0.0
  0
VERTEX
  5
54F
  8
0
  6
CONTINUOUS
 62
     7
 10
567.1839814669
 20
142.9314763937
 30
0.0
  0
VERTEX
  5
550
  8
0
  6
CONTINUOUS
 62
     7
 10
566.2874024398
 20
142.959878007
 30
0.0
  0
VERTEX
  5
551
  8
0
  6
CONTINUOUS
 62
     7
 10
565.372131396
 20
142.975649396
 30
0.0
  0
VERTEX
  5
552
  8
0
  6
CONTINUOUS
 62
     7
 10
564.7076170928
 20
142.9776163493
 30
0.0
  0
SEQEND
  5
8A2
  8
0
  6
CONTINUOUS
 62
     7
  0
ARC
  5
1D5
  8
0
  6
CONTINUOUS
 62
     7
 10
524.4089468475
 20
87.8247745888
 30
0.0
 40
55.15425742299847
 50
89.689920985
 51
97.9477118465
  0
LINE
  5
1D6
  8
0
  6
CONTINUOUS
 62
     7
 10
564.7075455672
 20
142.979756156
 30
0.0
 11
524.7075449712
 21
142.979756156
 31
0.0
  0
POLYLINE
  5
1D7
  8
0
  6
CONTINUOUS
 62
     7
 66
     1
 10
0.0
 20
0.0
 30
0.0
  0
VERTEX
  5
553
  8
0
  6
CONTINUOUS
 62
     7
 10
564.707414437
 20
137.5982077513
 30
0.0
  0
VERTEX
  5
554
  8
0
  6
CONTINUOUS
 62
     7
 10
565.4353361613
 20
137.5946195517
 30
0.0
  0
VERTEX
  5
555
  8
0
  6
CONTINUOUS
 62
     7
 10
566.2760060317
 20
137.5784249697
 30
0.0
  0
VERTEX
  5
556
  8
0
  6
CONTINUOUS
 62
     7
 10
567.1052914149
 20
137.5502975378
 30
0.0
  0
VERTEX
  5
557
  8
0
  6
CONTINUOUS
 62
     7
 10
567.9172080047
 20
137.5104637537
 30
0.0
  0
VERTEX
  5
558
  8
0
  6
CONTINUOUS
 62
     7
 10
568.7062423713
 20
137.4596686755
 30
0.0
  0
VERTEX
  5
559
  8
0
  6
CONTINUOUS
 62
     7
 10
569.4794874675
 20
137.3980672751
 30
0.0
  0
VERTEX
  5
55A
  8
0
  6
CONTINUOUS
 62
     7
 10
570.2317994124
 20
137.3263509665
 30
0.0
  0
VERTEX
  5
55B
  8
0
  6
CONTINUOUS
 62
     7
 10
570.9542375094
 20
137.2457237635
 30
0.0
  0
VERTEX
  5
55C
  8
0
  6
CONTINUOUS
 62
     7
 10
571.6366570479
 20
137.1578247939
 30
0.0
  0
VERTEX
  5
55D
  8
0
  6
CONTINUOUS
 62
     7
 10
572.2706239707
 20
137.0644660387
 30
0.0
  0
VERTEX
  5
55E
  8
0
  6
CONTINUOUS
 62
     7
 10
572.8483300692
 20
136.9677157793
 30
0.0
  0
VERTEX
  5
55F
  8
0
  6
CONTINUOUS
 62
     7
 10
573.3669918067
 20
136.8693979178
 30
0.0
  0
VERTEX
  5
560
  8
0
  6
CONTINUOUS
 62
     7
 10
573.8443892485
 20
136.7674084101
 30
0.0
  0
VERTEX
  5
561
  8
0
  6
CONTINUOUS
 62
     7
 10
574.2593746669
 20
136.6673083697
 30
0.0
  0
VERTEX
  5
562
  8
0
  6
CONTINUOUS
 62
     7
 10
574.608872462
 20
136.5718753729
 30
0.0
  0
VERTEX
  5
563
  8
0
  6
CONTINUOUS
 62
     7
 10
574.8875122554
 20
136.4853473101
 30
0.0
  0
VERTEX
  5
564
  8
0
  6
CONTINUOUS
 62
     7
 10
575.0715356356
 20
136.4204020892
 30
0.0
  0
VERTEX
  5
565
  8
0
  6
CONTINUOUS
 62
     7
 10
575.1930814273
 20
136.3718123827
 30
0.0
  0
VERTEX
  5
566
  8
0
  6
CONTINUOUS
 62
     7
 10
575.2561610228
 20
136.3431902323
 30
0.0
  0
VERTEX
  5
567
  8
0
  6
CONTINUOUS
 62
     7
 10
575.2640109546
 20
136.3392861281
 30
0.0
  0
SEQEND
  5
8A1
  8
0
  6
CONTINUOUS
 62
     7
  0
LINE
  5
1D8
  8
0
  6
CONTINUOUS
 62
     7
 10
535.7075434214
 20
137.5997574721
 30
0.0
 11
564.7075455672
 21
137.5997574721
 31
0.0
  0
LINE
  5
1D9
  8
0
  6
CONTINUOUS
 62
     7
 10
535.7075434214
 20
137.4972672854
 30
0.0
 11
568.1222360617
 21
137.4972672854
 31
0.0
  0
ARC
  5
1DA
  8
0
  6
CONTINUOUS
 62
     7
 10
577.0175442321
 20
136.4972660077
 30
0.0
 40
2.689999999999998
 50
180.0
 51
270.0
  0
ARC
  5
1DB
  8
0
  6
CONTINUOUS
 62
     7
 10
577.0175442321
 20
136.4972660077
 30
0.0
 40
2.690000000000026
 50
270.0
 51
0.0
  0
POLYLINE
  5
1DC
  8
0
  6
CONTINUOUS
 62
     7
 66
     1
 10
0.0
 20
0.0
 30
0.0
  0
VERTEX
  5
568
  8
0
  6
CONTINUOUS
 62
     7
 10
477.6386704332
 20
229.1860850249
 30
0.0
  0
VERTEX
  5
569
  8
0
  6
CONTINUOUS
 62
     7
 10
477.6735197789
 20
229.1903646384
 30
0.0
  0
VERTEX
  5
56A
  8
0
  6
CONTINUOUS
 62
     7
 10
477.7540635354
 20
229.2002590094
 30
0.0
  0
SEQEND
  5
8A0
  8
0
  6
CONTINUOUS
 62
     7
  0
POLYLINE
  5
1DD
  8
0
  6
CONTINUOUS
 62
     7
 66
     1
 10
0.0
 20
0.0
 30
0.0
  0
VERTEX
  5
56B
  8
0
  6
CONTINUOUS
 62
     7
 10
474.9486532099
 20
230.5692823325
 30
0.0
  0
VERTEX
  5
56C
  8
0
  6
CONTINUOUS
 62
     7
 10
474.9522011763
 20
230.5626662169
 30
0.0
  0
VERTEX
  5
56D
  8
0
  6
CONTINUOUS
 62
     7
 10
474.9148111827
 20
230.6341083441
 30
0.0
  0
VERTEX
  5
56E
  8
0
  6
CONTINUOUS
 62
     7
 10
474.8406481034
 20
230.7938130293
 30
0.0
  0
VERTEX
  5
56F
  8
0
  6
CONTINUOUS
 62
     7
 10
474.7482966668
 20
231.0443313513
 30
0.0
  0
VERTEX
  5
570
  8
0
  6
CONTINUOUS
 62
     7
 10
474.669520188
 20
231.360343257
 30
0.0
  0
VERTEX
  5
571
  8
0
  6
CONTINUOUS
 62
     7
 10
474.6435221321
 20
231.5285356436
 30
0.0
  0
SEQEND
  5
89F
  8
0
  6
CONTINUOUS
 62
     7
  0
POLYLINE
  5
1DE
  8
0
  6
CONTINUOUS
 62
     7
 66
     1
 10
0.0
 20
0.0
 30
0.0
  0
VERTEX
  5
572
  8
0
  6
CONTINUOUS
 62
     7
 10
478.6880414969
 20
234.7353370581
 30
0.0
  0
VERTEX
  5
573
  8
0
  6
CONTINUOUS
 62
     7
 10
478.2361995465
 20
234.6798570548
 30
0.0
  0
VERTEX
  5
574
  8
0
  6
CONTINUOUS
 62
     7
 10
477.8535824305
 20
234.6328766737
 30
0.0
  0
VERTEX
  5
575
  8
0
  6
CONTINUOUS
 62
     7
 10
477.5403361804
 20
234.5944197569
 30
0.0
  0
VERTEX
  5
576
  8
0
  6
CONTINUOUS
 62
     7
 10
477.296575535
 20
234.5644863043
 30
0.0
  0
VERTEX
  5
577
  8
0
  6
CONTINUOUS
 62
     7
 10
477.1223958618
 20
234.5431001578
 30
0.0
  0
VERTEX
  5
578
  8
0
  6
CONTINUOUS
 62
     7
 10
477.0178627259
 20
234.5302613173
 30
0.0
  0
VERTEX
  5
579
  8
0
  6
CONTINUOUS
 62
     7
 10
476.9830133802
 20
234.5259817038
 30
0.0
  0
SEQEND
  5
89E
  8
0
  6
CONTINUOUS
 62
     7
  0
ARC
  5
1DF
  8
0
  6
CONTINUOUS
 62
     7
 10
477.3348972144
 20
231.8613743713
 30
0.0
 40
2.711877846168884
 50
165.6589414934
 51
187.0498969927
  0
POLYLINE
  5
1E0
  8
0
  6
CONTINUOUS
 62
     7
 66
     1
 10
0.0
 20
0.0
 30
0.0
  0
VERTEX
  5
57A
  8
0
  6
CONTINUOUS
 62
     7
 10
485.5138670689
 20
165.0477559958
 30
0.0
  0
VERTEX
  5
57B
  8
0
  6
CONTINUOUS
 62
     7
 10
485.5487164146
 20
165.0520356093
 30
0.0
  0
VERTEX
  5
57C
  8
0
  6
CONTINUOUS
 62
     7
 10
485.6532510406
 20
165.0648744498
 30
0.0
  0
VERTEX
  5
57D
  8
0
  6
CONTINUOUS
 62
     7
 10
485.8274307138
 20
165.0862605963
 30
0.0
  0
VERTEX
  5
57E
  8
0
  6
CONTINUOUS
 62
     7
 10
486.0711898691
 20
165.116182128
 30
0.0
  0
VERTEX
  5
57F
  8
0
  6
CONTINUOUS
 62
     7
 10
486.3844368643
 20
165.1546509657
 30
0.0
  0
VERTEX
  5
580
  8
0
  6
CONTINUOUS
 62
     7
 10
486.7670532352
 20
165.2016313467
 30
0.0
  0
VERTEX
  5
581
  8
0
  6
CONTINUOUS
 62
     7
 10
487.2188951856
 20
165.2571113501
 30
0.0
  0
SEQEND
  5
89D
  8
0
  6
CONTINUOUS
 62
     7
  0
POLYLINE
  5
1E1
  8
0
  6
CONTINUOUS
 62
     7
 66
     1
 10
0.0
 20
0.0
 30
0.0
  0
VERTEX
  5
582
  8
0
  6
CONTINUOUS
 62
     7
 10
482.8238513357
 20
166.4309533034
 30
0.0
  0
VERTEX
  5
583
  8
0
  6
CONTINUOUS
 62
     7
 10
482.8273978121
 20
166.4243252669
 30
0.0
  0
VERTEX
  5
584
  8
0
  6
CONTINUOUS
 62
     7
 10
482.7900078184
 20
166.495779315
 30
0.0
  0
VERTEX
  5
585
  8
0
  6
CONTINUOUS
 62
     7
 10
482.7158462293
 20
166.6554840003
 30
0.0
  0
VERTEX
  5
586
  8
0
  6
CONTINUOUS
 62
     7
 10
482.6234933025
 20
166.9060023222
 30
0.0
  0
VERTEX
  5
587
  8
0
  6
CONTINUOUS
 62
     7
 10
482.5447168238
 20
167.2220142279
 30
0.0
  0
VERTEX
  5
588
  8
0
  6
CONTINUOUS
 62
     7
 10
482.5187202579
 20
167.3901946936
 30
0.0
  0
SEQEND
  5
89C
  8
0
  6
CONTINUOUS
 62
     7
  0
POLYLINE
  5
1E2
  8
0
  6
CONTINUOUS
 62
     7
 66
     1
 10
0.0
 20
0.0
 30
0.0
  0
VERTEX
  5
589
  8
0
  6
CONTINUOUS
 62
     7
 10
484.974898029
 20
170.4019816313
 30
0.0
  0
VERTEX
  5
58A
  8
0
  6
CONTINUOUS
 62
     7
 10
484.8930593616
 20
170.3919322882
 30
0.0
  0
VERTEX
  5
58B
  8
0
  6
CONTINUOUS
 62
     7
 10
484.8582100159
 20
170.3876526747
 30
0.0
  0
SEQEND
  5
89B
  8
0
  6
CONTINUOUS
 62
     7
  0
ARC
  5
1E3
  8
0
  6
CONTINUOUS
 62
     7
 10
485.2111589093
 20
167.7229775285
 30
0.0
 40
2.712926520716828
 50
165.6631254353
 51
187.0459686315
  0
LINE
  5
1E4
  8
0
  6
CONTINUOUS
 62
     7
 10
487.2188951856
 20
165.2571113501
 30
0.0
 11
487.266739834
 21
165.2634294425
 31
0.0
  0
LINE
  5
1E5
  8
0
  6
CONTINUOUS
 62
     7
 10
476.4479901678
 20
164.6398575697
 30
0.0
 11
468.0877517945
 21
232.728532115
 31
0.0
  0
POLYLINE
  5
1E6
  8
0
  6
CONTINUOUS
 62
     7
 66
     1
 10
0.0
 20
0.0
 30
0.0
  0
VERTEX
  5
58C
  8
0
  6
CONTINUOUS
 62
     7
 10
468.0877517945
 20
232.728532115
 30
0.0
  0
VERTEX
  5
58D
  8
0
  6
CONTINUOUS
 62
     7
 10
468.1068252808
 20
232.7308686171
 30
0.0
  0
VERTEX
  5
58E
  8
0
  6
CONTINUOUS
 62
     7
 10
468.1633066422
 20
232.7378065978
 30
0.0
  0
VERTEX
  5
58F
  8
0
  6
CONTINUOUS
 62
     7
 10
468.2550262696
 20
232.7490718756
 30
0.0
  0
VERTEX
  5
590
  8
0
  6
CONTINUOUS
 62
     7
 10
468.3784615285
 20
232.7642233763
 30
0.0
  0
VERTEX
  5
591
  8
0
  6
CONTINUOUS
 62
     7
 10
468.5288708693
 20
232.7826888953
 30
0.0
  0
VERTEX
  5
592
  8
0
  6
CONTINUOUS
 62
     7
 10
468.7004666812
 20
232.8037650977
 30
0.0
  0
VERTEX
  5
593
  8
0
  6
CONTINUOUS
 62
     7
 10
468.8866626508
 20
232.8266175185
 30
0.0
  0
VERTEX
  5
594
  8
0
  6
CONTINUOUS
 62
     7
 10
469.0803002602
 20
232.8503997717
 30
0.0
  0
SEQEND
  5
89A
  8
0
  6
CONTINUOUS
 62
     7
  0
POLYLINE
  5
1E7
  8
0
  6
CONTINUOUS
 62
     7
 66
     1
 10
0.0
 20
0.0
 30
0.0
  0
VERTEX
  5
595
  8
0
  6
CONTINUOUS
 62
     7
 10
477.4405356533
 20
164.7617371474
 30
0.0
  0
VERTEX
  5
596
  8
0
  6
CONTINUOUS
 62
     7
 10
477.2468995339
 20
164.7379548941
 30
0.0
  0
VERTEX
  5
597
  8
0
  6
CONTINUOUS
 62
     7
 10
477.0607050545
 20
164.7150905524
 30
0.0
  0
VERTEX
  5
598
  8
0
  6
CONTINUOUS
 62
     7
 10
476.8891062624
 20
164.6940262709
 30
0.0
  0
VERTEX
  5
599
  8
0
  6
CONTINUOUS
 62
     7
 10
476.7386999018
 20
164.675560752
 30
0.0
  0
VERTEX
  5
59A
  8
0
  6
CONTINUOUS
 62
     7
 10
476.6152646429
 20
164.6603973303
 30
0.0
  0
VERTEX
  5
59B
  8
0
  6
CONTINUOUS
 62
     7
 10
476.5235435254
 20
164.6491439734
 30
0.0
  0
VERTEX
  5
59C
  8
0
  6
CONTINUOUS
 62
     7
 10
476.4670606739
 20
164.6422059927
 30
0.0
  0
VERTEX
  5
59D
  8
0
  6
CONTINUOUS
 62
     7
 10
476.4479901678
 20
164.6398575697
 30
0.0
  0
SEQEND
  5
899
  8
0
  6
CONTINUOUS
 62
     7
  0
LINE
  5
1E8
  8
0
  6
CONTINUOUS
 62
     7
 10
481.4107205755
 20
165.2492077742
 30
0.0
 11
477.4405356533
 21
164.7617371474
 31
0.0
  0
LINE
  5
1E9
  8
0
  6
CONTINUOUS
 62
     7
 10
473.0504822022
 20
233.3378703986
 30
0.0
 11
469.0803002602
 21
232.8503997717
 31
0.0
  0
LINE
  5
1EA
  8
0
  6
CONTINUOUS
 62
     7
 10
474.0430291778
 20
233.4597499762
 30
0.0
 11
482.403266061
 21
165.3710754309
 31
0.0
  0
POLYLINE
  5
1EB
  8
0
  6
CONTINUOUS
 62
     7
 66
     1
 10
0.0
 20
0.0
 30
0.0
  0
VERTEX
  5
59E
  8
0
  6
CONTINUOUS
 62
     7
 10
482.403266061
 20
165.3710754309
 30
0.0
  0
VERTEX
  5
59F
  8
0
  6
CONTINUOUS
 62
     7
 10
482.3841955549
 20
165.3687389288
 30
0.0
  0
VERTEX
  5
5A0
  8
0
  6
CONTINUOUS
 62
     7
 10
482.3277141935
 20
165.3618009482
 30
0.0
  0
VERTEX
  5
5A1
  8
0
  6
CONTINUOUS
 62
     7
 10
482.235993076
 20
165.3505356703
 30
0.0
  0
VERTEX
  5
5A2
  8
0
  6
CONTINUOUS
 62
     7
 10
482.112556327
 20
165.3353841696
 30
0.0
  0
VERTEX
  5
5A3
  8
0
  6
CONTINUOUS
 62
     7
 10
481.9621499664
 20
165.3169186507
 30
0.0
  0
VERTEX
  5
5A4
  8
0
  6
CONTINUOUS
 62
     7
 10
481.7905511743
 20
165.2958424483
 30
0.0
  0
VERTEX
  5
5A5
  8
0
  6
CONTINUOUS
 62
     7
 10
481.6043566949
 20
165.2729900275
 30
0.0
  0
VERTEX
  5
5A6
  8
0
  6
CONTINUOUS
 62
     7
 10
481.4107205755
 20
165.2492077742
 30
0.0
  0
SEQEND
  5
898
  8
0
  6
CONTINUOUS
 62
     7
  0
POLYLINE
  5
1EC
  8
0
  6
CONTINUOUS
 62
     7
 66
     1
 10
0.0
 20
0.0
 30
0.0
  0
VERTEX
  5
5A7
  8
0
  6
CONTINUOUS
 62
     7
 10
473.0504822022
 20
233.3378703986
 30
0.0
  0
VERTEX
  5
5A8
  8
0
  6
CONTINUOUS
 62
     7
 10
473.2441198117
 20
233.3616526518
 30
0.0
  0
VERTEX
  5
5A9
  8
0
  6
CONTINUOUS
 62
     7
 10
473.4303157813
 20
233.3845169936
 30
0.0
  0
VERTEX
  5
5AA
  8
0
  6
CONTINUOUS
 62
     7
 10
473.6019115931
 20
233.405581275
 30
0.0
  0
VERTEX
  5
5AB
  8
0
  6
CONTINUOUS
 62
     7
 10
473.7523194439
 20
233.424046794
 30
0.0
  0
VERTEX
  5
5AC
  8
0
  6
CONTINUOUS
 62
     7
 10
473.8757561929
 20
233.4392102156
 30
0.0
  0
VERTEX
  5
5AD
  8
0
  6
CONTINUOUS
 62
     7
 10
473.9674773104
 20
233.4504635725
 30
0.0
  0
VERTEX
  5
5AE
  8
0
  6
CONTINUOUS
 62
     7
 10
474.0239586717
 20
233.4574015532
 30
0.0
  0
VERTEX
  5
5AF
  8
0
  6
CONTINUOUS
 62
     7
 10
474.0430291778
 20
233.4597499762
 30
0.0
  0
SEQEND
  5
897
  8
0
  6
CONTINUOUS
 62
     7
  0
ARC
  5
1ED
  8
0
  6
CONTINUOUS
 62
     7
 10
494.0075442321
 20
123.8092547331
 30
0.0
 40
0.4000000000000341
 50
90.0
 51
180.0
  0
LINE
  5
1EE
  8
0
  6
CONTINUOUS
 62
     7
 10
493.6075441576
 20
114.0092523489
 30
0.0
 11
493.0075440592
 21
114.0092523489
 31
0.0
  0
LINE
  5
1EF
  8
0
  6
CONTINUOUS
 62
     7
 10
493.0075440592
 20
114.0092523489
 30
0.0
 11
493.0075440592
 21
115.0092573557
 31
0.0
  0
LINE
  5
1F0
  8
0
  6
CONTINUOUS
 62
     7
 10
504.607544098
 20
114.0092523489
 30
0.0
 11
504.0075443721
 21
114.0092523489
 31
0.0
  0
LINE
  5
1F1
  8
0
  6
CONTINUOUS
 62
     7
 10
504.607544098
 20
115.0092573557
 30
0.0
 11
504.607544098
 21
114.0092523489
 31
0.0
  0
LINE
  5
1F2
  8
0
  6
CONTINUOUS
 62
     7
 10
504.0075443721
 20
114.0092523489
 30
0.0
 11
504.0075443721
 21
115.0092573557
 31
0.0
  0
LINE
  5
1F3
  8
0
  6
CONTINUOUS
 62
     7
 10
483.1773009188
 20
159.0670736227
 30
0.0
 11
482.403266061
 21
165.3710754309
 31
0.0
  0
POLYLINE
  5
1F4
  8
0
  6
CONTINUOUS
 62
     7
 66
     1
 10
0.0
 20
0.0
 30
0.0
  0
VERTEX
  5
5B0
  8
0
  6
CONTINUOUS
 62
     7
 10
482.403266061
 20
165.3710754309
 30
0.0
  0
VERTEX
  5
5B1
  8
0
  6
CONTINUOUS
 62
     7
 10
482.3841955549
 20
165.3687389288
 30
0.0
  0
VERTEX
  5
5B2
  8
0
  6
CONTINUOUS
 62
     7
 10
482.3277141935
 20
165.3618009482
 30
0.0
  0
VERTEX
  5
5B3
  8
0
  6
CONTINUOUS
 62
     7
 10
482.235993076
 20
165.3505356703
 30
0.0
  0
VERTEX
  5
5B4
  8
0
  6
CONTINUOUS
 62
     7
 10
482.112556327
 20
165.3353841696
 30
0.0
  0
VERTEX
  5
5B5
  8
0
  6
CONTINUOUS
 62
     7
 10
481.9621499664
 20
165.3169186507
 30
0.0
  0
VERTEX
  5
5B6
  8
0
  6
CONTINUOUS
 62
     7
 10
481.7905511743
 20
165.2958424483
 30
0.0
  0
VERTEX
  5
5B7
  8
0
  6
CONTINUOUS
 62
     7
 10
481.6043566949
 20
165.2729900275
 30
0.0
  0
VERTEX
  5
5B8
  8
0
  6
CONTINUOUS
 62
     7
 10
481.4107205755
 20
165.2492077742
 30
0.0
  0
SEQEND
  5
896
  8
0
  6
CONTINUOUS
 62
     7
  0
LINE
  5
1F5
  8
0
  6
CONTINUOUS
 62
     7
 10
492.0075442678
 20
114.0092523489
 30
0.0
 11
488.0075443572
 21
114.0092523489
 31
0.0
  0
ARC
  5
1F6
  8
0
  6
CONTINUOUS
 62
     7
 10
496.0804012152
 20
160.651374886
 30
0.0
 40
18.99999999999999
 50
187.0
 51
203.0
  0
ARC
  5
1F7
  8
0
  6
CONTINUOUS
 62
     7
 10
496.0804012152
 20
160.651374886
 30
0.0
 40
12.99999999999998
 50
187.0
 51
203.0
  0
LINE
  5
1F8
  8
0
  6
CONTINUOUS
 62
     7
 10
478.5908084399
 20
153.2274873648
 30
0.0
 11
485.9741073138
 21
135.8335228358
 31
0.0
  0
LINE
  5
1F9
  8
0
  6
CONTINUOUS
 62
     7
 10
477.2220250255
 20
158.3358557616
 30
0.0
 11
476.4479901678
 21
164.6398575697
 31
0.0
  0
POLYLINE
  5
1FA
  8
0
  6
CONTINUOUS
 62
     7
 66
     1
 10
0.0
 20
0.0
 30
0.0
  0
VERTEX
  5
5B9
  8
0
  6
CONTINUOUS
 62
     7
 10
477.4405356533
 20
164.7617371474
 30
0.0
  0
VERTEX
  5
5BA
  8
0
  6
CONTINUOUS
 62
     7
 10
477.2468995339
 20
164.7379548941
 30
0.0
  0
VERTEX
  5
5BB
  8
0
  6
CONTINUOUS
 62
     7
 10
477.0607050545
 20
164.7150905524
 30
0.0
  0
VERTEX
  5
5BC
  8
0
  6
CONTINUOUS
 62
     7
 10
476.8891062624
 20
164.6940262709
 30
0.0
  0
VERTEX
  5
5BD
  8
0
  6
CONTINUOUS
 62
     7
 10
476.7386999018
 20
164.675560752
 30
0.0
  0
VERTEX
  5
5BE
  8
0
  6
CONTINUOUS
 62
     7
 10
476.6152646429
 20
164.6603973303
 30
0.0
  0
VERTEX
  5
5BF
  8
0
  6
CONTINUOUS
 62
     7
 10
476.5235435254
 20
164.6491439734
 30
0.0
  0
VERTEX
  5
5C0
  8
0
  6
CONTINUOUS
 62
     7
 10
476.4670606739
 20
164.6422059927
 30
0.0
  0
VERTEX
  5
5C1
  8
0
  6
CONTINUOUS
 62
     7
 10
476.4479901678
 20
164.6398575697
 30
0.0
  0
SEQEND
  5
895
  8
0
  6
CONTINUOUS
 62
     7
  0
LINE
  5
1FB
  8
0
  6
CONTINUOUS
 62
     7
 10
484.1138374097
 20
155.571869174
 30
0.0
 11
491.4971362836
 21
138.1779106055
 31
0.0
  0
LINE
  5
1FC
  8
0
  6
CONTINUOUS
 62
     7
 10
487.0075445659
 20
130.754015008
 30
0.0
 11
487.0075445659
 21
114.0092523489
 31
0.0
  0
LINE
  5
1FD
  8
0
  6
CONTINUOUS
 62
     7
 10
488.0075443572
 20
114.0092523489
 30
0.0
 11
487.0075445659
 21
114.0092523489
 31
0.0
  0
ARC
  5
1FE
  8
0
  6
CONTINUOUS
 62
     7
 10
474.0075442321
 20
130.7540179424
 30
0.0
 40
13.00000000000007
 50
0.0
 51
23.0
  0
ARC
  5
1FF
  8
0
  6
CONTINUOUS
 62
     7
 10
474.0075442321
 20
130.7540179424
 30
0.0
 40
19.00000000000008
 50
4.1945718162
 51
23.0
  0
LINE
  5
200
  8
0
  6
CONTINUOUS
 62
     7
 10
493.0075440592
 20
114.0092523489
 30
0.0
 11
492.0075442678
 21
114.0092523489
 31
0.0
  0
ARC
  5
201
  8
0
  6
CONTINUOUS
 62
     7
 10
503.6075442321
 20
124.0092547331
 30
0.0
 40
0.1999999999999886
 50
0.0
 51
90.0
  0
LINE
  5
202
  8
0
  6
CONTINUOUS
 62
     7
 10
503.6075443066
 20
124.2092521582
 30
0.0
 11
502.6075441427
 21
124.2092521582
 31
0.0
  0
LINE
  5
203
  8
0
  6
CONTINUOUS
 62
     7
 10
494.6075443215
 20
124.2092521582
 30
0.0
 11
493.8075441903
 21
124.2092521582
 31
0.0
  0
ARC
  5
204
  8
0
  6
CONTINUOUS
 62
     7
 10
493.8075442321
 20
124.0092547331
 30
0.0
 40
0.2000000000000455
 50
90.0
 51
180.0
  0
LINE
  5
205
  8
0
  6
CONTINUOUS
 62
     7
 10
492.807544399
 20
124.0092547331
 30
0.0
 11
492.807544399
 21
117.0092554484
 31
0.0
  0
ARC
  5
206
  8
0
  6
CONTINUOUS
 62
     7
 10
493.8075442321
 20
124.0092547331
 30
0.0
 40
1.0
 50
90.0
 51
180.0
  0
LINE
  5
207
  8
0
  6
CONTINUOUS
 62
     7
 10
503.6075443066
 20
125.0092537795
 30
0.0
 11
493.8075441903
 21
125.0092537795
 31
0.0
  0
ARC
  5
208
  8
0
  6
CONTINUOUS
 62
     7
 10
503.6075442321
 20
124.0092547331
 30
0.0
 40
1.0
 50
0.0
 51
90.0
  0
LINE
  5
209
  8
0
  6
CONTINUOUS
 62
     7
 10
504.607544098
 20
117.0092554484
 30
0.0
 11
504.607544098
 21
124.0092547331
 31
0.0
  0
LINE
  5
20A
  8
0
  6
CONTINUOUS
 62
     7
 10
503.8075443394
 20
117.0092554484
 30
0.0
 11
503.8075443394
 21
124.0092547331
 31
0.0
  0
LINE
  5
20B
  8
0
  6
CONTINUOUS
 62
     7
 10
493.6075441576
 20
124.0092547331
 30
0.0
 11
493.6075441576
 21
123.2092531119
 31
0.0
  0
LINE
  5
20C
  8
0
  6
CONTINUOUS
 62
     7
 10
493.6075441576
 20
115.0092573557
 30
0.0
 11
492.807544399
 21
115.0092573557
 31
0.0
  0
LINE
  5
20D
  8
0
  6
CONTINUOUS
 62
     7
 10
492.807544399
 20
115.0092573557
 30
0.0
 11
492.807544399
 21
117.0092554484
 31
0.0
  0
LINE
  5
20E
  8
0
  6
CONTINUOUS
 62
     7
 10
493.6075441576
 20
115.2092547808
 30
0.0
 11
493.6075441576
 21
115.0092573557
 31
0.0
  0
LINE
  5
20F
  8
0
  6
CONTINUOUS
 62
     7
 10
504.607544098
 20
117.0092554484
 30
0.0
 11
504.607544098
 21
115.0092573557
 31
0.0
  0
LINE
  5
210
  8
0
  6
CONTINUOUS
 62
     7
 10
504.607544098
 20
115.0092573557
 30
0.0
 11
503.8075443394
 21
115.0092573557
 31
0.0
  0
LINE
  5
211
  8
0
  6
CONTINUOUS
 62
     7
 10
503.8075443394
 20
115.0092573557
 30
0.0
 11
503.8075443394
 21
117.0092554484
 31
0.0
  0
POLYLINE
  5
212
  8
0
  6
CONTINUOUS
 62
     7
 66
     1
 10
0.0
 20
0.0
 30
0.0
  0
VERTEX
  5
5C2
  8
0
  6
CONTINUOUS
 62
     7
 10
516.6584502942
 20
140.40134863
 30
0.0
  0
VERTEX
  5
5C3
  8
0
  6
CONTINUOUS
 62
     7
 10
516.8284174091
 20
140.7658191119
 30
0.0
  0
VERTEX
  5
5C4
  8
0
  6
CONTINUOUS
 62
     7
 10
517.0759420878
 20
141.1040575896
 30
0.0
  0
VERTEX
  5
5C5
  8
0
  6
CONTINUOUS
 62
     7
 10
517.4679528958
 20
141.477081338
 30
0.0
  0
VERTEX
  5
5C6
  8
0
  6
CONTINUOUS
 62
     7
 10
517.9255690462
 20
141.792866746
 30
0.0
  0
VERTEX
  5
5C7
  8
0
  6
CONTINUOUS
 62
     7
 10
518.6995636708
 20
142.1714814101
 30
0.0
  0
VERTEX
  5
5C8
  8
0
  6
CONTINUOUS
 62
     7
 10
519.5337351448
 20
142.4492569361
 30
0.0
  0
SEQEND
  5
894
  8
0
  6
CONTINUOUS
 62
     7
  0
POLYLINE
  5
213
  8
0
  6
CONTINUOUS
 62
     7
 66
     1
 10
0.0
 20
0.0
 30
0.0
  0
VERTEX
  5
5C9
  8
0
  6
CONTINUOUS
 62
     7
 10
522.4410038478
 20
137.6118274127
 30
0.0
  0
VERTEX
  5
5CA
  8
0
  6
CONTINUOUS
 62
     7
 10
520.4096119887
 20
137.6685948763
 30
0.0
  0
VERTEX
  5
5CB
  8
0
  6
CONTINUOUS
 62
     7
 10
519.3187560922
 20
137.7967269812
 30
0.0
  0
VERTEX
  5
5CC
  8
0
  6
CONTINUOUS
 62
     7
 10
518.2587873227
 20
138.0699725543
 30
0.0
  0
VERTEX
  5
5CD
  8
0
  6
CONTINUOUS
 62
     7
 10
517.5675164945
 20
138.3936436568
 30
0.0
  0
VERTEX
  5
5CE
  8
0
  6
CONTINUOUS
 62
     7
 10
517.2518100626
 20
138.6150749121
 30
0.0
  0
VERTEX
  5
5CF
  8
0
  6
CONTINUOUS
 62
     7
 10
516.9749718196
 20
138.8824851904
 30
0.0
  0
VERTEX
  5
5D0
  8
0
  6
CONTINUOUS
 62
     7
 10
516.6859667785
 20
139.3448980246
 30
0.0
  0
VERTEX
  5
5D1
  8
0
  6
CONTINUOUS
 62
     7
 10
516.5743079073
 20
139.8819239531
 30
0.0
  0
VERTEX
  5
5D2
  8
0
  6
CONTINUOUS
 62
     7
 10
516.6584502942
 20
140.40134863
 30
0.0
  0
SEQEND
  5
893
  8
0
  6
CONTINUOUS
 62
     7
  0
LINE
  5
214
  8
0
  6
CONTINUOUS
 62
     7
 10
524.7075449712
 20
137.6202316676
 30
0.0
 11
522.4410038478
 21
137.6118274127
 31
0.0
  0
LINE
  5
215
  8
0
  6
CONTINUOUS
 62
     7
 10
535.7075434214
 20
137.6202316676
 30
0.0
 11
524.7075449712
 21
137.6202316676
 31
0.0
  0
ARC
  5
216
  8
0
  6
CONTINUOUS
 62
     7
 10
496.3135259898
 20
250.4987643339
 30
0.0
 40
120.0
 50
280.9468409701
 51
289.1646231125
  0
LINE
  5
217
  8
0
  6
CONTINUOUS
 62
     7
 10
519.1013049371
 20
132.682308713
 30
0.0
 11
514.6883588321
 21
131.8287701998
 31
0.0
  0
ARC
  5
218
  8
0
  6
CONTINUOUS
 62
     7
 10
516.2075442321
 20
123.9743371847
 30
0.0
 40
7.99999999999999
 50
100.9468409701
 51
180.0
  0
LINE
  5
219
  8
0
  6
CONTINUOUS
 62
     7
 10
508.2075443155
 20
123.9743383322
 30
0.0
 11
508.2075443155
 21
123.2092531119
 31
0.0
  0
ARC
  5
21A
  8
0
  6
CONTINUOUS
 62
     7
 10
506.2075442321
 20
123.2092547331
 30
0.0
 40
2.0
 50
270.0
 51
0.0
  0
LINE
  5
21B
  8
0
  6
CONTINUOUS
 62
     7
 10
506.2075439877
 20
121.2092550192
 30
0.0
 11
504.607544098
 21
121.2092550192
 31
0.0
  0
LINE
  5
21C
  8
0
  6
CONTINUOUS
 62
     7
 10
490.00754394
 20
123.2092531119
 30
0.0
 11
490.00754394
 21
125.7702799235
 31
0.0
  0
ARC
  5
21D
  8
0
  6
CONTINUOUS
 62
     7
 10
516.4890951915
 20
110.45909784
 30
0.0
 40
31.99999999999998
 50
91.4211498515
 51
140.3596923241
  0
LINE
  5
21E
  8
0
  6
CONTINUOUS
 62
     7
 10
515.6954567916
 20
142.4492569361
 30
0.0
 11
519.5337351448
 21
142.4492569361
 31
0.0
  0
LINE
  5
21F
  8
0
  6
CONTINUOUS
 62
     7
 10
535.7075434214
 20
137.6202316676
 30
0.0
 11
535.7075434214
 21
137.1492536459
 31
0.0
  0
LINE
  5
220
  8
0
  6
CONTINUOUS
 62
     7
 10
492.807544399
 20
121.2092550192
 30
0.0
 11
492.0075442678
 21
121.2092550192
 31
0.0
  0
ARC
  5
221
  8
0
  6
CONTINUOUS
 62
     7
 10
492.0075442321
 20
123.2092547331
 30
0.0
 40
2.0
 50
180.0
 51
270.0
  0
ARC
  5
222
  8
0
  6
CONTINUOUS
 62
     7
 10
498.0075442321
 20
125.7702791835
 30
0.0
 40
8.0
 50
140.3596923241
 51
180.0
  0
LINE
  5
223
  8
0
  6
CONTINUOUS
 62
     7
 10
574.3275444991
 20
136.6139145289
 30
0.0
 11
574.3275444991
 21
136.4972682391
 31
0.0
  0
LINE
  5
224
  8
0
  6
CONTINUOUS
 62
     7
 10
579.707543183
 20
136.4972682391
 30
0.0
 11
579.707543183
 21
138.2150979434
 31
0.0
  0
LINE
  5
225
  8
0
  6
CONTINUOUS
 62
     7
 10
579.707543183
 20
138.2150979434
 30
0.0
 11
579.7071021087
 21
138.2633538638
 31
0.0
  0
LINE
  5
226
  8
0
  6
CONTINUOUS
 62
     7
 10
502.6075441427
 20
114.2092557345
 30
0.0
 11
494.6075443215
 21
114.2092557345
 31
0.0
  0
LINE
  5
227
  8
0
  6
CONTINUOUS
 62
     7
 10
493.6075441576
 20
115.2092547808
 30
0.0
 11
493.6075441576
 21
123.2092531119
 31
0.0
  0
LINE
  5
228
  8
0
  6
CONTINUOUS
 62
     7
 10
494.6075443215
 20
124.2092521582
 30
0.0
 11
502.6075441427
 21
124.2092521582
 31
0.0
  0
ARC
  5
229
  8
0
  6
CONTINUOUS
 62
     7
 10
494.6075442321
 20
123.2092547331
 30
0.0
 40
1.0
 50
90.0
 51
180.0
  0
ARC
  5
22A
  8
0
  6
CONTINUOUS
 62
     7
 10
494.6075442321
 20
115.2092547331
 30
0.0
 40
1.0
 50
180.0
 51
270.0
  0
LINE
  5
22B
  8
0
  6
CONTINUOUS
 62
     7
 10
503.6075443066
 20
123.2092531119
 30
0.0
 11
503.6075443066
 21
115.2092547808
 31
0.0
  0
ARC
  5
22C
  8
0
  6
CONTINUOUS
 62
     7
 10
502.6075442321
 20
115.2092547331
 30
0.0
 40
1.0
 50
270.0
 51
0.0
  0
ARC
  5
22D
  8
0
  6
CONTINUOUS
 62
     7
 10
502.6075442321
 20
123.2092547331
 30
0.0
 40
1.0
 50
0.0
 51
90.0
  0
LINE
  5
22E
  8
0
  6
CONTINUOUS
 62
     7
 10
490.6075444109
 20
49.0092547331
 30
0.0
 11
486.6075445003
 21
49.0092547331
 31
0.0
  0
LINE
  5
22F
  8
0
  6
CONTINUOUS
 62
     7
 10
486.6075445003
 20
49.0092547331
 30
0.0
 11
486.6075445003
 21
50.2092547436
 31
0.0
  0
LINE
  5
230
  8
0
  6
CONTINUOUS
 62
     7
 10
486.6075445003
 20
50.2092547436
 30
0.0
 11
490.6075444109
 21
50.2092547436
 31
0.0
  0
LINE
  5
231
  8
0
  6
CONTINUOUS
 62
     7
 10
490.6075444109
 20
49.0092547331
 30
0.0
 11
492.6075443662
 21
49.0092547331
 31
0.0
  0
LINE
  5
232
  8
0
  6
CONTINUOUS
 62
     7
 10
490.6075444109
 20
50.2092547436
 30
0.0
 11
492.6075443662
 21
50.2092547436
 31
0.0
  0
LINE
  5
233
  8
0
  6
CONTINUOUS
 62
     7
 10
492.6075443662
 20
49.0092547331
 30
0.0
 11
519.9759658462
 21
49.0092547331
 31
0.0
  0
LINE
  5
234
  8
0
  6
CONTINUOUS
 62
     7
 10
519.9759658462
 20
50.2092547436
 30
0.0
 11
492.6075443662
 21
50.2092547436
 31
0.0
  0
LINE
  5
235
  8
0
  6
CONTINUOUS
 62
     7
 10
522.6075436956
 20
50.2092547436
 30
0.0
 11
522.6075436956
 21
49.0092547331
 31
0.0
  0
LINE
  5
236
  8
0
  6
CONTINUOUS
 62
     7
 10
522.6075436956
 20
49.0092547331
 30
0.0
 11
519.9759658462
 21
49.0092547331
 31
0.0
  0
LINE
  5
237
  8
0
  6
CONTINUOUS
 62
     7
 10
519.9759658462
 20
50.2092547436
 30
0.0
 11
522.6075436956
 21
50.2092547436
 31
0.0
  0
LINE
  5
238
  8
0
  6
CONTINUOUS
 62
     7
 10
493.6075441576
 20
50.2092547436
 30
0.0
 11
493.6075441576
 21
115.0092573557
 31
0.0
  0
LINE
  5
239
  8
0
  6
CONTINUOUS
 62
     7
 10
503.6075443066
 20
115.2092547808
 30
0.0
 11
503.6075443066
 21
50.2092547436
 31
0.0
  0
POLYLINE
  5
23A
  8
0
  6
CONTINUOUS
 62
     7
 66
     1
 10
0.0
 20
0.0
 30
0.0
  0
VERTEX
  5
5D3
  8
0
  6
CONTINUOUS
 62
     7
 10
298.89899861
 20
-29.8556608067
 30
0.0
  0
VERTEX
  5
5D4
  8
0
  6
CONTINUOUS
 62
     7
 10
298.102901093
 20
-29.9676355825
 30
0.0
  0
VERTEX
  5
5D5
  8
0
  6
CONTINUOUS
 62
     7
 10
297.196213118
 20
-30.1074323163
 30
0.0
  0
VERTEX
  5
5D6
  8
0
  6
CONTINUOUS
 62
     7
 10
296.2989724793
 20
-30.2582156763
 30
0.0
  0
VERTEX
  5
5D7
  8
0
  6
CONTINUOUS
 62
     7
 10
295.4157925763
 20
-30.4193315015
 30
0.0
  0
VERTEX
  5
5D8
  8
0
  6
CONTINUOUS
 62
     7
 10
294.5612825074
 20
-30.5875894532
 30
0.0
  0
VERTEX
  5
5D9
  8
0
  6
CONTINUOUS
 62
     7
 10
293.7223411717
 20
-30.7648715482
 30
0.0
  0
VERTEX
  5
5DA
  8
0
  6
CONTINUOUS
 62
     7
 10
292.9002679505
 20
-30.9507188306
 30
0.0
  0
VERTEX
  5
5DB
  8
0
  6
CONTINUOUS
 62
     7
 10
292.1011663594
 20
-31.1436739669
 30
0.0
  0
VERTEX
  5
5DC
  8
0
  6
CONTINUOUS
 62
     7
 10
291.3308776536
 20
-31.3422796235
 30
0.0
  0
VERTEX
  5
5DD
  8
0
  6
CONTINUOUS
 62
     7
 10
290.5946589627
 20
-31.5451917157
 30
0.0
  0
VERTEX
  5
5DE
  8
0
  6
CONTINUOUS
 62
     7
 10
289.8967124142
 20
-31.7513835535
 30
0.0
  0
VERTEX
  5
5DF
  8
0
  6
CONTINUOUS
 62
     7
 10
289.242515675
 20
-31.9590252743
 30
0.0
  0
VERTEX
  5
5E0
  8
0
  6
CONTINUOUS
 62
     7
 10
288.643334023
 20
-32.163598846
 30
0.0
  0
VERTEX
  5
5E1
  8
0
  6
CONTINUOUS
 62
     7
 10
288.0591310181
 20
-32.3795390234
 30
0.0
  0
VERTEX
  5
5E2
  8
0
  6
CONTINUOUS
 62
     7
 10
287.5056959309
 20
-32.6035899029
 30
0.0
  0
VERTEX
  5
5E3
  8
0
  6
CONTINUOUS
 62
     7
 10
286.975375525
 20
-32.8427177773
 30
0.0
  0
VERTEX
  5
5E4
  8
0
  6
CONTINUOUS
 62
     7
 10
286.4494241395
 20
-33.1148249016
 30
0.0
  0
VERTEX
  5
5E5
  8
0
  6
CONTINUOUS
 62
     7
 10
286.0077119984
 20
-33.3856326447
 30
0.0
  0
VERTEX
  5
5E6
  8
0
  6
CONTINUOUS
 62
     7
 10
285.7030905404
 20
-33.6076524959
 30
0.0
  0
VERTEX
  5
5E7
  8
0
  6
CONTINUOUS
 62
     7
 10
285.4435599961
 20
-33.8306841359
 30
0.0
  0
VERTEX
  5
5E8
  8
0
  6
CONTINUOUS
 62
     7
 10
285.209248177
 20
-34.0707984672
 30
0.0
  0
VERTEX
  5
5E9
  8
0
  6
CONTINUOUS
 62
     7
 10
284.9968112626
 20
-34.335545908
 30
0.0
  0
VERTEX
  5
5EA
  8
0
  6
CONTINUOUS
 62
     7
 10
284.8072029271
 20
-34.631581317
 30
0.0
  0
VERTEX
  5
5EB
  8
0
  6
CONTINUOUS
 62
     7
 10
284.6465803303
 20
-34.9611353979
 30
0.0
  0
VERTEX
  5
5EC
  8
0
  6
CONTINUOUS
 62
     7
 10
284.523729197
 20
-35.321220468
 30
0.0
  0
VERTEX
  5
5ED
  8
0
  6
CONTINUOUS
 62
     7
 10
284.4470895447
 20
-35.7046213851
 30
0.0
  0
VERTEX
  5
5EE
  8
0
  6
CONTINUOUS
 62
     7
 10
284.4247139611
 20
-36.0705849633
 30
0.0
  0
SEQEND
  5
892
  8
0
  6
CONTINUOUS
 62
     7
  0
POLYLINE
  5
23B
  8
0
  6
CONTINUOUS
 62
     7
 66
     1
 10
0.0
 20
0.0
 30
0.0
  0
VERTEX
  5
5EF
  8
0
  6
CONTINUOUS
 62
     7
 10
364.5349479832
 20
-36.0833731399
 30
0.0
  0
VERTEX
  5
5F0
  8
0
  6
CONTINUOUS
 62
     7
 10
364.5385361828
 20
-36.010113071
 30
0.0
  0
VERTEX
  5
5F1
  8
0
  6
CONTINUOUS
 62
     7
 10
364.5013428845
 20
-35.6112551794
 30
0.0
  0
VERTEX
  5
5F2
  8
0
  6
CONTINUOUS
 62
     7
 10
364.4144154706
 20
-35.2368441329
 30
0.0
  0
VERTEX
  5
5F3
  8
0
  6
CONTINUOUS
 62
     7
 10
364.286313168
 20
-34.8921191797
 30
0.0
  0
VERTEX
  5
5F4
  8
0
  6
CONTINUOUS
 62
     7
 10
364.1258932271
 20
-34.5802363858
 30
0.0
  0
VERTEX
  5
5F5
  8
0
  6
CONTINUOUS
 62
     7
 10
363.9411903538
 20
-34.3014744029
 30
0.0
  0
VERTEX
  5
5F6
  8
0
  6
CONTINUOUS
 62
     7
 10
363.737628571
 20
-34.0526235209
 30
0.0
  0
VERTEX
  5
5F7
  8
0
  6
CONTINUOUS
 62
     7
 10
363.5160423436
 20
-33.8271778927
 30
0.0
  0
VERTEX
  5
5F8
  8
0
  6
CONTINUOUS
 62
     7
 10
363.2709242024
 20
-33.6159867153
 30
0.0
  0
VERTEX
  5
5F9
  8
0
  6
CONTINUOUS
 62
     7
 10
362.9847026982
 20
-33.4052872763
 30
0.0
  0
VERTEX
  5
5FA
  8
0
  6
CONTINUOUS
 62
     7
 10
362.6117087521
 20
-33.1710440025
 30
0.0
  0
VERTEX
  5
5FB
  8
0
  6
CONTINUOUS
 62
     7
 10
362.1318794407
 20
-32.9137963162
 30
0.0
  0
VERTEX
  5
5FC
  8
0
  6
CONTINUOUS
 62
     7
 10
361.6005636372
 20
-32.666201602
 30
0.0
  0
VERTEX
  5
5FD
  8
0
  6
CONTINUOUS
 62
     7
 10
361.0634184994
 20
-32.4425575242
 30
0.0
  0
VERTEX
  5
5FE
  8
0
  6
CONTINUOUS
 62
     7
 10
360.4452587285
 20
-32.2088238702
 30
0.0
  0
VERTEX
  5
5FF
  8
0
  6
CONTINUOUS
 62
     7
 10
359.8070956387
 20
-31.9876667962
 30
0.0
  0
VERTEX
  5
600
  8
0
  6
CONTINUOUS
 62
     7
 10
359.1442323842
 20
-31.7751956091
 30
0.0
  0
VERTEX
  5
601
  8
0
  6
CONTINUOUS
 62
     7
 10
358.4570861973
 20
-31.5703299747
 30
0.0
  0
VERTEX
  5
602
  8
0
  6
CONTINUOUS
 62
     7
 10
357.7240086712
 20
-31.3663062558
 30
0.0
  0
VERTEX
  5
603
  8
0
  6
CONTINUOUS
 62
     7
 10
356.9578028836
 20
-31.1669272289
 30
0.0
  0
VERTEX
  5
604
  8
0
  6
CONTINUOUS
 62
     7
 10
356.1609603085
 20
-30.9729066596
 30
0.0
  0
VERTEX
  5
605
  8
0
  6
CONTINUOUS
 62
     7
 10
355.3366519131
 20
-30.7851952419
 30
0.0
  0
VERTEX
  5
606
  8
0
  6
CONTINUOUS
 62
     7
 10
354.4885255017
 20
-30.6048777804
 30
0.0
  0
VERTEX
  5
607
  8
0
  6
CONTINUOUS
 62
     7
 10
353.6205507435
 20
-30.4330778227
 30
0.0
  0
VERTEX
  5
608
  8
0
  6
CONTINUOUS
 62
     7
 10
352.736864201
 20
-30.2709218965
 30
0.0
  0
VERTEX
  5
609
  8
0
  6
CONTINUOUS
 62
     7
 10
351.8470741429
 20
-30.1202428446
 30
0.0
  0
VERTEX
  5
60A
  8
0
  6
CONTINUOUS
 62
     7
 10
350.9455300488
 20
-29.9799841747
 30
0.0
  0
VERTEX
  5
60B
  8
0
  6
CONTINUOUS
 62
     7
 10
350.0646091618
 20
-29.8548501835
 30
0.0
  0
SEQEND
  5
891
  8
0
  6
CONTINUOUS
 62
     7
  0
ARC
  5
23C
  8
0
  6
CONTINUOUS
 62
     7
 10
324.3593131855
 20
-216.9469886231
 30
0.0
 40
188.8172303875943
 50
90.2488982536
 51
97.7494271563
  0
ARC
  5
23D
  8
0
  6
CONTINUOUS
 62
     7
 10
324.6886243715
 20
-216.0383865289
 30
0.0
 40
187.9055487928411
 50
82.2387174998
 51
89.7798336298
  0
POLYLINE
  5
23E
  8
0
  6
CONTINUOUS
 62
     7
 66
     1
 10
0.0
 20
0.0
 30
0.0
  0
VERTEX
  5
60C
  8
0
  6
CONTINUOUS
 62
     7
 10
289.0178180852
 20
-37.8446605907
 30
0.0
  0
VERTEX
  5
60D
  8
0
  6
CONTINUOUS
 62
     7
 10
289.0163458504
 20
-37.8457900987
 30
0.0
  0
VERTEX
  5
60E
  8
0
  6
CONTINUOUS
 62
     7
 10
289.0567518391
 20
-37.8211867914
 30
0.0
  0
VERTEX
  5
60F
  8
0
  6
CONTINUOUS
 62
     7
 10
289.1481972851
 20
-37.7707120881
 30
0.0
  0
VERTEX
  5
610
  8
0
  6
CONTINUOUS
 62
     7
 10
289.2974175133
 20
-37.6958158717
 30
0.0
  0
VERTEX
  5
611
  8
0
  6
CONTINUOUS
 62
     7
 10
289.5094729581
 20
-37.5985127792
 30
0.0
  0
VERTEX
  5
612
  8
0
  6
CONTINUOUS
 62
     7
 10
289.7870100655
 20
-37.4814477668
 30
0.0
  0
VERTEX
  5
613
  8
0
  6
CONTINUOUS
 62
     7
 10
290.1301838078
 20
-37.3477172957
 30
0.0
  0
VERTEX
  5
614
  8
0
  6
CONTINUOUS
 62
     7
 10
290.5370451131
 20
-37.2005877004
 30
0.0
  0
VERTEX
  5
615
  8
0
  6
CONTINUOUS
 62
     7
 10
291.0041369118
 20
-37.0432731614
 30
0.0
  0
VERTEX
  5
616
  8
0
  6
CONTINUOUS
 62
     7
 10
291.5267683186
 20
-36.8788731203
 30
0.0
  0
VERTEX
  5
617
  8
0
  6
CONTINUOUS
 62
     7
 10
292.1020544686
 20
-36.7098239169
 30
0.0
  0
VERTEX
  5
618
  8
0
  6
CONTINUOUS
 62
     7
 10
292.7109695592
 20
-36.5422588692
 30
0.0
  0
VERTEX
  5
619
  8
0
  6
CONTINUOUS
 62
     7
 10
293.3716095605
 20
-36.3716361032
 30
0.0
  0
VERTEX
  5
61A
  8
0
  6
CONTINUOUS
 62
     7
 10
294.0770841756
 20
-36.2006825314
 30
0.0
  0
VERTEX
  5
61B
  8
0
  6
CONTINUOUS
 62
     7
 10
294.8200560727
 20
-36.0319835053
 30
0.0
  0
VERTEX
  5
61C
  8
0
  6
CONTINUOUS
 62
     7
 10
295.5925084271
 20
-35.8680468903
 30
0.0
  0
VERTEX
  5
61D
  8
0
  6
CONTINUOUS
 62
     7
 10
296.3846243539
 20
-35.7115042315
 30
0.0
  0
VERTEX
  5
61E
  8
0
  6
CONTINUOUS
 62
     7
 10
297.1878744282
 20
-35.5644372211
 30
0.0
  0
VERTEX
  5
61F
  8
0
  6
CONTINUOUS
 62
     7
 10
297.998521439
 20
-35.4275685654
 30
0.0
  0
VERTEX
  5
620
  8
0
  6
CONTINUOUS
 62
     7
 10
298.827598206
 20
-35.2989730344
 30
0.0
  0
VERTEX
  5
621
  8
0
  6
CONTINUOUS
 62
     7
 10
299.6234573044
 20
-35.1862606511
 30
0.0
  0
SEQEND
  5
890
  8
0
  6
CONTINUOUS
 62
     7
  0
POLYLINE
  5
23F
  8
0
  6
CONTINUOUS
 62
     7
 66
     1
 10
0.0
 20
0.0
 30
0.0
  0
VERTEX
  5
622
  8
0
  6
CONTINUOUS
 62
     7
 10
349.3401266255
 20
-35.1866346703
 30
0.0
  0
VERTEX
  5
623
  8
0
  6
CONTINUOUS
 62
     7
 10
350.0000811734
 20
-35.2787298069
 30
0.0
  0
VERTEX
  5
624
  8
0
  6
CONTINUOUS
 62
     7
 10
350.8375145116
 20
-35.4069498286
 30
0.0
  0
VERTEX
  5
625
  8
0
  6
CONTINUOUS
 62
     7
 10
351.6666985669
 20
-35.5453741655
 30
0.0
  0
VERTEX
  5
626
  8
0
  6
CONTINUOUS
 62
     7
 10
352.481148354
 20
-35.6929001317
 30
0.0
  0
VERTEX
  5
627
  8
0
  6
CONTINUOUS
 62
     7
 10
353.2699681439
 20
-35.8470973477
 30
0.0
  0
VERTEX
  5
628
  8
0
  6
CONTINUOUS
 62
     7
 10
354.0381051221
 20
-36.0083577142
 30
0.0
  0
VERTEX
  5
629
  8
0
  6
CONTINUOUS
 62
     7
 10
354.7817565121
 20
-36.1755025492
 30
0.0
  0
VERTEX
  5
62A
  8
0
  6
CONTINUOUS
 62
     7
 10
355.4948903241
 20
-36.3467750058
 30
0.0
  0
VERTEX
  5
62B
  8
0
  6
CONTINUOUS
 62
     7
 10
356.1714864888
 20
-36.5202438936
 30
0.0
  0
VERTEX
  5
62C
  8
0
  6
CONTINUOUS
 62
     7
 10
356.8057871976
 20
-36.6938424215
 30
0.0
  0
VERTEX
  5
62D
  8
0
  6
CONTINUOUS
 62
     7
 10
357.3921419301
 20
-36.8653294549
 30
0.0
  0
VERTEX
  5
62E
  8
0
  6
CONTINUOUS
 62
     7
 10
357.9255319752
 20
-37.0323610411
 30
0.0
  0
VERTEX
  5
62F
  8
0
  6
CONTINUOUS
 62
     7
 10
358.4048606076
 20
-37.1934023604
 30
0.0
  0
VERTEX
  5
630
  8
0
  6
CONTINUOUS
 62
     7
 10
358.8310218968
 20
-37.3475056992
 30
0.0
  0
VERTEX
  5
631
  8
0
  6
CONTINUOUS
 62
     7
 10
359.1968036809
 20
-37.4905911193
 30
0.0
  0
VERTEX
  5
632
  8
0
  6
CONTINUOUS
 62
     7
 10
359.4954110303
 20
-37.617823194
 30
0.0
  0
VERTEX
  5
633
  8
0
  6
CONTINUOUS
 62
     7
 10
359.6996284642
 20
-37.7129313455
 30
0.0
  0
VERTEX
  5
634
  8
0
  6
CONTINUOUS
 62
     7
 10
359.8409987607
 20
-37.7850440249
 30
0.0
  0
VERTEX
  5
635
  8
0
  6
CONTINUOUS
 62
     7
 10
359.9231935658
 20
-37.831242095
 30
0.0
  0
VERTEX
  5
636
  8
0
  6
CONTINUOUS
 62
     7
 10
359.9526024975
 20
-37.849476646
 30
0.0
  0
VERTEX
  5
637
  8
0
  6
CONTINUOUS
 62
     7
 10
359.9504090466
 20
-37.8478747711
 30
0.0
  0
SEQEND
  5
88F
  8
0
  6
CONTINUOUS
 62
     7
  0
LINE
  5
240
  8
0
  6
CONTINUOUS
 62
     7
 10
323.481772057
 20
-27.7893793688
 30
0.0
 11
323.481772057
 21
-28.1473514543
 31
0.0
  0
LINE
  5
241
  8
0
  6
CONTINUOUS
 62
     7
 10
325.4817701497
 20
-28.1473514543
 30
0.0
 11
325.4817701497
 21
-27.7893793688
 31
0.0
  0
ARC
  5
242
  8
0
  6
CONTINUOUS
 62
     7
 10
324.4817651429
 20
-218.1961424946
 30
0.0
 40
184.6914943505456
 50
82.2647835432
 51
97.7352164568
  0
LINE
  5
243
  8
0
  6
CONTINUOUS
 62
     7
 10
284.4230092682
 20
-36.0791054473
 30
0.0
 11
284.4230092682
 21
-40.9538795159
 31
0.0
  0
LINE
  5
244
  8
0
  6
CONTINUOUS
 62
     7
 10
364.540526978
 20
-40.9538795159
 30
0.0
 11
364.540526978
 21
-36.0791054473
 31
0.0
  0
POLYLINE
  5
245
  8
0
  6
CONTINUOUS
 62
     7
 66
     1
 10
0.0
 20
0.0
 30
0.0
  0
VERTEX
  5
638
  8
0
  6
CONTINUOUS
 62
     7
 10
349.3403054394
 20
-43.0607010529
 30
0.0
  0
VERTEX
  5
639
  8
0
  6
CONTINUOUS
 62
     7
 10
350.1169539609
 20
-43.1649063633
 30
0.0
  0
VERTEX
  5
63A
  8
0
  6
CONTINUOUS
 62
     7
 10
350.9993768849
 20
-43.2796788321
 30
0.0
  0
VERTEX
  5
63B
  8
0
  6
CONTINUOUS
 62
     7
 10
351.8713213124
 20
-43.3894795284
 30
0.0
  0
VERTEX
  5
63C
  8
0
  6
CONTINUOUS
 62
     7
 10
352.7288056531
 20
-43.4937362478
 30
0.0
  0
VERTEX
  5
63D
  8
0
  6
CONTINUOUS
 62
     7
 10
353.5646892705
 20
-43.5912561522
 30
0.0
  0
VERTEX
  5
63E
  8
0
  6
CONTINUOUS
 62
     7
 10
354.386124722
 20
-43.6825719581
 30
0.0
  0
VERTEX
  5
63F
  8
0
  6
CONTINUOUS
 62
     7
 10
355.1923133053
 20
-43.767137538
 30
0.0
  0
VERTEX
  5
640
  8
0
  6
CONTINUOUS
 62
     7
 10
355.9768296399
 20
-43.8437421725
 30
0.0
  0
VERTEX
  5
641
  8
0
  6
CONTINUOUS
 62
     7
 10
356.7336178937
 20
-43.9112153754
 30
0.0
  0
VERTEX
  5
642
  8
0
  6
CONTINUOUS
 62
     7
 10
357.4573374905
 20
-43.9684455202
 30
0.0
  0
VERTEX
  5
643
  8
0
  6
CONTINUOUS
 62
     7
 10
358.1439233937
 20
-44.0143723891
 30
0.0
  0
VERTEX
  5
644
  8
0
  6
CONTINUOUS
 62
     7
 10
358.7921119847
 20
-44.0480072901
 30
0.0
  0
VERTEX
  5
645
  8
0
  6
CONTINUOUS
 62
     7
 10
359.4101525464
 20
-44.0686372027
 30
0.0
  0
VERTEX
  5
646
  8
0
  6
CONTINUOUS
 62
     7
 10
360.0031472363
 20
-44.0744806931
 30
0.0
  0
VERTEX
  5
647
  8
0
  6
CONTINUOUS
 62
     7
 10
360.5796075978
 20
-44.0620710061
 30
0.0
  0
VERTEX
  5
648
  8
0
  6
CONTINUOUS
 62
     7
 10
361.1615515866
 20
-44.0232832835
 30
0.0
  0
VERTEX
  5
649
  8
0
  6
CONTINUOUS
 62
     7
 10
361.7242909588
 20
-43.9476867125
 30
0.0
  0
VERTEX
  5
64A
  8
0
  6
CONTINUOUS
 62
     7
 10
362.090227715
 20
-43.8690972433
 30
0.0
  0
VERTEX
  5
64B
  8
0
  6
CONTINUOUS
 62
     7
 10
362.4278761067
 20
-43.7684704468
 30
0.0
  0
VERTEX
  5
64C
  8
0
  6
CONTINUOUS
 62
     7
 10
362.7407766499
 20
-43.6446671293
 30
0.0
  0
VERTEX
  5
64D
  8
0
  6
CONTINUOUS
 62
     7
 10
363.0425311246
 20
-43.4905429289
 30
0.0
  0
VERTEX
  5
64E
  8
0
  6
CONTINUOUS
 62
     7
 10
363.3354879536
 20
-43.2997834787
 30
0.0
  0
VERTEX
  5
64F
  8
0
  6
CONTINUOUS
 62
     7
 10
363.6159993329
 20
-43.0674386129
 30
0.0
  0
VERTEX
  5
650
  8
0
  6
CONTINUOUS
 62
     7
 10
363.8754941144
 20
-42.7920658991
 30
0.0
  0
VERTEX
  5
651
  8
0
  6
CONTINUOUS
 62
     7
 10
364.1034699597
 20
-42.4762946472
 30
0.0
  0
VERTEX
  5
652
  8
0
  6
CONTINUOUS
 62
     7
 10
364.2902351536
 20
-42.1259884641
 30
0.0
  0
VERTEX
  5
653
  8
0
  6
CONTINUOUS
 62
     7
 10
364.440009705
 20
-41.7072904215
 30
0.0
  0
VERTEX
  5
654
  8
0
  6
CONTINUOUS
 62
     7
 10
364.4658304371
 20
-41.5734310553
 30
0.0
  0
SEQEND
  5
88E
  8
0
  6
CONTINUOUS
 62
     7
  0
POLYLINE
  5
246
  8
0
  6
CONTINUOUS
 62
     7
 66
     1
 10
0.0
 20
0.0
 30
0.0
  0
VERTEX
  5
655
  8
0
  6
CONTINUOUS
 62
     7
 10
284.4925619282
 20
-41.5741045878
 30
0.0
  0
VERTEX
  5
656
  8
0
  6
CONTINUOUS
 62
     7
 10
284.4935096421
 20
-41.5806149051
 30
0.0
  0
VERTEX
  5
657
  8
0
  6
CONTINUOUS
 62
     7
 10
284.616342894
 20
-41.9860315428
 30
0.0
  0
VERTEX
  5
658
  8
0
  6
CONTINUOUS
 62
     7
 10
284.789506308
 20
-42.3549425707
 30
0.0
  0
VERTEX
  5
659
  8
0
  6
CONTINUOUS
 62
     7
 10
285.003039948
 20
-42.6830028102
 30
0.0
  0
VERTEX
  5
65A
  8
0
  6
CONTINUOUS
 62
     7
 10
285.2469898381
 20
-42.9679904983
 30
0.0
  0
VERTEX
  5
65B
  8
0
  6
CONTINUOUS
 62
     7
 10
285.5116821446
 20
-43.2095897303
 30
0.0
  0
VERTEX
  5
65C
  8
0
  6
CONTINUOUS
 62
     7
 10
285.7886708893
 20
-43.409698169
 30
0.0
  0
VERTEX
  5
65D
  8
0
  6
CONTINUOUS
 62
     7
 10
286.072460524
 20
-43.5725246475
 30
0.0
  0
VERTEX
  5
65E
  8
0
  6
CONTINUOUS
 62
     7
 10
286.3624073186
 20
-43.7039685354
 30
0.0
  0
VERTEX
  5
65F
  8
0
  6
CONTINUOUS
 62
     7
 10
286.6656876721
 20
-43.8108523295
 30
0.0
  0
VERTEX
  5
660
  8
0
  6
CONTINUOUS
 62
     7
 10
286.9992114224
 20
-43.899096261
 30
0.0
  0
VERTEX
  5
661
  8
0
  6
CONTINUOUS
 62
     7
 10
287.3563862958
 20
-43.9668637619
 30
0.0
  0
VERTEX
  5
662
  8
0
  6
CONTINUOUS
 62
     7
 10
287.8219581761
 20
-44.0243449912
 30
0.0
  0
VERTEX
  5
663
  8
0
  6
CONTINUOUS
 62
     7
 10
288.4884334721
 20
-44.065047513
 30
0.0
  0
VERTEX
  5
664
  8
0
  6
CONTINUOUS
 62
     7
 10
289.0617884316
 20
-44.0739591525
 30
0.0
  0
VERTEX
  5
665
  8
0
  6
CONTINUOUS
 62
     7
 10
289.6424270787
 20
-44.0661025152
 30
0.0
  0
VERTEX
  5
666
  8
0
  6
CONTINUOUS
 62
     7
 10
290.3002358594
 20
-44.0421146259
 30
0.0
  0
VERTEX
  5
667
  8
0
  6
CONTINUOUS
 62
     7
 10
290.974161736
 20
-44.0048639581
 30
0.0
  0
VERTEX
  5
668
  8
0
  6
CONTINUOUS
 62
     7
 10
291.6775144257
 20
-43.9557370648
 30
0.0
  0
VERTEX
  5
669
  8
0
  6
CONTINUOUS
 62
     7
 10
292.4125887074
 20
-43.8958023593
 30
0.0
  0
VERTEX
  5
66A
  8
0
  6
CONTINUOUS
 62
     7
 10
293.1778646626
 20
-43.8259390101
 30
0.0
  0
VERTEX
  5
66B
  8
0
  6
CONTINUOUS
 62
     7
 10
293.9708985009
 20
-43.7469799922
 30
0.0
  0
VERTEX
  5
66C
  8
0
  6
CONTINUOUS
 62
     7
 10
294.788376204
 20
-43.6597821221
 30
0.0
  0
VERTEX
  5
66D
  8
0
  6
CONTINUOUS
 62
     7
 10
295.6264592328
 20
-43.5652268038
 30
0.0
  0
VERTEX
  5
66E
  8
0
  6
CONTINUOUS
 62
     7
 10
296.4810348668
 20
-43.4642140672
 30
0.0
  0
VERTEX
  5
66F
  8
0
  6
CONTINUOUS
 62
     7
 10
297.3464227833
 20
-43.3578533039
 30
0.0
  0
VERTEX
  5
670
  8
0
  6
CONTINUOUS
 62
     7
 10
298.2178963341
 20
-43.2470944629
 30
0.0
  0
VERTEX
  5
671
  8
0
  6
CONTINUOUS
 62
     7
 10
299.0974761166
 20
-43.1316983805
 30
0.0
  0
VERTEX
  5
672
  8
0
  6
CONTINUOUS
 62
     7
 10
299.6232904114
 20
-43.0605550215
 30
0.0
  0
SEQEND
  5
88D
  8
0
  6
CONTINUOUS
 62
     7
  0
POLYLINE
  5
247
  8
0
  6
CONTINUOUS
 62
     7
 66
     1
 10
0.0
 20
0.0
 30
0.0
  0
VERTEX
  5
673
  8
0
  6
CONTINUOUS
 62
     7
 10
364.4793249287
 20
-41.5034976707
 30
0.0
  0
VERTEX
  5
674
  8
0
  6
CONTINUOUS
 62
     7
 10
364.5218111195
 20
-41.2831989036
 30
0.0
  0
VERTEX
  5
675
  8
0
  6
CONTINUOUS
 62
     7
 10
364.535830132
 20
-40.9547333524
 30
0.0
  0
SEQEND
  5
88C
  8
0
  6
CONTINUOUS
 62
     7
  0
POLYLINE
  5
248
  8
0
  6
CONTINUOUS
 62
     7
 66
     1
 10
0.0
 20
0.0
 30
0.0
  0
VERTEX
  5
676
  8
0
  6
CONTINUOUS
 62
     7
 10
284.4311631837
 20
-40.9475137398
 30
0.0
  0
VERTEX
  5
677
  8
0
  6
CONTINUOUS
 62
     7
 10
284.4307399907
 20
-41.1473621533
 30
0.0
  0
VERTEX
  5
678
  8
0
  6
CONTINUOUS
 62
     7
 10
284.4925619282
 20
-41.5741045878
 30
0.0
  0
SEQEND
  5
88B
  8
0
  6
CONTINUOUS
 62
     7
  0
ARC
  5
249
  8
0
  6
CONTINUOUS
 62
     7
 10
324.4817651429
 20
-226.0712720646
 30
0.0
 40
184.6914271568429
 50
82.2647807118
 51
97.7352192882
  0
POLYLINE
  5
24A
  8
0
  6
CONTINUOUS
 62
     7
 66
     1
 10
0.0
 20
0.0
 30
0.0
  0
VERTEX
  5
679
  8
0
  6
CONTINUOUS
 62
     7
 10
178.8989998021
 20
-29.8556608067
 30
0.0
  0
VERTEX
  5
67A
  8
0
  6
CONTINUOUS
 62
     7
 10
178.1028993048
 20
-29.9676355825
 30
0.0
  0
VERTEX
  5
67B
  8
0
  6
CONTINUOUS
 62
     7
 10
177.1962143101
 20
-30.1074323163
 30
0.0
  0
VERTEX
  5
67C
  8
0
  6
CONTINUOUS
 62
     7
 10
176.2989706912
 20
-30.2582156763
 30
0.0
  0
VERTEX
  5
67D
  8
0
  6
CONTINUOUS
 62
     7
 10
175.4157967486
 20
-30.4193315015
 30
0.0
  0
VERTEX
  5
67E
  8
0
  6
CONTINUOUS
 62
     7
 10
174.5612836995
 20
-30.5875894532
 30
0.0
  0
VERTEX
  5
67F
  8
0
  6
CONTINUOUS
 62
     7
 10
173.7223393836
 20
-30.7648715482
 30
0.0
  0
VERTEX
  5
680
  8
0
  6
CONTINUOUS
 62
     7
 10
172.9002661624
 20
-30.9507188306
 30
0.0
  0
VERTEX
  5
681
  8
0
  6
CONTINUOUS
 62
     7
 10
172.1011645713
 20
-31.1436739669
 30
0.0
  0
VERTEX
  5
682
  8
0
  6
CONTINUOUS
 62
     7
 10
171.3308788457
 20
-31.3422796235
 30
0.0
  0
VERTEX
  5
683
  8
0
  6
CONTINUOUS
 62
     7
 10
170.5946601548
 20
-31.5451917157
 30
0.0
  0
VERTEX
  5
684
  8
0
  6
CONTINUOUS
 62
     7
 10
169.8967136063
 20
-31.7513835535
 30
0.0
  0
VERTEX
  5
685
  8
0
  6
CONTINUOUS
 62
     7
 10
169.2425138869
 20
-31.9590252743
 30
0.0
  0
VERTEX
  5
686
  8
0
  6
CONTINUOUS
 62
     7
 10
168.6433322348
 20
-32.163598846
 30
0.0
  0
VERTEX
  5
687
  8
0
  6
CONTINUOUS
 62
     7
 10
168.05912923
 20
-32.3795390234
 30
0.0
  0
VERTEX
  5
688
  8
0
  6
CONTINUOUS
 62
     7
 10
167.5056941428
 20
-32.6035899029
 30
0.0
  0
VERTEX
  5
689
  8
0
  6
CONTINUOUS
 62
     7
 10
166.9753737368
 20
-32.8427177773
 30
0.0
  0
VERTEX
  5
68A
  8
0
  6
CONTINUOUS
 62
     7
 10
166.4494223513
 20
-33.1148249016
 30
0.0
  0
VERTEX
  5
68B
  8
0
  6
CONTINUOUS
 62
     7
 10
166.0077161708
 20
-33.3856326447
 30
0.0
  0
VERTEX
  5
68C
  8
0
  6
CONTINUOUS
 62
     7
 10
165.7030887522
 20
-33.6076524959
 30
0.0
  0
VERTEX
  5
68D
  8
0
  6
CONTINUOUS
 62
     7
 10
165.4435611882
 20
-33.8306841359
 30
0.0
  0
VERTEX
  5
68E
  8
0
  6
CONTINUOUS
 62
     7
 10
165.2092493691
 20
-34.0707984672
 30
0.0
  0
VERTEX
  5
68F
  8
0
  6
CONTINUOUS
 62
     7
 10
164.9968124547
 20
-34.335545908
 30
0.0
  0
VERTEX
  5
690
  8
0
  6
CONTINUOUS
 62
     7
 10
164.8072041192
 20
-34.631581317
 30
0.0
  0
VERTEX
  5
691
  8
0
  6
CONTINUOUS
 62
     7
 10
164.6465815224
 20
-34.9611353979
 30
0.0
  0
VERTEX
  5
692
  8
0
  6
CONTINUOUS
 62
     7
 10
164.5237303891
 20
-35.321220468
 30
0.0
  0
VERTEX
  5
693
  8
0
  6
CONTINUOUS
 62
     7
 10
164.4470877566
 20
-35.7046213851
 30
0.0
  0
VERTEX
  5
694
  8
0
  6
CONTINUOUS
 62
     7
 10
164.4247121729
 20
-36.0705849633
 30
0.0
  0
SEQEND
  5
88A
  8
0
  6
CONTINUOUS
 62
     7
  0
POLYLINE
  5
24B
  8
0
  6
CONTINUOUS
 62
     7
 66
     1
 10
0.0
 20
0.0
 30
0.0
  0
VERTEX
  5
695
  8
0
  6
CONTINUOUS
 62
     7
 10
244.5349432149
 20
-36.0833731399
 30
0.0
  0
VERTEX
  5
696
  8
0
  6
CONTINUOUS
 62
     7
 10
244.5385373749
 20
-36.010113071
 30
0.0
  0
VERTEX
  5
697
  8
0
  6
CONTINUOUS
 62
     7
 10
244.5013470568
 20
-35.6112551794
 30
0.0
  0
VERTEX
  5
698
  8
0
  6
CONTINUOUS
 62
     7
 10
244.4144166627
 20
-35.2368441329
 30
0.0
  0
VERTEX
  5
699
  8
0
  6
CONTINUOUS
 62
     7
 10
244.2863143601
 20
-34.8921191797
 30
0.0
  0
VERTEX
  5
69A
  8
0
  6
CONTINUOUS
 62
     7
 10
244.1258914389
 20
-34.5802363858
 30
0.0
  0
VERTEX
  5
69B
  8
0
  6
CONTINUOUS
 62
     7
 10
243.9411915459
 20
-34.3014744029
 30
0.0
  0
VERTEX
  5
69C
  8
0
  6
CONTINUOUS
 62
     7
 10
243.7376327433
 20
-34.0526235209
 30
0.0
  0
VERTEX
  5
69D
  8
0
  6
CONTINUOUS
 62
     7
 10
243.5160465159
 20
-33.8271778927
 30
0.0
  0
VERTEX
  5
69E
  8
0
  6
CONTINUOUS
 62
     7
 10
243.270919434
 20
-33.6159867153
 30
0.0
  0
VERTEX
  5
69F
  8
0
  6
CONTINUOUS
 62
     7
 10
242.9847038903
 20
-33.4052872763
 30
0.0
  0
VERTEX
  5
6A0
  8
0
  6
CONTINUOUS
 62
     7
 10
242.611706964
 20
-33.1710440025
 30
0.0
  0
VERTEX
  5
6A1
  8
0
  6
CONTINUOUS
 62
     7
 10
242.1318865933
 20
-32.9137963162
 30
0.0
  0
VERTEX
  5
6A2
  8
0
  6
CONTINUOUS
 62
     7
 10
241.6005588688
 20
-32.666201602
 30
0.0
  0
VERTEX
  5
6A3
  8
0
  6
CONTINUOUS
 62
     7
 10
241.0634226718
 20
-32.4425575242
 30
0.0
  0
VERTEX
  5
6A4
  8
0
  6
CONTINUOUS
 62
     7
 10
240.4452599206
 20
-32.2088238702
 30
0.0
  0
VERTEX
  5
6A5
  8
0
  6
CONTINUOUS
 62
     7
 10
239.8070908703
 20
-31.9876667962
 30
0.0
  0
VERTEX
  5
6A6
  8
0
  6
CONTINUOUS
 62
     7
 10
239.1442276158
 20
-31.7751956091
 30
0.0
  0
VERTEX
  5
6A7
  8
0
  6
CONTINUOUS
 62
     7
 10
238.4570903697
 20
-31.5703299747
 30
0.0
  0
VERTEX
  5
6A8
  8
0
  6
CONTINUOUS
 62
     7
 10
237.7240068831
 20
-31.3663062558
 30
0.0
  0
VERTEX
  5
6A9
  8
0
  6
CONTINUOUS
 62
     7
 10
236.9578040757
 20
-31.1669272289
 30
0.0
  0
VERTEX
  5
6AA
  8
0
  6
CONTINUOUS
 62
     7
 10
236.1609615006
 20
-30.9729066596
 30
0.0
  0
VERTEX
  5
6AB
  8
0
  6
CONTINUOUS
 62
     7
 10
235.3366471448
 20
-30.7851952419
 30
0.0
  0
VERTEX
  5
6AC
  8
0
  6
CONTINUOUS
 62
     7
 10
234.488529674
 20
-30.6048777804
 30
0.0
  0
VERTEX
  5
6AD
  8
0
  6
CONTINUOUS
 62
     7
 10
233.6205489554
 20
-30.4330778227
 30
0.0
  0
VERTEX
  5
6AE
  8
0
  6
CONTINUOUS
 62
     7
 10
232.7368683734
 20
-30.2709218965
 30
0.0
  0
VERTEX
  5
6AF
  8
0
  6
CONTINUOUS
 62
     7
 10
231.8470693745
 20
-30.1202428446
 30
0.0
  0
VERTEX
  5
6B0
  8
0
  6
CONTINUOUS
 62
     7
 10
230.9455252804
 20
-29.9799841747
 30
0.0
  0
VERTEX
  5
6B1
  8
0
  6
CONTINUOUS
 62
     7
 10
230.0646133341
 20
-29.8548501835
 30
0.0
  0
SEQEND
  5
889
  8
0
  6
CONTINUOUS
 62
     7
  0
ARC
  5
24C
  8
0
  6
CONTINUOUS
 62
     7
 10
204.3593251618
 20
-216.9471887853
 30
0.0
 40
188.8174305777975
 50
90.2489000752
 51
97.7494231048
  0
ARC
  5
24D
  8
0
  6
CONTINUOUS
 62
     7
 10
204.6886069194
 20
-216.0386988783
 30
0.0
 40
187.905861201124
 50
82.2387238284
 51
89.7798291344
  0
POLYLINE
  5
24E
  8
0
  6
CONTINUOUS
 62
     7
 66
     1
 10
0.0
 20
0.0
 30
0.0
  0
VERTEX
  5
6B2
  8
0
  6
CONTINUOUS
 62
     7
 10
169.0178192773
 20
-37.8446605907
 30
0.0
  0
VERTEX
  5
6B3
  8
0
  6
CONTINUOUS
 62
     7
 10
169.0163440623
 20
-37.8457900987
 30
0.0
  0
VERTEX
  5
6B4
  8
0
  6
CONTINUOUS
 62
     7
 10
169.0567560115
 20
-37.8211867914
 30
0.0
  0
VERTEX
  5
6B5
  8
0
  6
CONTINUOUS
 62
     7
 10
169.1481984772
 20
-37.7707120881
 30
0.0
  0
VERTEX
  5
6B6
  8
0
  6
CONTINUOUS
 62
     7
 10
169.2974157252
 20
-37.6958158717
 30
0.0
  0
VERTEX
  5
6B7
  8
0
  6
CONTINUOUS
 62
     7
 10
169.5094711699
 20
-37.5985127792
 30
0.0
  0
VERTEX
  5
6B8
  8
0
  6
CONTINUOUS
 62
     7
 10
169.7870082774
 20
-37.4814477668
 30
0.0
  0
VERTEX
  5
6B9
  8
0
  6
CONTINUOUS
 62
     7
 10
170.1301849999
 20
-37.3477172957
 30
0.0
  0
VERTEX
  5
6BA
  8
0
  6
CONTINUOUS
 62
     7
 10
170.5370463051
 20
-37.2005877004
 30
0.0
  0
VERTEX
  5
6BB
  8
0
  6
CONTINUOUS
 62
     7
 10
171.0041381039
 20
-37.0432731614
 30
0.0
  0
VERTEX
  5
6BC
  8
0
  6
CONTINUOUS
 62
     7
 10
171.5267695107
 20
-36.8788731203
 30
0.0
  0
VERTEX
  5
6BD
  8
0
  6
CONTINUOUS
 62
     7
 10
172.1020526805
 20
-36.7098239169
 30
0.0
  0
VERTEX
  5
6BE
  8
0
  6
CONTINUOUS
 62
     7
 10
172.710967771
 20
-36.5422588692
 30
0.0
  0
VERTEX
  5
6BF
  8
0
  6
CONTINUOUS
 62
     7
 10
173.3716077723
 20
-36.3716361032
 30
0.0
  0
VERTEX
  5
6C0
  8
0
  6
CONTINUOUS
 62
     7
 10
174.0770823874
 20
-36.2006825314
 30
0.0
  0
VERTEX
  5
6C1
  8
0
  6
CONTINUOUS
 62
     7
 10
174.8200572648
 20
-36.0319835053
 30
0.0
  0
VERTEX
  5
6C2
  8
0
  6
CONTINUOUS
 62
     7
 10
175.5925096192
 20
-35.8680468903
 30
0.0
  0
VERTEX
  5
6C3
  8
0
  6
CONTINUOUS
 62
     7
 10
176.3846255459
 20
-35.7115042315
 30
0.0
  0
VERTEX
  5
6C4
  8
0
  6
CONTINUOUS
 62
     7
 10
177.1878726401
 20
-35.5644372211
 30
0.0
  0
VERTEX
  5
6C5
  8
0
  6
CONTINUOUS
 62
     7
 10
177.9985196509
 20
-35.4275685654
 30
0.0
  0
VERTEX
  5
6C6
  8
0
  6
CONTINUOUS
 62
     7
 10
178.8275964179
 20
-35.2989730344
 30
0.0
  0
VERTEX
  5
6C7
  8
0
  6
CONTINUOUS
 62
     7
 10
179.6234584965
 20
-35.1862606511
 30
0.0
  0
SEQEND
  5
888
  8
0
  6
CONTINUOUS
 62
     7
  0
POLYLINE
  5
24F
  8
0
  6
CONTINUOUS
 62
     7
 66
     1
 10
0.0
 20
0.0
 30
0.0
  0
VERTEX
  5
6C8
  8
0
  6
CONTINUOUS
 62
     7
 10
229.3401248374
 20
-35.1866346703
 30
0.0
  0
VERTEX
  5
6C9
  8
0
  6
CONTINUOUS
 62
     7
 10
230.0000853457
 20
-35.2787298069
 30
0.0
  0
VERTEX
  5
6CA
  8
0
  6
CONTINUOUS
 62
     7
 10
230.8375157036
 20
-35.4069498286
 30
0.0
  0
VERTEX
  5
6CB
  8
0
  6
CONTINUOUS
 62
     7
 10
231.6666937985
 20
-35.5453741655
 30
0.0
  0
VERTEX
  5
6CC
  8
0
  6
CONTINUOUS
 62
     7
 10
232.4811495461
 20
-35.6929001317
 30
0.0
  0
VERTEX
  5
6CD
  8
0
  6
CONTINUOUS
 62
     7
 10
233.2699663558
 20
-35.8470973477
 30
0.0
  0
VERTEX
  5
6CE
  8
0
  6
CONTINUOUS
 62
     7
 10
234.0381092944
 20
-36.0083577142
 30
0.0
  0
VERTEX
  5
6CF
  8
0
  6
CONTINUOUS
 62
     7
 10
234.7817517438
 20
-36.1755025492
 30
0.0
  0
VERTEX
  5
6D0
  8
0
  6
CONTINUOUS
 62
     7
 10
235.4948855557
 20
-36.3467750058
 30
0.0
  0
VERTEX
  5
6D1
  8
0
  6
CONTINUOUS
 62
     7
 10
236.1714906611
 20
-36.5202438936
 30
0.0
  0
VERTEX
  5
6D2
  8
0
  6
CONTINUOUS
 62
     7
 10
236.8057824292
 20
-36.6938424215
 30
0.0
  0
VERTEX
  5
6D3
  8
0
  6
CONTINUOUS
 62
     7
 10
237.3921401419
 20
-36.8653294549
 30
0.0
  0
VERTEX
  5
6D4
  8
0
  6
CONTINUOUS
 62
     7
 10
237.9255331673
 20
-37.0323610411
 30
0.0
  0
VERTEX
  5
6D5
  8
0
  6
CONTINUOUS
 62
     7
 10
238.4048588194
 20
-37.1934023604
 30
0.0
  0
VERTEX
  5
6D6
  8
0
  6
CONTINUOUS
 62
     7
 10
238.8310260691
 20
-37.3475056992
 30
0.0
  0
VERTEX
  5
6D7
  8
0
  6
CONTINUOUS
 62
     7
 10
239.196804873
 20
-37.4905911193
 30
0.0
  0
VERTEX
  5
6D8
  8
0
  6
CONTINUOUS
 62
     7
 10
239.4954152026
 20
-37.617823194
 30
0.0
  0
VERTEX
  5
6D9
  8
0
  6
CONTINUOUS
 62
     7
 10
239.699626676
 20
-37.7129313455
 30
0.0
  0
VERTEX
  5
6DA
  8
0
  6
CONTINUOUS
 62
     7
 10
239.8409999528
 20
-37.7850440249
 30
0.0
  0
VERTEX
  5
6DB
  8
0
  6
CONTINUOUS
 62
     7
 10
239.9231887974
 20
-37.831242095
 30
0.0
  0
VERTEX
  5
6DC
  8
0
  6
CONTINUOUS
 62
     7
 10
239.9526066699
 20
-37.849476646
 30
0.0
  0
VERTEX
  5
6DD
  8
0
  6
CONTINUOUS
 62
     7
 10
239.9504072585
 20
-37.8478747711
 30
0.0
  0
SEQEND
  5
887
  8
0
  6
CONTINUOUS
 62
     7
  0
LINE
  5
250
  8
0
  6
CONTINUOUS
 62
     7
 10
203.4817663573
 20
-27.7893793688
 30
0.0
 11
203.4817663573
 21
-28.1473514543
 31
0.0
  0
LINE
  5
251
  8
0
  6
CONTINUOUS
 62
     7
 10
205.4817663126
 20
-28.1473514543
 30
0.0
 11
205.4817663126
 21
-27.7893793688
 31
0.0
  0
ARC
  5
252
  8
0
  6
CONTINUOUS
 62
     7
 10
204.481766335
 20
-218.1961149099
 30
0.0
 40
184.6914670168484
 50
82.2647823914
 51
97.7352176086
  0
LINE
  5
253
  8
0
  6
CONTINUOUS
 62
     7
 10
244.5405222096
 20
-40.9538795159
 30
0.0
 11
244.5405222096
 21
-36.0791054473
 31
0.0
  0
LINE
  5
254
  8
0
  6
CONTINUOUS
 62
     7
 10
164.4230104603
 20
-36.0791054473
 30
0.0
 11
164.4230104603
 21
-40.9538795159
 31
0.0
  0
POLYLINE
  5
255
  8
0
  6
CONTINUOUS
 62
     7
 66
     1
 10
0.0
 20
0.0
 30
0.0
  0
VERTEX
  5
6DE
  8
0
  6
CONTINUOUS
 62
     7
 10
229.3403036513
 20
-43.0607010529
 30
0.0
  0
VERTEX
  5
6DF
  8
0
  6
CONTINUOUS
 62
     7
 10
230.1169521727
 20
-43.1649063633
 30
0.0
  0
VERTEX
  5
6E0
  8
0
  6
CONTINUOUS
 62
     7
 10
230.9993810572
 20
-43.2796788321
 30
0.0
  0
VERTEX
  5
6E1
  8
0
  6
CONTINUOUS
 62
     7
 10
231.871316544
 20
-43.3894795284
 30
0.0
  0
VERTEX
  5
6E2
  8
0
  6
CONTINUOUS
 62
     7
 10
232.7288068452
 20
-43.4937362478
 30
0.0
  0
VERTEX
  5
6E3
  8
0
  6
CONTINUOUS
 62
     7
 10
233.5646904626
 20
-43.5912561522
 30
0.0
  0
VERTEX
  5
6E4
  8
0
  6
CONTINUOUS
 62
     7
 10
234.3861259141
 20
-43.6825719581
 30
0.0
  0
VERTEX
  5
6E5
  8
0
  6
CONTINUOUS
 62
     7
 10
235.1923115172
 20
-43.767137538
 30
0.0
  0
VERTEX
  5
6E6
  8
0
  6
CONTINUOUS
 62
     7
 10
235.976830832
 20
-43.8437421725
 30
0.0
  0
VERTEX
  5
6E7
  8
0
  6
CONTINUOUS
 62
     7
 10
236.7336161055
 20
-43.9112153754
 30
0.0
  0
VERTEX
  5
6E8
  8
0
  6
CONTINUOUS
 62
     7
 10
237.4573386826
 20
-43.9684455202
 30
0.0
  0
VERTEX
  5
6E9
  8
0
  6
CONTINUOUS
 62
     7
 10
238.1439245858
 20
-44.0143723891
 30
0.0
  0
VERTEX
  5
6EA
  8
0
  6
CONTINUOUS
 62
     7
 10
238.7921131768
 20
-44.0480072901
 30
0.0
  0
VERTEX
  5
6EB
  8
0
  6
CONTINUOUS
 62
     7
 10
239.4101567187
 20
-44.0686372027
 30
0.0
  0
VERTEX
  5
6EC
  8
0
  6
CONTINUOUS
 62
     7
 10
240.0031424679
 20
-44.0744806931
 30
0.0
  0
VERTEX
  5
6ED
  8
0
  6
CONTINUOUS
 62
     7
 10
240.5796087899
 20
-44.0620710061
 30
0.0
  0
VERTEX
  5
6EE
  8
0
  6
CONTINUOUS
 62
     7
 10
241.1615557589
 20
-44.0232832835
 30
0.0
  0
VERTEX
  5
6EF
  8
0
  6
CONTINUOUS
 62
     7
 10
241.7242951312
 20
-43.9476867125
 30
0.0
  0
VERTEX
  5
6F0
  8
0
  6
CONTINUOUS
 62
     7
 10
242.0902259268
 20
-43.8690972433
 30
0.0
  0
VERTEX
  5
6F1
  8
0
  6
CONTINUOUS
 62
     7
 10
242.4278743186
 20
-43.7684704468
 30
0.0
  0
VERTEX
  5
6F2
  8
0
  6
CONTINUOUS
 62
     7
 10
242.7407718815
 20
-43.6446671293
 30
0.0
  0
VERTEX
  5
6F3
  8
0
  6
CONTINUOUS
 62
     7
 10
243.0425293364
 20
-43.4905429289
 30
0.0
  0
VERTEX
  5
6F4
  8
0
  6
CONTINUOUS
 62
     7
 10
243.3354861655
 20
-43.2997834787
 30
0.0
  0
VERTEX
  5
6F5
  8
0
  6
CONTINUOUS
 62
     7
 10
243.6160035052
 20
-43.0674386129
 30
0.0
  0
VERTEX
  5
6F6
  8
0
  6
CONTINUOUS
 62
     7
 10
243.8754982867
 20
-42.7920658991
 30
0.0
  0
VERTEX
  5
6F7
  8
0
  6
CONTINUOUS
 62
     7
 10
244.1034711518
 20
-42.4762946472
 30
0.0
  0
VERTEX
  5
6F8
  8
0
  6
CONTINUOUS
 62
     7
 10
244.2902363457
 20
-42.1259884641
 30
0.0
  0
VERTEX
  5
6F9
  8
0
  6
CONTINUOUS
 62
     7
 10
244.4400079169
 20
-41.7072904215
 30
0.0
  0
VERTEX
  5
6FA
  8
0
  6
CONTINUOUS
 62
     7
 10
244.465828649
 20
-41.5734310553
 30
0.0
  0
SEQEND
  5
886
  8
0
  6
CONTINUOUS
 62
     7
  0
POLYLINE
  5
256
  8
0
  6
CONTINUOUS
 62
     7
 66
     1
 10
0.0
 20
0.0
 30
0.0
  0
VERTEX
  5
6FB
  8
0
  6
CONTINUOUS
 62
     7
 10
164.4925631203
 20
-41.5741045878
 30
0.0
  0
VERTEX
  5
6FC
  8
0
  6
CONTINUOUS
 62
     7
 10
164.4935078539
 20
-41.5806149051
 30
0.0
  0
VERTEX
  5
6FD
  8
0
  6
CONTINUOUS
 62
     7
 10
164.6163411059
 20
-41.9860315428
 30
0.0
  0
VERTEX
  5
6FE
  8
0
  6
CONTINUOUS
 62
     7
 10
164.7895075001
 20
-42.3549425707
 30
0.0
  0
VERTEX
  5
6FF
  8
0
  6
CONTINUOUS
 62
     7
 10
165.0030381598
 20
-42.6830028102
 30
0.0
  0
VERTEX
  5
700
  8
0
  6
CONTINUOUS
 62
     7
 10
165.2469880499
 20
-42.9679904983
 30
0.0
  0
VERTEX
  5
701
  8
0
  6
CONTINUOUS
 62
     7
 10
165.5116803565
 20
-43.2095897303
 30
0.0
  0
VERTEX
  5
702
  8
0
  6
CONTINUOUS
 62
     7
 10
165.7886691012
 20
-43.409698169
 30
0.0
  0
VERTEX
  5
703
  8
0
  6
CONTINUOUS
 62
     7
 10
166.0724617161
 20
-43.5725246475
 30
0.0
  0
VERTEX
  5
704
  8
0
  6
CONTINUOUS
 62
     7
 10
166.3624055304
 20
-43.7039685354
 30
0.0
  0
VERTEX
  5
705
  8
0
  6
CONTINUOUS
 62
     7
 10
166.665685884
 20
-43.8108523295
 30
0.0
  0
VERTEX
  5
706
  8
0
  6
CONTINUOUS
 62
     7
 10
166.9992126145
 20
-43.899096261
 30
0.0
  0
VERTEX
  5
707
  8
0
  6
CONTINUOUS
 62
     7
 10
167.3563874879
 20
-43.9668637619
 30
0.0
  0
VERTEX
  5
708
  8
0
  6
CONTINUOUS
 62
     7
 10
167.821956388
 20
-44.0243449912
 30
0.0
  0
VERTEX
  5
709
  8
0
  6
CONTINUOUS
 62
     7
 10
168.4884346642
 20
-44.065047513
 30
0.0
  0
VERTEX
  5
70A
  8
0
  6
CONTINUOUS
 62
     7
 10
169.0617866435
 20
-44.0739591525
 30
0.0
  0
VERTEX
  5
70B
  8
0
  6
CONTINUOUS
 62
     7
 10
169.6424282708
 20
-44.0661025152
 30
0.0
  0
VERTEX
  5
70C
  8
0
  6
CONTINUOUS
 62
     7
 10
170.3002340712
 20
-44.0421146259
 30
0.0
  0
VERTEX
  5
70D
  8
0
  6
CONTINUOUS
 62
     7
 10
170.9741629281
 20
-44.0048639581
 30
0.0
  0
VERTEX
  5
70E
  8
0
  6
CONTINUOUS
 62
     7
 10
171.6775156178
 20
-43.9557370648
 30
0.0
  0
VERTEX
  5
70F
  8
0
  6
CONTINUOUS
 62
     7
 10
172.4125898995
 20
-43.8958023593
 30
0.0
  0
VERTEX
  5
710
  8
0
  6
CONTINUOUS
 62
     7
 10
173.1778658547
 20
-43.8259390101
 30
0.0
  0
VERTEX
  5
711
  8
0
  6
CONTINUOUS
 62
     7
 10
173.9708967127
 20
-43.7469799922
 30
0.0
  0
VERTEX
  5
712
  8
0
  6
CONTINUOUS
 62
     7
 10
174.7883744158
 20
-43.6597821221
 30
0.0
  0
VERTEX
  5
713
  8
0
  6
CONTINUOUS
 62
     7
 10
175.6264634051
 20
-43.5652268038
 30
0.0
  0
VERTEX
  5
714
  8
0
  6
CONTINUOUS
 62
     7
 10
176.4810390391
 20
-43.4642140672
 30
0.0
  0
VERTEX
  5
715
  8
0
  6
CONTINUOUS
 62
     7
 10
177.3464239754
 20
-43.3578533039
 30
0.0
  0
VERTEX
  5
716
  8
0
  6
CONTINUOUS
 62
     7
 10
178.2179005065
 20
-43.2470944629
 30
0.0
  0
VERTEX
  5
717
  8
0
  6
CONTINUOUS
 62
     7
 10
179.0974773087
 20
-43.1316983805
 30
0.0
  0
VERTEX
  5
718
  8
0
  6
CONTINUOUS
 62
     7
 10
179.6232886233
 20
-43.0605550215
 30
0.0
  0
SEQEND
  5
885
  8
0
  6
CONTINUOUS
 62
     7
  0
POLYLINE
  5
257
  8
0
  6
CONTINUOUS
 62
     7
 66
     1
 10
0.0
 20
0.0
 30
0.0
  0
VERTEX
  5
719
  8
0
  6
CONTINUOUS
 62
     7
 10
244.4793201604
 20
-41.5034976707
 30
0.0
  0
VERTEX
  5
71A
  8
0
  6
CONTINUOUS
 62
     7
 10
244.5218152918
 20
-41.2831989036
 30
0.0
  0
VERTEX
  5
71B
  8
0
  6
CONTINUOUS
 62
     7
 10
244.5358313241
 20
-40.9547333524
 30
0.0
  0
SEQEND
  5
884
  8
0
  6
CONTINUOUS
 62
     7
  0
POLYLINE
  5
258
  8
0
  6
CONTINUOUS
 62
     7
 66
     1
 10
0.0
 20
0.0
 30
0.0
  0
VERTEX
  5
71C
  8
0
  6
CONTINUOUS
 62
     7
 10
164.4311613955
 20
-40.9475137398
 30
0.0
  0
VERTEX
  5
71D
  8
0
  6
CONTINUOUS
 62
     7
 10
164.4307411828
 20
-41.1473621533
 30
0.0
  0
VERTEX
  5
71E
  8
0
  6
CONTINUOUS
 62
     7
 10
164.4925631203
 20
-41.5741045878
 30
0.0
  0
SEQEND
  5
883
  8
0
  6
CONTINUOUS
 62
     7
  0
ARC
  5
259
  8
0
  6
CONTINUOUS
 62
     7
 10
204.481766335
 20
-226.0712444799
 30
0.0
 40
184.6913998231538
 50
82.26477956
 51
97.73522044
  0
POLYLINE
  5
25A
  8
0
  6
CONTINUOUS
 62
     7
 66
     1
 10
0.0
 20
0.0
 30
0.0
  0
VERTEX
  5
71F
  8
0
  6
CONTINUOUS
 62
     7
 10
58.8990069546
 20
-29.8556608067
 30
0.0
  0
VERTEX
  5
720
  8
0
  6
CONTINUOUS
 62
     7
 10
58.1029034772
 20
-29.9676355825
 30
0.0
  0
VERTEX
  5
721
  8
0
  6
CONTINUOUS
 62
     7
 10
57.1962095418
 20
-30.1074323163
 30
0.0
  0
VERTEX
  5
722
  8
0
  6
CONTINUOUS
 62
     7
 10
56.298968903
 20
-30.2582156763
 30
0.0
  0
VERTEX
  5
723
  8
0
  6
CONTINUOUS
 62
     7
 10
55.4157949605
 20
-30.4193315015
 30
0.0
  0
VERTEX
  5
724
  8
0
  6
CONTINUOUS
 62
     7
 10
54.5612789311
 20
-30.5875894532
 30
0.0
  0
VERTEX
  5
725
  8
0
  6
CONTINUOUS
 62
     7
 10
53.7223435559
 20
-30.7648715482
 30
0.0
  0
VERTEX
  5
726
  8
0
  6
CONTINUOUS
 62
     7
 10
52.9002643742
 20
-30.9507188306
 30
0.0
  0
VERTEX
  5
727
  8
0
  6
CONTINUOUS
 62
     7
 10
52.1011687436
 20
-31.1436739669
 30
0.0
  0
VERTEX
  5
728
  8
0
  6
CONTINUOUS
 62
     7
 10
51.3308859982
 20
-31.3422796235
 30
0.0
  0
VERTEX
  5
729
  8
0
  6
CONTINUOUS
 62
     7
 10
50.5946613469
 20
-31.5451917157
 30
0.0
  0
VERTEX
  5
72A
  8
0
  6
CONTINUOUS
 62
     7
 10
49.8967147984
 20
-31.7513835535
 30
0.0
  0
VERTEX
  5
72B
  8
0
  6
CONTINUOUS
 62
     7
 10
49.2425180592
 20
-31.9590252743
 30
0.0
  0
VERTEX
  5
72C
  8
0
  6
CONTINUOUS
 62
     7
 10
48.6433364071
 20
-32.163598846
 30
0.0
  0
VERTEX
  5
72D
  8
0
  6
CONTINUOUS
 62
     7
 10
48.0591274418
 20
-32.3795390234
 30
0.0
  0
VERTEX
  5
72E
  8
0
  6
CONTINUOUS
 62
     7
 10
47.5056983151
 20
-32.6035899029
 30
0.0
  0
VERTEX
  5
72F
  8
0
  6
CONTINUOUS
 62
     7
 10
46.9753719487
 20
-32.8427177773
 30
0.0
  0
VERTEX
  5
730
  8
0
  6
CONTINUOUS
 62
     7
 10
46.4494205632
 20
-33.1148249016
 30
0.0
  0
VERTEX
  5
731
  8
0
  6
CONTINUOUS
 62
     7
 10
46.0077143826
 20
-33.3856326447
 30
0.0
  0
VERTEX
  5
732
  8
0
  6
CONTINUOUS
 62
     7
 10
45.7030869641
 20
-33.6076524959
 30
0.0
  0
VERTEX
  5
733
  8
0
  6
CONTINUOUS
 62
     7
 10
45.4435564198
 20
-33.8306841359
 30
0.0
  0
VERTEX
  5
734
  8
0
  6
CONTINUOUS
 62
     7
 10
45.2092505612
 20
-34.0707984672
 30
0.0
  0
VERTEX
  5
735
  8
0
  6
CONTINUOUS
 62
     7
 10
44.9968076863
 20
-34.335545908
 30
0.0
  0
VERTEX
  5
736
  8
0
  6
CONTINUOUS
 62
     7
 10
44.8072053113
 20
-34.631581317
 30
0.0
  0
VERTEX
  5
737
  8
0
  6
CONTINUOUS
 62
     7
 10
44.6465827145
 20
-34.9611353979
 30
0.0
  0
VERTEX
  5
738
  8
0
  6
CONTINUOUS
 62
     7
 10
44.5237256207
 20
-35.321220468
 30
0.0
  0
VERTEX
  5
739
  8
0
  6
CONTINUOUS
 62
     7
 10
44.4470859685
 20
-35.7046213851
 30
0.0
  0
VERTEX
  5
73A
  8
0
  6
CONTINUOUS
 62
     7
 10
44.4247103848
 20
-36.0705849633
 30
0.0
  0
SEQEND
  5
882
  8
0
  6
CONTINUOUS
 62
     7
  0
POLYLINE
  5
25B
  8
0
  6
CONTINUOUS
 62
     7
 66
     1
 10
0.0
 20
0.0
 30
0.0
  0
VERTEX
  5
73B
  8
0
  6
CONTINUOUS
 62
     7
 10
124.534944407
 20
-36.0833731399
 30
0.0
  0
VERTEX
  5
73C
  8
0
  6
CONTINUOUS
 62
     7
 10
124.538538567
 20
-36.010113071
 30
0.0
  0
VERTEX
  5
73D
  8
0
  6
CONTINUOUS
 62
     7
 10
124.5013452687
 20
-35.6112551794
 30
0.0
  0
VERTEX
  5
73E
  8
0
  6
CONTINUOUS
 62
     7
 10
124.4144178548
 20
-35.2368441329
 30
0.0
  0
VERTEX
  5
73F
  8
0
  6
CONTINUOUS
 62
     7
 10
124.2863155522
 20
-34.8921191797
 30
0.0
  0
VERTEX
  5
740
  8
0
  6
CONTINUOUS
 62
     7
 10
124.1258896508
 20
-34.5802363858
 30
0.0
  0
VERTEX
  5
741
  8
0
  6
CONTINUOUS
 62
     7
 10
123.941192738
 20
-34.3014744029
 30
0.0
  0
VERTEX
  5
742
  8
0
  6
CONTINUOUS
 62
     7
 10
123.7376309552
 20
-34.0526235209
 30
0.0
  0
VERTEX
  5
743
  8
0
  6
CONTINUOUS
 62
     7
 10
123.5160447278
 20
-33.8271778927
 30
0.0
  0
VERTEX
  5
744
  8
0
  6
CONTINUOUS
 62
     7
 10
123.2709206261
 20
-33.6159867153
 30
0.0
  0
VERTEX
  5
745
  8
0
  6
CONTINUOUS
 62
     7
 10
122.9847050824
 20
-33.4052872763
 30
0.0
  0
VERTEX
  5
746
  8
0
  6
CONTINUOUS
 62
     7
 10
122.6117051758
 20
-33.1710440025
 30
0.0
  0
VERTEX
  5
747
  8
0
  6
CONTINUOUS
 62
     7
 10
122.1318877854
 20
-32.9137963162
 30
0.0
  0
VERTEX
  5
748
  8
0
  6
CONTINUOUS
 62
     7
 10
121.6005600609
 20
-32.666201602
 30
0.0
  0
VERTEX
  5
749
  8
0
  6
CONTINUOUS
 62
     7
 10
121.0634208836
 20
-32.4425575242
 30
0.0
  0
VERTEX
  5
74A
  8
0
  6
CONTINUOUS
 62
     7
 10
120.4452611127
 20
-32.2088238702
 30
0.0
  0
VERTEX
  5
74B
  8
0
  6
CONTINUOUS
 62
     7
 10
119.8070920624
 20
-31.9876667962
 30
0.0
  0
VERTEX
  5
74C
  8
0
  6
CONTINUOUS
 62
     7
 10
119.1442288079
 20
-31.7751956091
 30
0.0
  0
VERTEX
  5
74D
  8
0
  6
CONTINUOUS
 62
     7
 10
118.4570885815
 20
-31.5703299747
 30
0.0
  0
VERTEX
  5
74E
  8
0
  6
CONTINUOUS
 62
     7
 10
117.724005095
 20
-31.3663062558
 30
0.0
  0
VERTEX
  5
74F
  8
0
  6
CONTINUOUS
 62
     7
 10
116.9578052678
 20
-31.1669272289
 30
0.0
  0
VERTEX
  5
750
  8
0
  6
CONTINUOUS
 62
     7
 10
116.1609626927
 20
-30.9729066596
 30
0.0
  0
VERTEX
  5
751
  8
0
  6
CONTINUOUS
 62
     7
 10
115.3366483369
 20
-30.7851952419
 30
0.0
  0
VERTEX
  5
752
  8
0
  6
CONTINUOUS
 62
     7
 10
114.4885278859
 20
-30.6048777804
 30
0.0
  0
VERTEX
  5
753
  8
0
  6
CONTINUOUS
 62
     7
 10
113.6205471673
 20
-30.4330778227
 30
0.0
  0
VERTEX
  5
754
  8
0
  6
CONTINUOUS
 62
     7
 10
112.7368665852
 20
-30.2709218965
 30
0.0
  0
VERTEX
  5
755
  8
0
  6
CONTINUOUS
 62
     7
 10
111.8470705666
 20
-30.1202428446
 30
0.0
  0
VERTEX
  5
756
  8
0
  6
CONTINUOUS
 62
     7
 10
110.9455264725
 20
-29.9799841747
 30
0.0
  0
VERTEX
  5
757
  8
0
  6
CONTINUOUS
 62
     7
 10
110.064611546
 20
-29.8548501835
 30
0.0
  0
SEQEND
  5
881
  8
0
  6
CONTINUOUS
 62
     7
  0
ARC
  5
25C
  8
0
  6
CONTINUOUS
 62
     7
 10
84.3593155697
 20
-216.9469886231
 30
0.0
 40
188.817230387592
 50
90.2488982536
 51
97.7494271563
  0
ARC
  5
25D
  8
0
  6
CONTINUOUS
 62
     7
 10
84.6886164724
 20
-216.0385339293
 30
0.0
 40
187.9056962316225
 50
82.2387204626
 51
89.779830667
  0
POLYLINE
  5
25E
  8
0
  6
CONTINUOUS
 62
     7
 66
     1
 10
0.0
 20
0.0
 30
0.0
  0
VERTEX
  5
758
  8
0
  6
CONTINUOUS
 62
     7
 10
49.0178204693
 20
-37.8446605907
 30
0.0
  0
VERTEX
  5
759
  8
0
  6
CONTINUOUS
 62
     7
 10
49.0163422742
 20
-37.8457900987
 30
0.0
  0
VERTEX
  5
75A
  8
0
  6
CONTINUOUS
 62
     7
 10
49.0567542233
 20
-37.8211867914
 30
0.0
  0
VERTEX
  5
75B
  8
0
  6
CONTINUOUS
 62
     7
 10
49.1481996693
 20
-37.7707120881
 30
0.0
  0
VERTEX
  5
75C
  8
0
  6
CONTINUOUS
 62
     7
 10
49.2974139371
 20
-37.6958158717
 30
0.0
  0
VERTEX
  5
75D
  8
0
  6
CONTINUOUS
 62
     7
 10
49.5094753422
 20
-37.5985127792
 30
0.0
  0
VERTEX
  5
75E
  8
0
  6
CONTINUOUS
 62
     7
 10
49.7870064892
 20
-37.4814477668
 30
0.0
  0
VERTEX
  5
75F
  8
0
  6
CONTINUOUS
 62
     7
 10
50.130186192
 20
-37.3477172957
 30
0.0
  0
VERTEX
  5
760
  8
0
  6
CONTINUOUS
 62
     7
 10
50.5370474972
 20
-37.2005877004
 30
0.0
  0
VERTEX
  5
761
  8
0
  6
CONTINUOUS
 62
     7
 10
51.0041333356
 20
-37.0432731614
 30
0.0
  0
VERTEX
  5
762
  8
0
  6
CONTINUOUS
 62
     7
 10
51.5267707028
 20
-36.8788731203
 30
0.0
  0
VERTEX
  5
763
  8
0
  6
CONTINUOUS
 62
     7
 10
52.1020508923
 20
-36.7098239169
 30
0.0
  0
VERTEX
  5
764
  8
0
  6
CONTINUOUS
 62
     7
 10
52.7109719433
 20
-36.5422588692
 30
0.0
  0
VERTEX
  5
765
  8
0
  6
CONTINUOUS
 62
     7
 10
53.3716059842
 20
-36.3716361032
 30
0.0
  0
VERTEX
  5
766
  8
0
  6
CONTINUOUS
 62
     7
 10
54.0770865597
 20
-36.2006825314
 30
0.0
  0
VERTEX
  5
767
  8
0
  6
CONTINUOUS
 62
     7
 10
54.8200584569
 20
-36.0319835053
 30
0.0
  0
VERTEX
  5
768
  8
0
  6
CONTINUOUS
 62
     7
 10
55.5925108113
 20
-35.8680468903
 30
0.0
  0
VERTEX
  5
769
  8
0
  6
CONTINUOUS
 62
     7
 10
56.3846207776
 20
-35.7115042315
 30
0.0
  0
VERTEX
  5
76A
  8
0
  6
CONTINUOUS
 62
     7
 10
57.1878768124
 20
-35.5644372211
 30
0.0
  0
VERTEX
  5
76B
  8
0
  6
CONTINUOUS
 62
     7
 10
57.9985238232
 20
-35.4275685654
 30
0.0
  0
VERTEX
  5
76C
  8
0
  6
CONTINUOUS
 62
     7
 10
58.8276005902
 20
-35.2989730344
 30
0.0
  0
VERTEX
  5
76D
  8
0
  6
CONTINUOUS
 62
     7
 10
59.6234537282
 20
-35.1862606511
 30
0.0
  0
SEQEND
  5
880
  8
0
  6
CONTINUOUS
 62
     7
  0
POLYLINE
  5
25F
  8
0
  6
CONTINUOUS
 62
     7
 66
     1
 10
0.0
 20
0.0
 30
0.0
  0
VERTEX
  5
76E
  8
0
  6
CONTINUOUS
 62
     7
 10
109.3401230492
 20
-35.1866346703
 30
0.0
  0
VERTEX
  5
76F
  8
0
  6
CONTINUOUS
 62
     7
 10
110.0000835576
 20
-35.2787298069
 30
0.0
  0
VERTEX
  5
770
  8
0
  6
CONTINUOUS
 62
     7
 10
110.8375168957
 20
-35.4069498286
 30
0.0
  0
VERTEX
  5
771
  8
0
  6
CONTINUOUS
 62
     7
 10
111.6666949906
 20
-35.5453741655
 30
0.0
  0
VERTEX
  5
772
  8
0
  6
CONTINUOUS
 62
     7
 10
112.4811507382
 20
-35.6929001317
 30
0.0
  0
VERTEX
  5
773
  8
0
  6
CONTINUOUS
 62
     7
 10
113.2699645676
 20
-35.8470973477
 30
0.0
  0
VERTEX
  5
774
  8
0
  6
CONTINUOUS
 62
     7
 10
114.0381075062
 20
-36.0083577142
 30
0.0
  0
VERTEX
  5
775
  8
0
  6
CONTINUOUS
 62
     7
 10
114.7817529359
 20
-36.1755025492
 30
0.0
  0
VERTEX
  5
776
  8
0
  6
CONTINUOUS
 62
     7
 10
115.4948867478
 20
-36.3467750058
 30
0.0
  0
VERTEX
  5
777
  8
0
  6
CONTINUOUS
 62
     7
 10
116.171488873
 20
-36.5202438936
 30
0.0
  0
VERTEX
  5
778
  8
0
  6
CONTINUOUS
 62
     7
 10
116.8057836213
 20
-36.6938424215
 30
0.0
  0
VERTEX
  5
779
  8
0
  6
CONTINUOUS
 62
     7
 10
117.3921383538
 20
-36.8653294549
 30
0.0
  0
VERTEX
  5
77A
  8
0
  6
CONTINUOUS
 62
     7
 10
117.9255343594
 20
-37.0323610411
 30
0.0
  0
VERTEX
  5
77B
  8
0
  6
CONTINUOUS
 62
     7
 10
118.4048570313
 20
-37.1934023604
 30
0.0
  0
VERTEX
  5
77C
  8
0
  6
CONTINUOUS
 62
     7
 10
118.8310302415
 20
-37.3475056992
 30
0.0
  0
VERTEX
  5
77D
  8
0
  6
CONTINUOUS
 62
     7
 10
119.196806065
 20
-37.4905911193
 30
0.0
  0
VERTEX
  5
77E
  8
0
  6
CONTINUOUS
 62
     7
 10
119.4954134144
 20
-37.617823194
 30
0.0
  0
VERTEX
  5
77F
  8
0
  6
CONTINUOUS
 62
     7
 10
119.6996248879
 20
-37.7129313455
 30
0.0
  0
VERTEX
  5
780
  8
0
  6
CONTINUOUS
 62
     7
 10
119.8410011449
 20
-37.7850440249
 30
0.0
  0
VERTEX
  5
781
  8
0
  6
CONTINUOUS
 62
     7
 10
119.9231899895
 20
-37.831242095
 30
0.0
  0
VERTEX
  5
782
  8
0
  6
CONTINUOUS
 62
     7
 10
119.9526048817
 20
-37.849476646
 30
0.0
  0
VERTEX
  5
783
  8
0
  6
CONTINUOUS
 62
     7
 10
119.9504054703
 20
-37.8478747711
 30
0.0
  0
SEQEND
  5
87F
  8
0
  6
CONTINUOUS
 62
     7
  0
LINE
  5
260
  8
0
  6
CONTINUOUS
 62
     7
 10
83.4817625203
 20
-27.7893793688
 30
0.0
 11
83.4817625203
 21
-28.1473514543
 31
0.0
  0
LINE
  5
261
  8
0
  6
CONTINUOUS
 62
     7
 10
85.4817606129
 20
-28.1473514543
 30
0.0
 11
85.4817606129
 21
-27.7893793688
 31
0.0
  0
ARC
  5
262
  8
0
  6
CONTINUOUS
 62
     7
 10
84.4817675271
 20
-218.1961021595
 30
0.0
 40
184.6914543825227
 50
82.264781859
 51
97.735218141
  0
LINE
  5
263
  8
0
  6
CONTINUOUS
 62
     7
 10
124.5405234017
 20
-40.9538795159
 30
0.0
 11
124.5405234017
 21
-36.0791054473
 31
0.0
  0
LINE
  5
264
  8
0
  6
CONTINUOUS
 62
     7
 10
44.423005692
 20
-36.0791054473
 30
0.0
 11
44.423005692
 21
-40.9538795159
 31
0.0
  0
POLYLINE
  5
265
  8
0
  6
CONTINUOUS
 62
     7
 66
     1
 10
0.0
 20
0.0
 30
0.0
  0
VERTEX
  5
784
  8
0
  6
CONTINUOUS
 62
     7
 10
109.3403018632
 20
-43.0607010529
 30
0.0
  0
VERTEX
  5
785
  8
0
  6
CONTINUOUS
 62
     7
 10
110.1169503846
 20
-43.1649063633
 30
0.0
  0
VERTEX
  5
786
  8
0
  6
CONTINUOUS
 62
     7
 10
110.9993792691
 20
-43.2796788321
 30
0.0
  0
VERTEX
  5
787
  8
0
  6
CONTINUOUS
 62
     7
 10
111.8713177361
 20
-43.3894795284
 30
0.0
  0
VERTEX
  5
788
  8
0
  6
CONTINUOUS
 62
     7
 10
112.7288080372
 20
-43.4937362478
 30
0.0
  0
VERTEX
  5
789
  8
0
  6
CONTINUOUS
 62
     7
 10
113.5646916546
 20
-43.5912561522
 30
0.0
  0
VERTEX
  5
78A
  8
0
  6
CONTINUOUS
 62
     7
 10
114.3861271062
 20
-43.6825719581
 30
0.0
  0
VERTEX
  5
78B
  8
0
  6
CONTINUOUS
 62
     7
 10
115.1923156895
 20
-43.767137538
 30
0.0
  0
VERTEX
  5
78C
  8
0
  6
CONTINUOUS
 62
     7
 10
115.9768320241
 20
-43.8437421725
 30
0.0
  0
VERTEX
  5
78D
  8
0
  6
CONTINUOUS
 62
     7
 10
116.7336143174
 20
-43.9112153754
 30
0.0
  0
VERTEX
  5
78E
  8
0
  6
CONTINUOUS
 62
     7
 10
117.4573398747
 20
-43.9684455202
 30
0.0
  0
VERTEX
  5
78F
  8
0
  6
CONTINUOUS
 62
     7
 10
118.1439257779
 20
-44.0143723891
 30
0.0
  0
VERTEX
  5
790
  8
0
  6
CONTINUOUS
 62
     7
 10
118.7921143689
 20
-44.0480072901
 30
0.0
  0
VERTEX
  5
791
  8
0
  6
CONTINUOUS
 62
     7
 10
119.4101549306
 20
-44.0686372027
 30
0.0
  0
VERTEX
  5
792
  8
0
  6
CONTINUOUS
 62
     7
 10
120.00314366
 20
-44.0744806931
 30
0.0
  0
VERTEX
  5
793
  8
0
  6
CONTINUOUS
 62
     7
 10
120.579609982
 20
-44.0620710061
 30
0.0
  0
VERTEX
  5
794
  8
0
  6
CONTINUOUS
 62
     7
 10
121.1615539708
 20
-44.0232832835
 30
0.0
  0
VERTEX
  5
795
  8
0
  6
CONTINUOUS
 62
     7
 10
121.724293343
 20
-43.9476867125
 30
0.0
  0
VERTEX
  5
796
  8
0
  6
CONTINUOUS
 62
     7
 10
122.0902241387
 20
-43.8690972433
 30
0.0
  0
VERTEX
  5
797
  8
0
  6
CONTINUOUS
 62
     7
 10
122.4278725304
 20
-43.7684704468
 30
0.0
  0
VERTEX
  5
798
  8
0
  6
CONTINUOUS
 62
     7
 10
122.7407730736
 20
-43.6446671293
 30
0.0
  0
VERTEX
  5
799
  8
0
  6
CONTINUOUS
 62
     7
 10
123.0425275483
 20
-43.4905429289
 30
0.0
  0
VERTEX
  5
79A
  8
0
  6
CONTINUOUS
 62
     7
 10
123.3354903378
 20
-43.2997834787
 30
0.0
  0
VERTEX
  5
79B
  8
0
  6
CONTINUOUS
 62
     7
 10
123.6160017171
 20
-43.0674386129
 30
0.0
  0
VERTEX
  5
79C
  8
0
  6
CONTINUOUS
 62
     7
 10
123.8754964985
 20
-42.7920658991
 30
0.0
  0
VERTEX
  5
79D
  8
0
  6
CONTINUOUS
 62
     7
 10
124.1034723439
 20
-42.4762946472
 30
0.0
  0
VERTEX
  5
79E
  8
0
  6
CONTINUOUS
 62
     7
 10
124.2902375378
 20
-42.1259884641
 30
0.0
  0
VERTEX
  5
79F
  8
0
  6
CONTINUOUS
 62
     7
 10
124.4400061288
 20
-41.7072904215
 30
0.0
  0
VERTEX
  5
7A0
  8
0
  6
CONTINUOUS
 62
     7
 10
124.4658268609
 20
-41.5734310553
 30
0.0
  0
SEQEND
  5
87E
  8
0
  6
CONTINUOUS
 62
     7
  0
POLYLINE
  5
266
  8
0
  6
CONTINUOUS
 62
     7
 66
     1
 10
0.0
 20
0.0
 30
0.0
  0
VERTEX
  5
7A1
  8
0
  6
CONTINUOUS
 62
     7
 10
44.4925643124
 20
-41.5741045878
 30
0.0
  0
VERTEX
  5
7A2
  8
0
  6
CONTINUOUS
 62
     7
 10
44.4935060658
 20
-41.5806149051
 30
0.0
  0
VERTEX
  5
7A3
  8
0
  6
CONTINUOUS
 62
     7
 10
44.6163393178
 20
-41.9860315428
 30
0.0
  0
VERTEX
  5
7A4
  8
0
  6
CONTINUOUS
 62
     7
 10
44.7895027318
 20
-42.3549425707
 30
0.0
  0
VERTEX
  5
7A5
  8
0
  6
CONTINUOUS
 62
     7
 10
45.0030423321
 20
-42.6830028102
 30
0.0
  0
VERTEX
  5
7A6
  8
0
  6
CONTINUOUS
 62
     7
 10
45.2469922223
 20
-42.9679904983
 30
0.0
  0
VERTEX
  5
7A7
  8
0
  6
CONTINUOUS
 62
     7
 10
45.5116845288
 20
-43.2095897303
 30
0.0
  0
VERTEX
  5
7A8
  8
0
  6
CONTINUOUS
 62
     7
 10
45.7886673131
 20
-43.409698169
 30
0.0
  0
VERTEX
  5
7A9
  8
0
  6
CONTINUOUS
 62
     7
 10
46.0724569478
 20
-43.5725246475
 30
0.0
  0
VERTEX
  5
7AA
  8
0
  6
CONTINUOUS
 62
     7
 10
46.3624097027
 20
-43.7039685354
 30
0.0
  0
VERTEX
  5
7AB
  8
0
  6
CONTINUOUS
 62
     7
 10
46.6656900563
 20
-43.8108523295
 30
0.0
  0
VERTEX
  5
7AC
  8
0
  6
CONTINUOUS
 62
     7
 10
46.9992138066
 20
-43.899096261
 30
0.0
  0
VERTEX
  5
7AD
  8
0
  6
CONTINUOUS
 62
     7
 10
47.3563886799
 20
-43.9668637619
 30
0.0
  0
VERTEX
  5
7AE
  8
0
  6
CONTINUOUS
 62
     7
 10
47.8219605603
 20
-44.0243449912
 30
0.0
  0
VERTEX
  5
7AF
  8
0
  6
CONTINUOUS
 62
     7
 10
48.4884358563
 20
-44.065047513
 30
0.0
  0
VERTEX
  5
7B0
  8
0
  6
CONTINUOUS
 62
     7
 10
49.0617848553
 20
-44.0739591525
 30
0.0
  0
VERTEX
  5
7B1
  8
0
  6
CONTINUOUS
 62
     7
 10
49.6424294629
 20
-44.0661025152
 30
0.0
  0
VERTEX
  5
7B2
  8
0
  6
CONTINUOUS
 62
     7
 10
50.3002382435
 20
-44.0421146259
 30
0.0
  0
VERTEX
  5
7B3
  8
0
  6
CONTINUOUS
 62
     7
 10
50.9741641202
 20
-44.0048639581
 30
0.0
  0
VERTEX
  5
7B4
  8
0
  6
CONTINUOUS
 62
     7
 10
51.6775108494
 20
-43.9557370648
 30
0.0
  0
VERTEX
  5
7B5
  8
0
  6
CONTINUOUS
 62
     7
 10
52.4125910916
 20
-43.8958023593
 30
0.0
  0
VERTEX
  5
7B6
  8
0
  6
CONTINUOUS
 62
     7
 10
53.1778670468
 20
-43.8259390101
 30
0.0
  0
VERTEX
  5
7B7
  8
0
  6
CONTINUOUS
 62
     7
 10
53.9708949246
 20
-43.7469799922
 30
0.0
  0
VERTEX
  5
7B8
  8
0
  6
CONTINUOUS
 62
     7
 10
54.7883726277
 20
-43.6597821221
 30
0.0
  0
VERTEX
  5
7B9
  8
0
  6
CONTINUOUS
 62
     7
 10
55.626461617
 20
-43.5652268038
 30
0.0
  0
VERTEX
  5
7BA
  8
0
  6
CONTINUOUS
 62
     7
 10
56.481037251
 20
-43.4642140672
 30
0.0
  0
VERTEX
  5
7BB
  8
0
  6
CONTINUOUS
 62
     7
 10
57.3464251675
 20
-43.3578533039
 30
0.0
  0
VERTEX
  5
7BC
  8
0
  6
CONTINUOUS
 62
     7
 10
58.2179046788
 20
-43.2470944629
 30
0.0
  0
VERTEX
  5
7BD
  8
0
  6
CONTINUOUS
 62
     7
 10
59.0974785008
 20
-43.1316983805
 30
0.0
  0
VERTEX
  5
7BE
  8
0
  6
CONTINUOUS
 62
     7
 10
59.6232868352
 20
-43.0605550215
 30
0.0
  0
SEQEND
  5
87D
  8
0
  6
CONTINUOUS
 62
     7
  0
POLYLINE
  5
267
  8
0
  6
CONTINUOUS
 62
     7
 66
     1
 10
0.0
 20
0.0
 30
0.0
  0
VERTEX
  5
7BF
  8
0
  6
CONTINUOUS
 62
     7
 10
124.4793213524
 20
-41.5034976707
 30
0.0
  0
VERTEX
  5
7C0
  8
0
  6
CONTINUOUS
 62
     7
 10
124.5218135037
 20
-41.2831989036
 30
0.0
  0
VERTEX
  5
7C1
  8
0
  6
CONTINUOUS
 62
     7
 10
124.5358325162
 20
-40.9547333524
 30
0.0
  0
SEQEND
  5
87C
  8
0
  6
CONTINUOUS
 62
     7
  0
POLYLINE
  5
268
  8
0
  6
CONTINUOUS
 62
     7
 66
     1
 10
0.0
 20
0.0
 30
0.0
  0
VERTEX
  5
7C2
  8
0
  6
CONTINUOUS
 62
     7
 10
44.4311596074
 20
-40.9475137398
 30
0.0
  0
VERTEX
  5
7C3
  8
0
  6
CONTINUOUS
 62
     7
 10
44.4307423749
 20
-41.1473621533
 30
0.0
  0
VERTEX
  5
7C4
  8
0
  6
CONTINUOUS
 62
     7
 10
44.4925643124
 20
-41.5741045878
 30
0.0
  0
SEQEND
  5
87B
  8
0
  6
CONTINUOUS
 62
     7
  0
ARC
  5
269
  8
0
  6
CONTINUOUS
 62
     7
 10
84.4817675271
 20
-226.0712317296
 30
0.0
 40
184.6913871888196
 50
82.2647790276
 51
97.7352209724
  0
ARC
  5
26A
  8
0
  6
CONTINUOUS
 62
     7
 10
109.6654257613
 20
-118.3344976408
 30
0.0
 40
14.86825768737823
 50
270.8245077952
 51
0.4742371019
  0
ARC
  5
26B
  8
0
  6
CONTINUOUS
 62
     7
 10
59.297319726
 20
-118.3379689847
 30
0.0
 40
14.86657814047842
 50
179.5129046037
 51
269.3234287085
  0
ARC
  5
26C
  8
0
  6
CONTINUOUS
 62
     7
 10
109.6542205624
 20
-78.123033975
 30
0.0
 40
14.87766591083205
 50
359.6599374309
 51
32.6990507799
  0
ARC
  5
26D
  8
0
  6
CONTINUOUS
 62
     7
 10
59.401198992
 20
-78.1555302208
 30
0.0
 40
14.97524819321582
 50
147.3881243277
 51
180.2162386816
  0
ARC
  5
26E
  8
0
  6
CONTINUOUS
 62
     7
 10
59.2254512293
 20
-77.9183935407
 30
0.0
 40
14.69882201824255
 50
90.6992213323
 51
141.113814295
  0
ARC
  5
26F
  8
0
  6
CONTINUOUS
 62
     7
 10
109.7411271314
 20
-77.8950421772
 30
0.0
 40
14.67824092118791
 50
38.7741918739
 51
89.7632016299
  0
LINE
  5
270
  8
0
  6
CONTINUOUS
 62
     7
 10
44.423005692
 20
-78.2113742933
 30
0.0
 11
44.423005692
 21
-118.2113748894
 31
0.0
  0
LINE
  5
271
  8
0
  6
CONTINUOUS
 62
     7
 10
124.5405234017
 20
-118.2113748894
 30
0.0
 11
124.5405234017
 21
-78.2113742933
 31
0.0
  0
ARC
  5
272
  8
0
  6
CONTINUOUS
 62
     7
 10
229.6654263638
 20
-118.3344993953
 30
0.0
 40
14.86825590731782
 50
270.8245009774
 51
0.4742439197
  0
ARC
  5
273
  8
0
  6
CONTINUOUS
 62
     7
 10
179.2973181157
 20
-118.3379693945
 30
0.0
 40
14.86657772581383
 50
179.5129030109
 51
269.3234303013
  0
ARC
  5
274
  8
0
  6
CONTINUOUS
 62
     7
 10
229.6542716092
 20
-78.1230142266
 30
0.0
 40
14.8776137901337
 50
359.6598601843
 51
32.699089261
  0
ARC
  5
275
  8
0
  6
CONTINUOUS
 62
     7
 10
179.4012989759
 20
-78.1555642365
 30
0.0
 40
14.97534924019695
 50
147.3882171823
 51
180.2161070771
  0
ARC
  5
276
  8
0
  6
CONTINUOUS
 62
     7
 10
179.2254459273
 20
-77.918378748
 30
0.0
 40
14.69880721282062
 50
90.699217633
 51
141.1138418288
  0
ARC
  5
277
  8
0
  6
CONTINUOUS
 62
     7
 10
229.7411304106
 20
-77.8950328994
 30
0.0
 40
14.67823162505233
 50
38.7741745702
 51
89.7632189336
  0
LINE
  5
278
  8
0
  6
CONTINUOUS
 62
     7
 10
164.4230104603
 20
-78.2113742933
 30
0.0
 11
164.4230104603
 21
-118.2113748894
 31
0.0
  0
LINE
  5
279
  8
0
  6
CONTINUOUS
 62
     7
 10
244.5405222096
 20
-118.2113748894
 30
0.0
 11
244.5405222096
 21
-78.2113742933
 31
0.0
  0
ARC
  5
27A
  8
0
  6
CONTINUOUS
 62
     7
 10
349.6654232123
 20
-118.3344975648
 30
0.0
 40
14.86825785155792
 50
270.8245313927
 51
0.4742368036
  0
ARC
  5
27B
  8
0
  6
CONTINUOUS
 62
     7
 10
299.2973198336
 20
-118.337966543
 30
0.0
 40
14.86658061143133
 50
179.5129140953
 51
269.3234192169
  0
ARC
  5
27C
  8
0
  6
CONTINUOUS
 62
     7
 10
349.6542181783
 20
-78.123033975
 30
0.0
 40
14.87766591083194
 50
359.6599374309
 51
32.6990507799
  0
ARC
  5
27D
  8
0
  6
CONTINUOUS
 62
     7
 10
299.4013317172
 20
-78.1555787193
 30
0.0
 40
14.97538311868259
 50
147.3882343326
 51
180.2160511768
  0
ARC
  5
27E
  8
0
  6
CONTINUOUS
 62
     7
 10
299.2254406254
 20
-77.9183639553
 30
0.0
 40
14.69879240743518
 50
90.6992139336
 51
141.1138693626
  0
ARC
  5
27F
  8
0
  6
CONTINUOUS
 62
     7
 10
349.7411257556
 20
-77.8950525185
 30
0.0
 40
14.67825125822224
 50
38.7742112389
 51
89.7632057327
  0
LINE
  5
280
  8
0
  6
CONTINUOUS
 62
     7
 10
284.4230092682
 20
-78.2113742933
 30
0.0
 11
284.4230092682
 21
-118.2113748894
 31
0.0
  0
LINE
  5
281
  8
0
  6
CONTINUOUS
 62
     7
 10
364.540526978
 20
-118.2113748894
 30
0.0
 11
364.540526978
 21
-78.2113742933
 31
0.0
  0
ARC
  5
282
  8
0
  6
CONTINUOUS
 62
     7
 10
324.4893831277
 20
-21.9136245081
 30
0.0
 40
6.286138045188634
 50
261.304642316
 51
278.4276822735
  0
LINE
  5
283
  8
0
  6
CONTINUOUS
 62
     7
 10
321.4817620434
 20
-28.1538826332
 30
0.0
 11
321.4817620434
 21
-26.5543115244
 31
0.0
  0
ARC
  5
284
  8
0
  6
CONTINUOUS
 62
     7
 10
322.4780593352
 20
-26.5505610259
 30
0.0
 40
0.9963043510304559
 50
180.2156853392
 51
270.2128821369
  0
ARC
  5
285
  8
0
  6
CONTINUOUS
 62
     7
 10
326.4854758888
 20
-26.5505660012
 30
0.0
 40
0.9962993941203295
 50
269.7868328114
 51
359.7845997126
  0
LINE
  5
286
  8
0
  6
CONTINUOUS
 62
     7
 10
327.4817682423
 20
-26.5543115244
 30
0.0
 11
327.4817682423
 21
-28.1493541703
 31
0.0
  0
LINE
  5
287
  8
0
  6
CONTINUOUS
 62
     7
 10
326.481769196
 20
-27.5468585
 30
0.0
 11
322.4817610898
 21
-27.5468585
 31
0.0
  0
POLYLINE
  5
288
  8
0
  6
CONTINUOUS
 62
     7
 66
     1
 10
0.0
 20
0.0
 30
0.0
  0
VERTEX
  5
7C5
  8
0
  6
CONTINUOUS
 62
     7
 10
324.4817711033
 20
-27.667510222
 30
0.0
  0
VERTEX
  5
7C6
  8
0
  6
CONTINUOUS
 62
     7
 10
324.2119647183
 20
-27.6720297442
 30
0.0
  0
VERTEX
  5
7C7
  8
0
  6
CONTINUOUS
 62
     7
 10
323.9621854939
 20
-27.6852515445
 30
0.0
  0
VERTEX
  5
7C8
  8
0
  6
CONTINUOUS
 62
     7
 10
323.7509347119
 20
-27.7061966167
 30
0.0
  0
VERTEX
  5
7C9
  8
0
  6
CONTINUOUS
 62
     7
 10
323.5938764729
 20
-27.7333107696
 30
0.0
  0
VERTEX
  5
7CA
  8
0
  6
CONTINUOUS
 62
     7
 10
323.5026813664
 20
-27.7645838366
 30
0.0
  0
VERTEX
  5
7CB
  8
0
  6
CONTINUOUS
 62
     7
 10
323.481772057
 20
-27.7893793688
 30
0.0
  0
SEQEND
  5
87A
  8
0
  6
CONTINUOUS
 62
     7
  0
POLYLINE
  5
289
  8
0
  6
CONTINUOUS
 62
     7
 66
     1
 10
0.0
 20
0.0
 30
0.0
  0
VERTEX
  5
7CC
  8
0
  6
CONTINUOUS
 62
     7
 10
325.4817701497
 20
-27.7893793688
 30
0.0
  0
VERTEX
  5
7CD
  8
0
  6
CONTINUOUS
 62
     7
 10
325.4608489194
 20
-27.7645838366
 30
0.0
  0
VERTEX
  5
7CE
  8
0
  6
CONTINUOUS
 62
     7
 10
325.3696538129
 20
-27.7333107696
 30
0.0
  0
VERTEX
  5
7CF
  8
0
  6
CONTINUOUS
 62
     7
 10
325.2126074948
 20
-27.7061966167
 30
0.0
  0
VERTEX
  5
7D0
  8
0
  6
CONTINUOUS
 62
     7
 10
325.0013447919
 20
-27.6852515445
 30
0.0
  0
VERTEX
  5
7D1
  8
0
  6
CONTINUOUS
 62
     7
 10
324.7515655675
 20
-27.6720297442
 30
0.0
  0
VERTEX
  5
7D2
  8
0
  6
CONTINUOUS
 62
     7
 10
324.4817711033
 20
-27.667510222
 30
0.0
  0
SEQEND
  5
879
  8
0
  6
CONTINUOUS
 62
     7
  0
LINE
  5
28A
  8
0
  6
CONTINUOUS
 62
     7
 10
321.4817620434
 20
-26.5543115244
 30
0.0
 11
321.4817620434
 21
-22.5841295824
 31
0.0
  0
ARC
  5
28B
  8
0
  6
CONTINUOUS
 62
     7
 10
322.47806294
 20
-22.587882217
 30
0.0
 40
0.9963079638384509
 50
89.7873259411
 51
179.7841925988
  0
LINE
  5
28C
  8
0
  6
CONTINUOUS
 62
     7
 10
322.4817610898
 20
-21.5915811167
 30
0.0
 11
326.481769196
 21
-21.5915811167
 31
0.0
  0
ARC
  5
28D
  8
0
  6
CONTINUOUS
 62
     7
 10
326.4854722841
 20
-22.5878772415
 30
0.0
 40
0.9963030067544033
 50
0.2155223422
 51
90.2129591179
  0
LINE
  5
28E
  8
0
  6
CONTINUOUS
 62
     7
 10
327.4817682423
 20
-22.5841295824
 30
0.0
 11
327.4817682423
 21
-26.5543115244
 31
0.0
  0
POLYLINE
  5
28F
  8
0
  6
CONTINUOUS
 62
     7
 66
     1
 10
0.0
 20
0.0
 30
0.0
  0
VERTEX
  5
7D3
  8
0
  6
CONTINUOUS
 62
     7
 10
351.1823154606
 20
-41.9252579019
 30
0.0
  0
VERTEX
  5
7D4
  8
0
  6
CONTINUOUS
 62
     7
 10
352.2634721913
 20
-42.0546059415
 30
0.0
  0
VERTEX
  5
7D5
  8
0
  6
CONTINUOUS
 62
     7
 10
353.3122635998
 20
-42.1705056832
 30
0.0
  0
VERTEX
  5
7D6
  8
0
  6
CONTINUOUS
 62
     7
 10
354.3091036
 20
-42.2700886533
 30
0.0
  0
VERTEX
  5
7D7
  8
0
  6
CONTINUOUS
 62
     7
 10
355.2440262951
 20
-42.3513841734
 30
0.0
  0
VERTEX
  5
7D8
  8
0
  6
CONTINUOUS
 62
     7
 10
356.1093426861
 20
-42.4128678546
 30
0.0
  0
VERTEX
  5
7D9
  8
0
  6
CONTINUOUS
 62
     7
 10
356.8893529095
 20
-42.4523879693
 30
0.0
  0
VERTEX
  5
7DA
  8
0
  6
CONTINUOUS
 62
     7
 10
357.5796343007
 20
-42.4682346091
 30
0.0
  0
VERTEX
  5
7DB
  8
0
  6
CONTINUOUS
 62
     7
 10
358.1708289303
 20
-42.4593103037
 30
0.0
  0
VERTEX
  5
7DC
  8
0
  6
CONTINUOUS
 62
     7
 10
358.6525059857
 20
-42.4248595641
 30
0.0
  0
VERTEX
  5
7DD
  8
0
  6
CONTINUOUS
 62
     7
 10
359.0220547833
 20
-42.363261889
 30
0.0
  0
VERTEX
  5
7DE
  8
0
  6
CONTINUOUS
 62
     7
 10
359.2728472867
 20
-42.275089483
 30
0.0
  0
VERTEX
  5
7DF
  8
0
  6
CONTINUOUS
 62
     7
 10
359.4004965939
 20
-42.161520283
 30
0.0
  0
VERTEX
  5
7E0
  8
0
  6
CONTINUOUS
 62
     7
 10
359.4173766293
 20
-42.0924519107
 30
0.0
  0
SEQEND
  5
878
  8
0
  6
CONTINUOUS
 62
     7
  0
ARC
  5
290
  8
0
  6
CONTINUOUS
 62
     7
 10
324.4817651429
 20
-225.763402971
 30
0.0
 40
185.7670125983001
 50
81.7361764983
 51
98.2638235017
  0
POLYLINE
  5
291
  8
0
  6
CONTINUOUS
 62
     7
 66
     1
 10
0.0
 20
0.0
 30
0.0
  0
VERTEX
  5
7E1
  8
0
  6
CONTINUOUS
 62
     7
 10
289.5461596169
 20
-42.0924519107
 30
0.0
  0
VERTEX
  5
7E2
  8
0
  6
CONTINUOUS
 62
     7
 10
289.610246531
 20
-42.2199849889
 30
0.0
  0
VERTEX
  5
7E3
  8
0
  6
CONTINUOUS
 62
     7
 10
289.8002661385
 20
-42.3222829506
 30
0.0
  0
VERTEX
  5
7E4
  8
0
  6
CONTINUOUS
 62
     7
 10
290.1128507771
 20
-42.3977744684
 30
0.0
  0
VERTEX
  5
7E5
  8
0
  6
CONTINUOUS
 62
     7
 10
290.5469156422
 20
-42.4458359287
 30
0.0
  0
VERTEX
  5
7E6
  8
0
  6
CONTINUOUS
 62
     7
 10
291.0971618809
 20
-42.4672585831
 30
0.0
  0
VERTEX
  5
7E7
  8
0
  6
CONTINUOUS
 62
     7
 10
291.7535997548
 20
-42.4625460908
 30
0.0
  0
VERTEX
  5
7E8
  8
0
  6
CONTINUOUS
 62
     7
 10
292.5069667019
 20
-42.4326372252
 30
0.0
  0
VERTEX
  5
7E9
  8
0
  6
CONTINUOUS
 62
     7
 10
293.3527804532
 20
-42.3793149099
 30
0.0
  0
VERTEX
  5
7EA
  8
0
  6
CONTINUOUS
 62
     7
 10
294.275251738
 20
-42.3046772287
 30
0.0
  0
VERTEX
  5
7EB
  8
0
  6
CONTINUOUS
 62
     7
 10
295.2570713677
 20
-42.211233537
 30
0.0
  0
VERTEX
  5
7EC
  8
0
  6
CONTINUOUS
 62
     7
 10
296.2965465703
 20
-42.1004024253
 30
0.0
  0
VERTEX
  5
7ED
  8
0
  6
CONTINUOUS
 62
     7
 10
297.3740256943
 20
-41.9750680134
 30
0.0
  0
VERTEX
  5
7EE
  8
0
  6
CONTINUOUS
 62
     7
 10
297.7812148251
 20
-41.9252579019
 30
0.0
  0
SEQEND
  5
877
  8
0
  6
CONTINUOUS
 62
     7
  0
LINE
  5
292
  8
0
  6
CONTINUOUS
 62
     7
 10
289.5461596169
 20
-37.5830379233
 30
0.0
 11
289.5461596169
 21
-42.0924519107
 31
0.0
  0
LINE
  5
293
  8
0
  6
CONTINUOUS
 62
     7
 10
359.4173766293
 20
-42.0924519107
 30
0.0
 11
359.4173766293
 21
-37.5845727429
 31
0.0
  0
POLYLINE
  5
294
  8
0
  6
CONTINUOUS
 62
     7
 66
     1
 10
0.0
 20
0.0
 30
0.0
  0
VERTEX
  5
7EF
  8
0
  6
CONTINUOUS
 62
     7
 10
364.540526978
 20
-40.9538795159
 30
0.0
  0
VERTEX
  5
7F0
  8
0
  6
CONTINUOUS
 62
     7
 10
364.5383096852
 20
-41.0622683272
 30
0.0
  0
VERTEX
  5
7F1
  8
0
  6
CONTINUOUS
 62
     7
 10
364.4775844731
 20
-41.5280622349
 30
0.0
  0
SEQEND
  5
876
  8
0
  6
CONTINUOUS
 62
     7
  0
ARC
  5
295
  8
0
  6
CONTINUOUS
 62
     7
 10
204.4893838478
 20
-21.9135264664
 30
0.0
 40
6.28623546592638
 50
261.304747261
 51
278.4275782342
  0
LINE
  5
296
  8
0
  6
CONTINUOUS
 62
     7
 10
206.4817662903
 20
-27.5468585
 30
0.0
 11
202.4817663797
 21
-27.5468585
 31
0.0
  0
POLYLINE
  5
297
  8
0
  6
CONTINUOUS
 62
     7
 66
     1
 10
0.0
 20
0.0
 30
0.0
  0
VERTEX
  5
7F2
  8
0
  6
CONTINUOUS
 62
     7
 10
204.481766335
 20
-27.667510222
 30
0.0
  0
VERTEX
  5
7F3
  8
0
  6
CONTINUOUS
 62
     7
 10
204.2119695658
 20
-27.6720297442
 30
0.0
  0
VERTEX
  5
7F4
  8
0
  6
CONTINUOUS
 62
     7
 10
203.9621824019
 20
-27.6852515445
 30
0.0
  0
VERTEX
  5
7F5
  8
0
  6
CONTINUOUS
 62
     7
 10
203.7509303626
 20
-27.7061966167
 30
0.0
  0
VERTEX
  5
7F6
  8
0
  6
CONTINUOUS
 62
     7
 10
203.5938811109
 20
-27.7333107696
 30
0.0
  0
VERTEX
  5
7F7
  8
0
  6
CONTINUOUS
 62
     7
 10
203.5026822791
 20
-27.7645838366
 30
0.0
  0
VERTEX
  5
7F8
  8
0
  6
CONTINUOUS
 62
     7
 10
203.4817663573
 20
-27.7893793688
 30
0.0
  0
SEQEND
  5
875
  8
0
  6
CONTINUOUS
 62
     7
  0
POLYLINE
  5
298
  8
0
  6
CONTINUOUS
 62
     7
 66
     1
 10
0.0
 20
0.0
 30
0.0
  0
VERTEX
  5
7F9
  8
0
  6
CONTINUOUS
 62
     7
 10
205.4817663126
 20
-27.7893793688
 30
0.0
  0
VERTEX
  5
7FA
  8
0
  6
CONTINUOUS
 62
     7
 10
205.4608503908
 20
-27.7645838366
 30
0.0
  0
VERTEX
  5
7FB
  8
0
  6
CONTINUOUS
 62
     7
 10
205.369651559
 20
-27.7333107696
 30
0.0
  0
VERTEX
  5
7FC
  8
0
  6
CONTINUOUS
 62
     7
 10
205.2126023073
 20
-27.7061966167
 30
0.0
  0
VERTEX
  5
7FD
  8
0
  6
CONTINUOUS
 62
     7
 10
205.001350268
 20
-27.6852515445
 30
0.0
  0
VERTEX
  5
7FE
  8
0
  6
CONTINUOUS
 62
     7
 10
204.7515631041
 20
-27.6720297442
 30
0.0
  0
VERTEX
  5
7FF
  8
0
  6
CONTINUOUS
 62
     7
 10
204.481766335
 20
-27.667510222
 30
0.0
  0
SEQEND
  5
874
  8
0
  6
CONTINUOUS
 62
     7
  0
ARC
  5
299
  8
0
  6
CONTINUOUS
 62
     7
 10
202.4780510591
 20
-26.550573759
 30
0.0
 40
0.996291668529978
 50
180.214955812
 51
270.2136650234
  0
LINE
  5
29A
  8
0
  6
CONTINUOUS
 62
     7
 10
201.481766402
 20
-26.5543115244
 30
0.0
 11
201.481766402
 21
-22.5841295824
 31
0.0
  0
ARC
  5
29B
  8
0
  6
CONTINUOUS
 62
     7
 10
202.4780546637
 20
-22.5878694838
 30
0.0
 40
0.9962952811582795
 50
89.7865430513
 51
179.7849221292
  0
LINE
  5
29C
  8
0
  6
CONTINUOUS
 62
     7
 10
202.4817663797
 20
-21.5915811167
 30
0.0
 11
206.4817662903
 21
-21.5915811167
 31
0.0
  0
ARC
  5
29D
  8
0
  6
CONTINUOUS
 62
     7
 10
206.4854780062
 20
-22.5878694838
 30
0.0
 40
0.9962952811582795
 50
0.2150778708
 51
90.2134569487
  0
LINE
  5
29E
  8
0
  6
CONTINUOUS
 62
     7
 10
207.4817662679
 20
-22.5841295824
 30
0.0
 11
207.4817662679
 21
-26.5543115244
 31
0.0
  0
ARC
  5
29F
  8
0
  6
CONTINUOUS
 62
     7
 10
206.4854816109
 20
-26.550573759
 30
0.0
 40
0.996291668529978
 50
269.7863349766
 51
359.785044188
  0
LINE
  5
2A0
  8
0
  6
CONTINUOUS
 62
     7
 10
201.481766402
 20
-28.1538826332
 30
0.0
 11
201.481766402
 21
-26.5543115244
 31
0.0
  0
LINE
  5
2A1
  8
0
  6
CONTINUOUS
 62
     7
 10
207.4817662679
 20
-26.5543115244
 30
0.0
 11
207.4817662679
 21
-28.1493541703
 31
0.0
  0
POLYLINE
  5
2A2
  8
0
  6
CONTINUOUS
 62
     7
 66
     1
 10
0.0
 20
0.0
 30
0.0
  0
VERTEX
  5
800
  8
0
  6
CONTINUOUS
 62
     7
 10
231.182319633
 20
-41.9252579019
 30
0.0
  0
VERTEX
  5
801
  8
0
  6
CONTINUOUS
 62
     7
 10
232.2634733834
 20
-42.0546059415
 30
0.0
  0
VERTEX
  5
802
  8
0
  6
CONTINUOUS
 62
     7
 10
233.3122618117
 20
-42.1705056832
 30
0.0
  0
VERTEX
  5
803
  8
0
  6
CONTINUOUS
 62
     7
 10
234.3091018119
 20
-42.2700886533
 30
0.0
  0
VERTEX
  5
804
  8
0
  6
CONTINUOUS
 62
     7
 10
235.244024507
 20
-42.3513841734
 30
0.0
  0
VERTEX
  5
805
  8
0
  6
CONTINUOUS
 62
     7
 10
236.1093379178
 20
-42.4128678546
 30
0.0
  0
VERTEX
  5
806
  8
0
  6
CONTINUOUS
 62
     7
 10
236.8893511214
 20
-42.4523879693
 30
0.0
  0
VERTEX
  5
807
  8
0
  6
CONTINUOUS
 62
     7
 10
237.5796414532
 20
-42.4682346091
 30
0.0
  0
VERTEX
  5
808
  8
0
  6
CONTINUOUS
 62
     7
 10
238.1708331027
 20
-42.4593103037
 30
0.0
  0
VERTEX
  5
809
  8
0
  6
CONTINUOUS
 62
     7
 10
238.6525071778
 20
-42.4248595641
 30
0.0
  0
VERTEX
  5
80A
  8
0
  6
CONTINUOUS
 62
     7
 10
239.0220559754
 20
-42.363261889
 30
0.0
  0
VERTEX
  5
80B
  8
0
  6
CONTINUOUS
 62
     7
 10
239.2728425183
 20
-42.275089483
 30
0.0
  0
VERTEX
  5
80C
  8
0
  6
CONTINUOUS
 62
     7
 10
239.4004918255
 20
-42.161520283
 30
0.0
  0
VERTEX
  5
80D
  8
0
  6
CONTINUOUS
 62
     7
 10
239.4173748412
 20
-42.0924519107
 30
0.0
  0
SEQEND
  5
873
  8
0
  6
CONTINUOUS
 62
     7
  0
ARC
  5
2A3
  8
0
  6
CONTINUOUS
 62
     7
 10
204.481766335
 20
-225.7634809892
 30
0.0
 40
185.7670902348655
 50
81.7361790473
 51
98.2638209527
  0
POLYLINE
  5
2A4
  8
0
  6
CONTINUOUS
 62
     7
 66
     1
 10
0.0
 20
0.0
 30
0.0
  0
VERTEX
  5
80E
  8
0
  6
CONTINUOUS
 62
     7
 10
169.5461578288
 20
-42.0924519107
 30
0.0
  0
VERTEX
  5
80F
  8
0
  6
CONTINUOUS
 62
     7
 10
169.6102447428
 20
-42.2199849889
 30
0.0
  0
VERTEX
  5
810
  8
0
  6
CONTINUOUS
 62
     7
 10
169.8002643504
 20
-42.3222829506
 30
0.0
  0
VERTEX
  5
811
  8
0
  6
CONTINUOUS
 62
     7
 10
170.112848989
 20
-42.3977744684
 30
0.0
  0
VERTEX
  5
812
  8
0
  6
CONTINUOUS
 62
     7
 10
170.5469168343
 20
-42.4458359287
 30
0.0
  0
VERTEX
  5
813
  8
0
  6
CONTINUOUS
 62
     7
 10
171.0971600928
 20
-42.4672585831
 30
0.0
  0
VERTEX
  5
814
  8
0
  6
CONTINUOUS
 62
     7
 10
171.7535979666
 20
-42.4625460908
 30
0.0
  0
VERTEX
  5
815
  8
0
  6
CONTINUOUS
 62
     7
 10
172.5069649138
 20
-42.4326372252
 30
0.0
  0
VERTEX
  5
816
  8
0
  6
CONTINUOUS
 62
     7
 10
173.352778665
 20
-42.3793149099
 30
0.0
  0
VERTEX
  5
817
  8
0
  6
CONTINUOUS
 62
     7
 10
174.2752529301
 20
-42.3046772287
 30
0.0
  0
VERTEX
  5
818
  8
0
  6
CONTINUOUS
 62
     7
 10
175.2570725598
 20
-42.211233537
 30
0.0
  0
VERTEX
  5
819
  8
0
  6
CONTINUOUS
 62
     7
 10
176.2965477624
 20
-42.1004024253
 30
0.0
  0
VERTEX
  5
81A
  8
0
  6
CONTINUOUS
 62
     7
 10
177.3740239062
 20
-41.9750680134
 30
0.0
  0
VERTEX
  5
81B
  8
0
  6
CONTINUOUS
 62
     7
 10
177.781213037
 20
-41.9252579019
 30
0.0
  0
SEQEND
  5
872
  8
0
  6
CONTINUOUS
 62
     7
  0
LINE
  5
2A5
  8
0
  6
CONTINUOUS
 62
     7
 10
169.5461578288
 20
-37.5830379233
 30
0.0
 11
169.5461578288
 21
-42.0924519107
 31
0.0
  0
LINE
  5
2A6
  8
0
  6
CONTINUOUS
 62
     7
 10
239.4173748412
 20
-42.0924519107
 30
0.0
 11
239.4173748412
 21
-37.5845727429
 31
0.0
  0
POLYLINE
  5
2A7
  8
0
  6
CONTINUOUS
 62
     7
 66
     1
 10
0.0
 20
0.0
 30
0.0
  0
VERTEX
  5
81C
  8
0
  6
CONTINUOUS
 62
     7
 10
244.5405222096
 20
-40.9538795159
 30
0.0
  0
VERTEX
  5
81D
  8
0
  6
CONTINUOUS
 62
     7
 10
244.5383049168
 20
-41.0622683272
 30
0.0
  0
VERTEX
  5
81E
  8
0
  6
CONTINUOUS
 62
     7
 10
244.477582685
 20
-41.5280622349
 30
0.0
  0
SEQEND
  5
871
  8
0
  6
CONTINUOUS
 62
     7
  0
ARC
  5
2A8
  8
0
  6
CONTINUOUS
 62
     7
 10
84.4893857238
 20
-21.9135338007
 30
0.0
 40
6.286227742112673
 50
261.304765396
 51
278.4275591935
  0
ARC
  5
2A9
  8
0
  6
CONTINUOUS
 62
     7
 10
86.4854733347
 20
-26.5505610259
 30
0.0
 40
0.9963043510304987
 50
269.7871178631
 51
359.7843146608
  0
LINE
  5
2AA
  8
0
  6
CONTINUOUS
 62
     7
 10
87.4817706265
 20
-26.5543115244
 30
0.0
 11
87.4817706265
 21
-28.1493541703
 31
0.0
  0
LINE
  5
2AB
  8
0
  6
CONTINUOUS
 62
     7
 10
81.4817644276
 20
-28.1538826332
 30
0.0
 11
81.4817644276
 21
-26.5543115244
 31
0.0
  0
ARC
  5
2AC
  8
0
  6
CONTINUOUS
 62
     7
 10
82.4780567812
 20
-26.5505660012
 30
0.0
 40
0.9962993941203295
 50
180.2154002874
 51
270.2131671886
  0
LINE
  5
2AD
  8
0
  6
CONTINUOUS
 62
     7
 10
81.4817644276
 20
-26.5543115244
 30
0.0
 11
81.4817644276
 21
-22.5841295824
 31
0.0
  0
ARC
  5
2AE
  8
0
  6
CONTINUOUS
 62
     7
 10
82.4780603858
 20
-22.5878772415
 30
0.0
 40
0.9963030067544104
 50
89.7870408821
 51
179.7844776578
  0
LINE
  5
2AF
  8
0
  6
CONTINUOUS
 62
     7
 10
82.481763474
 20
-21.5915811167
 30
0.0
 11
86.4817715802
 21
-21.5915811167
 31
0.0
  0
ARC
  5
2B0
  8
0
  6
CONTINUOUS
 62
     7
 10
86.4854697299
 20
-22.587882217
 30
0.0
 40
0.996307963838499
 50
0.2158074012
 51
90.2126740589
  0
LINE
  5
2B1
  8
0
  6
CONTINUOUS
 62
     7
 10
87.4817706265
 20
-22.5841295824
 30
0.0
 11
87.4817706265
 21
-26.5543115244
 31
0.0
  0
LINE
  5
2B2
  8
0
  6
CONTINUOUS
 62
     7
 10
86.4817715802
 20
-27.5468585
 30
0.0
 11
82.481763474
 21
-27.5468585
 31
0.0
  0
POLYLINE
  5
2B3
  8
0
  6
CONTINUOUS
 62
     7
 66
     1
 10
0.0
 20
0.0
 30
0.0
  0
VERTEX
  5
81F
  8
0
  6
CONTINUOUS
 62
     7
 10
84.4817615666
 20
-27.667510222
 30
0.0
  0
VERTEX
  5
820
  8
0
  6
CONTINUOUS
 62
     7
 10
84.2119671025
 20
-27.6720297442
 30
0.0
  0
VERTEX
  5
821
  8
0
  6
CONTINUOUS
 62
     7
 10
83.9621878781
 20
-27.6852515445
 30
0.0
  0
VERTEX
  5
822
  8
0
  6
CONTINUOUS
 62
     7
 10
83.7509251752
 20
-27.7061966167
 30
0.0
  0
VERTEX
  5
823
  8
0
  6
CONTINUOUS
 62
     7
 10
83.5938788571
 20
-27.7333107696
 30
0.0
  0
VERTEX
  5
824
  8
0
  6
CONTINUOUS
 62
     7
 10
83.5026837506
 20
-27.7645838366
 30
0.0
  0
VERTEX
  5
825
  8
0
  6
CONTINUOUS
 62
     7
 10
83.4817625203
 20
-27.7893793688
 30
0.0
  0
SEQEND
  5
870
  8
0
  6
CONTINUOUS
 62
     7
  0
POLYLINE
  5
2B4
  8
0
  6
CONTINUOUS
 62
     7
 66
     1
 10
0.0
 20
0.0
 30
0.0
  0
VERTEX
  5
826
  8
0
  6
CONTINUOUS
 62
     7
 10
85.4817606129
 20
-27.7893793688
 30
0.0
  0
VERTEX
  5
827
  8
0
  6
CONTINUOUS
 62
     7
 10
85.4608513035
 20
-27.7645838366
 30
0.0
  0
VERTEX
  5
828
  8
0
  6
CONTINUOUS
 62
     7
 10
85.369656197
 20
-27.7333107696
 30
0.0
  0
VERTEX
  5
829
  8
0
  6
CONTINUOUS
 62
     7
 10
85.2125979581
 20
-27.7061966167
 30
0.0
  0
VERTEX
  5
82A
  8
0
  6
CONTINUOUS
 62
     7
 10
85.001347176
 20
-27.6852515445
 30
0.0
  0
VERTEX
  5
82B
  8
0
  6
CONTINUOUS
 62
     7
 10
84.7515679516
 20
-27.6720297442
 30
0.0
  0
VERTEX
  5
82C
  8
0
  6
CONTINUOUS
 62
     7
 10
84.4817615666
 20
-27.667510222
 30
0.0
  0
SEQEND
  5
86F
  8
0
  6
CONTINUOUS
 62
     7
  0
POLYLINE
  5
2B5
  8
0
  6
CONTINUOUS
 62
     7
 66
     1
 10
0.0
 20
0.0
 30
0.0
  0
VERTEX
  5
82D
  8
0
  6
CONTINUOUS
 62
     7
 10
111.1823178448
 20
-41.9252579019
 30
0.0
  0
VERTEX
  5
82E
  8
0
  6
CONTINUOUS
 62
     7
 10
112.2634745755
 20
-42.0546059415
 30
0.0
  0
VERTEX
  5
82F
  8
0
  6
CONTINUOUS
 62
     7
 10
113.3122600236
 20
-42.1705056832
 30
0.0
  0
VERTEX
  5
830
  8
0
  6
CONTINUOUS
 62
     7
 10
114.3091000237
 20
-42.2700886533
 30
0.0
  0
VERTEX
  5
831
  8
0
  6
CONTINUOUS
 62
     7
 10
115.2440227189
 20
-42.3513841734
 30
0.0
  0
VERTEX
  5
832
  8
0
  6
CONTINUOUS
 62
     7
 10
116.1093391099
 20
-42.4128678546
 30
0.0
  0
VERTEX
  5
833
  8
0
  6
CONTINUOUS
 62
     7
 10
116.8893493333
 20
-42.4523879693
 30
0.0
  0
VERTEX
  5
834
  8
0
  6
CONTINUOUS
 62
     7
 10
117.5796426453
 20
-42.4682346091
 30
0.0
  0
VERTEX
  5
835
  8
0
  6
CONTINUOUS
 62
     7
 10
118.1708313145
 20
-42.4593103037
 30
0.0
  0
VERTEX
  5
836
  8
0
  6
CONTINUOUS
 62
     7
 10
118.6525083699
 20
-42.4248595641
 30
0.0
  0
VERTEX
  5
837
  8
0
  6
CONTINUOUS
 62
     7
 10
119.0220571675
 20
-42.363261889
 30
0.0
  0
VERTEX
  5
838
  8
0
  6
CONTINUOUS
 62
     7
 10
119.2728437104
 20
-42.275089483
 30
0.0
  0
VERTEX
  5
839
  8
0
  6
CONTINUOUS
 62
     7
 10
119.4004930176
 20
-42.161520283
 30
0.0
  0
VERTEX
  5
83A
  8
0
  6
CONTINUOUS
 62
     7
 10
119.417373053
 20
-42.0924519107
 30
0.0
  0
SEQEND
  5
86E
  8
0
  6
CONTINUOUS
 62
     7
  0
ARC
  5
2B6
  8
0
  6
CONTINUOUS
 62
     7
 10
84.4817675271
 20
-225.763402971
 30
0.0
 40
185.7670125983
 50
81.7361764983
 51
98.2638235017
  0
POLYLINE
  5
2B7
  8
0
  6
CONTINUOUS
 62
     7
 66
     1
 10
0.0
 20
0.0
 30
0.0
  0
VERTEX
  5
83B
  8
0
  6
CONTINUOUS
 62
     7
 10
49.5461560406
 20
-42.0924519107
 30
0.0
  0
VERTEX
  5
83C
  8
0
  6
CONTINUOUS
 62
     7
 10
49.6102429547
 20
-42.2199849889
 30
0.0
  0
VERTEX
  5
83D
  8
0
  6
CONTINUOUS
 62
     7
 10
49.8002625622
 20
-42.3222829506
 30
0.0
  0
VERTEX
  5
83E
  8
0
  6
CONTINUOUS
 62
     7
 10
50.1128531613
 20
-42.3977744684
 30
0.0
  0
VERTEX
  5
83F
  8
0
  6
CONTINUOUS
 62
     7
 10
50.5469180264
 20
-42.4458359287
 30
0.0
  0
VERTEX
  5
840
  8
0
  6
CONTINUOUS
 62
     7
 10
51.0971642651
 20
-42.4672585831
 30
0.0
  0
VERTEX
  5
841
  8
0
  6
CONTINUOUS
 62
     7
 10
51.753602139
 20
-42.4625460908
 30
0.0
  0
VERTEX
  5
842
  8
0
  6
CONTINUOUS
 62
     7
 10
52.5069690861
 20
-42.4326372252
 30
0.0
  0
VERTEX
  5
843
  8
0
  6
CONTINUOUS
 62
     7
 10
53.3527828374
 20
-42.3793149099
 30
0.0
  0
VERTEX
  5
844
  8
0
  6
CONTINUOUS
 62
     7
 10
54.2752481618
 20
-42.3046772287
 30
0.0
  0
VERTEX
  5
845
  8
0
  6
CONTINUOUS
 62
     7
 10
55.2570677914
 20
-42.211233537
 30
0.0
  0
VERTEX
  5
846
  8
0
  6
CONTINUOUS
 62
     7
 10
56.2965489545
 20
-42.1004024253
 30
0.0
  0
VERTEX
  5
847
  8
0
  6
CONTINUOUS
 62
     7
 10
57.3740221181
 20
-41.9750680134
 30
0.0
  0
VERTEX
  5
848
  8
0
  6
CONTINUOUS
 62
     7
 10
57.7812172093
 20
-41.9252579019
 30
0.0
  0
SEQEND
  5
86D
  8
0
  6
CONTINUOUS
 62
     7
  0
LINE
  5
2B8
  8
0
  6
CONTINUOUS
 62
     7
 10
49.5461560406
 20
-37.5830379233
 30
0.0
 11
49.5461560406
 21
-42.0924519107
 31
0.0
  0
LINE
  5
2B9
  8
0
  6
CONTINUOUS
 62
     7
 10
119.417373053
 20
-42.0924519107
 30
0.0
 11
119.417373053
 21
-37.5845727429
 31
0.0
  0
POLYLINE
  5
2BA
  8
0
  6
CONTINUOUS
 62
     7
 66
     1
 10
0.0
 20
0.0
 30
0.0
  0
VERTEX
  5
849
  8
0
  6
CONTINUOUS
 62
     7
 10
124.5405234017
 20
-40.9538795159
 30
0.0
  0
VERTEX
  5
84A
  8
0
  6
CONTINUOUS
 62
     7
 10
124.5383061089
 20
-41.0622683272
 30
0.0
  0
VERTEX
  5
84B
  8
0
  6
CONTINUOUS
 62
     7
 10
124.4775808968
 20
-41.5280622349
 30
0.0
  0
SEQEND
  5
86C
  8
0
  6
CONTINUOUS
 62
     7
  0
LINE
  5
2BB
  8
0
  6
CONTINUOUS
 62
     7
 10
201.481766402
 20
-41.4064471529
 30
0.0
 11
201.481766402
 21
-44.0804612742
 31
0.0
  0
LINE
  5
2BC
  8
0
  6
CONTINUOUS
 62
     7
 10
207.4817662679
 20
-41.4109756157
 30
0.0
 11
207.4817662679
 21
-44.0804612742
 31
0.0
  0
LINE
  5
2BD
  8
0
  6
CONTINUOUS
 62
     7
 10
206.4817662903
 20
-46.5113733814
 30
0.0
 11
202.4817663797
 21
-46.5113733814
 31
0.0
  0
ARC
  5
2BE
  8
0
  6
CONTINUOUS
 62
     7
 10
206.481766335
 20
-45.5113735542
 30
0.0
 40
1.0
 50
270.0
 51
0.0
  0
LINE
  5
2BF
  8
0
  6
CONTINUOUS
 62
     7
 10
207.4817662679
 20
-44.0804612742
 30
0.0
 11
207.4817662679
 21
-45.51137359
 31
0.0
  0
ARC
  5
2C0
  8
0
  6
CONTINUOUS
 62
     7
 10
202.481766335
 20
-45.5113735542
 30
0.0
 40
1.0
 50
180.0
 51
270.0
  0
LINE
  5
2C1
  8
0
  6
CONTINUOUS
 62
     7
 10
201.481766402
 20
-44.0804612742
 30
0.0
 11
201.481766402
 21
-45.51137359
 31
0.0
  0
LINE
  5
2C2
  8
0
  6
CONTINUOUS
 62
     7
 10
222.4817670502
 20
-47.5113735453
 30
0.0
 11
222.4817670502
 21
-57.1113736287
 31
0.0
  0
LINE
  5
2C3
  8
0
  6
CONTINUOUS
 62
     7
 10
186.4817656197
 20
-47.5113735453
 30
0.0
 11
186.4817656197
 21
-57.1113736287
 31
0.0
  0
LINE
  5
2C4
  8
0
  6
CONTINUOUS
 62
     7
 10
222.4817670502
 20
-58.1113734201
 30
0.0
 11
186.4817656197
 21
-58.1113734201
 31
0.0
  0
LINE
  5
2C5
  8
0
  6
CONTINUOUS
 62
     7
 10
222.4817670502
 20
-57.1113736287
 30
0.0
 11
222.4817670502
 21
-58.1113734201
 31
0.0
  0
LINE
  5
2C6
  8
0
  6
CONTINUOUS
 62
     7
 10
186.4817656197
 20
-57.1113736287
 30
0.0
 11
186.4817656197
 21
-58.1113734201
 31
0.0
  0
LINE
  5
2C7
  8
0
  6
CONTINUOUS
 62
     7
 10
202.4817663797
 20
-46.5113733814
 30
0.0
 11
186.4817656197
 21
-46.5113733814
 31
0.0
  0
LINE
  5
2C8
  8
0
  6
CONTINUOUS
 62
     7
 10
222.4817670502
 20
-46.5113733814
 30
0.0
 11
206.4817662903
 21
-46.5113733814
 31
0.0
  0
LINE
  5
2C9
  8
0
  6
CONTINUOUS
 62
     7
 10
222.4817670502
 20
-46.5113733814
 30
0.0
 11
222.4817670502
 21
-47.5113735453
 31
0.0
  0
LINE
  5
2CA
  8
0
  6
CONTINUOUS
 62
     7
 10
186.4817656197
 20
-46.5113733814
 30
0.0
 11
186.4817656197
 21
-47.5113735453
 31
0.0
  0
LINE
  5
2CB
  8
0
  6
CONTINUOUS
 62
     7
 10
327.4817682423
 20
-41.4109756157
 30
0.0
 11
327.4817682423
 21
-44.0804612742
 31
0.0
  0
LINE
  5
2CC
  8
0
  6
CONTINUOUS
 62
     7
 10
321.4817620434
 20
-41.4064471529
 30
0.0
 11
321.4817620434
 21
-44.0804612742
 31
0.0
  0
ARC
  5
2CD
  8
0
  6
CONTINUOUS
 62
     7
 10
326.481766335
 20
-45.5113735542
 30
0.0
 40
1.0
 50
270.0
 51
0.0
  0
LINE
  5
2CE
  8
0
  6
CONTINUOUS
 62
     7
 10
327.4817682423
 20
-44.0804612742
 30
0.0
 11
327.4817682423
 21
-45.51137359
 31
0.0
  0
LINE
  5
2CF
  8
0
  6
CONTINUOUS
 62
     7
 10
326.481769196
 20
-46.5113733814
 30
0.0
 11
322.4817610898
 21
-46.5113733814
 31
0.0
  0
ARC
  5
2D0
  8
0
  6
CONTINUOUS
 62
     7
 10
322.481766335
 20
-45.5113735542
 30
0.0
 40
1.0
 50
180.0
 51
270.0
  0
LINE
  5
2D1
  8
0
  6
CONTINUOUS
 62
     7
 10
321.4817620434
 20
-44.0804612742
 30
0.0
 11
321.4817620434
 21
-45.51137359
 31
0.0
  0
LINE
  5
2D2
  8
0
  6
CONTINUOUS
 62
     7
 10
342.4817658581
 20
-47.5113735453
 30
0.0
 11
342.4817658581
 21
-57.1113736287
 31
0.0
  0
LINE
  5
2D3
  8
0
  6
CONTINUOUS
 62
     7
 10
306.4817644276
 20
-47.5113735453
 30
0.0
 11
306.4817644276
 21
-57.1113736287
 31
0.0
  0
LINE
  5
2D4
  8
0
  6
CONTINUOUS
 62
     7
 10
342.4817658581
 20
-58.1113734201
 30
0.0
 11
306.4817644276
 21
-58.1113734201
 31
0.0
  0
LINE
  5
2D5
  8
0
  6
CONTINUOUS
 62
     7
 10
342.4817658581
 20
-57.1113736287
 30
0.0
 11
342.4817658581
 21
-58.1113734201
 31
0.0
  0
LINE
  5
2D6
  8
0
  6
CONTINUOUS
 62
     7
 10
306.4817644276
 20
-57.1113736287
 30
0.0
 11
306.4817644276
 21
-58.1113734201
 31
0.0
  0
LINE
  5
2D7
  8
0
  6
CONTINUOUS
 62
     7
 10
322.4817610898
 20
-46.5113733814
 30
0.0
 11
306.4817644276
 21
-46.5113733814
 31
0.0
  0
LINE
  5
2D8
  8
0
  6
CONTINUOUS
 62
     7
 10
342.4817658581
 20
-46.5113733814
 30
0.0
 11
326.481769196
 21
-46.5113733814
 31
0.0
  0
LINE
  5
2D9
  8
0
  6
CONTINUOUS
 62
     7
 10
342.4817658581
 20
-46.5113733814
 30
0.0
 11
342.4817658581
 21
-47.5113735453
 31
0.0
  0
LINE
  5
2DA
  8
0
  6
CONTINUOUS
 62
     7
 10
306.4817644276
 20
-46.5113733814
 30
0.0
 11
306.4817644276
 21
-47.5113735453
 31
0.0
  0
LINE
  5
2DB
  8
0
  6
CONTINUOUS
 62
     7
 10
87.4817706265
 20
-41.4109756157
 30
0.0
 11
87.4817706265
 21
-44.0804612742
 31
0.0
  0
LINE
  5
2DC
  8
0
  6
CONTINUOUS
 62
     7
 10
81.4817644276
 20
-41.4064471529
 30
0.0
 11
81.4817644276
 21
-44.0804612742
 31
0.0
  0
ARC
  5
2DD
  8
0
  6
CONTINUOUS
 62
     7
 10
86.481766335
 20
-45.5113735542
 30
0.0
 40
1.0
 50
270.0
 51
0.0
  0
LINE
  5
2DE
  8
0
  6
CONTINUOUS
 62
     7
 10
87.4817706265
 20
-44.0804612742
 30
0.0
 11
87.4817706265
 21
-45.51137359
 31
0.0
  0
ARC
  5
2DF
  8
0
  6
CONTINUOUS
 62
     7
 10
82.481766335
 20
-45.5113735542
 30
0.0
 40
1.0
 50
180.0
 51
270.0
  0
LINE
  5
2E0
  8
0
  6
CONTINUOUS
 62
     7
 10
81.4817644276
 20
-44.0804612742
 30
0.0
 11
81.4817644276
 21
-45.51137359
 31
0.0
  0
LINE
  5
2E1
  8
0
  6
CONTINUOUS
 62
     7
 10
86.4817715802
 20
-46.5113733814
 30
0.0
 11
82.481763474
 21
-46.5113733814
 31
0.0
  0
LINE
  5
2E2
  8
0
  6
CONTINUOUS
 62
     7
 10
66.4817668118
 20
-47.5113735453
 30
0.0
 11
66.4817668118
 21
-57.1113736287
 31
0.0
  0
LINE
  5
2E3
  8
0
  6
CONTINUOUS
 62
     7
 10
102.4817682423
 20
-47.5113735453
 30
0.0
 11
102.4817682423
 21
-57.1113736287
 31
0.0
  0
LINE
  5
2E4
  8
0
  6
CONTINUOUS
 62
     7
 10
102.4817682423
 20
-58.1113734201
 30
0.0
 11
66.4817668118
 21
-58.1113734201
 31
0.0
  0
LINE
  5
2E5
  8
0
  6
CONTINUOUS
 62
     7
 10
66.4817668118
 20
-57.1113736287
 30
0.0
 11
66.4817668118
 21
-58.1113734201
 31
0.0
  0
LINE
  5
2E6
  8
0
  6
CONTINUOUS
 62
     7
 10
102.4817682423
 20
-57.1113736287
 30
0.0
 11
102.4817682423
 21
-58.1113734201
 31
0.0
  0
LINE
  5
2E7
  8
0
  6
CONTINUOUS
 62
     7
 10
82.481763474
 20
-46.5113733814
 30
0.0
 11
66.4817668118
 21
-46.5113733814
 31
0.0
  0
LINE
  5
2E8
  8
0
  6
CONTINUOUS
 62
     7
 10
102.4817682423
 20
-46.5113733814
 30
0.0
 11
86.4817715802
 21
-46.5113733814
 31
0.0
  0
LINE
  5
2E9
  8
0
  6
CONTINUOUS
 62
     7
 10
66.4817668118
 20
-46.5113733814
 30
0.0
 11
66.4817668118
 21
-47.5113735453
 31
0.0
  0
LINE
  5
2EA
  8
0
  6
CONTINUOUS
 62
     7
 10
102.4817682423
 20
-46.5113733814
 30
0.0
 11
102.4817682423
 21
-47.5113735453
 31
0.0
  0
POLYLINE
  5
2EB
  8
0
  6
CONTINUOUS
 62
     7
 66
     1
 10
0.0
 20
0.0
 30
0.0
  0
VERTEX
  5
84C
  8
0
  6
CONTINUOUS
 62
     7
 10
47.7817631879
 20
-71.5681415901
 30
0.0
  0
VERTEX
  5
84D
  8
0
  6
CONTINUOUS
 62
     7
 10
47.2461558499
 20
-72.2723749385
 30
0.0
  0
VERTEX
  5
84E
  8
0
  6
CONTINUOUS
 62
     7
 10
46.7817641415
 20
-73.037564467
 30
0.0
  0
SEQEND
  5
86B
  8
0
  6
CONTINUOUS
 62
     7
  0
LINE
  5
2EC
  8
0
  6
CONTINUOUS
 62
     7
 10
59.137544743
 20
-63.2167127833
 30
0.0
 11
59.2610813298
 21
-63.2113736973
 31
0.0
  0
ARC
  5
2ED
  8
0
  6
CONTINUOUS
 62
     7
 10
59.621351848
 20
-78.1175471611
 30
0.0
 40
10.07563268922878
 50
100.5231138163
 51
180.5335621641
  0
ARC
  5
2EE
  8
0
  6
CONTINUOUS
 62
     7
 10
109.3422013416
 20
-118.3052185332
 30
0.0
 40
10.0756087480542
 50
280.5230342125
 51
0.5336573306
  0
LINE
  5
2EF
  8
0
  6
CONTINUOUS
 62
     7
 10
109.8136938729
 20
-133.2049888477
 30
0.0
 11
109.7024477639
 21
-133.2113725052
 31
0.0
  0
POLYLINE
  5
2F0
  8
0
  6
CONTINUOUS
 62
     7
 66
     1
 10
0.0
 20
0.0
 30
0.0
  0
VERTEX
  5
84F
  8
0
  6
CONTINUOUS
 62
     7
 10
121.1817659058
 20
-71.5681415901
 30
0.0
  0
VERTEX
  5
850
  8
0
  6
CONTINUOUS
 62
     7
 10
121.7173732438
 20
-72.2723749385
 30
0.0
  0
VERTEX
  5
851
  8
0
  6
CONTINUOUS
 62
     7
 10
122.1817649521
 20
-73.037564467
 30
0.0
  0
SEQEND
  5
86A
  8
0
  6
CONTINUOUS
 62
     7
  0
ARC
  5
2F1
  8
0
  6
CONTINUOUS
 62
     7
 10
109.3599252692
 20
-78.1029304702
 30
0.0
 40
10.05803241131263
 50
359.3822356586
 51
79.5610476606
  0
LINE
  5
2F2
  8
0
  6
CONTINUOUS
 62
     7
 10
59.2610813298
 20
-133.2113725052
 30
0.0
 11
59.1679431119
 21
-133.206121336
 31
0.0
  0
ARC
  5
2F3
  8
0
  6
CONTINUOUS
 62
     7
 10
59.603607094
 20
-118.3198105119
 30
0.0
 40
10.05803559228839
 50
179.3822825717
 51
259.5610665857
  0
LINE
  5
2F4
  8
0
  6
CONTINUOUS
 62
     7
 10
49.5461560406
 20
-78.2113742933
 30
0.0
 11
49.5461560406
 21
-118.2113748894
 31
0.0
  0
LINE
  5
2F5
  8
0
  6
CONTINUOUS
 62
     7
 10
119.417373053
 20
-118.2113748894
 30
0.0
 11
119.417373053
 21
-78.2113742933
 31
0.0
  0
LINE
  5
2F6
  8
0
  6
CONTINUOUS
 62
     7
 10
121.1817659058
 20
-69.1992861137
 30
0.0
 11
122.1817649521
 21
-69.1992861137
 31
0.0
  0
LINE
  5
2F7
  8
0
  6
CONTINUOUS
 62
     7
 10
121.1817659058
 20
-45.3508567915
 30
0.0
 11
121.1817659058
 21
-69.1992861137
 31
0.0
  0
LINE
  5
2F8
  8
0
  6
CONTINUOUS
 62
     7
 10
122.1817649521
 20
-45.3508567915
 30
0.0
 11
122.1817649521
 21
-69.1992861137
 31
0.0
  0
LINE
  5
2F9
  8
0
  6
CONTINUOUS
 62
     7
 10
47.7817631879
 20
-69.1992861137
 30
0.0
 11
46.7817641415
 21
-69.1992861137
 31
0.0
  0
LINE
  5
2FA
  8
0
  6
CONTINUOUS
 62
     7
 10
46.7817641415
 20
-45.3508567915
 30
0.0
 11
46.7817641415
 21
-69.1992861137
 31
0.0
  0
LINE
  5
2FB
  8
0
  6
CONTINUOUS
 62
     7
 10
47.7817631879
 20
-45.3508567915
 30
0.0
 11
47.7817631879
 21
-69.1992861137
 31
0.0
  0
LINE
  5
2FC
  8
0
  6
CONTINUOUS
 62
     7
 10
121.1817659058
 20
-69.1992861137
 30
0.0
 11
121.1817659058
 21
-71.5681415901
 31
0.0
  0
LINE
  5
2FD
  8
0
  6
CONTINUOUS
 62
     7
 10
122.1817649521
 20
-69.1992861137
 30
0.0
 11
122.1817649521
 21
-73.037564467
 31
0.0
  0
LINE
  5
2FE
  8
0
  6
CONTINUOUS
 62
     7
 10
46.7817641415
 20
-69.1992861137
 30
0.0
 11
46.7817641415
 21
-73.037564467
 31
0.0
  0
LINE
  5
2FF
  8
0
  6
CONTINUOUS
 62
     7
 10
47.7817631879
 20
-69.1992861137
 30
0.0
 11
47.7817631879
 21
-71.5681415901
 31
0.0
  0
LINE
  5
300
  8
0
  6
CONTINUOUS
 62
     7
 10
57.7812172093
 20
-128.2113713131
 30
0.0
 11
111.1823178448
 21
-128.2113713131
 31
0.0
  0
LINE
  5
301
  8
0
  6
CONTINUOUS
 62
     7
 10
57.7812172093
 20
-68.2113733993
 30
0.0
 11
111.1823178448
 21
-68.2113733993
 31
0.0
  0
LINE
  5
302
  8
0
  6
CONTINUOUS
 62
     7
 10
59.2610813298
 20
-63.2113736973
 30
0.0
 11
109.7024477639
 21
-63.2113736973
 31
0.0
  0
LINE
  5
303
  8
0
  6
CONTINUOUS
 62
     7
 10
109.7024477639
 20
-133.2113725052
 30
0.0
 11
59.2610813298
 21
-133.2113725052
 31
0.0
  0
LINE
  5
304
  8
0
  6
CONTINUOUS
 62
     7
 10
46.7817641415
 20
-43.8081269071
 30
0.0
 11
46.7817641415
 21
-45.3508567915
 31
0.0
  0
LINE
  5
305
  8
0
  6
CONTINUOUS
 62
     7
 10
47.7817631879
 20
-44.0062296495
 30
0.0
 11
47.7817631879
 21
-45.3508567915
 31
0.0
  0
LINE
  5
306
  8
0
  6
CONTINUOUS
 62
     7
 10
121.1817659058
 20
-44.0077138052
 30
0.0
 11
121.1817659058
 21
-45.3508567915
 31
0.0
  0
LINE
  5
307
  8
0
  6
CONTINUOUS
 62
     7
 10
122.1817649521
 20
-43.8083727763
 30
0.0
 11
122.1817649521
 21
-45.3508567915
 31
0.0
  0
LINE
  5
308
  8
0
  6
CONTINUOUS
 62
     7
 10
51.9817687192
 20
-57.1113736287
 30
0.0
 11
51.9817687192
 21
-47.3113735125
 31
0.0
  0
LINE
  5
309
  8
0
  6
CONTINUOUS
 62
     7
 10
116.981766335
 20
-57.1113736287
 30
0.0
 11
116.981766335
 21
-47.3113735125
 31
0.0
  0
LINE
  5
30A
  8
0
  6
CONTINUOUS
 62
     7
 10
121.1817659058
 20
-46.3113737211
 30
0.0
 11
116.981766335
 21
-46.3113737211
 31
0.0
  0
LINE
  5
30B
  8
0
  6
CONTINUOUS
 62
     7
 10
116.981766335
 20
-47.3113735125
 30
0.0
 11
116.981766335
 21
-46.3113737211
 31
0.0
  0
LINE
  5
30C
  8
0
  6
CONTINUOUS
 62
     7
 10
51.9817687192
 20
-46.3113737211
 30
0.0
 11
47.7817631879
 21
-46.3113737211
 31
0.0
  0
LINE
  5
30D
  8
0
  6
CONTINUOUS
 62
     7
 10
51.9817687192
 20
-46.3113737211
 30
0.0
 11
51.9817687192
 21
-47.3113735125
 31
0.0
  0
LINE
  5
30E
  8
0
  6
CONTINUOUS
 62
     7
 10
121.1817659058
 20
-58.1113734201
 30
0.0
 11
116.981766335
 21
-58.1113734201
 31
0.0
  0
LINE
  5
30F
  8
0
  6
CONTINUOUS
 62
     7
 10
116.981766335
 20
-58.1113734201
 30
0.0
 11
116.981766335
 21
-57.1113736287
 31
0.0
  0
LINE
  5
310
  8
0
  6
CONTINUOUS
 62
     7
 10
51.9817687192
 20
-58.1113734201
 30
0.0
 11
47.7817631879
 21
-58.1113734201
 31
0.0
  0
LINE
  5
311
  8
0
  6
CONTINUOUS
 62
     7
 10
51.9817687192
 20
-57.1113736287
 30
0.0
 11
51.9817687192
 21
-58.1113734201
 31
0.0
  0
LINE
  5
312
  8
0
  6
CONTINUOUS
 62
     7
 10
41.981766335
 20
-47.3113735125
 30
0.0
 11
41.981766335
 21
-46.3113737211
 31
0.0
  0
LINE
  5
313
  8
0
  6
CONTINUOUS
 62
     7
 10
46.7817641415
 20
-46.3113737211
 30
0.0
 11
41.981766335
 21
-46.3113737211
 31
0.0
  0
LINE
  5
314
  8
0
  6
CONTINUOUS
 62
     7
 10
126.9817687192
 20
-46.3113737211
 30
0.0
 11
122.1817649521
 21
-46.3113737211
 31
0.0
  0
LINE
  5
315
  8
0
  6
CONTINUOUS
 62
     7
 10
126.9817687192
 20
-47.3113735125
 30
0.0
 11
126.9817687192
 21
-46.3113737211
 31
0.0
  0
LINE
  5
316
  8
0
  6
CONTINUOUS
 62
     7
 10
41.981766335
 20
-57.1113736287
 30
0.0
 11
41.981766335
 21
-47.3113735125
 31
0.0
  0
LINE
  5
317
  8
0
  6
CONTINUOUS
 62
     7
 10
126.9817687192
 20
-57.1113736287
 30
0.0
 11
126.9817687192
 21
-47.3113735125
 31
0.0
  0
LINE
  5
318
  8
0
  6
CONTINUOUS
 62
     7
 10
46.7817641415
 20
-58.1113734201
 30
0.0
 11
41.981766335
 21
-58.1113734201
 31
0.0
  0
LINE
  5
319
  8
0
  6
CONTINUOUS
 62
     7
 10
41.981766335
 20
-58.1113734201
 30
0.0
 11
41.981766335
 21
-57.1113736287
 31
0.0
  0
LINE
  5
31A
  8
0
  6
CONTINUOUS
 62
     7
 10
126.9817687192
 20
-58.1113734201
 30
0.0
 11
122.1817649521
 21
-58.1113734201
 31
0.0
  0
LINE
  5
31B
  8
0
  6
CONTINUOUS
 62
     7
 10
126.9817687192
 20
-58.1113734201
 30
0.0
 11
126.9817687192
 21
-57.1113736287
 31
0.0
  0
POLYLINE
  5
31C
  8
0
  6
CONTINUOUS
 62
     7
 66
     1
 10
0.0
 20
0.0
 30
0.0
  0
VERTEX
  5
852
  8
0
  6
CONTINUOUS
 62
     7
 10
167.781764976
 20
-71.5681415901
 30
0.0
  0
VERTEX
  5
853
  8
0
  6
CONTINUOUS
 62
     7
 10
167.246157638
 20
-72.2723749385
 30
0.0
  0
VERTEX
  5
854
  8
0
  6
CONTINUOUS
 62
     7
 10
166.7817659297
 20
-73.037564467
 30
0.0
  0
SEQEND
  5
869
  8
0
  6
CONTINUOUS
 62
     7
  0
LINE
  5
31D
  8
0
  6
CONTINUOUS
 62
     7
 10
179.1375465312
 20
-63.2167127833
 30
0.0
 11
179.2610831179
 21
-63.2113736973
 31
0.0
  0
ARC
  5
31E
  8
0
  6
CONTINUOUS
 62
     7
 10
179.6213431869
 20
-78.1175374593
 30
0.0
 40
10.07562233077797
 50
100.5230987956
 51
180.5336178852
  0
ARC
  5
31F
  8
0
  6
CONTINUOUS
 62
     7
 10
229.3421954294
 20
-118.3052121919
 30
0.0
 40
10.07561638898615
 50
280.5230706788
 51
0.5336208642
  0
LINE
  5
320
  8
0
  6
CONTINUOUS
 62
     7
 10
229.8136926808
 20
-133.2049888477
 30
0.0
 11
229.702449552
 21
-133.2113725052
 31
0.0
  0
POLYLINE
  5
321
  8
0
  6
CONTINUOUS
 62
     7
 66
     1
 10
0.0
 20
0.0
 30
0.0
  0
VERTEX
  5
855
  8
0
  6
CONTINUOUS
 62
     7
 10
241.181767694
 20
-71.5681415901
 30
0.0
  0
VERTEX
  5
856
  8
0
  6
CONTINUOUS
 62
     7
 10
241.7173750319
 20
-72.2723749385
 30
0.0
  0
VERTEX
  5
857
  8
0
  6
CONTINUOUS
 62
     7
 10
242.1817667403
 20
-73.037564467
 30
0.0
  0
SEQEND
  5
868
  8
0
  6
CONTINUOUS
 62
     7
  0
ARC
  5
322
  8
0
  6
CONTINUOUS
 62
     7
 10
229.3599247691
 20
-78.1029323546
 30
0.0
 40
10.05803467908728
 50
359.3822465328
 51
79.5610367863
  0
ARC
  5
323
  8
0
  6
CONTINUOUS
 62
     7
 10
179.6036011023
 20
-118.3198180049
 30
0.0
 40
10.05802789364268
 50
179.3822394123
 51
259.5610690447
  0
LINE
  5
324
  8
0
  6
CONTINUOUS
 62
     7
 10
179.2610831179
 20
-133.2113725052
 30
0.0
 11
179.1679478802
 21
-133.206121336
 31
0.0
  0
LINE
  5
325
  8
0
  6
CONTINUOUS
 62
     7
 10
169.5461578288
 20
-78.2113742933
 30
0.0
 11
169.5461578288
 21
-118.2113748894
 31
0.0
  0
LINE
  5
326
  8
0
  6
CONTINUOUS
 62
     7
 10
239.4173748412
 20
-118.2113748894
 30
0.0
 11
239.4173748412
 21
-78.2113742933
 31
0.0
  0
LINE
  5
327
  8
0
  6
CONTINUOUS
 62
     7
 10
167.781764976
 20
-69.1992861137
 30
0.0
 11
166.7817659297
 21
-69.1992861137
 31
0.0
  0
LINE
  5
328
  8
0
  6
CONTINUOUS
 62
     7
 10
166.7817659297
 20
-45.3508567915
 30
0.0
 11
166.7817659297
 21
-69.1992861137
 31
0.0
  0
LINE
  5
329
  8
0
  6
CONTINUOUS
 62
     7
 10
167.781764976
 20
-45.3508567915
 30
0.0
 11
167.781764976
 21
-69.1992861137
 31
0.0
  0
LINE
  5
32A
  8
0
  6
CONTINUOUS
 62
     7
 10
241.181767694
 20
-69.1992861137
 30
0.0
 11
242.1817667403
 21
-69.1992861137
 31
0.0
  0
LINE
  5
32B
  8
0
  6
CONTINUOUS
 62
     7
 10
241.181767694
 20
-45.3508567915
 30
0.0
 11
241.181767694
 21
-69.1992861137
 31
0.0
  0
LINE
  5
32C
  8
0
  6
CONTINUOUS
 62
     7
 10
242.1817667403
 20
-45.3508567915
 30
0.0
 11
242.1817667403
 21
-69.1992861137
 31
0.0
  0
LINE
  5
32D
  8
0
  6
CONTINUOUS
 62
     7
 10
166.7817659297
 20
-69.1992861137
 30
0.0
 11
166.7817659297
 21
-73.037564467
 31
0.0
  0
LINE
  5
32E
  8
0
  6
CONTINUOUS
 62
     7
 10
167.781764976
 20
-69.1992861137
 30
0.0
 11
167.781764976
 21
-71.5681415901
 31
0.0
  0
LINE
  5
32F
  8
0
  6
CONTINUOUS
 62
     7
 10
241.181767694
 20
-69.1992861137
 30
0.0
 11
241.181767694
 21
-71.5681415901
 31
0.0
  0
LINE
  5
330
  8
0
  6
CONTINUOUS
 62
     7
 10
242.1817667403
 20
-69.1992861137
 30
0.0
 11
242.1817667403
 21
-73.037564467
 31
0.0
  0
LINE
  5
331
  8
0
  6
CONTINUOUS
 62
     7
 10
177.781213037
 20
-128.2113713131
 30
0.0
 11
231.182319633
 21
-128.2113713131
 31
0.0
  0
LINE
  5
332
  8
0
  6
CONTINUOUS
 62
     7
 10
177.781213037
 20
-68.2113733993
 30
0.0
 11
231.182319633
 21
-68.2113733993
 31
0.0
  0
LINE
  5
333
  8
0
  6
CONTINUOUS
 62
     7
 10
179.2610831179
 20
-63.2113736973
 30
0.0
 11
229.702449552
 21
-63.2113736973
 31
0.0
  0
LINE
  5
334
  8
0
  6
CONTINUOUS
 62
     7
 10
229.702449552
 20
-133.2113725052
 30
0.0
 11
179.2610831179
 21
-133.2113725052
 31
0.0
  0
LINE
  5
335
  8
0
  6
CONTINUOUS
 62
     7
 10
241.181767694
 20
-44.0077138052
 30
0.0
 11
241.181767694
 21
-45.3508567915
 31
0.0
  0
LINE
  5
336
  8
0
  6
CONTINUOUS
 62
     7
 10
242.1817667403
 20
-43.8083727763
 30
0.0
 11
242.1817667403
 21
-45.3508567915
 31
0.0
  0
LINE
  5
337
  8
0
  6
CONTINUOUS
 62
     7
 10
166.7817659297
 20
-43.8081269071
 30
0.0
 11
166.7817659297
 21
-45.3508567915
 31
0.0
  0
LINE
  5
338
  8
0
  6
CONTINUOUS
 62
     7
 10
167.781764976
 20
-44.0062296495
 30
0.0
 11
167.781764976
 21
-45.3508567915
 31
0.0
  0
LINE
  5
339
  8
0
  6
CONTINUOUS
 62
     7
 10
171.9817675271
 20
-57.1113736287
 30
0.0
 11
171.9817675271
 21
-47.3113735125
 31
0.0
  0
LINE
  5
33A
  8
0
  6
CONTINUOUS
 62
     7
 10
236.9817651429
 20
-57.1113736287
 30
0.0
 11
236.9817651429
 21
-47.3113735125
 31
0.0
  0
LINE
  5
33B
  8
0
  6
CONTINUOUS
 62
     7
 10
241.181767694
 20
-46.3113737211
 30
0.0
 11
236.9817651429
 21
-46.3113737211
 31
0.0
  0
LINE
  5
33C
  8
0
  6
CONTINUOUS
 62
     7
 10
236.9817651429
 20
-47.3113735125
 30
0.0
 11
236.9817651429
 21
-46.3113737211
 31
0.0
  0
LINE
  5
33D
  8
0
  6
CONTINUOUS
 62
     7
 10
171.9817675271
 20
-46.3113737211
 30
0.0
 11
167.781764976
 21
-46.3113737211
 31
0.0
  0
LINE
  5
33E
  8
0
  6
CONTINUOUS
 62
     7
 10
171.9817675271
 20
-46.3113737211
 30
0.0
 11
171.9817675271
 21
-47.3113735125
 31
0.0
  0
LINE
  5
33F
  8
0
  6
CONTINUOUS
 62
     7
 10
241.181767694
 20
-58.1113734201
 30
0.0
 11
236.9817651429
 21
-58.1113734201
 31
0.0
  0
LINE
  5
340
  8
0
  6
CONTINUOUS
 62
     7
 10
236.9817651429
 20
-58.1113734201
 30
0.0
 11
236.9817651429
 21
-57.1113736287
 31
0.0
  0
LINE
  5
341
  8
0
  6
CONTINUOUS
 62
     7
 10
171.9817675271
 20
-58.1113734201
 30
0.0
 11
167.781764976
 21
-58.1113734201
 31
0.0
  0
LINE
  5
342
  8
0
  6
CONTINUOUS
 62
     7
 10
171.9817675271
 20
-57.1113736287
 30
0.0
 11
171.9817675271
 21
-58.1113734201
 31
0.0
  0
LINE
  5
343
  8
0
  6
CONTINUOUS
 62
     7
 10
161.9817651429
 20
-57.1113736287
 30
0.0
 11
161.9817651429
 21
-47.3113735125
 31
0.0
  0
LINE
  5
344
  8
0
  6
CONTINUOUS
 62
     7
 10
161.9817651429
 20
-47.3113735125
 30
0.0
 11
161.9817651429
 21
-46.3113737211
 31
0.0
  0
LINE
  5
345
  8
0
  6
CONTINUOUS
 62
     7
 10
166.7817659297
 20
-46.3113737211
 30
0.0
 11
161.9817651429
 21
-46.3113737211
 31
0.0
  0
LINE
  5
346
  8
0
  6
CONTINUOUS
 62
     7
 10
246.9817675271
 20
-47.3113735125
 30
0.0
 11
246.9817675271
 21
-46.3113737211
 31
0.0
  0
LINE
  5
347
  8
0
  6
CONTINUOUS
 62
     7
 10
246.9817675271
 20
-46.3113737211
 30
0.0
 11
242.1817667403
 21
-46.3113737211
 31
0.0
  0
LINE
  5
348
  8
0
  6
CONTINUOUS
 62
     7
 10
246.9817675271
 20
-57.1113736287
 30
0.0
 11
246.9817675271
 21
-47.3113735125
 31
0.0
  0
LINE
  5
349
  8
0
  6
CONTINUOUS
 62
     7
 10
166.7817659297
 20
-58.1113734201
 30
0.0
 11
161.9817651429
 21
-58.1113734201
 31
0.0
  0
LINE
  5
34A
  8
0
  6
CONTINUOUS
 62
     7
 10
161.9817651429
 20
-58.1113734201
 30
0.0
 11
161.9817651429
 21
-57.1113736287
 31
0.0
  0
LINE
  5
34B
  8
0
  6
CONTINUOUS
 62
     7
 10
246.9817675271
 20
-58.1113734201
 30
0.0
 11
242.1817667403
 21
-58.1113734201
 31
0.0
  0
LINE
  5
34C
  8
0
  6
CONTINUOUS
 62
     7
 10
246.9817675271
 20
-58.1113734201
 30
0.0
 11
246.9817675271
 21
-57.1113736287
 31
0.0
  0
POLYLINE
  5
34D
  8
0
  6
CONTINUOUS
 62
     7
 66
     1
 10
0.0
 20
0.0
 30
0.0
  0
VERTEX
  5
858
  8
0
  6
CONTINUOUS
 62
     7
 10
287.7817667641
 20
-71.5681415901
 30
0.0
  0
VERTEX
  5
859
  8
0
  6
CONTINUOUS
 62
     7
 10
287.2461594262
 20
-72.2723749385
 30
0.0
  0
VERTEX
  5
85A
  8
0
  6
CONTINUOUS
 62
     7
 10
286.7817677178
 20
-73.037564467
 30
0.0
  0
SEQEND
  5
867
  8
0
  6
CONTINUOUS
 62
     7
  0
LINE
  5
34E
  8
0
  6
CONTINUOUS
 62
     7
 10
299.1375483193
 20
-63.2167127833
 30
0.0
 11
299.2610849061
 21
-63.2113736973
 31
0.0
  0
ARC
  5
34F
  8
0
  6
CONTINUOUS
 62
     7
 10
299.6213372747
 20
-78.117531118
 30
0.0
 40
10.07561468985363
 50
100.5230623293
 51
180.5336543515
  0
ARC
  5
350
  8
0
  6
CONTINUOUS
 62
     7
 10
349.3421867683
 20
-118.3052024901
 30
0.0
 40
10.07562674746263
 50
280.5230856997
 51
0.5335651429
  0
LINE
  5
351
  8
0
  6
CONTINUOUS
 62
     7
 10
349.8136974492
 20
-133.2049888477
 30
0.0
 11
349.7024513402
 21
-133.2113725052
 31
0.0
  0
POLYLINE
  5
352
  8
0
  6
CONTINUOUS
 62
     7
 66
     1
 10
0.0
 20
0.0
 30
0.0
  0
VERTEX
  5
85B
  8
0
  6
CONTINUOUS
 62
     7
 10
361.1817694821
 20
-71.5681415901
 30
0.0
  0
VERTEX
  5
85C
  8
0
  6
CONTINUOUS
 62
     7
 10
361.7173768201
 20
-72.2723749385
 30
0.0
  0
VERTEX
  5
85D
  8
0
  6
CONTINUOUS
 62
     7
 10
362.1817685284
 20
-73.037564467
 30
0.0
  0
SEQEND
  5
866
  8
0
  6
CONTINUOUS
 62
     7
  0
ARC
  5
353
  8
0
  6
CONTINUOUS
 62
     7
 10
349.3599187774
 20
-78.1029398475
 30
0.0
 40
10.05804237770582
 50
359.3822896921
 51
79.5610343275
  0
ARC
  5
354
  8
0
  6
CONTINUOUS
 62
     7
 10
299.6036006022
 20
-118.3198198893
 30
0.0
 40
10.05802562587853
 50
179.3822285381
 51
259.5610799189
  0
LINE
  5
355
  8
0
  6
CONTINUOUS
 62
     7
 10
299.2610849061
 20
-133.2113725052
 30
0.0
 11
299.1679466881
 21
-133.206121336
 31
0.0
  0
LINE
  5
356
  8
0
  6
CONTINUOUS
 62
     7
 10
289.5461596169
 20
-78.2113742933
 30
0.0
 11
289.5461596169
 21
-118.2113748894
 31
0.0
  0
LINE
  5
357
  8
0
  6
CONTINUOUS
 62
     7
 10
359.4173766293
 20
-118.2113748894
 30
0.0
 11
359.4173766293
 21
-78.2113742933
 31
0.0
  0
LINE
  5
358
  8
0
  6
CONTINUOUS
 62
     7
 10
361.1817694821
 20
-69.1992861137
 30
0.0
 11
362.1817685284
 21
-69.1992861137
 31
0.0
  0
LINE
  5
359
  8
0
  6
CONTINUOUS
 62
     7
 10
362.1817685284
 20
-45.3508567915
 30
0.0
 11
362.1817685284
 21
-69.1992861137
 31
0.0
  0
LINE
  5
35A
  8
0
  6
CONTINUOUS
 62
     7
 10
361.1817694821
 20
-45.3508567915
 30
0.0
 11
361.1817694821
 21
-69.1992861137
 31
0.0
  0
LINE
  5
35B
  8
0
  6
CONTINUOUS
 62
     7
 10
287.7817667641
 20
-69.1992861137
 30
0.0
 11
286.7817677178
 21
-69.1992861137
 31
0.0
  0
LINE
  5
35C
  8
0
  6
CONTINUOUS
 62
     7
 10
286.7817677178
 20
-45.3508567915
 30
0.0
 11
286.7817677178
 21
-69.1992861137
 31
0.0
  0
LINE
  5
35D
  8
0
  6
CONTINUOUS
 62
     7
 10
287.7817667641
 20
-45.3508567915
 30
0.0
 11
287.7817667641
 21
-69.1992861137
 31
0.0
  0
LINE
  5
35E
  8
0
  6
CONTINUOUS
 62
     7
 10
286.7817677178
 20
-69.1992861137
 30
0.0
 11
286.7817677178
 21
-73.037564467
 31
0.0
  0
LINE
  5
35F
  8
0
  6
CONTINUOUS
 62
     7
 10
287.7817667641
 20
-69.1992861137
 30
0.0
 11
287.7817667641
 21
-71.5681415901
 31
0.0
  0
LINE
  5
360
  8
0
  6
CONTINUOUS
 62
     7
 10
362.1817685284
 20
-69.1992861137
 30
0.0
 11
362.1817685284
 21
-73.037564467
 31
0.0
  0
LINE
  5
361
  8
0
  6
CONTINUOUS
 62
     7
 10
361.1817694821
 20
-69.1992861137
 30
0.0
 11
361.1817694821
 21
-71.5681415901
 31
0.0
  0
LINE
  5
362
  8
0
  6
CONTINUOUS
 62
     7
 10
297.7812148251
 20
-128.2113713131
 30
0.0
 11
351.1823154606
 21
-128.2113713131
 31
0.0
  0
LINE
  5
363
  8
0
  6
CONTINUOUS
 62
     7
 10
297.7812148251
 20
-68.2113733993
 30
0.0
 11
351.1823154606
 21
-68.2113733993
 31
0.0
  0
LINE
  5
364
  8
0
  6
CONTINUOUS
 62
     7
 10
299.2610849061
 20
-63.2113736973
 30
0.0
 11
349.7024513402
 21
-63.2113736973
 31
0.0
  0
LINE
  5
365
  8
0
  6
CONTINUOUS
 62
     7
 10
349.7024513402
 20
-133.2113725052
 30
0.0
 11
299.2610849061
 21
-133.2113725052
 31
0.0
  0
LINE
  5
366
  8
0
  6
CONTINUOUS
 62
     7
 10
286.7817677178
 20
-43.8081269071
 30
0.0
 11
286.7817677178
 21
-45.3508567915
 31
0.0
  0
LINE
  5
367
  8
0
  6
CONTINUOUS
 62
     7
 10
287.7817667641
 20
-44.0062296495
 30
0.0
 11
287.7817667641
 21
-45.3508567915
 31
0.0
  0
LINE
  5
368
  8
0
  6
CONTINUOUS
 62
     7
 10
362.1817685284
 20
-43.8083727763
 30
0.0
 11
362.1817685284
 21
-45.3508567915
 31
0.0
  0
LINE
  5
369
  8
0
  6
CONTINUOUS
 62
     7
 10
361.1817694821
 20
-44.0077138052
 30
0.0
 11
361.1817694821
 21
-45.3508567915
 31
0.0
  0
LINE
  5
36A
  8
0
  6
CONTINUOUS
 62
     7
 10
356.9817639508
 20
-57.1113736287
 30
0.0
 11
356.9817639508
 21
-47.3113735125
 31
0.0
  0
LINE
  5
36B
  8
0
  6
CONTINUOUS
 62
     7
 10
291.981766335
 20
-57.1113736287
 30
0.0
 11
291.981766335
 21
-47.3113735125
 31
0.0
  0
LINE
  5
36C
  8
0
  6
CONTINUOUS
 62
     7
 10
291.981766335
 20
-46.3113737211
 30
0.0
 11
287.7817667641
 21
-46.3113737211
 31
0.0
  0
LINE
  5
36D
  8
0
  6
CONTINUOUS
 62
     7
 10
291.981766335
 20
-46.3113737211
 30
0.0
 11
291.981766335
 21
-47.3113735125
 31
0.0
  0
LINE
  5
36E
  8
0
  6
CONTINUOUS
 62
     7
 10
361.1817694821
 20
-46.3113737211
 30
0.0
 11
356.9817639508
 21
-46.3113737211
 31
0.0
  0
LINE
  5
36F
  8
0
  6
CONTINUOUS
 62
     7
 10
356.9817639508
 20
-47.3113735125
 30
0.0
 11
356.9817639508
 21
-46.3113737211
 31
0.0
  0
LINE
  5
370
  8
0
  6
CONTINUOUS
 62
     7
 10
291.981766335
 20
-58.1113734201
 30
0.0
 11
287.7817667641
 21
-58.1113734201
 31
0.0
  0
LINE
  5
371
  8
0
  6
CONTINUOUS
 62
     7
 10
291.981766335
 20
-57.1113736287
 30
0.0
 11
291.981766335
 21
-58.1113734201
 31
0.0
  0
LINE
  5
372
  8
0
  6
CONTINUOUS
 62
     7
 10
361.1817694821
 20
-58.1113734201
 30
0.0
 11
356.9817639508
 21
-58.1113734201
 31
0.0
  0
LINE
  5
373
  8
0
  6
CONTINUOUS
 62
     7
 10
356.9817639508
 20
-58.1113734201
 30
0.0
 11
356.9817639508
 21
-57.1113736287
 31
0.0
  0
LINE
  5
374
  8
0
  6
CONTINUOUS
 62
     7
 10
281.9817639508
 20
-57.1113736287
 30
0.0
 11
281.9817639508
 21
-47.3113735125
 31
0.0
  0
LINE
  5
375
  8
0
  6
CONTINUOUS
 62
     7
 10
366.981766335
 20
-47.3113735125
 30
0.0
 11
366.981766335
 21
-46.3113737211
 31
0.0
  0
LINE
  5
376
  8
0
  6
CONTINUOUS
 62
     7
 10
366.981766335
 20
-46.3113737211
 30
0.0
 11
362.1817685284
 21
-46.3113737211
 31
0.0
  0
LINE
  5
377
  8
0
  6
CONTINUOUS
 62
     7
 10
281.9817639508
 20
-47.3113735125
 30
0.0
 11
281.9817639508
 21
-46.3113737211
 31
0.0
  0
LINE
  5
378
  8
0
  6
CONTINUOUS
 62
     7
 10
286.7817677178
 20
-46.3113737211
 30
0.0
 11
281.9817639508
 21
-46.3113737211
 31
0.0
  0
LINE
  5
379
  8
0
  6
CONTINUOUS
 62
     7
 10
366.981766335
 20
-57.1113736287
 30
0.0
 11
366.981766335
 21
-47.3113735125
 31
0.0
  0
LINE
  5
37A
  8
0
  6
CONTINUOUS
 62
     7
 10
286.7817677178
 20
-58.1113734201
 30
0.0
 11
281.9817639508
 21
-58.1113734201
 31
0.0
  0
LINE
  5
37B
  8
0
  6
CONTINUOUS
 62
     7
 10
281.9817639508
 20
-58.1113734201
 30
0.0
 11
281.9817639508
 21
-57.1113736287
 31
0.0
  0
LINE
  5
37C
  8
0
  6
CONTINUOUS
 62
     7
 10
366.981766335
 20
-58.1113734201
 30
0.0
 11
362.1817685284
 21
-58.1113734201
 31
0.0
  0
LINE
  5
37D
  8
0
  6
CONTINUOUS
 62
     7
 10
366.981766335
 20
-58.1113734201
 30
0.0
 11
366.981766335
 21
-57.1113736287
 31
0.0
  0
LINE
  5
37E
  8
0
  6
CONTINUOUS
 62
     7
 10
41.2817693867
 20
-47.1113734797
 30
0.0
 11
41.981766335
 21
-47.1113734797
 31
0.0
  0
LINE
  5
37F
  8
0
  6
CONTINUOUS
 62
     7
 10
51.9817687192
 20
-47.1113734797
 30
0.0
 11
66.4817668118
 21
-47.1113734797
 31
0.0
  0
LINE
  5
380
  8
0
  6
CONTINUOUS
 62
     7
 10
102.4817682423
 20
-47.1113734797
 30
0.0
 11
116.981766335
 21
-47.1113734797
 31
0.0
  0
LINE
  5
381
  8
0
  6
CONTINUOUS
 62
     7
 10
126.9817687192
 20
-47.1113734797
 30
0.0
 11
161.9817651429
 21
-47.1113734797
 31
0.0
  0
LINE
  5
382
  8
0
  6
CONTINUOUS
 62
     7
 10
171.9817675271
 20
-47.1113734797
 30
0.0
 11
186.4817656197
 21
-47.1113734797
 31
0.0
  0
LINE
  5
383
  8
0
  6
CONTINUOUS
 62
     7
 10
222.4817670502
 20
-47.1113734797
 30
0.0
 11
236.9817651429
 21
-47.1113734797
 31
0.0
  0
LINE
  5
384
  8
0
  6
CONTINUOUS
 62
     7
 10
246.9817675271
 20
-47.1113734797
 30
0.0
 11
281.9817639508
 21
-47.1113734797
 31
0.0
  0
LINE
  5
385
  8
0
  6
CONTINUOUS
 62
     7
 10
291.981766335
 20
-47.1113734797
 30
0.0
 11
306.4817644276
 21
-47.1113734797
 31
0.0
  0
LINE
  5
386
  8
0
  6
CONTINUOUS
 62
     7
 10
342.4817658581
 20
-47.1113734797
 30
0.0
 11
356.9817639508
 21
-47.1113734797
 31
0.0
  0
LINE
  5
387
  8
0
  6
CONTINUOUS
 62
     7
 10
366.981766335
 20
-47.1113734797
 30
0.0
 11
367.6817632832
 21
-47.1113734797
 31
0.0
  0
LINE
  5
388
  8
0
  6
CONTINUOUS
 62
     7
 10
368.0817700543
 20
-47.5113735453
 30
0.0
 11
368.0817700543
 21
-48.1113736436
 31
0.0
  0
ARC
  5
389
  8
0
  6
CONTINUOUS
 62
     7
 10
367.681766335
 20
-47.5113735542
 30
0.0
 40
0.4000000000000341
 50
0.0
 51
90.0
  0
LINE
  5
38A
  8
0
  6
CONTINUOUS
 62
     7
 10
40.8817626156
 20
-48.1113736436
 30
0.0
 11
40.8817626156
 21
-47.5113735453
 31
0.0
  0
ARC
  5
38B
  8
0
  6
CONTINUOUS
 62
     7
 10
41.281766335
 20
-47.5113735542
 30
0.0
 40
0.3999999999999986
 50
90.0
 51
180.0
  0
LINE
  5
38C
  8
0
  6
CONTINUOUS
 62
     7
 10
368.0817700543
 20
-48.1113736436
 30
0.0
 11
368.0817700543
 21
-56.1113734648
 31
0.0
  0
LINE
  5
38D
  8
0
  6
CONTINUOUS
 62
     7
 10
40.8817626156
 20
-56.1113734648
 30
0.0
 11
40.8817626156
 21
-48.1113736436
 31
0.0
  0
LINE
  5
38E
  8
0
  6
CONTINUOUS
 62
     7
 10
367.6817632832
 20
-57.1113736287
 30
0.0
 11
366.981766335
 21
-57.1113736287
 31
0.0
  0
LINE
  5
38F
  8
0
  6
CONTINUOUS
 62
     7
 10
356.9817639508
 20
-57.1113736287
 30
0.0
 11
342.4817658581
 21
-57.1113736287
 31
0.0
  0
LINE
  5
390
  8
0
  6
CONTINUOUS
 62
     7
 10
306.4817644276
 20
-57.1113736287
 30
0.0
 11
291.981766335
 21
-57.1113736287
 31
0.0
  0
LINE
  5
391
  8
0
  6
CONTINUOUS
 62
     7
 10
281.9817639508
 20
-57.1113736287
 30
0.0
 11
246.9817675271
 21
-57.1113736287
 31
0.0
  0
LINE
  5
392
  8
0
  6
CONTINUOUS
 62
     7
 10
236.9817651429
 20
-57.1113736287
 30
0.0
 11
222.4817670502
 21
-57.1113736287
 31
0.0
  0
LINE
  5
393
  8
0
  6
CONTINUOUS
 62
     7
 10
186.4817656197
 20
-57.1113736287
 30
0.0
 11
171.9817675271
 21
-57.1113736287
 31
0.0
  0
LINE
  5
394
  8
0
  6
CONTINUOUS
 62
     7
 10
161.9817651429
 20
-57.1113736287
 30
0.0
 11
126.9817687192
 21
-57.1113736287
 31
0.0
  0
LINE
  5
395
  8
0
  6
CONTINUOUS
 62
     7
 10
116.981766335
 20
-57.1113736287
 30
0.0
 11
102.4817682423
 21
-57.1113736287
 31
0.0
  0
LINE
  5
396
  8
0
  6
CONTINUOUS
 62
     7
 10
66.4817668118
 20
-57.1113736287
 30
0.0
 11
51.9817687192
 21
-57.1113736287
 31
0.0
  0
LINE
  5
397
  8
0
  6
CONTINUOUS
 62
     7
 10
41.981766335
 20
-57.1113736287
 30
0.0
 11
41.2817693867
 21
-57.1113736287
 31
0.0
  0
ARC
  5
398
  8
0
  6
CONTINUOUS
 62
     7
 10
41.281766335
 20
-56.7113735542
 30
0.0
 40
0.3999999999999986
 50
180.0
 51
270.0
  0
LINE
  5
399
  8
0
  6
CONTINUOUS
 62
     7
 10
40.8817626156
 20
-56.7113735632
 30
0.0
 11
40.8817626156
 21
-56.1113734648
 31
0.0
  0
LINE
  5
39A
  8
0
  6
CONTINUOUS
 62
     7
 10
368.0817700543
 20
-56.1113734648
 30
0.0
 11
368.0817700543
 21
-56.7113735632
 31
0.0
  0
ARC
  5
39B
  8
0
  6
CONTINUOUS
 62
     7
 10
367.681766335
 20
-56.7113735542
 30
0.0
 40
0.4000000000000341
 50
270.0
 51
0.0
  0
POLYLINE
  5
39C
  8
0
  6
CONTINUOUS
 62
     7
 66
     1
 10
0.0
 20
0.0
 30
0.0
  0
VERTEX
  5
85E
  8
0
  6
CONTINUOUS
 62
     7
 10
351.481769196
 20
-44.111373733
 30
0.0
  0
VERTEX
  5
85F
  8
0
  6
CONTINUOUS
 62
     7
 10
351.4410473027
 20
-43.5421143577
 30
0.0
  0
VERTEX
  5
860
  8
0
  6
CONTINUOUS
 62
     7
 10
351.4033533253
 20
-43.3232304559
 30
0.0
  0
SEQEND
  5
865
  8
0
  6
CONTINUOUS
 62
     7
  0
LINE
  5
39D
  8
0
  6
CONTINUOUS
 62
     7
 10
351.481769196
 20
-46.1113736883
 30
0.0
 11
351.481769196
 21
-44.111373733
 31
0.0
  0
LINE
  5
39E
  8
0
  6
CONTINUOUS
 62
     7
 10
351.481769196
 20
-46.1113736883
 30
0.0
 11
351.4755107083
 21
-47.1113734797
 31
0.0
  0
ARC
  5
39F
  8
0
  6
CONTINUOUS
 62
     7
 10
271.481766335
 20
-46.1113735542
 30
0.0
 40
79.99999999999999
 50
347.6577971128
 51
352.0967922665
  0
ARC
  5
3A0
  8
0
  6
CONTINUOUS
 62
     7
 10
407.481766335
 20
-46.1113735542
 30
0.0
 40
80.00000000000004
 50
188.6269265587
 51
192.3422028872
  0
LINE
  5
3A1
  8
0
  6
CONTINUOUS
 62
     7
 10
327.4827696004
 20
-46.5113733814
 30
0.0
 11
327.4817682423
 21
-46.1113736883
 31
0.0
  0
LINE
  5
3A2
  8
0
  6
CONTINUOUS
 62
     7
 10
327.4817682423
 20
-45.51137359
 30
0.0
 11
327.4817682423
 21
-46.1113736883
 31
0.0
  0
ARC
  5
3A3
  8
0
  6
CONTINUOUS
 62
     7
 10
331.481766335
 20
-44.1113735542
 30
0.0
 40
4.0
 50
137.5994299178
 51
180.0
  0
ARC
  5
3A4
  8
0
  6
CONTINUOUS
 62
     7
 10
347.481766335
 20
-44.1113735542
 30
0.0
 40
1.500000000000033
 50
114.2154858328
 51
51.3575194393
  0
CIRCLE
  5
3A5
  8
0
  6
CONTINUOUS
 62
     7
 10
331.481766335
 20
-44.1113735542
 30
0.0
 40
1.500000000000014
  0
ARC
  5
3A6
  8
0
  6
CONTINUOUS
 62
     7
 10
137.481766335
 20
-46.1113735542
 30
0.0
 40
80.00000000000001
 50
187.9032077335
 51
192.3422028872
  0
LINE
  5
3A7
  8
0
  6
CONTINUOUS
 62
     7
 10
57.4880219617
 20
-47.1113734797
 30
0.0
 11
57.481763474
 21
-46.1113736883
 31
0.0
  0
LINE
  5
3A8
  8
0
  6
CONTINUOUS
 62
     7
 10
57.481763474
 20
-44.111373733
 30
0.0
 11
57.481763474
 21
-46.1113736883
 31
0.0
  0
POLYLINE
  5
3A9
  8
0
  6
CONTINUOUS
 62
     7
 66
     1
 10
0.0
 20
0.0
 30
0.0
  0
VERTEX
  5
861
  8
0
  6
CONTINUOUS
 62
     7
 10
57.5597382702
 20
-43.3254313574
 30
0.0
  0
VERTEX
  5
862
  8
0
  6
CONTINUOUS
 62
     7
 10
57.5224853673
 20
-43.5421143577
 30
0.0
  0
VERTEX
  5
863
  8
0
  6
CONTINUOUS
 62
     7
 10
57.481763474
 20
-44.111373733
 30
0.0
  0
SEQEND
  5
864
  8
0
  6
CONTINUOUS
 62
     7
  0
ARC
  5
3AA
  8
0
  6
CONTINUOUS
 62
     7
 10
77.481766335
 20
-44.1113735542
 30
0.0
 40
4.0
 50
0.0
 51
42.3395639092
  0
LINE
  5
3AB
  8
0
  6
CONTINUOUS
 62
     7
 10
81.4817644276
 20
-46.1113736883
 30
0.0
 11
81.4817644276
 21
-45.51137359
 31
0.0
  0
LINE
  5
3AC
  8
0
  6
CONTINUOUS
 62
     7
 10
81.4817644276
 20
-46.1113736883
 30
0.0
 11
81.4807630696
 21
-46.5113733814
 31
0.0
  0
ARC
  5
3AD
  8
0
  6
CONTINUOUS
 62
     7
 10
1.481766335
 20
-46.1113735542
 30
0.0
 40
80.00000000000001
 50
347.6577971128
 51
351.3730734413
  0
ARC
  5
3AE
  8
0
  6
CONTINUOUS
 62
     7
 10
61.481766335
 20
-44.1113735542
 30
0.0
 40
1.500000000000021
 50
270.0
 51
66.6219492715
  0
ARC
  5
3AF
  8
0
  6
CONTINUOUS
 62
     7
 10
61.481766335
 20
-44.1113735542
 30
0.0
 40
1.500000000000014
 50
126.6959892436
 51
270.0
  0
CIRCLE
  5
3B0
  8
0
  6
CONTINUOUS
 62
     7
 10
77.481766335
 20
-44.1113735542
 30
0.0
 40
1.500000000000014
  0
ENDSEC
  0
EOF
