  0
SECTION
  2
HEADER
  9
$ACADVER
  1
AC1009
  9
$DWGCODEPAGE
  3
ansi_1252
  9
$INSBASE
 10
0.0
 20
0.0
 30
0.0
  9
$EXTMIN
 10
0.0
 20
0.0
 30
0.0
  9
$EXTMAX
 10
420.0
 20
297.0
 30
0.0
  9
$LIMMIN
 10
0.0
 20
0.0
  9
$LIMMAX
 10
420.0
 20
297.0
  9
$ORTHOMODE
 70
     0
  9
$REGENMODE
 70
     1
  9
$FILLMODE
 70
     1
  9
$QTEXTMODE
 70
     0
  9
$MIRRTEXT
 70
     1
  9
$DRAGMODE
 70
     2
  9
$LTSCALE
 40
1.0
  9
$OSMODE
 70
    37
  9
$ATTMODE
 70
     1
  9
$TEXTSIZE
 40
3.5
  9
$TRACEWID
 40
1.0
  9
$TEXTSTYLE
  7
STANDARD
  9
$CLAYER
  8
0
  9
$CELTYPE
  6
BYLAYER
  9
$CECOLOR
 62
   256
  9
$DIMSCALE
 40
1.0
  9
$DIMASZ
 40
4.0
  9
$DIMEXO
 40
0.0
  9
$DIMDLI
 40
3.75
  9
$DIMRND
 40
0.0
  9
$DIMDLE
 40
0.0
  9
$DIMEXE
 40
2.0
  9
$DIMTP
 40
0.0
  9
$DIMTM
 40
0.0
  9
$DIMTXT
 40
3.5
  9
$DIMCEN
 40
2.5
  9
$DIMTSZ
 40
0.0
  9
$DIMTOL
 70
     0
  9
$DIMLIM
 70
     0
  9
$DIMTIH
 70
     1
  9
$DIMTOH
 70
     1
  9
$DIMSE1
 70
     0
  9
$DIMSE2
 70
     0
  9
$DIMTAD
 70
     1
  9
$DIMZIN
 70
     0
  9
$DIMBLK
  1

  9
$DIMASO
 70
     1
  9
$DIMSHO
 70
     1
  9
$DIMPOST
  1

  9
$DIMAPOST
  1

  9
$DIMALT
 70
     0
  9
$DIMALTD
 70
     3
  9
$DIMALTF
 40
0.0393700787
  9
$DIMLFAC
 40
5.0
  9
$DIMTOFL
 70
     1
  9
$DIMTVP
 40
0.0
  9
$DIMTIX
 70
     0
  9
$DIMSOXD
 70
     0
  9
$DIMSAH
 70
     0
  9
$DIMBLK1
  1

  9
$DIMBLK2
  1

  9
$DIMSTYLE
  2
ISO-25
  9
$DIMCLRD
 70
     0
  9
$DIMCLRE
 70
     0
  9
$DIMCLRT
 70
     0
  9
$DIMTFAC
 40
1.0
  9
$DIMGAP
 40
1.524
  9
$LUNITS
 70
     2
  9
$LUPREC
 70
     2
  9
$SKETCHINC
 40
1.0
  9
$FILLETRAD
 40
10.0
  9
$AUNITS
 70
     0
  9
$AUPREC
 70
     2
  9
$MENU
  1
.
  9
$ELEVATION
 40
0.0
  9
$PELEVATION
 40
0.0
  9
$THICKNESS
 40
0.0
  9
$LIMCHECK
 70
     0
  9
$CHAMFERA
 40
10.0
  9
$CHAMFERB
 40
10.0
  9
$SKPOLY
 70
     0
  9
$TDCREATE
 40
2457801.660584421
  9
$TDUPDATE
 40
2457801.660584688
  9
$TDINDWG
 40
0.0000000116
  9
$TDUSRTIMER
 40
0.0000000116
  9
$USRTIMER
 70
     1
  9
$ANGBASE
 50
0.0
  9
$ANGDIR
 70
     0
  9
$PDMODE
 70
     0
  9
$PDSIZE
 40
-1.0
  9
$PLINEWID
 40
0.0
  9
$COORDS
 70
     1
  9
$SPLFRAME
 70
     0
  9
$SPLINETYPE
 70
     6
  9
$SPLINESEGS
 70
     8
  9
$ATTDIA
 70
     0
  9
$ATTREQ
 70
     1
  9
$HANDLING
 70
     1
  9
$HANDSEED
  5
AC0
  9
$SURFTAB1
 70
     6
  9
$SURFTAB2
 70
     6
  9
$SURFTYPE
 70
     6
  9
$SURFU
 70
     6
  9
$SURFV
 70
     6
  9
$UCSNAME
  2

  9
$UCSORG
 10
0.0
 20
0.0
 30
0.0
  9
$UCSXDIR
 10
1.0
 20
0.0
 30
0.0
  9
$UCSYDIR
 10
0.0
 20
1.0
 30
0.0
  9
$PUCSNAME
  2

  9
$PUCSORG
 10
0.0
 20
0.0
 30
0.0
  9
$PUCSXDIR
 10
1.0
 20
0.0
 30
0.0
  9
$PUCSYDIR
 10
0.0
 20
1.0
 30
0.0
  9
$USERI1
 70
     0
  9
$USERI2
 70
     0
  9
$USERI3
 70
     0
  9
$USERI4
 70
     0
  9
$USERI5
 70
     0
  9
$USERR1
 40
0.0
  9
$USERR2
 40
0.0
  9
$USERR3
 40
0.0
  9
$USERR4
 40
0.0
  9
$USERR5
 40
0.0
  9
$WORLDVIEW
 70
     1
  9
$SHADEDGE
 70
     3
  9
$SHADEDIF
 70
    70
  9
$TILEMODE
 70
     1
  9
$MAXACTVP
 70
    64
  9
$PLIMCHECK
 70
     0
  9
$PEXTMIN
 10
1.0000000000E+20
 20
1.0000000000E+20
 30
1.0000000000E+20
  9
$PEXTMAX
 10
-1.0000000000E+20
 20
-1.0000000000E+20
 30
-1.0000000000E+20
  9
$PLIMMIN
 10
0.0
 20
0.0
  9
$PLIMMAX
 10
420.0
 20
297.0
  9
$UNITMODE
 70
     0
  9
$VISRETAIN
 70
     1
  9
$PLINEGEN
 70
     0
  9
$PSLTSCALE
 70
     1
  0
ENDSEC
  0
SECTION
  2
TABLES
  0
TABLE
  2
VPORT
 70
     1
  0
VPORT
  2
*ACTIVE
 70
     0
 10
0.0
 20
0.0
 11
1.0
 21
1.0
 12
210.0
 22
148.5
 13
0.0
 23
0.0
 14
10.0
 24
10.0
 15
10.0
 25
10.0
 16
0.0
 26
0.0
 36
1.0
 17
0.0
 27
0.0
 37
0.0
 40
297.0
 41
1.4141414141
 42
50.0
 43
0.0
 44
0.0
 50
0.0
 51
0.0
 71
     0
 72
  2000
 73
     1
 74
     3
 75
     0
 76
     0
 77
     0
 78
     0
  0
ENDTAB
  0
TABLE
  2
LTYPE
 70
     6
  0
LTYPE
  2
CONTINUOUS
 70
     0
  3
Solid line
 72
    65
 73
     0
 40
0.0
  0
LTYPE
  2
HIDDEN
 70
     0
  3
Hidden __ __ __ __ __ __ __ __ __ __ __ __ __ __
 72
    65
 73
     2
 40
1.905
 49
1.27
 49
-0.635
  0
LTYPE
  2
PHANTOM
 70
     0
  3
Phantom ______  __  __  ______  __  __  ______
 72
    65
 73
     6
 40
12.7
 49
6.35
 49
-1.27
 49
1.27
 49
-1.27
 49
1.27
 49
-1.27
  0
LTYPE
  2
CENTER
 70
     0
  3
Center ____ _ ____ _ ____ _ ____ _ ____ _ ____
 72
    65
 73
     4
 40
10.16
 49
6.35
 49
-1.27
 49
1.27
 49
-1.27
  0
LTYPE
  2
CENTERX2
 70
     0
  3
Center (2x) ________  __  ________  __  _____
 72
    65
 73
     4
 40
20.32
 49
12.7
 49
-2.54
 49
2.54
 49
-2.54
  0
LTYPE
  2
DOT2
 70
     0
  3
Dot (.5x) ........................................
 72
    65
 73
     2
 40
0.635
 49
0.0
 49
-0.635
  0
ENDTAB
  0
TABLE
  2
LAYER
 70
     2
  0
LAYER
  2
0
 70
     0
 62
     7
  6
CONTINUOUS
  0
LAYER
  2
FORMAT
 70
     0
 62
     7
  6
CONTINUOUS
  0
ENDTAB
  0
TABLE
  2
STYLE
 70
     1
  0
STYLE
  2
STANDARD
 70
     0
 40
0.0
 41
1.0
 50
0.0
 71
     0
 42
3.5
  3
txt
  4

  0
ENDTAB
  0
TABLE
  2
VIEW
 70
     0
  0
ENDTAB
  0
TABLE
  2
UCS
 70
     0
  0
ENDTAB
  0
TABLE
  2
APPID
 70
     1
  0
APPID
  2
ACAD
 70
     0
  0
ENDTAB
  0
TABLE
  2
DIMSTYLE
 70
     1
  0
DIMSTYLE
  2
ISO-25
 70
     0
  3

  4

  5

  6

  7

 40
1.0
 41
2.5
 42
0.625
 43
3.75
 44
1.25
 45
0.0
 46
0.0
 47
0.0
 48
0.0
140
2.5
141
2.5
142
0.0
143
0.0393700787
144
1.0
145
0.0
146
1.0
147
0.625
 71
     0
 72
     0
 73
     0
 74
     0
 75
     0
 76
     0
 77
     1
 78
     8
170
     0
171
     3
172
     1
173
     0
174
     0
175
     0
176
     0
177
     0
178
     0
  0
ENDTAB
  0
ENDSEC
  0
SECTION
  2
BLOCKS
  0
BLOCK
  8
0
  2
$MODEL_SPACE
 70
     0
 10
0.0
 20
0.0
 30
0.0
  3
$MODEL_SPACE
  1

  0
ENDBLK
  5
21
  8
0
  0
BLOCK
 67
     1
  8
0
  2
$PAPER_SPACE
 70
     0
 10
0.0
 20
0.0
 30
0.0
  3
$PAPER_SPACE
  1

  0
ENDBLK
  5
1D
 67
     1
  8
0
  0
ENDSEC
  0
SECTION
  2
ENTITIES
  0
LINE
  5
45
  8
0
  6
CONTINUOUS
 62
     7
 10
171.7795477175
 20
217.35216676
 30
0.0
 11
171.7795477175
 21
197.9488164068
 31
0.0
  0
LINE
  5
46
  8
0
  6
CONTINUOUS
 62
     7
 10
251.8970594668
 20
197.9488164068
 30
0.0
 11
251.8970594668
 21
217.35216676
 31
0.0
  0
ARC
  5
47
  8
0
  6
CONTINUOUS
 62
     7
 10
186.2980418757
 20
217.7499752652
 30
0.0
 40
14.25372559924708
 50
88.5351387924
 51
113.3277248135
  0
ARC
  5
48
  8
0
  6
CONTINUOUS
 62
     7
 10
237.3771570951
 20
217.712572512
 30
0.0
 40
14.29230839019032
 50
66.7644782449
 51
91.4553543428
  0
POLYLINE
  5
49
  8
0
  6
CONTINUOUS
 62
     7
 66
     1
 10
0.0
 20
0.0
 30
0.0
  0
VERTEX
  5
3A5
  8
0
  6
CONTINUOUS
 62
     7
 10
177.9618845247
 20
229.3527752042
 30
0.0
  0
VERTEX
  5
3A6
  8
0
  6
CONTINUOUS
 62
     7
 10
177.916498568
 20
229.32294904
 30
0.0
  0
VERTEX
  5
3A7
  8
0
  6
CONTINUOUS
 62
     7
 10
177.5847152733
 20
229.0720254064
 30
0.0
  0
SEQEND
  5
ABF
  8
0
  6
CONTINUOUS
 62
     7
  0
ARC
  5
4A
  8
0
  6
CONTINUOUS
 62
     7
 10
186.3447619473
 20
217.4493427602
 30
0.0
 40
14.55832711012327
 50
128.4665915627
 51
180.3828711424
  0
ARC
  5
4B
  8
0
  6
CONTINUOUS
 62
     7
 10
237.3093179227
 20
217.4446055288
 30
0.0
 40
14.57976237068462
 50
359.6361680626
 51
54.8680404427
  0
POLYLINE
  5
4C
  8
0
  6
CONTINUOUS
 62
     7
 66
     1
 10
0.0
 20
0.0
 30
0.0
  0
VERTEX
  5
3A8
  8
0
  6
CONTINUOUS
 62
     7
 10
237.0141253733
 20
232.0072084547
 30
0.0
  0
VERTEX
  5
3A9
  8
0
  6
CONTINUOUS
 62
     7
 10
235.2287859582
 20
231.9785028578
 30
0.0
  0
VERTEX
  5
3AA
  8
0
  6
CONTINUOUS
 62
     7
 10
231.8305716776
 20
231.9297820211
 30
0.0
  0
VERTEX
  5
3AB
  8
0
  6
CONTINUOUS
 62
     7
 10
228.425479021
 20
231.8887024999
 30
0.0
  0
VERTEX
  5
3AC
  8
0
  6
CONTINUOUS
 62
     7
 10
225.0146985911
 20
231.8552762151
 30
0.0
  0
VERTEX
  5
3AD
  8
0
  6
CONTINUOUS
 62
     7
 10
221.5993986391
 20
231.8295150877
 30
0.0
  0
VERTEX
  5
3AE
  8
0
  6
CONTINUOUS
 62
     7
 10
218.1807496511
 20
231.8114310384
 30
0.0
  0
VERTEX
  5
3AF
  8
0
  6
CONTINUOUS
 62
     7
 10
214.7599236034
 20
231.8010240675
 30
0.0
  0
VERTEX
  5
3B0
  8
0
  6
CONTINUOUS
 62
     7
 10
211.3380913549
 20
231.7983060957
 30
0.0
  0
VERTEX
  5
3B1
  8
0
  6
CONTINUOUS
 62
     7
 10
207.9164256268
 20
231.803277123
 30
0.0
  0
VERTEX
  5
3B2
  8
0
  6
CONTINUOUS
 62
     7
 10
204.4960998856
 20
231.8159252287
 30
0.0
  0
VERTEX
  5
3B3
  8
0
  6
CONTINUOUS
 62
     7
 10
201.0782861077
 20
231.8362504125
 30
0.0
  0
VERTEX
  5
3B4
  8
0
  6
CONTINUOUS
 62
     7
 10
197.6641566419
 20
231.8642526746
 30
0.0
  0
VERTEX
  5
3B5
  8
0
  6
CONTINUOUS
 62
     7
 10
194.2548782491
 20
231.8999200941
 30
0.0
  0
VERTEX
  5
3B6
  8
0
  6
CONTINUOUS
 62
     7
 10
190.8516229056
 20
231.9432407499
 30
0.0
  0
VERTEX
  5
3B7
  8
0
  6
CONTINUOUS
 62
     7
 10
187.6341015958
 20
231.9913178564
 30
0.0
  0
VERTEX
  5
3B8
  8
0
  6
CONTINUOUS
 62
     7
 10
186.662481811
 20
232.0072084547
 30
0.0
  0
SEQEND
  5
ABE
  8
0
  6
CONTINUOUS
 62
     7
  0
ARC
  5
4D
  8
0
  6
CONTINUOUS
 62
     7
 10
356.7891370734
 20
177.5954037928
 30
0.0
 40
15.10053977999287
 50
271.1940959134
 51
0.2074317098
  0
ARC
  5
4E
  8
0
  6
CONTINUOUS
 62
     7
 10
306.8854297793
 20
177.5915760796
 30
0.0
 40
15.09768090214244
 50
179.7788170429
 51
268.8139113785
  0
LINE
  5
4F
  8
0
  6
CONTINUOUS
 62
     7
 10
291.7795465254
 20
217.35216676
 30
0.0
 11
291.7795465254
 21
177.6503234983
 31
0.0
  0
LINE
  5
50
  8
0
  6
CONTINUOUS
 62
     7
 10
371.8970642351
 20
177.6503234983
 30
0.0
 11
371.8970642351
 21
217.35216676
 31
0.0
  0
POLYLINE
  5
51
  8
0
  6
CONTINUOUS
 62
     7
 66
     1
 10
0.0
 20
0.0
 30
0.0
  0
VERTEX
  5
3B9
  8
0
  6
CONTINUOUS
 62
     7
 10
306.5727637076
 20
162.4896198393
 30
0.0
  0
VERTEX
  5
3BA
  8
0
  6
CONTINUOUS
 62
     7
 10
308.3645687365
 20
162.460806954
 30
0.0
  0
VERTEX
  5
3BB
  8
0
  6
CONTINUOUS
 62
     7
 10
311.77514055
 20
162.4119192243
 30
0.0
  0
VERTEX
  5
3BC
  8
0
  6
CONTINUOUS
 62
     7
 10
315.1925072931
 20
162.3706847311
 30
0.0
  0
VERTEX
  5
3BD
  8
0
  6
CONTINUOUS
 62
     7
 10
318.6154709124
 20
162.337139237
 30
0.0
  0
VERTEX
  5
3BE
  8
0
  6
CONTINUOUS
 62
     7
 10
322.0428810381
 20
162.311294663
 30
0.0
  0
VERTEX
  5
3BF
  8
0
  6
CONTINUOUS
 62
     7
 10
325.4735932612
 20
162.2931510091
 30
0.0
  0
VERTEX
  5
3C0
  8
0
  6
CONTINUOUS
 62
     7
 10
328.9064393305
 20
162.2827082754
 30
0.0
  0
VERTEX
  5
3C1
  8
0
  6
CONTINUOUS
 62
     7
 10
332.3402748369
 20
162.2799783827
 30
0.0
  0
VERTEX
  5
3C2
  8
0
  6
CONTINUOUS
 62
     7
 10
335.7739434504
 20
162.284961331
 30
0.0
  0
VERTEX
  5
3C3
  8
0
  6
CONTINUOUS
 62
     7
 10
339.2062769198
 20
162.2976571203
 30
0.0
  0
VERTEX
  5
3C4
  8
0
  6
CONTINUOUS
 62
     7
 10
342.636118915
 20
162.3180538297
 30
0.0
  0
VERTEX
  5
3C5
  8
0
  6
CONTINUOUS
 62
     7
 10
346.0623250269
 20
162.3461514593
 30
0.0
  0
VERTEX
  5
3C6
  8
0
  6
CONTINUOUS
 62
     7
 10
349.4837389254
 20
162.3819500089
 30
0.0
  0
VERTEX
  5
3C7
  8
0
  6
CONTINUOUS
 62
     7
 10
352.8992042803
 20
162.4254137159
 30
0.0
  0
VERTEX
  5
3C8
  8
0
  6
CONTINUOUS
 62
     7
 10
356.1284289621
 20
162.4736696363
 30
0.0
  0
VERTEX
  5
3C9
  8
0
  6
CONTINUOUS
 62
     7
 10
357.103847053
 20
162.4896198393
 30
0.0
  0
SEQEND
  5
ABD
  8
0
  6
CONTINUOUS
 62
     7
  0
ARC
  5
52
  8
0
  6
CONTINUOUS
 62
     7
 10
306.2980317279
 20
217.7500361289
 30
0.0
 40
14.25366498439779
 50
88.5350965507
 51
113.3277776377
  0
ARC
  5
53
  8
0
  6
CONTINUOUS
 62
     7
 10
357.37716206
 20
217.7126026406
 30
0.0
 40
14.29227827634163
 50
66.7644532757
 51
91.4553581978
  0
POLYLINE
  5
54
  8
0
  6
CONTINUOUS
 62
     7
 66
     1
 10
0.0
 20
0.0
 30
0.0
  0
VERTEX
  5
3CA
  8
0
  6
CONTINUOUS
 62
     7
 10
297.9618833326
 20
229.3527752042
 30
0.0
  0
VERTEX
  5
3CB
  8
0
  6
CONTINUOUS
 62
     7
 10
297.9165003561
 20
229.32294904
 30
0.0
  0
VERTEX
  5
3CC
  8
0
  6
CONTINUOUS
 62
     7
 10
297.5847170614
 20
229.0720254064
 30
0.0
  0
SEQEND
  5
ABC
  8
0
  6
CONTINUOUS
 62
     7
  0
ARC
  5
55
  8
0
  6
CONTINUOUS
 62
     7
 10
306.3447494458
 20
217.4493458251
 30
0.0
 40
14.55831582141734
 50
128.4665550329
 51
180.3828835017
  0
ARC
  5
56
  8
0
  6
CONTINUOUS
 62
     7
 10
357.309312086
 20
217.4445959046
 30
0.0
 40
14.57977291437378
 50
359.6362061477
 51
54.8680472801
  0
POLYLINE
  5
57
  8
0
  6
CONTINUOUS
 62
     7
 66
     1
 10
0.0
 20
0.0
 30
0.0
  0
VERTEX
  5
3CD
  8
0
  6
CONTINUOUS
 62
     7
 10
357.0141301416
 20
232.0072084547
 30
0.0
  0
VERTEX
  5
3CE
  8
0
  6
CONTINUOUS
 62
     7
 10
355.2287802958
 20
231.9785028578
 30
0.0
  0
VERTEX
  5
3CF
  8
0
  6
CONTINUOUS
 62
     7
 10
351.830576446
 20
231.9297820211
 30
0.0
  0
VERTEX
  5
3D0
  8
0
  6
CONTINUOUS
 62
     7
 10
348.4254822992
 20
231.8887024999
 30
0.0
  0
VERTEX
  5
3D1
  8
0
  6
CONTINUOUS
 62
     7
 10
345.0147018694
 20
231.8552762151
 30
0.0
  0
VERTEX
  5
3D2
  8
0
  6
CONTINUOUS
 62
     7
 10
341.5994034075
 20
231.8295150877
 30
0.0
  0
VERTEX
  5
3D3
  8
0
  6
CONTINUOUS
 62
     7
 10
338.1807551645
 20
231.8114310384
 30
0.0
  0
VERTEX
  5
3D4
  8
0
  6
CONTINUOUS
 62
     7
 10
334.7599253916
 20
231.8010240675
 30
0.0
  0
VERTEX
  5
3D5
  8
0
  6
CONTINUOUS
 62
     7
 10
331.3380942606
 20
231.7983060957
 30
0.0
  0
VERTEX
  5
3D6
  8
0
  6
CONTINUOUS
 62
     7
 10
327.9164300226
 20
231.803277123
 30
0.0
  0
VERTEX
  5
3D7
  8
0
  6
CONTINUOUS
 62
     7
 10
324.4961009287
 20
231.8159252287
 30
0.0
  0
VERTEX
  5
3D8
  8
0
  6
CONTINUOUS
 62
     7
 10
321.0782871508
 20
231.8362504125
 30
0.0
  0
VERTEX
  5
3D9
  8
0
  6
CONTINUOUS
 62
     7
 10
317.6641569399
 20
231.8642526746
 30
0.0
  0
VERTEX
  5
3DA
  8
0
  6
CONTINUOUS
 62
     7
 10
314.2548785471
 20
231.8999200941
 30
0.0
  0
VERTEX
  5
3DB
  8
0
  6
CONTINUOUS
 62
     7
 10
310.8516202234
 20
231.9432407499
 30
0.0
  0
VERTEX
  5
3DC
  8
0
  6
CONTINUOUS
 62
     7
 10
307.6341018938
 20
231.9913178564
 30
0.0
  0
VERTEX
  5
3DD
  8
0
  6
CONTINUOUS
 62
     7
 10
306.6624806189
 20
232.0072084547
 30
0.0
  0
SEQEND
  5
ABB
  8
0
  6
CONTINUOUS
 62
     7
  0
LINE
  5
58
  8
0
  6
CONTINUOUS
 62
     7
 10
51.7795429491
 20
217.35216676
 30
0.0
 11
51.7795429491
 21
197.9488164068
 31
0.0
  0
LINE
  5
59
  8
0
  6
CONTINUOUS
 62
     7
 10
131.8970606588
 20
197.9488164068
 30
0.0
 11
131.8970606588
 21
217.35216676
 31
0.0
  0
ARC
  5
5A
  8
0
  6
CONTINUOUS
 62
     7
 10
66.2980453988
 20
217.7499468299
 30
0.0
 40
14.25375381331557
 50
88.5351750327
 51
113.3276991557
  0
ARC
  5
5B
  8
0
  6
CONTINUOUS
 62
     7
 10
117.3771567354
 20
217.7125644463
 30
0.0
 40
14.29231641385386
 50
66.7644852849
 51
91.4553473028
  0
POLYLINE
  5
5C
  8
0
  6
CONTINUOUS
 62
     7
 66
     1
 10
0.0
 20
0.0
 30
0.0
  0
VERTEX
  5
3DE
  8
0
  6
CONTINUOUS
 62
     7
 10
57.9618797564
 20
229.3527752042
 30
0.0
  0
VERTEX
  5
3DF
  8
0
  6
CONTINUOUS
 62
     7
 10
57.9164967798
 20
229.32294904
 30
0.0
  0
VERTEX
  5
3E0
  8
0
  6
CONTINUOUS
 62
     7
 10
57.5847134852
 20
229.0720254064
 30
0.0
  0
SEQEND
  5
ABA
  8
0
  6
CONTINUOUS
 62
     7
  0
ARC
  5
5D
  8
0
  6
CONTINUOUS
 62
     7
 10
66.3447620959
 20
217.4493380593
 30
0.0
 40
14.55833199556982
 50
128.466586022
 51
180.3828525126
  0
ARC
  5
5E
  8
0
  6
CONTINUOUS
 62
     7
 10
117.3093191148
 20
217.4446055288
 30
0.0
 40
14.57976237068486
 50
359.6361680626
 51
54.8680404426
  0
POLYLINE
  5
5F
  8
0
  6
CONTINUOUS
 62
     7
 66
     1
 10
0.0
 20
0.0
 30
0.0
  0
VERTEX
  5
3E1
  8
0
  6
CONTINUOUS
 62
     7
 10
117.0141265654
 20
232.0072084547
 30
0.0
  0
VERTEX
  5
3E2
  8
0
  6
CONTINUOUS
 62
     7
 10
115.2287886404
 20
231.9785028578
 30
0.0
  0
VERTEX
  5
3E3
  8
0
  6
CONTINUOUS
 62
     7
 10
111.8305669092
 20
231.9297820211
 30
0.0
  0
VERTEX
  5
3E4
  8
0
  6
CONTINUOUS
 62
     7
 10
108.4254846834
 20
231.8887024999
 30
0.0
  0
VERTEX
  5
3E5
  8
0
  6
CONTINUOUS
 62
     7
 10
105.0147042536
 20
231.8552762151
 30
0.0
  0
VERTEX
  5
3E6
  8
0
  6
CONTINUOUS
 62
     7
 10
101.5993938707
 20
231.8295150877
 30
0.0
  0
VERTEX
  5
3E7
  8
0
  6
CONTINUOUS
 62
     7
 10
98.1807456278
 20
231.8114310384
 30
0.0
  0
VERTEX
  5
3E8
  8
0
  6
CONTINUOUS
 62
     7
 10
94.7599277758
 20
231.8010240675
 30
0.0
  0
VERTEX
  5
3E9
  8
0
  6
CONTINUOUS
 62
     7
 10
91.3380966448
 20
231.7983060957
 30
0.0
  0
VERTEX
  5
3EA
  8
0
  6
CONTINUOUS
 62
     7
 10
87.9164204859
 20
231.803277123
 30
0.0
  0
VERTEX
  5
3EB
  8
0
  6
CONTINUOUS
 62
     7
 10
84.4961033129
 20
231.8159252287
 30
0.0
  0
VERTEX
  5
3EC
  8
0
  6
CONTINUOUS
 62
     7
 10
81.078289535
 20
231.8362504125
 30
0.0
  0
VERTEX
  5
3ED
  8
0
  6
CONTINUOUS
 62
     7
 10
77.6641593241
 20
231.8642526746
 30
0.0
  0
VERTEX
  5
3EE
  8
0
  6
CONTINUOUS
 62
     7
 10
74.2548809313
 20
231.8999200941
 30
0.0
  0
VERTEX
  5
3EF
  8
0
  6
CONTINUOUS
 62
     7
 10
70.8516226076
 20
231.9432407499
 30
0.0
  0
VERTEX
  5
3F0
  8
0
  6
CONTINUOUS
 62
     7
 10
67.634104278
 20
231.9913178564
 30
0.0
  0
VERTEX
  5
3F1
  8
0
  6
CONTINUOUS
 62
     7
 10
66.6624770426
 20
232.0072084547
 30
0.0
  0
SEQEND
  5
AB9
  8
0
  6
CONTINUOUS
 62
     7
  0
POLYLINE
  5
60
  8
0
  6
CONTINUOUS
 62
     7
 66
     1
 10
0.0
 20
0.0
 30
0.0
  0
VERTEX
  5
3F2
  8
0
  6
CONTINUOUS
 62
     7
 10
186.585538175
 20
207.3413520933
 30
0.0
  0
VERTEX
  5
3F3
  8
0
  6
CONTINUOUS
 62
     7
 10
188.3764238023
 20
207.320764649
 30
0.0
  0
VERTEX
  5
3F4
  8
0
  6
CONTINUOUS
 62
     7
 10
191.7852551602
 20
207.2858124853
 30
0.0
  0
VERTEX
  5
3F5
  8
0
  6
CONTINUOUS
 62
     7
 10
195.2008903884
 20
207.2563439489
 30
0.0
  0
VERTEX
  5
3F6
  8
0
  6
CONTINUOUS
 62
     7
 10
198.622138884
 20
207.2323590398
 30
0.0
  0
VERTEX
  5
3F7
  8
0
  6
CONTINUOUS
 62
     7
 10
202.0478450619
 20
207.2138816
 30
0.0
  0
VERTEX
  5
3F8
  8
0
  6
CONTINUOUS
 62
     7
 10
205.4768540823
 20
207.2009116293
 30
0.0
  0
VERTEX
  5
3F9
  8
0
  6
CONTINUOUS
 62
     7
 10
208.908008311
 20
207.1934491277
 30
0.0
  0
VERTEX
  5
3FA
  8
0
  6
CONTINUOUS
 62
     7
 10
212.3401493692
 20
207.1915060163
 30
0.0
  0
VERTEX
  5
3FB
  8
0
  6
CONTINUOUS
 62
     7
 10
215.7721188777
 20
207.1950584531
 30
0.0
  0
VERTEX
  5
3FC
  8
0
  6
CONTINUOUS
 62
     7
 10
219.2027577125
 20
207.204142201
 30
0.0
  0
VERTEX
  5
3FD
  8
0
  6
CONTINUOUS
 62
     7
 10
222.6309069358
 20
207.2187214971
 30
0.0
  0
VERTEX
  5
3FE
  8
0
  6
CONTINUOUS
 62
     7
 10
226.0554091
 20
207.2388082624
 30
0.0
  0
VERTEX
  5
3FF
  8
0
  6
CONTINUOUS
 62
     7
 10
229.4751093649
 20
207.264390576
 30
0.0
  0
VERTEX
  5
400
  8
0
  6
CONTINUOUS
 62
     7
 10
232.8888536357
 20
207.2954684377
 30
0.0
  0
VERTEX
  5
401
  8
0
  6
CONTINUOUS
 62
     7
 10
236.1164302491
 20
207.3299556852
 30
0.0
  0
VERTEX
  5
402
  8
0
  6
CONTINUOUS
 62
     7
 10
237.0910690092
 20
207.3413520933
 30
0.0
  0
SEQEND
  5
AB8
  8
0
  6
CONTINUOUS
 62
     7
  0
ARC
  5
61
  8
0
  6
CONTINUOUS
 62
     7
 10
186.4728523107
 20
198.0411293988
 30
0.0
 40
14.68924329032787
 50
117.9336818774
 51
180.3580721729
  0
ARC
  5
62
  8
0
  6
CONTINUOUS
 62
     7
 10
237.2329662203
 20
198.0595210549
 30
0.0
 40
14.65733392400887
 50
359.5662242332
 51
61.8683188179
  0
ARC
  5
63
  8
0
  6
CONTINUOUS
 62
     7
 10
186.304281249
 20
198.8252947723
 30
0.0
 40
8.514468619577093
 50
88.1095827446
 51
112.7583235274
  0
ARC
  5
64
  8
0
  6
CONTINUOUS
 62
     7
 10
237.3753790718
 20
198.935153119
 30
0.0
 40
8.406792144414608
 50
67.889462682
 51
91.9316995647
  0
POLYLINE
  5
65
  8
0
  6
CONTINUOUS
 62
     7
 66
     1
 10
0.0
 20
0.0
 30
0.0
  0
VERTEX
  5
403
  8
0
  6
CONTINUOUS
 62
     7
 10
237.0269016289
 20
212.7209693075
 30
0.0
  0
VERTEX
  5
404
  8
0
  6
CONTINUOUS
 62
     7
 10
235.240641322
 20
212.7004295469
 30
0.0
  0
VERTEX
  5
405
  8
0
  6
CONTINUOUS
 62
     7
 10
231.8406836056
 20
212.6655727506
 30
0.0
  0
VERTEX
  5
406
  8
0
  6
CONTINUOUS
 62
     7
 10
228.433859434
 20
212.6361757398
 30
0.0
  0
VERTEX
  5
407
  8
0
  6
CONTINUOUS
 62
     7
 10
225.0213594102
 20
212.6122623563
 30
0.0
  0
VERTEX
  5
408
  8
0
  6
CONTINUOUS
 62
     7
 10
221.6043488049
 20
212.5938326002
 30
0.0
  0
VERTEX
  5
409
  8
0
  6
CONTINUOUS
 62
     7
 10
218.1839973592
 20
212.5808864713
 30
0.0
  0
VERTEX
  5
40A
  8
0
  6
CONTINUOUS
 62
     7
 10
214.7614740693
 20
212.5734478117
 30
0.0
  0
VERTEX
  5
40B
  8
0
  6
CONTINUOUS
 62
     7
 10
211.3379478846
 20
212.5715047002
 30
0.0
  0
VERTEX
  5
40C
  8
0
  6
CONTINUOUS
 62
     7
 10
207.9145890587
 20
212.5750571371
 30
0.0
  0
VERTEX
  5
40D
  8
0
  6
CONTINUOUS
 62
     7
 10
204.4925683104
 20
212.5841051222
 30
0.0
  0
VERTEX
  5
40E
  8
0
  6
CONTINUOUS
 62
     7
 10
201.0730565452
 20
212.5986486555
 30
0.0
  0
VERTEX
  5
40F
  8
0
  6
CONTINUOUS
 62
     7
 10
197.6572216415
 20
212.6186877371
 30
0.0
  0
VERTEX
  5
410
  8
0
  6
CONTINUOUS
 62
     7
 10
194.2462311052
 20
212.6442104459
 30
0.0
  0
VERTEX
  5
411
  8
0
  6
CONTINUOUS
 62
     7
 10
190.8412516975
 20
212.6751929403
 30
0.0
  0
VERTEX
  5
412
  8
0
  6
CONTINUOUS
 62
     7
 10
187.6220778488
 20
212.7095967413
 30
0.0
  0
VERTEX
  5
413
  8
0
  6
CONTINUOUS
 62
     7
 10
186.6497055554
 20
212.7209693075
 30
0.0
  0
SEQEND
  5
AB7
  8
0
  6
CONTINUOUS
 62
     7
  0
ARC
  5
66
  8
0
  6
CONTINUOUS
 62
     7
 10
237.3418093298
 20
199.0158630521
 30
0.0
 40
13.70364881378503
 50
74.2381917225
 51
91.3149816118
  0
ARC
  5
67
  8
0
  6
CONTINUOUS
 62
     7
 10
186.325340452
 20
198.890533831
 30
0.0
 40
13.82737964819256
 50
88.6548340344
 51
105.7866380611
  0
ARC
  5
68
  8
0
  6
CONTINUOUS
 62
     7
 10
237.2392523841
 20
198.0584360798
 30
0.0
 40
9.272513854756541
 50
359.3257273882
 51
69.1493326474
  0
ARC
  5
69
  8
0
  6
CONTINUOUS
 62
     7
 10
186.455010405
 20
198.0465610898
 30
0.0
 40
9.29229932741704
 50
111.7578173119
 51
180.5967450394
  0
LINE
  5
6A
  8
0
  6
CONTINUOUS
 62
     7
 10
171.7795477175
 20
197.9488164068
 30
0.0
 11
171.7795477175
 21
158.1010371328
 31
0.0
  0
LINE
  5
6B
  8
0
  6
CONTINUOUS
 62
     7
 10
251.8970594668
 20
158.1010371328
 30
0.0
 11
251.8970594668
 21
197.9488164068
 31
0.0
  0
POLYLINE
  5
6C
  8
0
  6
CONTINUOUS
 62
     7
 66
     1
 10
0.0
 20
0.0
 30
0.0
  0
VERTEX
  5
414
  8
0
  6
CONTINUOUS
 62
     7
 10
186.585538175
 20
142.9672509313
 30
0.0
  0
VERTEX
  5
415
  8
0
  6
CONTINUOUS
 62
     7
 10
188.3764238023
 20
142.9466575266
 30
0.0
  0
VERTEX
  5
416
  8
0
  6
CONTINUOUS
 62
     7
 10
191.7852551602
 20
142.9117113233
 30
0.0
  0
VERTEX
  5
417
  8
0
  6
CONTINUOUS
 62
     7
 10
195.2008903884
 20
142.8822427869
 30
0.0
  0
VERTEX
  5
418
  8
0
  6
CONTINUOUS
 62
     7
 10
198.622138884
 20
142.8582638384
 30
0.0
  0
VERTEX
  5
419
  8
0
  6
CONTINUOUS
 62
     7
 10
202.0478450619
 20
142.8397863985
 30
0.0
  0
VERTEX
  5
41A
  8
0
  6
CONTINUOUS
 62
     7
 10
205.4768540823
 20
142.8268104673
 30
0.0
  0
VERTEX
  5
41B
  8
0
  6
CONTINUOUS
 62
     7
 10
208.908008311
 20
142.8193479658
 30
0.0
  0
VERTEX
  5
41C
  8
0
  6
CONTINUOUS
 62
     7
 10
212.3401493692
 20
142.8173988939
 30
0.0
  0
VERTEX
  5
41D
  8
0
  6
CONTINUOUS
 62
     7
 10
215.7721188777
 20
142.8209632517
 30
0.0
  0
VERTEX
  5
41E
  8
0
  6
CONTINUOUS
 62
     7
 10
219.2027577125
 20
142.8300350786
 30
0.0
  0
VERTEX
  5
41F
  8
0
  6
CONTINUOUS
 62
     7
 10
222.6309069358
 20
142.8446203352
 30
0.0
  0
VERTEX
  5
420
  8
0
  6
CONTINUOUS
 62
     7
 10
226.0554091
 20
142.8647071005
 30
0.0
  0
VERTEX
  5
421
  8
0
  6
CONTINUOUS
 62
     7
 10
229.4751093649
 20
142.890289414
 30
0.0
  0
VERTEX
  5
422
  8
0
  6
CONTINUOUS
 62
     7
 10
232.8888536357
 20
142.9213613153
 30
0.0
  0
VERTEX
  5
423
  8
0
  6
CONTINUOUS
 62
     7
 10
236.1164302491
 20
142.9558545232
 30
0.0
  0
VERTEX
  5
424
  8
0
  6
CONTINUOUS
 62
     7
 10
237.0910690092
 20
142.9672509313
 30
0.0
  0
SEQEND
  5
AB6
  8
0
  6
CONTINUOUS
 62
     7
  0
ARC
  5
6D
  8
0
  6
CONTINUOUS
 62
     7
 10
186.7453195958
 20
157.8062190476
 30
0.0
 40
14.83230726688488
 50
218.4767112409
 51
269.3846904411
  0
ARC
  5
6E
  8
0
  6
CONTINUOUS
 62
     7
 10
236.9328640993
 20
157.8017995557
 30
0.0
 40
14.82858173378804
 50
270.6098445185
 51
321.4778692604
  0
LINE
  5
6F
  8
0
  6
CONTINUOUS
 62
     7
 10
177.1595464014
 20
158.1010371328
 30
0.0
 11
177.1595464014
 21
197.9488164068
 31
0.0
  0
LINE
  5
70
  8
0
  6
CONTINUOUS
 62
     7
 10
246.5170607828
 20
197.9488164068
 30
0.0
 11
246.5170607828
 21
158.1010371328
 31
0.0
  0
ARC
  5
71
  8
0
  6
CONTINUOUS
 62
     7
 10
236.7617311719
 20
158.0713917469
 30
0.0
 40
15.12948831199383
 50
327.6393586013
 51
0.1104170026
  0
ARC
  5
72
  8
0
  6
CONTINUOUS
 62
     7
 10
186.7424917084
 20
158.0269700186
 30
0.0
 40
14.95604934241909
 50
179.716251913
 51
212.5691945225
  0
POLYLINE
  5
73
  8
0
  6
CONTINUOUS
 62
     7
 66
     1
 10
0.0
 20
0.0
 30
0.0
  0
VERTEX
  5
425
  8
0
  6
CONTINUOUS
 62
     7
 10
237.0269016289
 20
148.3468681455
 30
0.0
  0
VERTEX
  5
426
  8
0
  6
CONTINUOUS
 62
     7
 10
235.240641322
 20
148.3263283849
 30
0.0
  0
VERTEX
  5
427
  8
0
  6
CONTINUOUS
 62
     7
 10
231.8406836056
 20
148.2914715887
 30
0.0
  0
VERTEX
  5
428
  8
0
  6
CONTINUOUS
 62
     7
 10
228.433859434
 20
148.2620745779
 30
0.0
  0
VERTEX
  5
429
  8
0
  6
CONTINUOUS
 62
     7
 10
225.0213594102
 20
148.2381611944
 30
0.0
  0
VERTEX
  5
42A
  8
0
  6
CONTINUOUS
 62
     7
 10
221.6043488049
 20
148.2197314382
 30
0.0
  0
VERTEX
  5
42B
  8
0
  6
CONTINUOUS
 62
     7
 10
218.1839973592
 20
148.2067853094
 30
0.0
  0
VERTEX
  5
42C
  8
0
  6
CONTINUOUS
 62
     7
 10
214.7614740693
 20
148.1993466497
 30
0.0
  0
VERTEX
  5
42D
  8
0
  6
CONTINUOUS
 62
     7
 10
211.3379478846
 20
148.1974035383
 30
0.0
  0
VERTEX
  5
42E
  8
0
  6
CONTINUOUS
 62
     7
 10
207.9145890587
 20
148.2009559751
 30
0.0
  0
VERTEX
  5
42F
  8
0
  6
CONTINUOUS
 62
     7
 10
204.4925683104
 20
148.2100039602
 30
0.0
  0
VERTEX
  5
430
  8
0
  6
CONTINUOUS
 62
     7
 10
201.0730565452
 20
148.2245474935
 30
0.0
  0
VERTEX
  5
431
  8
0
  6
CONTINUOUS
 62
     7
 10
197.6572216415
 20
148.2445865751
 30
0.0
  0
VERTEX
  5
432
  8
0
  6
CONTINUOUS
 62
     7
 10
194.2462311052
 20
148.2700973631
 30
0.0
  0
VERTEX
  5
433
  8
0
  6
CONTINUOUS
 62
     7
 10
190.8412516975
 20
148.3010917783
 30
0.0
  0
VERTEX
  5
434
  8
0
  6
CONTINUOUS
 62
     7
 10
187.6220778488
 20
148.3354955793
 30
0.0
  0
VERTEX
  5
435
  8
0
  6
CONTINUOUS
 62
     7
 10
186.6497055554
 20
148.3468681455
 30
0.0
  0
SEQEND
  5
AB5
  8
0
  6
CONTINUOUS
 62
     7
  0
ARC
  5
74
  8
0
  6
CONTINUOUS
 62
     7
 10
186.8368488995
 20
158.0206878109
 30
0.0
 40
9.670913321936625
 50
179.5279163947
 51
268.8864937524
  0
ARC
  5
75
  8
0
  6
CONTINUOUS
 62
     7
 10
236.8429771914
 20
158.0229255774
 30
0.0
 40
9.670570784271076
 50
271.0898262389
 51
0.454956971
  0
POLYLINE
  5
76
  8
0
  6
CONTINUOUS
 62
     7
 66
     1
 10
0.0
 20
0.0
 30
0.0
  0
VERTEX
  5
436
  8
0
  6
CONTINUOUS
 62
     7
 10
66.5855393671
 20
207.3413520933
 30
0.0
  0
VERTEX
  5
437
  8
0
  6
CONTINUOUS
 62
     7
 10
68.376420524
 20
207.320764649
 30
0.0
  0
VERTEX
  5
438
  8
0
  6
CONTINUOUS
 62
     7
 10
71.7852578425
 20
207.2858124853
 30
0.0
  0
VERTEX
  5
439
  8
0
  6
CONTINUOUS
 62
     7
 10
75.2008900904
 20
207.2563439489
 30
0.0
  0
VERTEX
  5
43A
  8
0
  6
CONTINUOUS
 62
     7
 10
78.6221370958
 20
207.2323590398
 30
0.0
  0
VERTEX
  5
43B
  8
0
  6
CONTINUOUS
 62
     7
 10
82.0478425287
 20
207.2138816
 30
0.0
  0
VERTEX
  5
43C
  8
0
  6
CONTINUOUS
 62
     7
 10
85.4768500589
 20
207.2009116293
 30
0.0
  0
VERTEX
  5
43D
  8
0
  6
CONTINUOUS
 62
     7
 10
88.9080033564
 20
207.1934491277
 30
0.0
  0
VERTEX
  5
43E
  8
0
  6
CONTINUOUS
 62
     7
 10
92.3401460909
 20
207.1915060163
 30
0.0
  0
VERTEX
  5
43F
  8
0
  6
CONTINUOUS
 62
     7
 10
95.7721219324
 20
207.1950584531
 30
0.0
  0
VERTEX
  5
440
  8
0
  6
CONTINUOUS
 62
     7
 10
99.2027626299
 20
207.204142201
 30
0.0
  0
VERTEX
  5
441
  8
0
  6
CONTINUOUS
 62
     7
 10
102.6309118532
 20
207.2187214971
 30
0.0
  0
VERTEX
  5
442
  8
0
  6
CONTINUOUS
 62
     7
 10
106.0554132723
 20
207.2388082624
 30
0.0
  0
VERTEX
  5
443
  8
0
  6
CONTINUOUS
 62
     7
 10
109.475110557
 20
207.264390576
 30
0.0
  0
VERTEX
  5
444
  8
0
  6
CONTINUOUS
 62
     7
 10
112.8888533377
 20
207.2954684377
 30
0.0
  0
VERTEX
  5
445
  8
0
  6
CONTINUOUS
 62
     7
 10
116.1164329313
 20
207.3299556852
 30
0.0
  0
VERTEX
  5
446
  8
0
  6
CONTINUOUS
 62
     7
 10
117.0910702013
 20
207.3413520933
 30
0.0
  0
SEQEND
  5
AB4
  8
0
  6
CONTINUOUS
 62
     7
  0
ARC
  5
77
  8
0
  6
CONTINUOUS
 62
     7
 10
66.4728475996
 20
198.041131145
 30
0.0
 40
14.68924037834372
 50
117.9336749953
 51
180.358079055
  0
ARC
  5
78
  8
0
  6
CONTINUOUS
 62
     7
 10
117.2329644321
 20
198.0595210549
 30
0.0
 40
14.65733392400894
 50
359.5662242332
 51
61.8683188179
  0
ARC
  5
79
  8
0
  6
CONTINUOUS
 62
     7
 10
66.30428666
 20
198.8252569494
 30
0.0
 40
8.514506282730594
 50
88.109619515
 51
112.7582697413
  0
ARC
  5
7A
  8
0
  6
CONTINUOUS
 62
     7
 10
117.3753748108
 20
198.9351238492
 30
0.0
 40
8.406821314160853
 50
67.889503335
 51
91.9316759964
  0
POLYLINE
  5
7B
  8
0
  6
CONTINUOUS
 62
     7
 66
     1
 10
0.0
 20
0.0
 30
0.0
  0
VERTEX
  5
447
  8
0
  6
CONTINUOUS
 62
     7
 10
117.0268998407
 20
212.7209693075
 30
0.0
  0
VERTEX
  5
448
  8
0
  6
CONTINUOUS
 62
     7
 10
115.2406380438
 20
212.7004295469
 30
0.0
  0
VERTEX
  5
449
  8
0
  6
CONTINUOUS
 62
     7
 10
111.8406818174
 20
212.6655727506
 30
0.0
  0
VERTEX
  5
44A
  8
0
  6
CONTINUOUS
 62
     7
 10
108.4338650965
 20
212.6361757398
 30
0.0
  0
VERTEX
  5
44B
  8
0
  6
CONTINUOUS
 62
     7
 10
105.0213561319
 20
212.6122623563
 30
0.0
  0
VERTEX
  5
44C
  8
0
  6
CONTINUOUS
 62
     7
 10
101.6043529772
 20
212.5938326002
 30
0.0
  0
VERTEX
  5
44D
  8
0
  6
CONTINUOUS
 62
     7
 10
98.1840000414
 20
212.5808864713
 30
0.0
  0
VERTEX
  5
44E
  8
0
  6
CONTINUOUS
 62
     7
 10
94.7614774965
 20
212.5734478117
 30
0.0
  0
VERTEX
  5
44F
  8
0
  6
CONTINUOUS
 62
     7
 10
91.3379535936
 20
212.5715047002
 30
0.0
  0
VERTEX
  5
450
  8
0
  6
CONTINUOUS
 62
     7
 10
87.9145846628
 20
212.5750571371
 30
0.0
  0
VERTEX
  5
451
  8
0
  6
CONTINUOUS
 62
     7
 10
84.492562797
 20
212.5841051222
 30
0.0
  0
VERTEX
  5
452
  8
0
  6
CONTINUOUS
 62
     7
 10
81.0730562471
 20
212.5986486555
 30
0.0
  0
VERTEX
  5
453
  8
0
  6
CONTINUOUS
 62
     7
 10
77.6572213434
 20
212.6186877371
 30
0.0
  0
VERTEX
  5
454
  8
0
  6
CONTINUOUS
 62
     7
 10
74.2462263369
 20
212.6442104459
 30
0.0
  0
VERTEX
  5
455
  8
0
  6
CONTINUOUS
 62
     7
 10
70.8412513994
 20
212.6751929403
 30
0.0
  0
VERTEX
  5
456
  8
0
  6
CONTINUOUS
 62
     7
 10
67.6220760607
 20
212.7095967413
 30
0.0
  0
VERTEX
  5
457
  8
0
  6
CONTINUOUS
 62
     7
 10
66.6497097277
 20
212.7209693075
 30
0.0
  0
SEQEND
  5
AB3
  8
0
  6
CONTINUOUS
 62
     7
  0
ARC
  5
7C
  8
0
  6
CONTINUOUS
 62
     7
 10
117.341816141
 20
199.0159290682
 30
0.0
 40
13.70358294408916
 50
74.2381513478
 51
91.3150114338
  0
ARC
  5
7D
  8
0
  6
CONTINUOUS
 62
     7
 10
66.3253321699
 20
198.8906321312
 30
0.0
 40
13.82728166746076
 50
88.6547728797
 51
105.7866992158
  0
ARC
  5
7E
  8
0
  6
CONTINUOUS
 62
     7
 10
117.2392470915
 20
198.0584316666
 30
0.0
 40
9.272520287125149
 50
359.3257551278
 51
69.1493049079
  0
ARC
  5
7F
  8
0
  6
CONTINUOUS
 62
     7
 10
66.4550265133
 20
198.046549099
 30
0.0
 40
9.292317097997982
 50
111.7578923922
 51
180.5966699591
  0
LINE
  5
80
  8
0
  6
CONTINUOUS
 62
     7
 10
131.8970606588
 20
158.1010371328
 30
0.0
 11
131.8970606588
 21
197.9488164068
 31
0.0
  0
LINE
  5
81
  8
0
  6
CONTINUOUS
 62
     7
 10
51.7795429491
 20
197.9488164068
 30
0.0
 11
51.7795429491
 21
158.1010371328
 31
0.0
  0
POLYLINE
  5
82
  8
0
  6
CONTINUOUS
 62
     7
 66
     1
 10
0.0
 20
0.0
 30
0.0
  0
VERTEX
  5
458
  8
0
  6
CONTINUOUS
 62
     7
 10
66.5855393671
 20
142.9672509313
 30
0.0
  0
VERTEX
  5
459
  8
0
  6
CONTINUOUS
 62
     7
 10
68.376420524
 20
142.9466575266
 30
0.0
  0
VERTEX
  5
45A
  8
0
  6
CONTINUOUS
 62
     7
 10
71.7852578425
 20
142.9117113233
 30
0.0
  0
VERTEX
  5
45B
  8
0
  6
CONTINUOUS
 62
     7
 10
75.2008900904
 20
142.8822427869
 30
0.0
  0
VERTEX
  5
45C
  8
0
  6
CONTINUOUS
 62
     7
 10
78.6221370958
 20
142.8582638384
 30
0.0
  0
VERTEX
  5
45D
  8
0
  6
CONTINUOUS
 62
     7
 10
82.0478425287
 20
142.8397863985
 30
0.0
  0
VERTEX
  5
45E
  8
0
  6
CONTINUOUS
 62
     7
 10
85.4768500589
 20
142.8268104673
 30
0.0
  0
VERTEX
  5
45F
  8
0
  6
CONTINUOUS
 62
     7
 10
88.9080033564
 20
142.8193479658
 30
0.0
  0
VERTEX
  5
460
  8
0
  6
CONTINUOUS
 62
     7
 10
92.3401460909
 20
142.8173988939
 30
0.0
  0
VERTEX
  5
461
  8
0
  6
CONTINUOUS
 62
     7
 10
95.7721219324
 20
142.8209632517
 30
0.0
  0
VERTEX
  5
462
  8
0
  6
CONTINUOUS
 62
     7
 10
99.2027626299
 20
142.8300350786
 30
0.0
  0
VERTEX
  5
463
  8
0
  6
CONTINUOUS
 62
     7
 10
102.6309118532
 20
142.8446203352
 30
0.0
  0
VERTEX
  5
464
  8
0
  6
CONTINUOUS
 62
     7
 10
106.0554132723
 20
142.8647071005
 30
0.0
  0
VERTEX
  5
465
  8
0
  6
CONTINUOUS
 62
     7
 10
109.475110557
 20
142.890289414
 30
0.0
  0
VERTEX
  5
466
  8
0
  6
CONTINUOUS
 62
     7
 10
112.8888533377
 20
142.9213613153
 30
0.0
  0
VERTEX
  5
467
  8
0
  6
CONTINUOUS
 62
     7
 10
116.1164329313
 20
142.9558545232
 30
0.0
  0
VERTEX
  5
468
  8
0
  6
CONTINUOUS
 62
     7
 10
117.0910702013
 20
142.9672509313
 30
0.0
  0
SEQEND
  5
AB2
  8
0
  6
CONTINUOUS
 62
     7
  0
ARC
  5
83
  8
0
  6
CONTINUOUS
 62
     7
 10
66.745307831
 20
157.8061864716
 30
0.0
 40
14.8322745216558
 50
218.476651032
 51
269.3847506501
  0
ARC
  5
84
  8
0
  6
CONTINUOUS
 62
     7
 10
116.9328639168
 20
157.8018023687
 30
0.0
 40
14.82858456126319
 50
270.6098497141
 51
321.4778640649
  0
LINE
  5
85
  8
0
  6
CONTINUOUS
 62
     7
 10
126.5170619749
 20
197.9488164068
 30
0.0
 11
126.5170619749
 21
158.1010371328
 31
0.0
  0
LINE
  5
86
  8
0
  6
CONTINUOUS
 62
     7
 10
57.159541633
 20
158.1010371328
 30
0.0
 11
57.159541633
 21
197.9488164068
 31
0.0
  0
ARC
  5
87
  8
0
  6
CONTINUOUS
 62
     7
 10
116.761760745
 20
158.0713826801
 30
0.0
 40
15.12945696836999
 50
327.6393240361
 51
0.1104515678
  0
ARC
  5
88
  8
0
  6
CONTINUOUS
 62
     7
 10
66.7424990736
 20
158.0269680449
 30
0.0
 40
14.95605850544852
 50
179.7162445257
 51
212.5691631278
  0
POLYLINE
  5
89
  8
0
  6
CONTINUOUS
 62
     7
 66
     1
 10
0.0
 20
0.0
 30
0.0
  0
VERTEX
  5
469
  8
0
  6
CONTINUOUS
 62
     7
 10
117.0268998407
 20
148.3468681455
 30
0.0
  0
VERTEX
  5
46A
  8
0
  6
CONTINUOUS
 62
     7
 10
115.2406380438
 20
148.3263283849
 30
0.0
  0
VERTEX
  5
46B
  8
0
  6
CONTINUOUS
 62
     7
 10
111.8406818174
 20
148.2914715887
 30
0.0
  0
VERTEX
  5
46C
  8
0
  6
CONTINUOUS
 62
     7
 10
108.4338650965
 20
148.2620745779
 30
0.0
  0
VERTEX
  5
46D
  8
0
  6
CONTINUOUS
 62
     7
 10
105.0213561319
 20
148.2381611944
 30
0.0
  0
VERTEX
  5
46E
  8
0
  6
CONTINUOUS
 62
     7
 10
101.6043529772
 20
148.2197314382
 30
0.0
  0
VERTEX
  5
46F
  8
0
  6
CONTINUOUS
 62
     7
 10
98.1840000414
 20
148.2067853094
 30
0.0
  0
VERTEX
  5
470
  8
0
  6
CONTINUOUS
 62
     7
 10
94.7614774965
 20
148.1993466497
 30
0.0
  0
VERTEX
  5
471
  8
0
  6
CONTINUOUS
 62
     7
 10
91.3379535936
 20
148.1974035383
 30
0.0
  0
VERTEX
  5
472
  8
0
  6
CONTINUOUS
 62
     7
 10
87.9145846628
 20
148.2009559751
 30
0.0
  0
VERTEX
  5
473
  8
0
  6
CONTINUOUS
 62
     7
 10
84.492562797
 20
148.2100039602
 30
0.0
  0
VERTEX
  5
474
  8
0
  6
CONTINUOUS
 62
     7
 10
81.0730562471
 20
148.2245474935
 30
0.0
  0
VERTEX
  5
475
  8
0
  6
CONTINUOUS
 62
     7
 10
77.6572213434
 20
148.2445865751
 30
0.0
  0
VERTEX
  5
476
  8
0
  6
CONTINUOUS
 62
     7
 10
74.2462263369
 20
148.2700973631
 30
0.0
  0
VERTEX
  5
477
  8
0
  6
CONTINUOUS
 62
     7
 10
70.8412513994
 20
148.3010917783
 30
0.0
  0
VERTEX
  5
478
  8
0
  6
CONTINUOUS
 62
     7
 10
67.6220760607
 20
148.3354955793
 30
0.0
  0
VERTEX
  5
479
  8
0
  6
CONTINUOUS
 62
     7
 10
66.6497097277
 20
148.3468681455
 30
0.0
  0
SEQEND
  5
AB1
  8
0
  6
CONTINUOUS
 62
     7
  0
ARC
  5
8A
  8
0
  6
CONTINUOUS
 62
     7
 10
66.8368499916
 20
158.0206876562
 30
0.0
 40
9.67091322316774
 50
179.5279154729
 51
268.886476674
  0
ARC
  5
8B
  8
0
  6
CONTINUOUS
 62
     7
 10
116.8429855396
 20
158.0229156545
 30
0.0
 40
9.670560727062444
 50
271.0897849666
 51
0.4550162368
  0
POLYLINE
  5
8C
  8
0
  6
CONTINUOUS
 62
     7
 66
     1
 10
0.0
 20
0.0
 30
0.0
  0
VERTEX
  5
47A
  8
0
  6
CONTINUOUS
 62
     7
 10
368.7381253504
 20
139.3501490236
 30
0.0
  0
VERTEX
  5
47B
  8
0
  6
CONTINUOUS
 62
     7
 10
368.7325701975
 20
139.3491893888
 30
0.0
  0
VERTEX
  5
47C
  8
0
  6
CONTINUOUS
 62
     7
 10
368.731473472
 20
139.348986733
 30
0.0
  0
SEQEND
  5
AB0
  8
0
  6
CONTINUOUS
 62
     7
  0
POLYLINE
  5
8D
  8
0
  6
CONTINUOUS
 62
     7
 66
     1
 10
0.0
 20
0.0
 30
0.0
  0
VERTEX
  5
47D
  8
0
  6
CONTINUOUS
 62
     7
 10
294.9454174303
 20
139.348909247
 30
0.0
  0
VERTEX
  5
47E
  8
0
  6
CONTINUOUS
 62
     7
 10
294.9444279932
 20
139.3490880609
 30
0.0
  0
VERTEX
  5
47F
  8
0
  6
CONTINUOUS
 62
     7
 10
294.9335084223
 20
139.3509775282
 30
0.0
  0
SEQEND
  5
AAF
  8
0
  6
CONTINUOUS
 62
     7
  0
LINE
  5
8E
  8
0
  6
CONTINUOUS
 62
     7
 10
294.9452088141
 20
139.3489569307
 30
0.0
 11
294.9377880358
 21
139.3502741934
 31
0.0
  0
ARC
  5
8F
  8
0
  6
CONTINUOUS
 62
     7
 10
277.3436335615
 20
51.4646694638
 30
0.0
 40
84.25020627731696
 50
78.5014989715
 51
78.6265146546
  0
LINE
  5
90
  8
0
  6
CONTINUOUS
 62
     7
 10
293.9526126646
 20
134.0615123392
 30
0.0
 11
293.957083013
 21
134.0606182695
 31
0.0
  0
LINE
  5
91
  8
0
  6
CONTINUOUS
 62
     7
 10
369.6558342241
 20
134.047779429
 30
0.0
 11
369.7124705576
 21
134.0592056394
 31
0.0
  0
LINE
  5
92
  8
0
  6
CONTINUOUS
 62
     7
 10
133.238302257
 20
139.2614453912
 30
0.0
 11
129.8383043074
 21
139.2614453912
 31
0.0
  0
LINE
  5
93
  8
0
  6
CONTINUOUS
 62
     7
 10
129.8383043074
 20
138.8614445806
 30
0.0
 11
129.5383022093
 21
138.8614445806
 31
0.0
  0
LINE
  5
94
  8
0
  6
CONTINUOUS
 62
     7
 10
128.538303163
 20
138.8614445806
 30
0.0
 11
112.4383018278
 21
138.8614445806
 31
0.0
  0
LINE
  5
95
  8
0
  6
CONTINUOUS
 62
     7
 10
112.4383018278
 20
126.8614441038
 30
0.0
 11
129.8383043074
 21
126.8614441038
 31
0.0
  0
LINE
  5
96
  8
0
  6
CONTINUOUS
 62
     7
 10
373.2382998728
 20
139.2614453912
 30
0.0
 11
370.0347528719
 21
139.2614453912
 31
0.0
  0
LINE
  5
97
  8
0
  6
CONTINUOUS
 62
     7
 10
366.2643180155
 20
138.8614445806
 30
0.0
 11
352.4383054041
 21
138.8614445806
 31
0.0
  0
LINE
  5
98
  8
0
  6
CONTINUOUS
 62
     7
 10
352.4383054041
 20
126.8614441038
 30
0.0
 11
369.8383078837
 21
126.8614441038
 31
0.0
  0
LINE
  5
99
  8
0
  6
CONTINUOUS
 62
     7
 10
253.2383040451
 20
139.2614453912
 30
0.0
 11
249.8383031153
 21
139.2614453912
 31
0.0
  0
LINE
  5
9A
  8
0
  6
CONTINUOUS
 62
     7
 10
249.8383031153
 20
138.8614445806
 30
0.0
 11
249.5383039974
 21
138.8614445806
 31
0.0
  0
LINE
  5
9B
  8
0
  6
CONTINUOUS
 62
     7
 10
248.5383049511
 20
138.8614445806
 30
0.0
 11
232.438303616
 21
138.8614445806
 31
0.0
  0
LINE
  5
9C
  8
0
  6
CONTINUOUS
 62
     7
 10
232.438303616
 20
126.8614441038
 30
0.0
 11
249.8383031153
 21
126.8614441038
 31
0.0
  0
LINE
  5
9D
  8
0
  6
CONTINUOUS
 62
     7
 10
173.838304069
 20
139.2614453912
 30
0.0
 11
170.4383031391
 21
139.2614453912
 31
0.0
  0
LINE
  5
9E
  8
0
  6
CONTINUOUS
 62
     7
 10
173.838304069
 20
126.8614441038
 30
0.0
 11
191.2383035683
 21
126.8614441038
 31
0.0
  0
LINE
  5
9F
  8
0
  6
CONTINUOUS
 62
     7
 10
191.2383035683
 20
138.8614445806
 30
0.0
 11
175.1383022331
 21
138.8614445806
 31
0.0
  0
LINE
  5
A0
  8
0
  6
CONTINUOUS
 62
     7
 10
174.1383031868
 20
138.8614445806
 30
0.0
 11
173.838304069
 21
138.8614445806
 31
0.0
  0
LINE
  5
A1
  8
0
  6
CONTINUOUS
 62
     7
 10
293.6418519281
 20
139.2614453912
 30
0.0
 11
290.4383049273
 21
139.2614453912
 31
0.0
  0
LINE
  5
A2
  8
0
  6
CONTINUOUS
 62
     7
 10
293.8383028769
 20
126.8614441038
 30
0.0
 11
311.2383053564
 21
126.8614441038
 31
0.0
  0
LINE
  5
A3
  8
0
  6
CONTINUOUS
 62
     7
 10
311.2383053564
 20
138.8614445806
 30
0.0
 11
297.4122450613
 21
138.8614445806
 31
0.0
  0
LINE
  5
A4
  8
0
  6
CONTINUOUS
 62
     7
 10
53.8382993006
 20
139.2614453912
 30
0.0
 11
50.4383073114
 21
139.2614453912
 31
0.0
  0
LINE
  5
A5
  8
0
  6
CONTINUOUS
 62
     7
 10
53.8382993006
 20
126.8614441038
 30
0.0
 11
71.2383017801
 21
126.8614441038
 31
0.0
  0
LINE
  5
A6
  8
0
  6
CONTINUOUS
 62
     7
 10
71.2383017801
 20
138.8614445806
 30
0.0
 11
55.138300445
 21
138.8614445806
 31
0.0
  0
LINE
  5
A7
  8
0
  6
CONTINUOUS
 62
     7
 10
54.1383013987
 20
138.8614445806
 30
0.0
 11
53.8382993006
 21
138.8614445806
 31
0.0
  0
LINE
  5
A8
  8
0
  6
CONTINUOUS
 62
     7
 10
73.424016025
 20
46.261444676
 30
0.0
 11
80.2525863909
 21
46.261444676
 31
0.0
  0
LINE
  5
A9
  8
0
  6
CONTINUOUS
 62
     7
 10
73.424016025
 20
47.4614446864
 30
0.0
 11
80.2525863909
 21
47.4614446864
 31
0.0
  0
LINE
  5
AA
  8
0
  6
CONTINUOUS
 62
     7
 10
84.0112314486
 20
46.261444676
 30
0.0
 11
80.2525863909
 21
46.261444676
 31
0.0
  0
LINE
  5
AB
  8
0
  6
CONTINUOUS
 62
     7
 10
80.2525863909
 20
47.4614446864
 30
0.0
 11
84.0112314486
 21
47.4614446864
 31
0.0
  0
LINE
  5
AC
  8
0
  6
CONTINUOUS
 62
     7
 10
73.424016025
 20
46.261444676
 30
0.0
 11
69.6653709673
 21
46.261444676
 31
0.0
  0
LINE
  5
AD
  8
0
  6
CONTINUOUS
 62
     7
 10
69.6653709673
 20
47.4614446864
 30
0.0
 11
73.424016025
 21
47.4614446864
 31
0.0
  0
LINE
  5
AE
  8
0
  6
CONTINUOUS
 62
     7
 10
343.4240207934
 20
46.261444676
 30
0.0
 11
339.6653757357
 21
46.261444676
 31
0.0
  0
LINE
  5
AF
  8
0
  6
CONTINUOUS
 62
     7
 10
339.6653757357
 20
47.4614446864
 30
0.0
 11
343.4240207934
 21
47.4614446864
 31
0.0
  0
LINE
  5
B0
  8
0
  6
CONTINUOUS
 62
     7
 10
354.0112362169
 20
46.261444676
 30
0.0
 11
350.2525911593
 21
46.261444676
 31
0.0
  0
LINE
  5
B1
  8
0
  6
CONTINUOUS
 62
     7
 10
350.2525911593
 20
47.4614446864
 30
0.0
 11
354.0112362169
 21
47.4614446864
 31
0.0
  0
LINE
  5
B2
  8
0
  6
CONTINUOUS
 62
     7
 10
343.4240207934
 20
46.261444676
 30
0.0
 11
350.2525911593
 21
46.261444676
 31
0.0
  0
LINE
  5
B3
  8
0
  6
CONTINUOUS
 62
     7
 10
343.4240207934
 20
47.4614446864
 30
0.0
 11
350.2525911593
 21
47.4614446864
 31
0.0
  0
LINE
  5
B4
  8
0
  6
CONTINUOUS
 62
     7
 10
88.8383016848
 20
46.261444676
 30
0.0
 11
88.8383016848
 21
47.4614446864
 31
0.0
  0
LINE
  5
B5
  8
0
  6
CONTINUOUS
 62
     7
 10
84.0112314486
 20
46.261444676
 30
0.0
 11
88.8383016848
 21
46.261444676
 31
0.0
  0
LINE
  5
B6
  8
0
  6
CONTINUOUS
 62
     7
 10
88.8383016848
 20
47.4614446864
 30
0.0
 11
84.0112314486
 21
47.4614446864
 31
0.0
  0
LINE
  5
B7
  8
0
  6
CONTINUOUS
 62
     7
 10
64.8383007311
 20
46.261444676
 30
0.0
 11
64.8383007311
 21
47.4614446864
 31
0.0
  0
LINE
  5
B8
  8
0
  6
CONTINUOUS
 62
     7
 10
64.8383007311
 20
46.261444676
 30
0.0
 11
69.6653709673
 21
46.261444676
 31
0.0
  0
LINE
  5
B9
  8
0
  6
CONTINUOUS
 62
     7
 10
69.6653709673
 20
47.4614446864
 30
0.0
 11
64.8383007311
 21
47.4614446864
 31
0.0
  0
LINE
  5
BA
  8
0
  6
CONTINUOUS
 62
     7
 10
358.8383064531
 20
46.261444676
 30
0.0
 11
358.8383064531
 21
47.4614446864
 31
0.0
  0
LINE
  5
BB
  8
0
  6
CONTINUOUS
 62
     7
 10
354.0112362169
 20
46.261444676
 30
0.0
 11
358.8383064531
 21
46.261444676
 31
0.0
  0
LINE
  5
BC
  8
0
  6
CONTINUOUS
 62
     7
 10
358.8383064531
 20
47.4614446864
 30
0.0
 11
354.0112362169
 21
47.4614446864
 31
0.0
  0
LINE
  5
BD
  8
0
  6
CONTINUOUS
 62
     7
 10
334.8383054995
 20
46.261444676
 30
0.0
 11
334.8383054995
 21
47.4614446864
 31
0.0
  0
LINE
  5
BE
  8
0
  6
CONTINUOUS
 62
     7
 10
334.8383054995
 20
46.261444676
 30
0.0
 11
339.6653757357
 21
46.261444676
 31
0.0
  0
LINE
  5
BF
  8
0
  6
CONTINUOUS
 62
     7
 10
339.6653757357
 20
47.4614446864
 30
0.0
 11
334.8383054995
 21
47.4614446864
 31
0.0
  0
LINE
  5
C0
  8
0
  6
CONTINUOUS
 62
     7
 10
81.8383083605
 20
111.2614422918
 30
0.0
 11
81.8383083605
 21
47.4614446864
 31
0.0
  0
LINE
  5
C1
  8
0
  6
CONTINUOUS
 62
     7
 10
375.4383073114
 20
112.4614447237
 30
0.0
 11
375.4383073114
 21
111.861446488
 31
0.0
  0
ARC
  5
C2
  8
0
  6
CONTINUOUS
 62
     7
 10
375.0383035921
 20
111.861444676
 30
0.0
 40
0.3999999999999915
 50
270.0
 51
0.0
  0
LINE
  5
C3
  8
0
  6
CONTINUOUS
 62
     7
 10
48.2382998728
 20
112.4614447237
 30
0.0
 11
48.2382998728
 21
120.4614430547
 31
0.0
  0
POLYLINE
  5
C4
  8
0
  6
CONTINUOUS
 62
     7
 66
     1
 10
0.0
 20
0.0
 30
0.0
  0
VERTEX
  5
480
  8
0
  6
CONTINUOUS
 62
     7
 10
351.8383012079
 20
111.4614456773
 30
0.0
  0
VERTEX
  5
481
  8
0
  6
CONTINUOUS
 62
     7
 10
351.8190846705
 20
111.4806622148
 30
0.0
  0
VERTEX
  5
482
  8
0
  6
CONTINUOUS
 62
     7
 10
351.7621860766
 20
111.5375667692
 30
0.0
  0
VERTEX
  5
483
  8
0
  6
CONTINUOUS
 62
     7
 10
351.6697750353
 20
111.6299778104
 30
0.0
  0
VERTEX
  5
484
  8
0
  6
CONTINUOUS
 62
     7
 10
351.5454159044
 20
111.7543369413
 30
0.0
  0
VERTEX
  5
485
  8
0
  6
CONTINUOUS
 62
     7
 10
351.3938770556
 20
111.9058757902
 30
0.0
  0
VERTEX
  5
486
  8
0
  6
CONTINUOUS
 62
     7
 10
351.2209878229
 20
112.0787590624
 30
0.0
  0
VERTEX
  5
487
  8
0
  6
CONTINUOUS
 62
     7
 10
351.033388164
 20
112.2663527609
 30
0.0
  0
VERTEX
  5
488
  8
0
  6
CONTINUOUS
 62
     7
 10
350.8383021616
 20
112.4614447237
 30
0.0
  0
SEQEND
  5
AAE
  8
0
  6
CONTINUOUS
 62
     7
  0
LINE
  5
C5
  8
0
  6
CONTINUOUS
 62
     7
 10
351.8383012079
 20
111.4614456773
 30
0.0
 11
351.8383012079
 21
47.4614446864
 31
0.0
  0
ARC
  5
C6
  8
0
  6
CONTINUOUS
 62
     7
 10
375.0383035921
 20
121.061444676
 30
0.0
 40
0.4000000000000057
 50
0.0
 51
90.0
  0
LINE
  5
C7
  8
0
  6
CONTINUOUS
 62
     7
 10
375.4383073114
 20
121.0614472509
 30
0.0
 11
375.4383073114
 21
120.4614430547
 31
0.0
  0
LINE
  5
C8
  8
0
  6
CONTINUOUS
 62
     7
 10
315.7612667345
 20
111.4614456773
 30
0.0
 11
299.1100833677
 21
111.4614456773
 31
0.0
  0
LINE
  5
C9
  8
0
  6
CONTINUOUS
 62
     7
 10
291.5665254854
 20
111.4614456773
 30
0.0
 11
252.1100834869
 21
111.4614456773
 31
0.0
  0
LINE
  5
CA
  8
0
  6
CONTINUOUS
 62
     7
 10
244.5665226244
 20
111.4614456773
 30
0.0
 11
227.9153362774
 21
111.4614456773
 31
0.0
  0
LINE
  5
CB
  8
0
  6
CONTINUOUS
 62
     7
 10
195.7612709068
 20
111.4614456773
 30
0.0
 11
179.1100845598
 21
111.4614456773
 31
0.0
  0
LINE
  5
CC
  8
0
  6
CONTINUOUS
 62
     7
 10
171.5665236973
 20
111.4614456773
 30
0.0
 11
132.1100816988
 21
111.4614456773
 31
0.0
  0
LINE
  5
CD
  8
0
  6
CONTINUOUS
 62
     7
 10
124.5665238165
 20
111.4614456773
 30
0.0
 11
107.9153404497
 21
111.4614456773
 31
0.0
  0
LINE
  5
CE
  8
0
  6
CONTINUOUS
 62
     7
 10
71.8383059763
 20
47.4614446864
 30
0.0
 11
71.8383059763
 21
111.4614456773
 31
0.0
  0
POLYLINE
  5
CF
  8
0
  6
CONTINUOUS
 62
     7
 66
     1
 10
0.0
 20
0.0
 30
0.0
  0
VERTEX
  5
489
  8
0
  6
CONTINUOUS
 62
     7
 10
71.8383059763
 20
111.4614456773
 30
0.0
  0
VERTEX
  5
48A
  8
0
  6
CONTINUOUS
 62
     7
 10
71.8575225138
 20
111.4806622148
 30
0.0
  0
VERTEX
  5
48B
  8
0
  6
CONTINUOUS
 62
     7
 10
71.9144211077
 20
111.5375667692
 30
0.0
  0
VERTEX
  5
48C
  8
0
  6
CONTINUOUS
 62
     7
 10
72.0068321489
 20
111.6299778104
 30
0.0
  0
VERTEX
  5
48D
  8
0
  6
CONTINUOUS
 62
     7
 10
72.1311912798
 20
111.7543369413
 30
0.0
  0
VERTEX
  5
48E
  8
0
  6
CONTINUOUS
 62
     7
 10
72.2827301287
 20
111.9058757902
 30
0.0
  0
VERTEX
  5
48F
  8
0
  6
CONTINUOUS
 62
     7
 10
72.4556193613
 20
112.0787590624
 30
0.0
  0
VERTEX
  5
490
  8
0
  6
CONTINUOUS
 62
     7
 10
72.6432190203
 20
112.2663527609
 30
0.0
  0
VERTEX
  5
491
  8
0
  6
CONTINUOUS
 62
     7
 10
72.8383050226
 20
112.4614447237
 30
0.0
  0
SEQEND
  5
AAD
  8
0
  6
CONTINUOUS
 62
     7
  0
LINE
  5
D0
  8
0
  6
CONTINUOUS
 62
     7
 10
375.4383073114
 20
120.4614430547
 30
0.0
 11
375.4383073114
 21
112.4614447237
 31
0.0
  0
LINE
  5
D1
  8
0
  6
CONTINUOUS
 62
     7
 10
48.2382998728
 20
120.4614430547
 30
0.0
 11
48.2382998728
 21
121.0614472509
 31
0.0
  0
ARC
  5
D2
  8
0
  6
CONTINUOUS
 62
     7
 10
48.6383035921
 20
121.061444676
 30
0.0
 40
0.4000000000000057
 50
90.0
 51
180.0
  0
LINE
  5
D3
  8
0
  6
CONTINUOUS
 62
     7
 10
48.2382998728
 20
111.861446488
 30
0.0
 11
48.2382998728
 21
112.4614447237
 31
0.0
  0
ARC
  5
D4
  8
0
  6
CONTINUOUS
 62
     7
 10
48.6383035921
 20
111.861444676
 30
0.0
 40
0.3999999999999915
 50
180.0
 51
270.0
  0
LINE
  5
D5
  8
0
  6
CONTINUOUS
 62
     7
 10
341.8382988237
 20
47.4614446864
 30
0.0
 11
341.8382988237
 21
111.2614422918
 31
0.0
  0
LINE
  5
D6
  8
0
  6
CONTINUOUS
 62
     7
 10
48.6383066439
 20
121.4614421011
 30
0.0
 11
50.4383073114
 21
121.4614421011
 31
0.0
  0
LINE
  5
D7
  8
0
  6
CONTINUOUS
 62
     7
 10
60.2383003496
 20
121.4614421011
 30
0.0
 11
73.838304069
 21
121.4614421011
 31
0.0
  0
LINE
  5
D8
  8
0
  6
CONTINUOUS
 62
     7
 10
109.8383054995
 20
121.4614421011
 30
0.0
 11
123.4383032583
 21
121.4614421011
 31
0.0
  0
LINE
  5
D9
  8
0
  6
CONTINUOUS
 62
     7
 10
133.238302257
 20
121.4614421011
 30
0.0
 11
170.4383031391
 21
121.4614421011
 31
0.0
  0
LINE
  5
DA
  8
0
  6
CONTINUOUS
 62
     7
 10
180.2383021378
 20
121.4614421011
 30
0.0
 11
193.8383028769
 21
121.4614421011
 31
0.0
  0
LINE
  5
DB
  8
0
  6
CONTINUOUS
 62
     7
 10
229.8383043074
 20
121.4614421011
 30
0.0
 11
243.4383050465
 21
121.4614421011
 31
0.0
  0
LINE
  5
DC
  8
0
  6
CONTINUOUS
 62
     7
 10
253.2383040451
 20
121.4614421011
 30
0.0
 11
290.4383049273
 21
121.4614421011
 31
0.0
  0
LINE
  5
DD
  8
0
  6
CONTINUOUS
 62
     7
 10
300.2383039259
 20
121.4614421011
 30
0.0
 11
313.8383016848
 21
121.4614421011
 31
0.0
  0
LINE
  5
DE
  8
0
  6
CONTINUOUS
 62
     7
 10
349.8383031153
 20
121.4614421011
 30
0.0
 11
363.4383068346
 21
121.4614421011
 31
0.0
  0
LINE
  5
DF
  8
0
  6
CONTINUOUS
 62
     7
 10
373.2382998728
 20
121.4614421011
 30
0.0
 11
375.0383005404
 21
121.4614421011
 31
0.0
  0
LINE
  5
E0
  8
0
  6
CONTINUOUS
 62
     7
 10
375.0383005404
 20
111.4614456773
 30
0.0
 11
372.1100793146
 21
111.4614456773
 31
0.0
  0
LINE
  5
E1
  8
0
  6
CONTINUOUS
 62
     7
 10
364.5665273928
 20
111.4614456773
 30
0.0
 11
351.8383012079
 21
111.4614456773
 31
0.0
  0
CIRCLE
  5
E2
  8
0
  6
CONTINUOUS
 62
     7
 10
129.3383035921
 20
115.661444676
 30
0.0
 40
1.050000000000011
  0
CIRCLE
  5
E3
  8
0
  6
CONTINUOUS
 62
     7
 10
369.3383035921
 20
115.661444676
 30
0.0
 40
1.050000000000011
  0
CIRCLE
  5
E4
  8
0
  6
CONTINUOUS
 62
     7
 10
54.3383035921
 20
115.661444676
 30
0.0
 40
1.049999999999997
  0
CIRCLE
  5
E5
  8
0
  6
CONTINUOUS
 62
     7
 10
249.3383035921
 20
115.661444676
 30
0.0
 40
1.049999999999983
  0
CIRCLE
  5
E6
  8
0
  6
CONTINUOUS
 62
     7
 10
174.3383035921
 20
115.661444676
 30
0.0
 40
1.049999999999983
  0
CIRCLE
  5
E7
  8
0
  6
CONTINUOUS
 62
     7
 10
294.3383035921
 20
115.661444676
 30
0.0
 40
1.050000000000011
  0
LINE
  5
E8
  8
0
  6
CONTINUOUS
 62
     7
 10
71.8383059763
 20
111.4614456773
 30
0.0
 11
59.1100797915
 21
111.4614456773
 31
0.0
  0
LINE
  5
E9
  8
0
  6
CONTINUOUS
 62
     7
 10
51.5665278696
 20
111.4614456773
 30
0.0
 11
48.6383066439
 21
111.4614456773
 31
0.0
  0
LINE
  5
EA
  8
0
  6
CONTINUOUS
 62
     7
 10
176.9026950859
 20
217.4919754148
 30
0.0
 11
176.9026950859
 21
209.1881066442
 31
0.0
  0
ARC
  5
EB
  8
0
  6
CONTINUOUS
 62
     7
 10
186.6858452433
 20
217.5869108472
 30
0.0
 40
9.783610771991
 50
99.1043769416
 51
180.5559792896
  0
POLYLINE
  5
EC
  8
0
  6
CONTINUOUS
 62
     7
 66
     1
 10
0.0
 20
0.0
 30
0.0
  0
VERTEX
  5
492
  8
0
  6
CONTINUOUS
 62
     7
 10
185.1377502941
 20
227.2472649694
 30
0.0
  0
VERTEX
  5
493
  8
0
  6
CONTINUOUS
 62
     7
 10
188.9307112359
 20
227.1845131994
 30
0.0
  0
VERTEX
  5
494
  8
0
  6
CONTINUOUS
 62
     7
 10
192.7335427069
 20
227.1313696981
 30
0.0
  0
VERTEX
  5
495
  8
0
  6
CONTINUOUS
 62
     7
 10
196.5446070694
 20
227.0878583074
 30
0.0
  0
VERTEX
  5
496
  8
0
  6
CONTINUOUS
 62
     7
 10
200.3622614705
 20
227.0540028692
 30
0.0
  0
VERTEX
  5
497
  8
0
  6
CONTINUOUS
 62
     7
 10
204.1848608219
 20
227.0298033834
 30
0.0
  0
VERTEX
  5
498
  8
0
  6
CONTINUOUS
 62
     7
 10
208.0107574277
 20
227.015271771
 30
0.0
  0
VERTEX
  5
499
  8
0
  6
CONTINUOUS
 62
     7
 10
211.8383035921
 20
227.0104318739
 30
0.0
  0
VERTEX
  5
49A
  8
0
  6
CONTINUOUS
 62
     7
 10
215.6658497565
 20
227.015271771
 30
0.0
  0
VERTEX
  5
49B
  8
0
  6
CONTINUOUS
 62
     7
 10
219.4917463624
 20
227.0298033834
 30
0.0
  0
VERTEX
  5
49C
  8
0
  6
CONTINUOUS
 62
     7
 10
223.3143457138
 20
227.0540028692
 30
0.0
  0
VERTEX
  5
49D
  8
0
  6
CONTINUOUS
 62
     7
 10
227.1320001148
 20
227.0878583074
 30
0.0
  0
VERTEX
  5
49E
  8
0
  6
CONTINUOUS
 62
     7
 10
230.9430644774
 20
227.1313696981
 30
0.0
  0
VERTEX
  5
49F
  8
0
  6
CONTINUOUS
 62
     7
 10
234.7458959483
 20
227.1845131994
 30
0.0
  0
VERTEX
  5
4A0
  8
0
  6
CONTINUOUS
 62
     7
 10
238.5388568901
 20
227.2472649694
 30
0.0
  0
SEQEND
  5
AAC
  8
0
  6
CONTINUOUS
 62
     7
  0
ARC
  5
ED
  8
0
  6
CONTINUOUS
 62
     7
 10
237.0021895882
 20
217.5965576451
 30
0.0
 40
9.772282141696817
 50
359.3868131615
 51
80.9528306073
  0
LINE
  5
EE
  8
0
  6
CONTINUOUS
 62
     7
 10
246.7739120983
 20
209.1905742765
 30
0.0
 11
246.7739120983
 21
217.4919754148
 31
0.0
  0
ARC
  5
EF
  8
0
  6
CONTINUOUS
 62
     7
 10
184.8737194927
 20
220.113190481
 30
0.0
 40
11.53015475364943
 50
111.5475430071
 51
126.7247218963
  0
ARC
  5
F0
  8
0
  6
CONTINUOUS
 62
     7
 10
238.4175914198
 20
219.3432387081
 30
0.0
 40
12.38098184039891
 50
54.0747924108
 51
68.1455166041
  0
POLYLINE
  5
F1
  8
0
  6
CONTINUOUS
 62
     7
 66
     1
 10
0.0
 20
0.0
 30
0.0
  0
VERTEX
  5
4A1
  8
0
  6
CONTINUOUS
 62
     7
 10
356.8720803522
 20
167.6384597898
 30
0.0
  0
VERTEX
  5
4A2
  8
0
  6
CONTINUOUS
 62
     7
 10
357.712601211
 20
167.6601320387
 30
0.0
  0
VERTEX
  5
4A3
  8
0
  6
CONTINUOUS
 62
     7
 10
358.5388527178
 20
167.6945000768
 30
0.0
  0
SEQEND
  5
AAB
  8
0
  6
CONTINUOUS
 62
     7
  0
ARC
  5
F2
  8
0
  6
CONTINUOUS
 62
     7
 10
356.5143780751
 20
177.7523826379
 30
0.0
 40
10.25960521612566
 50
281.3805645855
 51
0.210749801
  0
ARC
  5
F3
  8
0
  6
CONTINUOUS
 62
     7
 10
307.7971143741
 20
221.9753830596
 30
0.0
 40
54.34598849218085
 50
267.1951727346
 51
268.9534760982
  0
ARC
  5
F4
  8
0
  6
CONTINUOUS
 62
     7
 10
307.149656272
 20
177.7421227901
 30
0.0
 40
10.24707180890117
 50
179.7316247056
 51
258.6770202835
  0
POLYLINE
  5
F5
  8
0
  6
CONTINUOUS
 62
     7
 66
     1
 10
0.0
 20
0.0
 30
0.0
  0
VERTEX
  5
4A4
  8
0
  6
CONTINUOUS
 62
     7
 10
305.1377520823
 20
167.6945000768
 30
0.0
  0
VERTEX
  5
4A5
  8
0
  6
CONTINUOUS
 62
     7
 10
308.9307115339
 20
167.6317483068
 30
0.0
  0
VERTEX
  5
4A6
  8
0
  6
CONTINUOUS
 62
     7
 10
312.7335415148
 20
167.5786048055
 30
0.0
  0
VERTEX
  5
4A7
  8
0
  6
CONTINUOUS
 62
     7
 10
316.5446028971
 20
167.5350934148
 30
0.0
  0
VERTEX
  5
4A8
  8
0
  6
CONTINUOUS
 62
     7
 10
320.3622565531
 20
167.5012260557
 30
0.0
  0
VERTEX
  5
4A9
  8
0
  6
CONTINUOUS
 62
     7
 10
324.1848573946
 20
167.4770265699
 30
0.0
  0
VERTEX
  5
4AA
  8
0
  6
CONTINUOUS
 62
     7
 10
328.0107603335
 20
167.4625068784
 30
0.0
  0
VERTEX
  5
4AB
  8
0
  6
CONTINUOUS
 62
     7
 10
331.8383083605
 20
167.4576669813
 30
0.0
  0
VERTEX
  5
4AC
  8
0
  6
CONTINUOUS
 62
     7
 10
335.6658444666
 20
167.4625068784
 30
0.0
  0
VERTEX
  5
4AD
  8
0
  6
CONTINUOUS
 62
     7
 10
339.4917474054
 20
167.4770265699
 30
0.0
  0
VERTEX
  5
4AE
  8
0
  6
CONTINUOUS
 62
     7
 10
343.314348247
 20
167.5012260557
 30
0.0
  0
VERTEX
  5
4AF
  8
0
  6
CONTINUOUS
 62
     7
 10
347.132001903
 20
167.5350934148
 30
0.0
  0
VERTEX
  5
4B0
  8
0
  6
CONTINUOUS
 62
     7
 10
350.9430632853
 20
167.5786048055
 30
0.0
  0
VERTEX
  5
4B1
  8
0
  6
CONTINUOUS
 62
     7
 10
354.7458992266
 20
167.6317483068
 30
0.0
  0
VERTEX
  5
4B2
  8
0
  6
CONTINUOUS
 62
     7
 10
358.5388527178
 20
167.6945000768
 30
0.0
  0
SEQEND
  5
AAA
  8
0
  6
CONTINUOUS
 62
     7
  0
LINE
  5
F6
  8
0
  6
CONTINUOUS
 62
     7
 10
296.9026968741
 20
217.4919754148
 30
0.0
 11
296.9026968741
 21
177.7901202322
 31
0.0
  0
ARC
  5
F7
  8
0
  6
CONTINUOUS
 62
     7
 10
306.6858397112
 20
217.5869170267
 30
0.0
 40
9.783603512046815
 50
99.1043403383
 51
180.5560158929
  0
POLYLINE
  5
F8
  8
0
  6
CONTINUOUS
 62
     7
 66
     1
 10
0.0
 20
0.0
 30
0.0
  0
VERTEX
  5
4B3
  8
0
  6
CONTINUOUS
 62
     7
 10
305.1377520823
 20
227.2472649694
 30
0.0
  0
VERTEX
  5
4B4
  8
0
  6
CONTINUOUS
 62
     7
 10
308.9307115339
 20
227.1845131994
 30
0.0
  0
VERTEX
  5
4B5
  8
0
  6
CONTINUOUS
 62
     7
 10
312.7335415148
 20
227.1313696981
 30
0.0
  0
VERTEX
  5
4B6
  8
0
  6
CONTINUOUS
 62
     7
 10
316.5446028971
 20
227.0878583074
 30
0.0
  0
VERTEX
  5
4B7
  8
0
  6
CONTINUOUS
 62
     7
 10
320.3622565531
 20
227.0540028692
 30
0.0
  0
VERTEX
  5
4B8
  8
0
  6
CONTINUOUS
 62
     7
 10
324.1848573946
 20
227.0298033834
 30
0.0
  0
VERTEX
  5
4B9
  8
0
  6
CONTINUOUS
 62
     7
 10
328.0107603335
 20
227.015271771
 30
0.0
  0
VERTEX
  5
4BA
  8
0
  6
CONTINUOUS
 62
     7
 10
331.8383083605
 20
227.0104318739
 30
0.0
  0
VERTEX
  5
4BB
  8
0
  6
CONTINUOUS
 62
     7
 10
335.6658444666
 20
227.015271771
 30
0.0
  0
VERTEX
  5
4BC
  8
0
  6
CONTINUOUS
 62
     7
 10
339.4917474054
 20
227.0298033834
 30
0.0
  0
VERTEX
  5
4BD
  8
0
  6
CONTINUOUS
 62
     7
 10
343.314348247
 20
227.0540028692
 30
0.0
  0
VERTEX
  5
4BE
  8
0
  6
CONTINUOUS
 62
     7
 10
347.132001903
 20
227.0878583074
 30
0.0
  0
VERTEX
  5
4BF
  8
0
  6
CONTINUOUS
 62
     7
 10
350.9430632853
 20
227.1313696981
 30
0.0
  0
VERTEX
  5
4C0
  8
0
  6
CONTINUOUS
 62
     7
 10
354.7458992266
 20
227.1845131994
 30
0.0
  0
VERTEX
  5
4C1
  8
0
  6
CONTINUOUS
 62
     7
 10
358.5388527178
 20
227.2472649694
 30
0.0
  0
SEQEND
  5
AA9
  8
0
  6
CONTINUOUS
 62
     7
  0
ARC
  5
F9
  8
0
  6
CONTINUOUS
 62
     7
 10
357.0021835959
 20
217.5965501381
 30
0.0
 40
9.772289841432064
 50
359.3868576609
 51
80.95282699
  0
LINE
  5
FA
  8
0
  6
CONTINUOUS
 62
     7
 10
366.7739138865
 20
177.7901202322
 30
0.0
 11
366.7739138865
 21
217.4919754148
 31
0.0
  0
POLYLINE
  5
FB
  8
0
  6
CONTINUOUS
 62
     7
 66
     1
 10
0.0
 20
0.0
 30
0.0
  0
VERTEX
  5
4C2
  8
0
  6
CONTINUOUS
 62
     7
 10
306.8045244478
 20
167.6384597898
 30
0.0
  0
VERTEX
  5
4C3
  8
0
  6
CONTINUOUS
 62
     7
 10
310.6372998022
 20
167.5795107961
 30
0.0
  0
VERTEX
  5
4C4
  8
0
  6
CONTINUOUS
 62
     7
 10
314.4793496393
 20
167.5303369642
 30
0.0
  0
VERTEX
  5
4C5
  8
0
  6
CONTINUOUS
 62
     7
 10
318.3290109896
 20
167.4909740568
 30
0.0
  0
VERTEX
  5
4C6
  8
0
  6
CONTINUOUS
 62
     7
 10
322.1845851206
 20
167.4614459158
 30
0.0
  0
VERTEX
  5
4C7
  8
0
  6
CONTINUOUS
 62
     7
 10
326.0443792605
 20
167.4417406202
 30
0.0
  0
VERTEX
  5
4C8
  8
0
  6
CONTINUOUS
 62
     7
 10
329.9067125582
 20
167.4318939329
 30
0.0
  0
VERTEX
  5
4C9
  8
0
  6
CONTINUOUS
 62
     7
 10
333.7698922419
 20
167.4318939329
 30
0.0
  0
VERTEX
  5
4CA
  8
0
  6
CONTINUOUS
 62
     7
 10
337.6322255396
 20
167.4417406202
 30
0.0
  0
VERTEX
  5
4CB
  8
0
  6
CONTINUOUS
 62
     7
 10
341.4920316004
 20
167.4614459158
 30
0.0
  0
VERTEX
  5
4CC
  8
0
  6
CONTINUOUS
 62
     7
 10
345.3475938105
 20
167.4909740568
 30
0.0
  0
VERTEX
  5
4CD
  8
0
  6
CONTINUOUS
 62
     7
 10
349.1972551607
 20
167.5303369642
 30
0.0
  0
VERTEX
  5
4CE
  8
0
  6
CONTINUOUS
 62
     7
 10
353.0393109583
 20
167.5795107961
 30
0.0
  0
VERTEX
  5
4CF
  8
0
  6
CONTINUOUS
 62
     7
 10
356.8720803522
 20
167.6384597898
 30
0.0
  0
SEQEND
  5
AA8
  8
0
  6
CONTINUOUS
 62
     7
  0
ARC
  5
FC
  8
0
  6
CONTINUOUS
 62
     7
 10
304.8738906855
 20
220.1128812255
 30
0.0
 40
11.53050570870009
 50
111.5477753418
 51
126.7244895617
  0
ARC
  5
FD
  8
0
  6
CONTINUOUS
 62
     7
 10
358.4176281954
 20
219.3432685916
 30
0.0
 40
12.38093886164925
 50
54.0748312159
 51
68.1456410017
  0
LINE
  5
FE
  8
0
  6
CONTINUOUS
 62
     7
 10
56.9026932978
 20
217.4919754148
 30
0.0
 11
56.9026932978
 21
209.1881066442
 31
0.0
  0
ARC
  5
FF
  8
0
  6
CONTINUOUS
 62
     7
 10
66.6858536769
 20
217.5869012725
 30
0.0
 40
9.783620900325388
 50
99.1043927098
 51
180.5559226392
  0
POLYLINE
  5
100
  8
0
  6
CONTINUOUS
 62
     7
 66
     1
 10
0.0
 20
0.0
 30
0.0
  0
VERTEX
  5
4D0
  8
0
  6
CONTINUOUS
 62
     7
 10
65.1377544664
 20
227.2472649694
 30
0.0
  0
VERTEX
  5
4D1
  8
0
  6
CONTINUOUS
 62
     7
 10
68.9307079577
 20
227.1845131994
 30
0.0
  0
VERTEX
  5
4D2
  8
0
  6
CONTINUOUS
 62
     7
 10
72.733543899
 20
227.1313696981
 30
0.0
  0
VERTEX
  5
4D3
  8
0
  6
CONTINUOUS
 62
     7
 10
76.5446052813
 20
227.0878583074
 30
0.0
  0
VERTEX
  5
4D4
  8
0
  6
CONTINUOUS
 62
     7
 10
80.3622589373
 20
227.0540028692
 30
0.0
  0
VERTEX
  5
4D5
  8
0
  6
CONTINUOUS
 62
     7
 10
84.1848597788
 20
227.0298033834
 30
0.0
  0
VERTEX
  5
4D6
  8
0
  6
CONTINUOUS
 62
     7
 10
88.0107627176
 20
227.015271771
 30
0.0
  0
VERTEX
  5
4D7
  8
0
  6
CONTINUOUS
 62
     7
 10
91.8382988237
 20
227.0104318739
 30
0.0
  0
VERTEX
  5
4D8
  8
0
  6
CONTINUOUS
 62
     7
 10
95.6658468508
 20
227.015271771
 30
0.0
  0
VERTEX
  5
4D9
  8
0
  6
CONTINUOUS
 62
     7
 10
99.4917497896
 20
227.0298033834
 30
0.0
  0
VERTEX
  5
4DA
  8
0
  6
CONTINUOUS
 62
     7
 10
103.3143506312
 20
227.0540028692
 30
0.0
  0
VERTEX
  5
4DB
  8
0
  6
CONTINUOUS
 62
     7
 10
107.1320042872
 20
227.0878583074
 30
0.0
  0
VERTEX
  5
4DC
  8
0
  6
CONTINUOUS
 62
     7
 10
110.9430656694
 20
227.1313696981
 30
0.0
  0
VERTEX
  5
4DD
  8
0
  6
CONTINUOUS
 62
     7
 10
114.7458956503
 20
227.1845131994
 30
0.0
  0
VERTEX
  5
4DE
  8
0
  6
CONTINUOUS
 62
     7
 10
118.538855102
 20
227.2472649694
 30
0.0
  0
SEQEND
  5
AA7
  8
0
  6
CONTINUOUS
 62
     7
  0
ARC
  5
101
  8
0
  6
CONTINUOUS
 62
     7
 10
117.0021899194
 20
217.5965594341
 30
0.0
 40
9.77228004168549
 50
359.3868025399
 51
80.9528412289
  0
LINE
  5
102
  8
0
  6
CONTINUOUS
 62
     7
 10
126.7739103102
 20
209.1905742765
 30
0.0
 11
126.7739103102
 21
217.4919754148
 31
0.0
  0
ARC
  5
103
  8
0
  6
CONTINUOUS
 62
     7
 10
64.8740879508
 20
220.1125486372
 30
0.0
 40
11.53088881757884
 50
111.5480965958
 51
126.724277509
  0
ARC
  5
104
  8
0
  6
CONTINUOUS
 62
     7
 10
118.4176500033
 20
219.3433333421
 30
0.0
 40
12.38087153410986
 50
54.0747505299
 51
68.145612886
  0
LINE
  5
105
  8
0
  6
CONTINUOUS
 62
     7
 10
349.8383031153
 20
121.0614472509
 30
0.0
 11
349.8383031153
 21
114.2614453912
 31
0.0
  0
ARC
  5
106
  8
0
  6
CONTINUOUS
 62
     7
 10
346.8383035921
 20
114.261444676
 30
0.0
 40
3.0
 50
270.0
 51
0.0
  0
LINE
  5
107
  8
0
  6
CONTINUOUS
 62
     7
 10
346.8383059763
 20
111.2614422918
 30
0.0
 11
316.8382988237
 21
111.2614422918
 31
0.0
  0
ARC
  5
108
  8
0
  6
CONTINUOUS
 62
     7
 10
316.8383035921
 20
114.261444676
 30
0.0
 40
3.0
 50
180.0
 51
270.0
  0
LINE
  5
109
  8
0
  6
CONTINUOUS
 62
     7
 10
313.8383016848
 20
121.0614472509
 30
0.0
 11
313.8383016848
 21
114.2614453912
 31
0.0
  0
CIRCLE
  5
10A
  8
0
  6
CONTINUOUS
 62
     7
 10
316.8383035921
 20
115.461444676
 30
0.0
 40
1.100000000000009
  0
CIRCLE
  5
10B
  8
0
  6
CONTINUOUS
 62
     7
 10
346.8383035921
 20
115.461444676
 30
0.0
 40
1.100000000000023
  0
LINE
  5
10C
  8
0
  6
CONTINUOUS
 62
     7
 10
349.8383031153
 20
122.0614462972
 30
0.0
 11
313.8383016848
 21
122.0614462972
 31
0.0
  0
LINE
  5
10D
  8
0
  6
CONTINUOUS
 62
     7
 10
313.8383016848
 20
122.0614462972
 30
0.0
 11
313.8383016848
 21
121.0614472509
 31
0.0
  0
LINE
  5
10E
  8
0
  6
CONTINUOUS
 62
     7
 10
349.8383031153
 20
122.0614462972
 30
0.0
 11
349.8383031153
 21
121.0614472509
 31
0.0
  0
LINE
  5
10F
  8
0
  6
CONTINUOUS
 62
     7
 10
328.8382993006
 20
128.0062049509
 30
0.0
 11
328.8382993006
 21
122.0614462972
 31
0.0
  0
LINE
  5
110
  8
0
  6
CONTINUOUS
 62
     7
 10
334.8383054995
 20
128.0062049509
 30
0.0
 11
334.8383054995
 21
122.0614462972
 31
0.0
  0
LINE
  5
111
  8
0
  6
CONTINUOUS
 62
     7
 10
334.8383054995
 20
130.24330436
 30
0.0
 11
334.8383054995
 21
128.0062049509
 31
0.0
  0
LINE
  5
112
  8
0
  6
CONTINUOUS
 62
     7
 10
328.8382993006
 20
130.24330436
 30
0.0
 11
328.8382993006
 21
128.0062049509
 31
0.0
  0
LINE
  5
113
  8
0
  6
CONTINUOUS
 62
     7
 10
334.8383054995
 20
152.4333268285
 30
0.0
 11
334.8383054995
 21
135.6240063787
 31
0.0
  0
LINE
  5
114
  8
0
  6
CONTINUOUS
 62
     7
 10
328.8382993006
 20
152.4333268285
 30
0.0
 11
328.8382993006
 21
135.6240063787
 31
0.0
  0
LINE
  5
115
  8
0
  6
CONTINUOUS
 62
     7
 10
334.8383054995
 20
156.1973959089
 30
0.0
 11
334.8383054995
 21
152.4333268285
 31
0.0
  0
LINE
  5
116
  8
0
  6
CONTINUOUS
 62
     7
 10
328.8382993006
 20
156.1973959089
 30
0.0
 11
328.8382993006
 21
152.4333268285
 31
0.0
  0
LINE
  5
117
  8
0
  6
CONTINUOUS
 62
     7
 10
334.8383054995
 20
156.1973959089
 30
0.0
 11
334.8383054995
 21
162.2836023451
 31
0.0
  0
LINE
  5
118
  8
0
  6
CONTINUOUS
 62
     7
 10
328.8382993006
 20
156.1973959089
 30
0.0
 11
328.8382993006
 21
162.2829109312
 31
0.0
  0
LINE
  5
119
  8
0
  6
CONTINUOUS
 62
     7
 10
229.8383043074
 20
121.0614472509
 30
0.0
 11
229.8383043074
 21
114.2614453912
 31
0.0
  0
ARC
  5
11A
  8
0
  6
CONTINUOUS
 62
     7
 10
226.8383035921
 20
114.261444676
 30
0.0
 40
3.0
 50
270.0
 51
0.0
  0
LINE
  5
11B
  8
0
  6
CONTINUOUS
 62
     7
 10
226.8383041882
 20
111.2614422918
 30
0.0
 11
196.8383029961
 21
111.2614422918
 31
0.0
  0
ARC
  5
11C
  8
0
  6
CONTINUOUS
 62
     7
 10
196.8383035921
 20
114.261444676
 30
0.0
 40
2.999999999999986
 50
180.0
 51
270.0
  0
LINE
  5
11D
  8
0
  6
CONTINUOUS
 62
     7
 10
193.8383028769
 20
121.0614472509
 30
0.0
 11
193.8383028769
 21
114.2614453912
 31
0.0
  0
CIRCLE
  5
11E
  8
0
  6
CONTINUOUS
 62
     7
 10
196.8383035921
 20
115.461444676
 30
0.0
 40
1.100000000000009
  0
CIRCLE
  5
11F
  8
0
  6
CONTINUOUS
 62
     7
 10
226.8383035921
 20
115.461444676
 30
0.0
 40
1.100000000000023
  0
LINE
  5
120
  8
0
  6
CONTINUOUS
 62
     7
 10
229.8383043074
 20
122.0614462972
 30
0.0
 11
193.8383028769
 21
122.0614462972
 31
0.0
  0
LINE
  5
121
  8
0
  6
CONTINUOUS
 62
     7
 10
193.8383028769
 20
122.0614462972
 30
0.0
 11
193.8383028769
 21
121.0614472509
 31
0.0
  0
LINE
  5
122
  8
0
  6
CONTINUOUS
 62
     7
 10
229.8383043074
 20
122.0614462972
 30
0.0
 11
229.8383043074
 21
121.0614472509
 31
0.0
  0
LINE
  5
123
  8
0
  6
CONTINUOUS
 62
     7
 10
214.8383035251
 20
128.0062049509
 30
0.0
 11
214.8383035251
 21
122.0614462972
 31
0.0
  0
LINE
  5
124
  8
0
  6
CONTINUOUS
 62
     7
 10
208.8383036592
 20
128.0062049509
 30
0.0
 11
208.8383036592
 21
122.0614462972
 31
0.0
  0
LINE
  5
125
  8
0
  6
CONTINUOUS
 62
     7
 10
214.8383035251
 20
135.03936826
 30
0.0
 11
214.8383035251
 21
128.0062049509
 31
0.0
  0
LINE
  5
126
  8
0
  6
CONTINUOUS
 62
     7
 10
208.8383036592
 20
135.03936826
 30
0.0
 11
208.8383036592
 21
128.0062049509
 31
0.0
  0
LINE
  5
127
  8
0
  6
CONTINUOUS
 62
     7
 10
214.8383035251
 20
142.8199916959
 30
0.0
 11
214.8383035251
 21
135.03936826
 31
0.0
  0
LINE
  5
128
  8
0
  6
CONTINUOUS
 62
     7
 10
208.8383036592
 20
142.8195029379
 30
0.0
 11
208.8383036592
 21
135.03936826
 31
0.0
  0
LINE
  5
129
  8
0
  6
CONTINUOUS
 62
     7
 10
109.8383054995
 20
121.0614472509
 30
0.0
 11
109.8383054995
 21
114.2614453912
 31
0.0
  0
ARC
  5
12A
  8
0
  6
CONTINUOUS
 62
     7
 10
106.8383035921
 20
114.261444676
 30
0.0
 40
3.0
 50
270.0
 51
0.0
  0
LINE
  5
12B
  8
0
  6
CONTINUOUS
 62
     7
 10
106.8383083605
 20
111.2614422918
 30
0.0
 11
76.8383012079
 21
111.2614422918
 31
0.0
  0
ARC
  5
12C
  8
0
  6
CONTINUOUS
 62
     7
 10
76.8383035921
 20
114.261444676
 30
0.0
 40
3.0
 50
180.0
 51
270.0
  0
LINE
  5
12D
  8
0
  6
CONTINUOUS
 62
     7
 10
73.838304069
 20
121.0614472509
 30
0.0
 11
73.838304069
 21
114.2614453912
 31
0.0
  0
CIRCLE
  5
12E
  8
0
  6
CONTINUOUS
 62
     7
 10
76.8383035921
 20
115.461444676
 30
0.0
 40
1.100000000000009
  0
CIRCLE
  5
12F
  8
0
  6
CONTINUOUS
 62
     7
 10
106.8383035921
 20
115.461444676
 30
0.0
 40
1.100000000000023
  0
LINE
  5
130
  8
0
  6
CONTINUOUS
 62
     7
 10
109.8383054995
 20
122.0614462972
 30
0.0
 11
73.838304069
 21
122.0614462972
 31
0.0
  0
LINE
  5
131
  8
0
  6
CONTINUOUS
 62
     7
 10
73.838304069
 20
122.0614462972
 30
0.0
 11
73.838304069
 21
121.0614472509
 31
0.0
  0
LINE
  5
132
  8
0
  6
CONTINUOUS
 62
     7
 10
109.8383054995
 20
122.0614462972
 30
0.0
 11
109.8383054995
 21
121.0614472509
 31
0.0
  0
LINE
  5
133
  8
0
  6
CONTINUOUS
 62
     7
 10
88.8383016848
 20
128.0062049509
 30
0.0
 11
88.8383016848
 21
122.0614462972
 31
0.0
  0
LINE
  5
134
  8
0
  6
CONTINUOUS
 62
     7
 10
94.8383078837
 20
128.0062049509
 30
0.0
 11
94.8383078837
 21
122.0614462972
 31
0.0
  0
LINE
  5
135
  8
0
  6
CONTINUOUS
 62
     7
 10
88.8383016848
 20
135.03936826
 30
0.0
 11
88.8383016848
 21
128.0062049509
 31
0.0
  0
LINE
  5
136
  8
0
  6
CONTINUOUS
 62
     7
 10
94.8383078837
 20
135.03936826
 30
0.0
 11
94.8383078837
 21
128.0062049509
 31
0.0
  0
LINE
  5
137
  8
0
  6
CONTINUOUS
 62
     7
 10
94.8383078837
 20
142.8199916959
 30
0.0
 11
94.8383078837
 21
135.03936826
 31
0.0
  0
LINE
  5
138
  8
0
  6
CONTINUOUS
 62
     7
 10
88.8383016848
 20
142.8195029379
 30
0.0
 11
88.8383016848
 21
135.03936826
 31
0.0
  0
LINE
  5
139
  8
0
  6
CONTINUOUS
 62
     7
 10
175.1383022331
 20
168.785467732
 30
0.0
 11
174.1383031868
 21
168.785467732
 31
0.0
  0
LINE
  5
13A
  8
0
  6
CONTINUOUS
 62
     7
 10
175.1383022331
 20
168.785467732
 30
0.0
 11
175.1383022331
 21
133.6394458891
 31
0.0
  0
LINE
  5
13B
  8
0
  6
CONTINUOUS
 62
     7
 10
174.1383031868
 20
168.785467732
 30
0.0
 11
174.1383031868
 21
133.6394458891
 31
0.0
  0
LINE
  5
13C
  8
0
  6
CONTINUOUS
 62
     7
 10
248.5383049511
 20
168.785467732
 30
0.0
 11
249.5383039974
 21
168.785467732
 31
0.0
  0
LINE
  5
13D
  8
0
  6
CONTINUOUS
 62
     7
 10
248.5383049511
 20
168.785467732
 30
0.0
 11
248.5383049511
 21
133.6394458891
 31
0.0
  0
LINE
  5
13E
  8
0
  6
CONTINUOUS
 62
     7
 10
249.5383039974
 20
168.785467732
 30
0.0
 11
249.5383039974
 21
133.6394458891
 31
0.0
  0
ARC
  5
13F
  8
0
  6
CONTINUOUS
 62
     7
 10
184.954398399
 20
201.7804416139
 30
0.0
 40
10.6645406960417
 50
102.9877021175
 51
120.0657719251
  0
ARC
  5
140
  8
0
  6
CONTINUOUS
 62
     7
 10
237.8057676555
 20
199.4186477118
 30
0.0
 40
13.19185546280817
 50
61.3383227431
 51
75.6468881451
  0
ARC
  5
141
  8
0
  6
CONTINUOUS
 62
     7
 10
249.2075458609
 20
199.1647346646
 30
0.0
 40
30.34002614223923
 50
268.7360660276
 51
270.6246342891
  0
ARC
  5
142
  8
0
  6
CONTINUOUS
 62
     7
 10
174.4690613233
 20
199.1647346646
 30
0.0
 40
30.34002614223923
 50
269.3753657109
 51
271.2639339724
  0
LINE
  5
143
  8
0
  6
CONTINUOUS
 62
     7
 10
175.1383022331
 20
168.8320904852
 30
0.0
 11
175.1383022331
 21
168.785467732
 31
0.0
  0
LINE
  5
144
  8
0
  6
CONTINUOUS
 62
     7
 10
174.1383031868
 20
168.8265114904
 30
0.0
 11
174.1383031868
 21
168.785467732
 31
0.0
  0
LINE
  5
145
  8
0
  6
CONTINUOUS
 62
     7
 10
248.5383049511
 20
168.8320904852
 30
0.0
 11
248.5383049511
 21
168.785467732
 31
0.0
  0
LINE
  5
146
  8
0
  6
CONTINUOUS
 62
     7
 10
249.5383039974
 20
168.8265114904
 30
0.0
 11
249.5383039974
 21
168.785467732
 31
0.0
  0
LINE
  5
147
  8
0
  6
CONTINUOUS
 62
     7
 10
55.138300445
 20
168.785467732
 30
0.0
 11
54.1383013987
 21
168.785467732
 31
0.0
  0
LINE
  5
148
  8
0
  6
CONTINUOUS
 62
     7
 10
55.138300445
 20
168.785467732
 30
0.0
 11
55.138300445
 21
133.6394458891
 31
0.0
  0
LINE
  5
149
  8
0
  6
CONTINUOUS
 62
     7
 10
54.1383013987
 20
168.785467732
 30
0.0
 11
54.1383013987
 21
133.6394458891
 31
0.0
  0
LINE
  5
14A
  8
0
  6
CONTINUOUS
 62
     7
 10
128.538303163
 20
168.785467732
 30
0.0
 11
129.5383022093
 21
168.785467732
 31
0.0
  0
LINE
  5
14B
  8
0
  6
CONTINUOUS
 62
     7
 10
128.538303163
 20
168.785467732
 30
0.0
 11
128.538303163
 21
133.6394458891
 31
0.0
  0
LINE
  5
14C
  8
0
  6
CONTINUOUS
 62
     7
 10
129.5383022093
 20
168.785467732
 30
0.0
 11
129.5383022093
 21
133.6394458891
 31
0.0
  0
ARC
  5
14D
  8
0
  6
CONTINUOUS
 62
     7
 10
64.9544121807
 20
201.7804356924
 30
0.0
 40
10.66455063496926
 50
102.9877920793
 51
120.0658006673
  0
ARC
  5
14E
  8
0
  6
CONTINUOUS
 62
     7
 10
117.8057362985
 20
199.4185651124
 30
0.0
 40
13.19194355272212
 50
61.338370766
 51
75.6468401221
  0
ARC
  5
14F
  8
0
  6
CONTINUOUS
 62
     7
 10
129.2075456792
 20
199.1650225983
 30
0.0
 40
30.34031404127751
 50
268.7360749887
 51
270.624625328
  0
ARC
  5
150
  8
0
  6
CONTINUOUS
 62
     7
 10
54.4690594446
 20
199.164750902
 30
0.0
 40
30.34004237773016
 50
269.3753662162
 51
271.2639334671
  0
LINE
  5
151
  8
0
  6
CONTINUOUS
 62
     7
 10
55.138300445
 20
168.8320904852
 30
0.0
 11
55.138300445
 21
168.785467732
 31
0.0
  0
LINE
  5
152
  8
0
  6
CONTINUOUS
 62
     7
 10
54.1383013987
 20
168.8265114904
 30
0.0
 11
54.1383013987
 21
168.785467732
 31
0.0
  0
LINE
  5
153
  8
0
  6
CONTINUOUS
 62
     7
 10
128.538303163
 20
168.8320904852
 30
0.0
 11
128.538303163
 21
168.785467732
 31
0.0
  0
LINE
  5
154
  8
0
  6
CONTINUOUS
 62
     7
 10
129.5383022093
 20
168.8265114904
 30
0.0
 11
129.5383022093
 21
168.785467732
 31
0.0
  0
ARC
  5
155
  8
0
  6
CONTINUOUS
 62
     7
 10
331.8555879061
 20
318.8080453072
 30
0.0
 40
183.2071848725564
 50
277.7919748279
 51
281.5898572225
  0
ARC
  5
156
  8
0
  6
CONTINUOUS
 62
     7
 10
369.207060225
 20
136.7019477965
 30
0.0
 40
2.690000000000027
 50
12.4186815058
 51
100.0467259538
  0
ARC
  5
157
  8
0
  6
CONTINUOUS
 62
     7
 10
331.8381787662
 20
318.9105933178
 30
0.0
 40
188.6911405135066
 50
277.7930209078
 51
281.5887330874
  0
ARC
  5
158
  8
0
  6
CONTINUOUS
 62
     7
 10
369.207060225
 20
136.7019477965
 30
0.0
 40
2.690000000000015
 50
281.5900201068
 51
12.4186815058
  0
ARC
  5
159
  8
0
  6
CONTINUOUS
 62
     7
 10
331.8370461656
 20
318.9022403524
 30
0.0
 40
188.6826775901135
 50
258.4109200711
 51
262.2070503025
  0
ARC
  5
15A
  8
0
  6
CONTINUOUS
 62
     7
 10
294.4695469593
 20
136.7019477965
 30
0.0
 40
2.690000000000042
 50
167.5813184942
 51
258.4099798932
  0
ARC
  5
15B
  8
0
  6
CONTINUOUS
 62
     7
 10
294.4695469593
 20
136.7019477965
 30
0.0
 40
2.69000000000003
 50
80.0567778902
 51
167.5813184942
  0
ARC
  5
15C
  8
0
  6
CONTINUOUS
 62
     7
 10
331.8545204326
 20
319.004319001
 30
0.0
 40
183.4061887606287
 50
258.4122996017
 51
262.2059683307
  0
ARC
  5
15D
  8
0
  6
CONTINUOUS
 62
     7
 10
331.8383035921
 20
318.9094559505
 30
0.0
 40
183.3100000000006
 50
262.2069690737
 51
277.7930309263
  0
ARC
  5
15E
  8
0
  6
CONTINUOUS
 62
     7
 10
331.8383035921
 20
318.9094559505
 30
0.0
 40
188.6900000000006
 50
262.2069690737
 51
277.7930309263
  0
LINE
  5
15F
  8
0
  6
CONTINUOUS
 62
     7
 10
295.1383040213
 20
133.8230401159
 30
0.0
 11
295.1383040213
 21
133.5614472509
 31
0.0
  0
LINE
  5
160
  8
0
  6
CONTINUOUS
 62
     7
 10
295.1383040213
 20
133.5614472509
 30
0.0
 11
294.1383049749
 21
133.5614472509
 31
0.0
  0
LINE
  5
161
  8
0
  6
CONTINUOUS
 62
     7
 10
294.1383049749
 20
134.0324193121
 30
0.0
 11
294.1383049749
 21
133.5614472509
 31
0.0
  0
LINE
  5
162
  8
0
  6
CONTINUOUS
 62
     7
 10
368.5383067392
 20
133.5614472509
 30
0.0
 11
369.5383057856
 21
133.5614472509
 31
0.0
  0
LINE
  5
163
  8
0
  6
CONTINUOUS
 62
     7
 10
368.5383067392
 20
133.8230341554
 30
0.0
 11
368.5383067392
 21
133.5614472509
 31
0.0
  0
LINE
  5
164
  8
0
  6
CONTINUOUS
 62
     7
 10
369.5383057856
 20
134.0324193121
 30
0.0
 11
369.5383057856
 21
133.5614472509
 31
0.0
  0
LINE
  5
165
  8
0
  6
CONTINUOUS
 62
     7
 10
368.5383067392
 20
133.5614472509
 30
0.0
 11
368.5383067392
 21
127.0025461794
 31
0.0
  0
LINE
  5
166
  8
0
  6
CONTINUOUS
 62
     7
 10
369.5383057856
 20
133.5614472509
 30
0.0
 11
369.5383057856
 21
127.0025461794
 31
0.0
  0
LINE
  5
167
  8
0
  6
CONTINUOUS
 62
     7
 10
295.1383040213
 20
133.5614472509
 30
0.0
 11
295.1383040213
 21
127.0025461794
 31
0.0
  0
LINE
  5
168
  8
0
  6
CONTINUOUS
 62
     7
 10
294.1383049749
 20
133.5614472509
 30
0.0
 11
294.1383049749
 21
127.0025461794
 31
0.0
  0
LINE
  5
169
  8
0
  6
CONTINUOUS
 62
     7
 10
295.009987142
 20
139.3371015669
 30
0.0
 11
295.0139448904
 21
139.3362849832
 31
0.0
  0
LINE
  5
16A
  8
0
  6
CONTINUOUS
 62
     7
 10
368.6623916887
 20
139.336231339
 30
0.0
 11
368.6666236185
 21
139.3371015669
 31
0.0
  0
LINE
  5
16B
  8
0
  6
CONTINUOUS
 62
     7
 10
129.8383043074
 20
139.2614453912
 30
0.0
 11
129.8383043074
 21
130.1042109609
 31
0.0
  0
LINE
  5
16C
  8
0
  6
CONTINUOUS
 62
     7
 10
133.238302257
 20
139.2614453912
 30
0.0
 11
133.238302257
 21
130.1042109609
 31
0.0
  0
LINE
  5
16D
  8
0
  6
CONTINUOUS
 62
     7
 10
112.4383018278
 20
138.8614445806
 30
0.0
 11
112.4383018278
 21
126.8614441038
 31
0.0
  0
LINE
  5
16E
  8
0
  6
CONTINUOUS
 62
     7
 10
131.2383041643
 20
111.2614422918
 30
0.0
 11
125.438301351
 21
111.2614422918
 31
0.0
  0
ARC
  5
16F
  8
0
  6
CONTINUOUS
 62
     7
 10
125.4383035921
 20
113.261444676
 30
0.0
 40
2.000000000000014
 50
180.0
 51
270.0
  0
LINE
  5
170
  8
0
  6
CONTINUOUS
 62
     7
 10
123.4383032583
 20
113.2614463449
 30
0.0
 11
123.4383032583
 21
121.261444676
 31
0.0
  0
CIRCLE
  5
171
  8
0
  6
CONTINUOUS
 62
     7
 10
129.3383035921
 20
115.661444676
 30
0.0
 40
1.099999999999966
  0
ARC
  5
172
  8
0
  6
CONTINUOUS
 62
     7
 10
131.2383035921
 20
113.261444676
 30
0.0
 40
2.0
 50
270.0
 51
0.0
  0
LINE
  5
173
  8
0
  6
CONTINUOUS
 62
     7
 10
133.238302257
 20
113.2614463449
 30
0.0
 11
133.238302257
 21
121.261444676
 31
0.0
  0
LINE
  5
174
  8
0
  6
CONTINUOUS
 62
     7
 10
123.4383032583
 20
121.261444676
 30
0.0
 11
123.4383032583
 21
122.2614437223
 31
0.0
  0
LINE
  5
175
  8
0
  6
CONTINUOUS
 62
     7
 10
123.4383032583
 20
122.2614437223
 30
0.0
 11
133.238302257
 21
122.2614437223
 31
0.0
  0
LINE
  5
176
  8
0
  6
CONTINUOUS
 62
     7
 10
133.238302257
 20
122.2614437223
 30
0.0
 11
133.238302257
 21
121.261444676
 31
0.0
  0
LINE
  5
177
  8
0
  6
CONTINUOUS
 62
     7
 10
129.8383043074
 20
125.7960349203
 30
0.0
 11
129.8383043074
 21
130.1042109609
 31
0.0
  0
LINE
  5
178
  8
0
  6
CONTINUOUS
 62
     7
 10
133.238302257
 20
130.1042109609
 30
0.0
 11
133.238302257
 21
125.7960349203
 31
0.0
  0
LINE
  5
179
  8
0
  6
CONTINUOUS
 62
     7
 10
129.8383043074
 20
125.7960349203
 30
0.0
 11
129.8383043074
 21
122.2614437223
 31
0.0
  0
LINE
  5
17A
  8
0
  6
CONTINUOUS
 62
     7
 10
133.238302257
 20
125.7960349203
 30
0.0
 11
133.238302257
 21
122.2614437223
 31
0.0
  0
LINE
  5
17B
  8
0
  6
CONTINUOUS
 62
     7
 10
373.2382998728
 20
139.2614453912
 30
0.0
 11
373.2382998728
 21
130.1042109609
 31
0.0
  0
LINE
  5
17C
  8
0
  6
CONTINUOUS
 62
     7
 10
369.8383078837
 20
134.0870588899
 30
0.0
 11
369.8383078837
 21
130.1042109609
 31
0.0
  0
LINE
  5
17D
  8
0
  6
CONTINUOUS
 62
     7
 10
352.4383054041
 20
138.8614445806
 30
0.0
 11
352.4383054041
 21
136.7606252313
 31
0.0
  0
LINE
  5
17E
  8
0
  6
CONTINUOUS
 62
     7
 10
352.4383054041
 20
131.3473194719
 30
0.0
 11
352.4383054041
 21
126.8614441038
 31
0.0
  0
CIRCLE
  5
17F
  8
0
  6
CONTINUOUS
 62
     7
 10
369.3383035921
 20
115.661444676
 30
0.0
 40
1.099999999999966
  0
ARC
  5
180
  8
0
  6
CONTINUOUS
 62
     7
 10
371.2383035921
 20
113.261444676
 30
0.0
 40
2.0
 50
270.0
 51
0.0
  0
LINE
  5
181
  8
0
  6
CONTINUOUS
 62
     7
 10
371.2383017801
 20
111.2614422918
 30
0.0
 11
365.4383049273
 21
111.2614422918
 31
0.0
  0
ARC
  5
182
  8
0
  6
CONTINUOUS
 62
     7
 10
365.4383035921
 20
113.261444676
 30
0.0
 40
2.0
 50
180.0
 51
270.0
  0
LINE
  5
183
  8
0
  6
CONTINUOUS
 62
     7
 10
363.4383068346
 20
113.2614463449
 30
0.0
 11
363.4383068346
 21
121.261444676
 31
0.0
  0
LINE
  5
184
  8
0
  6
CONTINUOUS
 62
     7
 10
373.2382998728
 20
113.2614463449
 30
0.0
 11
373.2382998728
 21
121.261444676
 31
0.0
  0
LINE
  5
185
  8
0
  6
CONTINUOUS
 62
     7
 10
363.4383068346
 20
122.2614437223
 30
0.0
 11
373.2382998728
 21
122.2614437223
 31
0.0
  0
LINE
  5
186
  8
0
  6
CONTINUOUS
 62
     7
 10
363.4383068346
 20
121.261444676
 30
0.0
 11
363.4383068346
 21
122.2614437223
 31
0.0
  0
LINE
  5
187
  8
0
  6
CONTINUOUS
 62
     7
 10
373.2382998728
 20
122.2614437223
 30
0.0
 11
373.2382998728
 21
121.261444676
 31
0.0
  0
LINE
  5
188
  8
0
  6
CONTINUOUS
 62
     7
 10
373.2382998728
 20
130.1042109609
 30
0.0
 11
373.2382998728
 21
125.7960349203
 31
0.0
  0
LINE
  5
189
  8
0
  6
CONTINUOUS
 62
     7
 10
369.8383078837
 20
125.7960349203
 30
0.0
 11
369.8383078837
 21
130.1042109609
 31
0.0
  0
LINE
  5
18A
  8
0
  6
CONTINUOUS
 62
     7
 10
373.2382998728
 20
125.7960349203
 30
0.0
 11
373.2382998728
 21
122.2614437223
 31
0.0
  0
LINE
  5
18B
  8
0
  6
CONTINUOUS
 62
     7
 10
369.8383078837
 20
125.7960349203
 30
0.0
 11
369.8383078837
 21
122.2614437223
 31
0.0
  0
LINE
  5
18C
  8
0
  6
CONTINUOUS
 62
     7
 10
253.2383040451
 20
139.2614453912
 30
0.0
 11
253.2383040451
 21
130.1042109609
 31
0.0
  0
LINE
  5
18D
  8
0
  6
CONTINUOUS
 62
     7
 10
249.8383031153
 20
139.2614453912
 30
0.0
 11
249.8383031153
 21
130.1042109609
 31
0.0
  0
LINE
  5
18E
  8
0
  6
CONTINUOUS
 62
     7
 10
232.438303616
 20
138.8614445806
 30
0.0
 11
232.438303616
 21
126.8614441038
 31
0.0
  0
LINE
  5
18F
  8
0
  6
CONTINUOUS
 62
     7
 10
243.4383050465
 20
122.2614437223
 30
0.0
 11
253.2383040451
 21
122.2614437223
 31
0.0
  0
LINE
  5
190
  8
0
  6
CONTINUOUS
 62
     7
 10
243.4383050465
 20
121.261444676
 30
0.0
 11
243.4383050465
 21
122.2614437223
 31
0.0
  0
LINE
  5
191
  8
0
  6
CONTINUOUS
 62
     7
 10
253.2383040451
 20
122.2614437223
 30
0.0
 11
253.2383040451
 21
121.261444676
 31
0.0
  0
CIRCLE
  5
192
  8
0
  6
CONTINUOUS
 62
     7
 10
249.3383035921
 20
115.661444676
 30
0.0
 40
1.100000000000023
  0
ARC
  5
193
  8
0
  6
CONTINUOUS
 62
     7
 10
251.2383035921
 20
113.261444676
 30
0.0
 40
2.000000000000028
 50
270.0
 51
0.0
  0
LINE
  5
194
  8
0
  6
CONTINUOUS
 62
     7
 10
251.2383029722
 20
111.2614422918
 30
0.0
 11
245.4383031391
 21
111.2614422918
 31
0.0
  0
ARC
  5
195
  8
0
  6
CONTINUOUS
 62
     7
 10
245.4383035921
 20
113.261444676
 30
0.0
 40
2.0
 50
180.0
 51
270.0
  0
LINE
  5
196
  8
0
  6
CONTINUOUS
 62
     7
 10
243.4383050465
 20
113.2614463449
 30
0.0
 11
243.4383050465
 21
121.261444676
 31
0.0
  0
LINE
  5
197
  8
0
  6
CONTINUOUS
 62
     7
 10
253.2383040451
 20
113.2614463449
 30
0.0
 11
253.2383040451
 21
121.261444676
 31
0.0
  0
LINE
  5
198
  8
0
  6
CONTINUOUS
 62
     7
 10
253.2383040451
 20
130.1042109609
 30
0.0
 11
253.2383040451
 21
125.7960349203
 31
0.0
  0
LINE
  5
199
  8
0
  6
CONTINUOUS
 62
     7
 10
249.8383031153
 20
125.7960349203
 30
0.0
 11
249.8383031153
 21
130.1042109609
 31
0.0
  0
LINE
  5
19A
  8
0
  6
CONTINUOUS
 62
     7
 10
253.2383040451
 20
125.7960349203
 30
0.0
 11
253.2383040451
 21
122.2614437223
 31
0.0
  0
LINE
  5
19B
  8
0
  6
CONTINUOUS
 62
     7
 10
249.8383031153
 20
125.7960349203
 30
0.0
 11
249.8383031153
 21
122.2614437223
 31
0.0
  0
LINE
  5
19C
  8
0
  6
CONTINUOUS
 62
     7
 10
173.838304069
 20
139.2614453912
 30
0.0
 11
173.838304069
 21
130.1042109609
 31
0.0
  0
LINE
  5
19D
  8
0
  6
CONTINUOUS
 62
     7
 10
170.4383031391
 20
139.2614453912
 30
0.0
 11
170.4383031391
 21
130.1042109609
 31
0.0
  0
LINE
  5
19E
  8
0
  6
CONTINUOUS
 62
     7
 10
191.2383035683
 20
138.8614445806
 30
0.0
 11
191.2383035683
 21
126.8614441038
 31
0.0
  0
CIRCLE
  5
19F
  8
0
  6
CONTINUOUS
 62
     7
 10
174.3383035921
 20
115.661444676
 30
0.0
 40
1.100000000000023
  0
ARC
  5
1A0
  8
0
  6
CONTINUOUS
 62
     7
 10
178.2383035921
 20
113.261444676
 30
0.0
 40
2.0
 50
270.0
 51
0.0
  0
LINE
  5
1A1
  8
0
  6
CONTINUOUS
 62
     7
 10
180.2383021378
 20
121.261444676
 30
0.0
 11
180.2383021378
 21
113.2614463449
 31
0.0
  0
ARC
  5
1A2
  8
0
  6
CONTINUOUS
 62
     7
 10
172.4383035921
 20
113.261444676
 30
0.0
 40
2.0
 50
180.0
 51
270.0
  0
LINE
  5
1A3
  8
0
  6
CONTINUOUS
 62
     7
 10
178.2383040451
 20
111.2614422918
 30
0.0
 11
172.438304212
 21
111.2614422918
 31
0.0
  0
LINE
  5
1A4
  8
0
  6
CONTINUOUS
 62
     7
 10
170.4383031391
 20
113.2614463449
 30
0.0
 11
170.4383031391
 21
121.261444676
 31
0.0
  0
LINE
  5
1A5
  8
0
  6
CONTINUOUS
 62
     7
 10
170.4383031391
 20
122.2614437223
 30
0.0
 11
180.2383021378
 21
122.2614437223
 31
0.0
  0
LINE
  5
1A6
  8
0
  6
CONTINUOUS
 62
     7
 10
180.2383021378
 20
122.2614437223
 30
0.0
 11
180.2383021378
 21
121.261444676
 31
0.0
  0
LINE
  5
1A7
  8
0
  6
CONTINUOUS
 62
     7
 10
170.4383031391
 20
121.261444676
 30
0.0
 11
170.4383031391
 21
122.2614437223
 31
0.0
  0
LINE
  5
1A8
  8
0
  6
CONTINUOUS
 62
     7
 10
173.838304069
 20
130.1042109609
 30
0.0
 11
173.838304069
 21
125.7960349203
 31
0.0
  0
LINE
  5
1A9
  8
0
  6
CONTINUOUS
 62
     7
 10
170.4383031391
 20
125.7960349203
 30
0.0
 11
170.4383031391
 21
130.1042109609
 31
0.0
  0
LINE
  5
1AA
  8
0
  6
CONTINUOUS
 62
     7
 10
173.838304069
 20
125.7960349203
 30
0.0
 11
173.838304069
 21
122.2614437223
 31
0.0
  0
LINE
  5
1AB
  8
0
  6
CONTINUOUS
 62
     7
 10
170.4383031391
 20
125.7960349203
 30
0.0
 11
170.4383031391
 21
122.2614437223
 31
0.0
  0
LINE
  5
1AC
  8
0
  6
CONTINUOUS
 62
     7
 10
290.4383049273
 20
139.2614453912
 30
0.0
 11
290.4383049273
 21
130.1042109609
 31
0.0
  0
LINE
  5
1AD
  8
0
  6
CONTINUOUS
 62
     7
 10
293.8383028769
 20
134.0870588899
 30
0.0
 11
293.8383028769
 21
130.1042109609
 31
0.0
  0
LINE
  5
1AE
  8
0
  6
CONTINUOUS
 62
     7
 10
311.2383053564
 20
138.8614445806
 30
0.0
 11
311.2383053564
 21
136.7606252313
 31
0.0
  0
LINE
  5
1AF
  8
0
  6
CONTINUOUS
 62
     7
 10
311.2383053564
 20
131.3473194719
 30
0.0
 11
311.2383053564
 21
126.8614441038
 31
0.0
  0
LINE
  5
1B0
  8
0
  6
CONTINUOUS
 62
     7
 10
290.4383049273
 20
122.2614437223
 30
0.0
 11
300.2383039259
 21
122.2614437223
 31
0.0
  0
LINE
  5
1B1
  8
0
  6
CONTINUOUS
 62
     7
 10
300.2383039259
 20
122.2614437223
 30
0.0
 11
300.2383039259
 21
121.261444676
 31
0.0
  0
LINE
  5
1B2
  8
0
  6
CONTINUOUS
 62
     7
 10
290.4383049273
 20
121.261444676
 30
0.0
 11
290.4383049273
 21
122.2614437223
 31
0.0
  0
ARC
  5
1B3
  8
0
  6
CONTINUOUS
 62
     7
 10
292.4383035921
 20
113.261444676
 30
0.0
 40
2.0
 50
180.0
 51
270.0
  0
LINE
  5
1B4
  8
0
  6
CONTINUOUS
 62
     7
 10
300.2383039259
 20
121.261444676
 30
0.0
 11
300.2383039259
 21
113.2614463449
 31
0.0
  0
ARC
  5
1B5
  8
0
  6
CONTINUOUS
 62
     7
 10
298.2383035921
 20
113.261444676
 30
0.0
 40
2.000000000000057
 50
270.0
 51
0.0
  0
CIRCLE
  5
1B6
  8
0
  6
CONTINUOUS
 62
     7
 10
294.3383035921
 20
115.661444676
 30
0.0
 40
1.099999999999966
  0
LINE
  5
1B7
  8
0
  6
CONTINUOUS
 62
     7
 10
298.2383058333
 20
111.2614422918
 30
0.0
 11
292.4383030199
 21
111.2614422918
 31
0.0
  0
LINE
  5
1B8
  8
0
  6
CONTINUOUS
 62
     7
 10
290.4383049273
 20
113.2614463449
 30
0.0
 11
290.4383049273
 21
121.261444676
 31
0.0
  0
LINE
  5
1B9
  8
0
  6
CONTINUOUS
 62
     7
 10
290.4383049273
 20
125.7960349203
 30
0.0
 11
290.4383049273
 21
130.1042109609
 31
0.0
  0
LINE
  5
1BA
  8
0
  6
CONTINUOUS
 62
     7
 10
293.8383028769
 20
130.1042109609
 30
0.0
 11
293.8383028769
 21
125.7960349203
 31
0.0
  0
LINE
  5
1BB
  8
0
  6
CONTINUOUS
 62
     7
 10
290.4383049273
 20
125.7960349203
 30
0.0
 11
290.4383049273
 21
122.2614437223
 31
0.0
  0
LINE
  5
1BC
  8
0
  6
CONTINUOUS
 62
     7
 10
293.8383028769
 20
125.7960349203
 30
0.0
 11
293.8383028769
 21
122.2614437223
 31
0.0
  0
LINE
  5
1BD
  8
0
  6
CONTINUOUS
 62
     7
 10
50.4383073114
 20
139.2614453912
 30
0.0
 11
50.4383073114
 21
130.1042109609
 31
0.0
  0
LINE
  5
1BE
  8
0
  6
CONTINUOUS
 62
     7
 10
53.8382993006
 20
139.2614453912
 30
0.0
 11
53.8382993006
 21
130.1042109609
 31
0.0
  0
LINE
  5
1BF
  8
0
  6
CONTINUOUS
 62
     7
 10
71.2383017801
 20
138.8614445806
 30
0.0
 11
71.2383017801
 21
126.8614441038
 31
0.0
  0
LINE
  5
1C0
  8
0
  6
CONTINUOUS
 62
     7
 10
50.4383073114
 20
122.2614437223
 30
0.0
 11
60.2383003496
 21
122.2614437223
 31
0.0
  0
LINE
  5
1C1
  8
0
  6
CONTINUOUS
 62
     7
 10
60.2383003496
 20
122.2614437223
 30
0.0
 11
60.2383003496
 21
121.261444676
 31
0.0
  0
LINE
  5
1C2
  8
0
  6
CONTINUOUS
 62
     7
 10
50.4383073114
 20
121.261444676
 30
0.0
 11
50.4383073114
 21
122.2614437223
 31
0.0
  0
CIRCLE
  5
1C3
  8
0
  6
CONTINUOUS
 62
     7
 10
54.3383035921
 20
115.661444676
 30
0.0
 40
1.099999999999987
  0
LINE
  5
1C4
  8
0
  6
CONTINUOUS
 62
     7
 10
58.238302257
 20
111.2614422918
 30
0.0
 11
52.4383054041
 21
111.2614422918
 31
0.0
  0
ARC
  5
1C5
  8
0
  6
CONTINUOUS
 62
     7
 10
52.4383035921
 20
113.261444676
 30
0.0
 40
2.000000000000007
 50
180.0
 51
270.0
  0
LINE
  5
1C6
  8
0
  6
CONTINUOUS
 62
     7
 10
60.2383003496
 20
121.261444676
 30
0.0
 11
60.2383003496
 21
113.2614463449
 31
0.0
  0
ARC
  5
1C7
  8
0
  6
CONTINUOUS
 62
     7
 10
58.2383035921
 20
113.261444676
 30
0.0
 40
2.0
 50
270.0
 51
0.0
  0
LINE
  5
1C8
  8
0
  6
CONTINUOUS
 62
     7
 10
50.4383073114
 20
113.2614463449
 30
0.0
 11
50.4383073114
 21
121.261444676
 31
0.0
  0
LINE
  5
1C9
  8
0
  6
CONTINUOUS
 62
     7
 10
50.4383073114
 20
125.7960349203
 30
0.0
 11
50.4383073114
 21
130.1042109609
 31
0.0
  0
LINE
  5
1CA
  8
0
  6
CONTINUOUS
 62
     7
 10
53.8382993006
 20
130.1042109609
 30
0.0
 11
53.8382993006
 21
125.7960349203
 31
0.0
  0
LINE
  5
1CB
  8
0
  6
CONTINUOUS
 62
     7
 10
50.4383073114
 20
125.7960349203
 30
0.0
 11
50.4383073114
 21
122.2614437223
 31
0.0
  0
LINE
  5
1CC
  8
0
  6
CONTINUOUS
 62
     7
 10
53.8382993006
 20
125.7960349203
 30
0.0
 11
53.8382993006
 21
122.2614437223
 31
0.0
  0
POLYLINE
  5
1CD
  8
0
  6
CONTINUOUS
 62
     7
 66
     1
 10
0.0
 20
0.0
 30
0.0
  0
VERTEX
  5
4DF
  8
0
  6
CONTINUOUS
 62
     7
 10
505.4728720406
 20
217.6799207807
 30
0.0
  0
VERTEX
  5
4E0
  8
0
  6
CONTINUOUS
 62
     7
 10
505.3787712076
 20
218.4198766828
 30
0.0
  0
VERTEX
  5
4E1
  8
0
  6
CONTINUOUS
 62
     7
 10
505.2499610999
 20
219.3284660459
 30
0.0
  0
VERTEX
  5
4E2
  8
0
  6
CONTINUOUS
 62
     7
 10
505.1087368348
 20
220.2297478796
 30
0.0
  0
VERTEX
  5
4E3
  8
0
  6
CONTINUOUS
 62
     7
 10
504.9559179762
 20
221.1178928495
 30
0.0
  0
VERTEX
  5
4E4
  8
0
  6
CONTINUOUS
 62
     7
 10
504.7943715075
 20
221.9787150503
 30
0.0
  0
VERTEX
  5
4E5
  8
0
  6
CONTINUOUS
 62
     7
 10
504.6232748845
 20
222.8196173788
 30
0.0
  0
VERTEX
  5
4E6
  8
0
  6
CONTINUOUS
 62
     7
 10
504.4431377271
 20
223.6391812444
 30
0.0
  0
VERTEX
  5
4E7
  8
0
  6
CONTINUOUS
 62
     7
 10
504.2549241403
 20
224.43359195
 30
0.0
  0
VERTEX
  5
4E8
  8
0
  6
CONTINUOUS
 62
     7
 10
504.059556506
 20
225.199237454
 30
0.0
  0
VERTEX
  5
4E9
  8
0
  6
CONTINUOUS
 62
     7
 10
503.8578290561
 20
225.9328871847
 30
0.0
  0
VERTEX
  5
4EA
  8
0
  6
CONTINUOUS
 62
     7
 10
503.6502692917
 20
226.6319662214
 30
0.0
  0
VERTEX
  5
4EB
  8
0
  6
CONTINUOUS
 62
     7
 10
503.4371275523
 20
227.2942930341
 30
0.0
  0
VERTEX
  5
4EC
  8
0
  6
CONTINUOUS
 62
     7
 10
503.2213065842
 20
227.9106765867
 30
0.0
  0
VERTEX
  5
4ED
  8
0
  6
CONTINUOUS
 62
     7
 10
502.9977891663
 20
228.4939676405
 30
0.0
  0
VERTEX
  5
4EE
  8
0
  6
CONTINUOUS
 62
     7
 10
502.7607698062
 20
229.0527850271
 30
0.0
  0
VERTEX
  5
4EF
  8
0
  6
CONTINUOUS
 62
     7
 10
502.5010142544
 20
229.5953780294
 30
0.0
  0
VERTEX
  5
4F0
  8
0
  6
CONTINUOUS
 62
     7
 10
502.1938923815
 20
230.1437884451
 30
0.0
  0
VERTEX
  5
4F1
  8
0
  6
CONTINUOUS
 62
     7
 10
501.9421298126
 20
230.5207997442
 30
0.0
  0
VERTEX
  5
4F2
  8
0
  6
CONTINUOUS
 62
     7
 10
501.6886208275
 20
230.8398872495
 30
0.0
  0
VERTEX
  5
4F3
  8
0
  6
CONTINUOUS
 62
     7
 10
501.440008364
 20
231.1012059332
 30
0.0
  0
VERTEX
  5
4F4
  8
0
  6
CONTINUOUS
 62
     7
 10
501.1712957242
 20
231.3348680616
 30
0.0
  0
VERTEX
  5
4F5
  8
0
  6
CONTINUOUS
 62
     7
 10
500.8767698029
 20
231.5416723371
 30
0.0
  0
VERTEX
  5
4F6
  8
0
  6
CONTINUOUS
 62
     7
 10
500.5520094255
 20
231.7189961553
 30
0.0
  0
VERTEX
  5
4F7
  8
0
  6
CONTINUOUS
 62
     7
 10
500.1972649315
 20
231.8602591634
 30
0.0
  0
VERTEX
  5
4F8
  8
0
  6
CONTINUOUS
 62
     7
 10
499.8173493961
 20
231.957653153
 30
0.0
  0
VERTEX
  5
4F9
  8
0
  6
CONTINUOUS
 62
     7
 10
499.4203094462
 20
232.0045500875
 30
0.0
  0
VERTEX
  5
4FA
  8
0
  6
CONTINUOUS
 62
     7
 10
498.9718351582
 20
231.9924384237
 30
0.0
  0
VERTEX
  5
4FB
  8
0
  6
CONTINUOUS
 62
     7
 10
498.9188764313
 20
231.9828659177
 30
0.0
  0
SEQEND
  5
AA6
  8
0
  6
CONTINUOUS
 62
     7
  0
POLYLINE
  5
1CE
  8
0
  6
CONTINUOUS
 62
     7
 66
     1
 10
0.0
 20
0.0
 30
0.0
  0
VERTEX
  5
4FC
  8
0
  6
CONTINUOUS
 62
     7
 10
507.4501212755
 20
162.516513455
 30
0.0
  0
VERTEX
  5
4FD
  8
0
  6
CONTINUOUS
 62
     7
 10
507.7168081024
 20
162.5546485067
 30
0.0
  0
VERTEX
  5
4FE
  8
0
  6
CONTINUOUS
 62
     7
 10
508.1124898115
 20
162.6709371687
 30
0.0
  0
VERTEX
  5
4FF
  8
0
  6
CONTINUOUS
 62
     7
 10
508.4741462091
 20
162.8338009
 30
0.0
  0
VERTEX
  5
500
  8
0
  6
CONTINUOUS
 62
     7
 10
508.7981749395
 20
163.0338936926
 30
0.0
  0
VERTEX
  5
501
  8
0
  6
CONTINUOUS
 62
     7
 10
509.083117179
 20
163.2620721937
 30
0.0
  0
VERTEX
  5
502
  8
0
  6
CONTINUOUS
 62
     7
 10
509.3300189892
 20
163.5104805113
 30
0.0
  0
VERTEX
  5
503
  8
0
  6
CONTINUOUS
 62
     7
 10
509.5426160911
 20
163.7742668272
 30
0.0
  0
VERTEX
  5
504
  8
0
  6
CONTINUOUS
 62
     7
 10
509.7268689493
 20
164.0533715368
 30
0.0
  0
VERTEX
  5
505
  8
0
  6
CONTINUOUS
 62
     7
 10
509.8902363399
 20
164.3546730161
 30
0.0
  0
VERTEX
  5
506
  8
0
  6
CONTINUOUS
 62
     7
 10
510.0418906728
 20
164.6976381422
 30
0.0
  0
VERTEX
  5
507
  8
0
  6
CONTINUOUS
 62
     7
 10
510.1859804312
 20
165.1036530615
 30
0.0
  0
VERTEX
  5
508
  8
0
  6
CONTINUOUS
 62
     7
 10
510.3334087947
 20
165.6372457624
 30
0.0
  0
VERTEX
  5
509
  8
0
  6
CONTINUOUS
 62
     7
 10
510.4584906319
 20
166.2314087034
 30
0.0
  0
VERTEX
  5
50A
  8
0
  6
CONTINUOUS
 62
     7
 10
510.5541136185
 20
166.8224245191
 30
0.0
  0
VERTEX
  5
50B
  8
0
  6
CONTINUOUS
 62
     7
 10
510.6370646575
 20
167.4930602194
 30
0.0
  0
VERTEX
  5
50C
  8
0
  6
CONTINUOUS
 62
     7
 10
510.7002902845
 20
168.1800514341
 30
0.0
  0
VERTEX
  5
50D
  8
0
  6
CONTINUOUS
 62
     7
 10
510.7471127132
 20
168.891349423
 30
0.0
  0
VERTEX
  5
50E
  8
0
  6
CONTINUOUS
 62
     7
 10
510.7780780712
 20
169.6128398061
 30
0.0
  0
VERTEX
  5
50F
  8
0
  6
CONTINUOUS
 62
     7
 10
510.7955221155
 20
170.3841477514
 30
0.0
  0
VERTEX
  5
510
  8
0
  6
CONTINUOUS
 62
     7
 10
510.7988122919
 20
171.1871653677
 30
0.0
  0
VERTEX
  5
511
  8
0
  6
CONTINUOUS
 62
     7
 10
510.7879627565
 20
172.0182686926
 30
0.0
  0
VERTEX
  5
512
  8
0
  6
CONTINUOUS
 62
     7
 10
510.7629258254
 20
172.8725105406
 30
0.0
  0
VERTEX
  5
513
  8
0
  6
CONTINUOUS
 62
     7
 10
510.723690323
 20
173.7441450239
 30
0.0
  0
VERTEX
  5
514
  8
0
  6
CONTINUOUS
 62
     7
 10
510.6703262845
 20
174.6269494177
 30
0.0
  0
VERTEX
  5
515
  8
0
  6
CONTINUOUS
 62
     7
 10
510.6030661681
 20
175.5142956854
 30
0.0
  0
VERTEX
  5
516
  8
0
  6
CONTINUOUS
 62
     7
 10
510.5219889501
 20
176.4076501013
 30
0.0
  0
VERTEX
  5
517
  8
0
  6
CONTINUOUS
 62
     7
 10
510.4260962525
 20
177.3180156828
 30
0.0
  0
VERTEX
  5
518
  8
0
  6
CONTINUOUS
 62
     7
 10
510.3470679441
 20
177.9778152586
 30
0.0
  0
SEQEND
  5
AA5
  8
0
  6
CONTINUOUS
 62
     7
  0
LINE
  5
1CF
  8
0
  6
CONTINUOUS
 62
     7
 10
510.349183164
 20
177.9781490446
 30
0.0
 11
505.4744098404
 21
217.6800042272
 31
0.0
  0
POLYLINE
  5
1D0
  8
0
  6
CONTINUOUS
 62
     7
 66
     1
 10
0.0
 20
0.0
 30
0.0
  0
VERTEX
  5
519
  8
0
  6
CONTINUOUS
 62
     7
 10
505.0077308038
 20
177.3224383474
 30
0.0
  0
VERTEX
  5
51A
  8
0
  6
CONTINUOUS
 62
     7
 10
505.0928819993
 20
176.5995055319
 30
0.0
  0
VERTEX
  5
51B
  8
0
  6
CONTINUOUS
 62
     7
 10
505.1792580703
 20
175.7631331564
 30
0.0
  0
VERTEX
  5
51C
  8
0
  6
CONTINUOUS
 62
     7
 10
505.2524063805
 20
174.9365955473
 30
0.0
  0
VERTEX
  5
51D
  8
0
  6
CONTINUOUS
 62
     7
 10
505.3118173102
 20
174.1258770109
 30
0.0
  0
VERTEX
  5
51E
  8
0
  6
CONTINUOUS
 62
     7
 10
505.3575608948
 20
173.3365327001
 30
0.0
  0
VERTEX
  5
51F
  8
0
  6
CONTINUOUS
 62
     7
 10
505.3906489232
 20
172.5615411878
 30
0.0
  0
VERTEX
  5
520
  8
0
  6
CONTINUOUS
 62
     7
 10
505.4111544112
 20
171.806099999
 30
0.0
  0
VERTEX
  5
521
  8
0
  6
CONTINUOUS
 62
     7
 10
505.4191712359
 20
171.079221356
 30
0.0
  0
VERTEX
  5
522
  8
0
  6
CONTINUOUS
 62
     7
 10
505.4150942782
 20
170.3911810995
 30
0.0
  0
VERTEX
  5
523
  8
0
  6
CONTINUOUS
 62
     7
 10
505.3996894577
 20
169.7505503774
 30
0.0
  0
VERTEX
  5
524
  8
0
  6
CONTINUOUS
 62
     7
 10
505.3740669111
 20
169.165363896
 30
0.0
  0
VERTEX
  5
525
  8
0
  6
CONTINUOUS
 62
     7
 10
505.3396929124
 20
168.6385899664
 30
0.0
  0
VERTEX
  5
526
  8
0
  6
CONTINUOUS
 62
     7
 10
505.2966419676
 20
168.1523114324
 30
0.0
  0
VERTEX
  5
527
  8
0
  6
CONTINUOUS
 62
     7
 10
505.2478600362
 20
167.7282243848
 30
0.0
  0
VERTEX
  5
528
  8
0
  6
CONTINUOUS
 62
     7
 10
505.1957357744
 20
167.3697024465
 30
0.0
  0
VERTEX
  5
529
  8
0
  6
CONTINUOUS
 62
     7
 10
505.1438067177
 20
167.0825987936
 30
0.0
  0
VERTEX
  5
52A
  8
0
  6
CONTINUOUS
 62
     7
 10
505.1017735222
 20
166.8920308233
 30
0.0
  0
VERTEX
  5
52B
  8
0
  6
CONTINUOUS
 62
     7
 10
505.0683591584
 20
166.7654663206
 30
0.0
  0
VERTEX
  5
52C
  8
0
  6
CONTINUOUS
 62
     7
 10
505.0476376036
 20
166.6993647695
 30
0.0
  0
VERTEX
  5
52D
  8
0
  6
CONTINUOUS
 62
     7
 10
505.044716976
 20
166.6911035658
 30
0.0
  0
SEQEND
  5
AA4
  8
0
  6
CONTINUOUS
 62
     7
  0
POLYLINE
  5
1D1
  8
0
  6
CONTINUOUS
 62
     7
 66
     1
 10
0.0
 20
0.0
 30
0.0
  0
VERTEX
  5
52E
  8
0
  6
CONTINUOUS
 62
     7
 10
497.5949514726
 20
227.3511439443
 30
0.0
  0
VERTEX
  5
52F
  8
0
  6
CONTINUOUS
 62
     7
 10
497.5936759332
 20
227.3527413488
 30
0.0
  0
VERTEX
  5
530
  8
0
  6
CONTINUOUS
 62
     7
 10
497.6190228084
 20
227.3125797392
 30
0.0
  0
VERTEX
  5
531
  8
0
  6
CONTINUOUS
 62
     7
 10
497.6709667662
 20
227.2215157629
 30
0.0
  0
VERTEX
  5
532
  8
0
  6
CONTINUOUS
 62
     7
 10
497.7479208329
 20
227.0725875974
 30
0.0
  0
VERTEX
  5
533
  8
0
  6
CONTINUOUS
 62
     7
 10
497.8477034787
 20
226.8604427458
 30
0.0
  0
VERTEX
  5
534
  8
0
  6
CONTINUOUS
 62
     7
 10
497.9673642734
 20
226.5822440267
 30
0.0
  0
VERTEX
  5
535
  8
0
  6
CONTINUOUS
 62
     7
 10
498.1033433297
 20
226.2380272031
 30
0.0
  0
VERTEX
  5
536
  8
0
  6
CONTINUOUS
 62
     7
 10
498.251769326
 20
225.8303910375
 30
0.0
  0
VERTEX
  5
537
  8
0
  6
CONTINUOUS
 62
     7
 10
498.4087605098
 20
225.3639727712
 30
0.0
  0
VERTEX
  5
538
  8
0
  6
CONTINUOUS
 62
     7
 10
498.5707674244
 20
224.8443752409
 30
0.0
  0
VERTEX
  5
539
  8
0
  6
CONTINUOUS
 62
     7
 10
498.7347025493
 20
224.2783456922
 30
0.0
  0
VERTEX
  5
53A
  8
0
  6
CONTINUOUS
 62
     7
 10
498.9011574605
 20
223.6606985212
 30
0.0
  0
VERTEX
  5
53B
  8
0
  6
CONTINUOUS
 62
     7
 10
499.0676749566
 20
222.9967266203
 30
0.0
  0
VERTEX
  5
53C
  8
0
  6
CONTINUOUS
 62
     7
 10
499.2320422152
 20
222.2918182493
 30
0.0
  0
VERTEX
  5
53D
  8
0
  6
CONTINUOUS
 62
     7
 10
499.3921924451
 20
221.5516239286
 30
0.0
  0
VERTEX
  5
53E
  8
0
  6
CONTINUOUS
 62
     7
 10
499.5462108472
 20
220.7819968343
 30
0.0
  0
VERTEX
  5
53F
  8
0
  6
CONTINUOUS
 62
     7
 10
499.6923212031
 20
219.9890762449
 30
0.0
  0
VERTEX
  5
540
  8
0
  6
CONTINUOUS
 62
     7
 10
499.8287905076
 20
219.1799670339
 30
0.0
  0
VERTEX
  5
541
  8
0
  6
CONTINUOUS
 62
     7
 10
499.9543223599
 20
218.3620840192
 30
0.0
  0
VERTEX
  5
542
  8
0
  6
CONTINUOUS
 62
     7
 10
500.0694368103
 20
217.5323277593
 30
0.0
  0
VERTEX
  5
543
  8
0
  6
CONTINUOUS
 62
     7
 10
500.1325700501
 20
217.0240670324
 30
0.0
  0
SEQEND
  5
AA3
  8
0
  6
CONTINUOUS
 62
     7
  0
LINE
  5
1D2
  8
0
  6
CONTINUOUS
 62
     7
 10
500.1345116714
 20
217.0243412138
 30
0.0
 11
505.0092849949
 21
177.322497952
 31
0.0
  0
LINE
  5
1D3
  8
0
  6
CONTINUOUS
 62
     7
 10
499.6171090821
 20
220.3972488523
 30
0.0
 11
505.3237024763
 21
173.9207655073
 31
0.0
  0
ARC
  5
1D4
  8
0
  6
CONTINUOUS
 62
     7
 10
497.5400255808
 20
229.1082263281
 30
0.0
 40
2.689999999999995
 50
97.0
 51
165.4352045702
  0
ARC
  5
1D5
  8
0
  6
CONTINUOUS
 62
     7
 10
497.5400255808
 20
229.1082263281
 30
0.0
 40
2.690000000000005
 50
208.5742842993
 51
277.0
  0
ARC
  5
1D6
  8
0
  6
CONTINUOUS
 62
     7
 10
505.4152225516
 20
164.969894009
 30
0.0
 40
2.689999999999988
 50
97.0
 51
165.4352045702
  0
ARC
  5
1D7
  8
0
  6
CONTINUOUS
 62
     7
 10
505.4152225516
 20
164.969894009
 30
0.0
 40
2.690000000000105
 50
208.5742842993
 51
277.0
  0
LINE
  5
1D8
  8
0
  6
CONTINUOUS
 62
     7
 10
494.6366030792
 20
227.7442246557
 30
0.0
 11
495.1791722396
 21
227.8108388067
 31
0.0
  0
LINE
  5
1D9
  8
0
  6
CONTINUOUS
 62
     7
 10
494.935433946
 20
229.7959357382
 30
0.0
 11
494.3928647855
 21
229.7293096662
 31
0.0
  0
LINE
  5
1DA
  8
0
  6
CONTINUOUS
 62
     7
 10
502.5117997149
 20
163.6058837057
 30
0.0
 11
503.0543703655
 21
163.6725097776
 31
0.0
  0
LINE
  5
1DB
  8
0
  6
CONTINUOUS
 62
     7
 10
502.8106305817
 20
165.6575947881
 30
0.0
 11
502.2680614212
 21
165.5909806371
 31
0.0
  0
POLYLINE
  5
1DC
  8
0
  6
CONTINUOUS
 62
     7
 66
     1
 10
0.0
 20
0.0
 30
0.0
  0
VERTEX
  5
544
  8
0
  6
CONTINUOUS
 62
     7
 10
524.1465654293
 20
212.7042919279
 30
0.0
  0
VERTEX
  5
545
  8
0
  6
CONTINUOUS
 62
     7
 10
523.877776421
 20
212.7224236608
 30
0.0
  0
VERTEX
  5
546
  8
0
  6
CONTINUOUS
 62
     7
 10
523.4665639767
 20
212.6909524084
 30
0.0
  0
VERTEX
  5
547
  8
0
  6
CONTINUOUS
 62
     7
 10
523.0789490113
 20
212.6068383337
 30
0.0
  0
VERTEX
  5
548
  8
0
  6
CONTINUOUS
 62
     7
 10
522.7203998783
 20
212.4784856916
 30
0.0
  0
VERTEX
  5
549
  8
0
  6
CONTINUOUS
 62
     7
 10
522.3942440072
 20
212.3145371557
 30
0.0
  0
VERTEX
  5
54A
  8
0
  6
CONTINUOUS
 62
     7
 10
522.1010889927
 20
212.1228843809
 30
0.0
  0
VERTEX
  5
54B
  8
0
  6
CONTINUOUS
 62
     7
 10
521.8382949078
 20
211.9090705991
 30
0.0
  0
VERTEX
  5
54C
  8
0
  6
CONTINUOUS
 62
     7
 10
521.6000393102
 20
211.6743713499
 30
0.0
  0
VERTEX
  5
54D
  8
0
  6
CONTINUOUS
 62
     7
 10
521.3775988737
 20
211.4136367918
 30
0.0
  0
VERTEX
  5
54E
  8
0
  6
CONTINUOUS
 62
     7
 10
521.1579512873
 20
211.1096888662
 30
0.0
  0
VERTEX
  5
54F
  8
0
  6
CONTINUOUS
 62
     7
 10
520.9325939486
 20
210.7425004125
 30
0.0
  0
VERTEX
  5
550
  8
0
  6
CONTINUOUS
 62
     7
 10
520.6774476984
 20
210.2512150884
 30
0.0
  0
VERTEX
  5
551
  8
0
  6
CONTINUOUS
 62
     7
 10
520.4315658727
 20
209.6960455061
 30
0.0
  0
VERTEX
  5
552
  8
0
  6
CONTINUOUS
 62
     7
 10
520.215154353
 20
209.1378360868
 30
0.0
  0
VERTEX
  5
553
  8
0
  6
CONTINUOUS
 62
     7
 10
519.994581777
 20
208.4990888715
 30
0.0
  0
VERTEX
  5
554
  8
0
  6
CONTINUOUS
 62
     7
 10
519.7899055736
 20
207.8402668119
 30
0.0
  0
VERTEX
  5
555
  8
0
  6
CONTINUOUS
 62
     7
 10
519.5962180918
 20
207.1542411924
 30
0.0
  0
VERTEX
  5
556
  8
0
  6
CONTINUOUS
 62
     7
 10
519.4159224698
 20
206.4549594999
 30
0.0
  0
VERTEX
  5
557
  8
0
  6
CONTINUOUS
 62
     7
 10
519.2384960664
 20
205.7041317106
 30
0.0
  0
VERTEX
  5
558
  8
0
  6
CONTINUOUS
 62
     7
 10
519.0683223143
 20
204.9193531156
 30
0.0
  0
VERTEX
  5
559
  8
0
  6
CONTINUOUS
 62
     7
 10
518.9061388617
 20
204.10415231
 30
0.0
  0
VERTEX
  5
55A
  8
0
  6
CONTINUOUS
 62
     7
 10
518.7530194536
 20
203.2633572698
 30
0.0
  0
VERTEX
  5
55B
  8
0
  6
CONTINUOUS
 62
     7
 10
518.6101768002
 20
202.4026304365
 30
0.0
  0
VERTEX
  5
55C
  8
0
  6
CONTINUOUS
 62
     7
 10
518.4788277209
 20
201.5280157209
 30
0.0
  0
VERTEX
  5
55D
  8
0
  6
CONTINUOUS
 62
     7
 10
518.3601301232
 20
200.646081555
 30
0.0
  0
VERTEX
  5
55E
  8
0
  6
CONTINUOUS
 62
     7
 10
518.2536950404
 20
199.7553855062
 30
0.0
  0
VERTEX
  5
55F
  8
0
  6
CONTINUOUS
 62
     7
 10
518.1582163622
 20
198.844972241
 30
0.0
  0
VERTEX
  5
560
  8
0
  6
CONTINUOUS
 62
     7
 10
518.0983375361
 20
198.1831580282
 30
0.0
  0
SEQEND
  5
AA2
  8
0
  6
CONTINUOUS
 62
     7
  0
ARC
  5
1DD
  8
0
  6
CONTINUOUS
 62
     7
 10
567.6738759536
 20
153.2881571909
 30
0.0
 40
53.30187497096083
 50
174.5666044052
 51
183.8213552243
  0
LINE
  5
1DE
  8
0
  6
CONTINUOUS
 62
     7
 10
518.0961988004
 20
198.1832653166
 30
0.0
 11
514.6099690417
 21
158.3354860426
 31
0.0
  0
POLYLINE
  5
1DF
  8
0
  6
CONTINUOUS
 62
     7
 66
     1
 10
0.0
 20
0.0
 30
0.0
  0
VERTEX
  5
561
  8
0
  6
CONTINUOUS
 62
     7
 10
523.4572585741
 20
197.7141052366
 30
0.0
  0
VERTEX
  5
562
  8
0
  6
CONTINUOUS
 62
     7
 10
523.5242750564
 20
198.4389454008
 30
0.0
  0
VERTEX
  5
563
  8
0
  6
CONTINUOUS
 62
     7
 10
523.6136782983
 20
199.2750078321
 30
0.0
  0
VERTEX
  5
564
  8
0
  6
CONTINUOUS
 62
     7
 10
523.7139750341
 20
200.0986844183
 30
0.0
  0
VERTEX
  5
565
  8
0
  6
CONTINUOUS
 62
     7
 10
523.8244209507
 20
200.9040385366
 30
0.0
  0
VERTEX
  5
566
  8
0
  6
CONTINUOUS
 62
     7
 10
523.9437896827
 20
201.6856461645
 30
0.0
  0
VERTEX
  5
567
  8
0
  6
CONTINUOUS
 62
     7
 10
524.0725539693
 20
202.4505764127
 30
0.0
  0
VERTEX
  5
568
  8
0
  6
CONTINUOUS
 62
     7
 10
524.2095619509
 20
203.1937748075
 30
0.0
  0
VERTEX
  5
569
  8
0
  6
CONTINUOUS
 62
     7
 10
524.3528474191
 20
203.9064437032
 30
0.0
  0
VERTEX
  5
56A
  8
0
  6
CONTINUOUS
 62
     7
 10
524.4998868624
 20
204.5786052824
 30
0.0
  0
VERTEX
  5
56B
  8
0
  6
CONTINUOUS
 62
     7
 10
524.6481485734
 20
205.202022183
 30
0.0
  0
VERTEX
  5
56C
  8
0
  6
CONTINUOUS
 62
     7
 10
524.7948788175
 20
205.7691007734
 30
0.0
  0
VERTEX
  5
56D
  8
0
  6
CONTINUOUS
 62
     7
 10
524.9380249599
 20
206.2772184492
 30
0.0
  0
VERTEX
  5
56E
  8
0
  6
CONTINUOUS
 62
     7
 10
525.0812359223
 20
206.7439108968
 30
0.0
  0
VERTEX
  5
56F
  8
0
  6
CONTINUOUS
 62
     7
 10
525.2171251992
 20
207.1485906721
 30
0.0
  0
VERTEX
  5
570
  8
0
  6
CONTINUOUS
 62
     7
 10
525.3426525811
 20
207.4884444357
 30
0.0
  0
VERTEX
  5
571
  8
0
  6
CONTINUOUS
 62
     7
 10
525.4531394759
 20
207.7584773184
 30
0.0
  0
VERTEX
  5
572
  8
0
  6
CONTINUOUS
 62
     7
 10
525.5338747123
 20
207.9361349226
 30
0.0
  0
VERTEX
  5
573
  8
0
  6
CONTINUOUS
 62
     7
 10
525.5928728798
 20
208.0529838682
 30
0.0
  0
VERTEX
  5
574
  8
0
  6
CONTINUOUS
 62
     7
 10
525.6268847802
 20
208.1133395315
 30
0.0
  0
VERTEX
  5
575
  8
0
  6
CONTINUOUS
 62
     7
 10
525.6314609268
 20
208.1208139539
 30
0.0
  0
SEQEND
  5
AA1
  8
0
  6
CONTINUOUS
 62
     7
  0
LINE
  5
1E0
  8
0
  6
CONTINUOUS
 62
     7
 10
520.9282098407
 20
168.8247233511
 30
0.0
 11
523.4557263622
 21
197.714367497
 31
0.0
  0
LINE
  5
1E1
  8
0
  6
CONTINUOUS
 62
     7
 10
521.0303116659
 20
168.8157945753
 30
0.0
 11
523.8554380903
 21
201.1071354032
 31
0.0
  0
ARC
  5
1E2
  8
0
  6
CONTINUOUS
 62
     7
 10
525.6269100124
 20
209.8814412438
 30
0.0
 40
2.690000000000159
 50
265.0
 51
355.0
  0
ARC
  5
1E3
  8
0
  6
CONTINUOUS
 62
     7
 10
525.6269100124
 20
209.8814412438
 30
0.0
 40
2.690000000000007
 50
355.0
 51
85.0
  0
POLYLINE
  5
1E4
  8
0
  6
CONTINUOUS
 62
     7
 66
     1
 10
0.0
 20
0.0
 30
0.0
  0
VERTEX
  5
576
  8
0
  6
CONTINUOUS
 62
     7
 10
598.9298138836
 20
134.6301942945
 30
0.0
  0
VERTEX
  5
577
  8
0
  6
CONTINUOUS
 62
     7
 10
598.9244554261
 20
134.8995417238
 30
0.0
  0
VERTEX
  5
578
  8
0
  6
CONTINUOUS
 62
     7
 10
598.8572571495
 20
135.3064447523
 30
0.0
  0
VERTEX
  5
579
  8
0
  6
CONTINUOUS
 62
     7
 10
598.7396810273
 20
135.6852561117
 30
0.0
  0
VERTEX
  5
57A
  8
0
  6
CONTINUOUS
 62
     7
 10
598.580578349
 20
136.0312551141
 30
0.0
  0
VERTEX
  5
57B
  8
0
  6
CONTINUOUS
 62
     7
 10
598.3888242462
 20
136.3418787599
 30
0.0
  0
VERTEX
  5
57C
  8
0
  6
CONTINUOUS
 62
     7
 10
598.1723520973
 20
136.617216456
 30
0.0
  0
VERTEX
  5
57D
  8
0
  6
CONTINUOUS
 62
     7
 10
597.9364428738
 20
136.8603736044
 30
0.0
  0
VERTEX
  5
57E
  8
0
  6
CONTINUOUS
 62
     7
 10
597.6818773964
 20
137.0772689462
 30
0.0
  0
VERTEX
  5
57F
  8
0
  6
CONTINUOUS
 62
     7
 10
597.402736924
 20
137.2761338831
 30
0.0
  0
VERTEX
  5
580
  8
0
  6
CONTINUOUS
 62
     7
 10
597.0808062771
 20
137.4684601904
 30
0.0
  0
VERTEX
  5
581
  8
0
  6
CONTINUOUS
 62
     7
 10
596.6953728417
 20
137.6609533907
 30
0.0
  0
VERTEX
  5
582
  8
0
  6
CONTINUOUS
 62
     7
 10
596.1837265709
 20
137.872311461
 30
0.0
  0
VERTEX
  5
583
  8
0
  6
CONTINUOUS
 62
     7
 10
595.6092391232
 20
138.0688696981
 30
0.0
  0
VERTEX
  5
584
  8
0
  6
CONTINUOUS
 62
     7
 10
595.0342807988
 20
138.2358103872
 30
0.0
  0
VERTEX
  5
585
  8
0
  6
CONTINUOUS
 62
     7
 10
594.3787489155
 20
138.3998721719
 30
0.0
  0
VERTEX
  5
586
  8
0
  6
CONTINUOUS
 62
     7
 10
593.7045905808
 20
138.5463505865
 30
0.0
  0
VERTEX
  5
587
  8
0
  6
CONTINUOUS
 62
     7
 10
593.0042956093
 20
138.6795073629
 30
0.0
  0
VERTEX
  5
588
  8
0
  6
CONTINUOUS
 62
     7
 10
592.2919545391
 20
138.7981682897
 30
0.0
  0
VERTEX
  5
589
  8
0
  6
CONTINUOUS
 62
     7
 10
591.5285203675
 20
138.9094859243
 30
0.0
  0
VERTEX
  5
58A
  8
0
  6
CONTINUOUS
 62
     7
 10
590.7318983296
 20
139.0106111646
 30
0.0
  0
VERTEX
  5
58B
  8
0
  6
CONTINUOUS
 62
     7
 10
589.9056647042
 20
139.1011267782
 30
0.0
  0
VERTEX
  5
58C
  8
0
  6
CONTINUOUS
 62
     7
 10
589.054730914
 20
139.1803830743
 30
0.0
  0
VERTEX
  5
58D
  8
0
  6
CONTINUOUS
 62
     7
 10
588.1848249653
 20
139.2476647974
 30
0.0
  0
VERTEX
  5
58E
  8
0
  6
CONTINUOUS
 62
     7
 10
587.3020861367
 20
139.3022864938
 30
0.0
  0
VERTEX
  5
58F
  8
0
  6
CONTINUOUS
 62
     7
 10
586.4131663063
 20
139.3436699987
 30
0.0
  0
VERTEX
  5
590
  8
0
  6
CONTINUOUS
 62
     7
 10
585.5165872792
 20
139.3720716119
 30
0.0
  0
VERTEX
  5
591
  8
0
  6
CONTINUOUS
 62
     7
 10
584.6013162354
 20
139.3878370405
 30
0.0
  0
VERTEX
  5
592
  8
0
  6
CONTINUOUS
 62
     7
 10
583.9368019322
 20
139.3898099542
 30
0.0
  0
SEQEND
  5
AA0
  8
0
  6
CONTINUOUS
 62
     7
  0
ARC
  5
1E5
  8
0
  6
CONTINUOUS
 62
     7
 10
543.5334384757
 20
86.0899454862
 30
0.0
 40
53.3019913457195
 50
89.5666054273
 51
98.8213361357
  0
LINE
  5
1E6
  8
0
  6
CONTINUOUS
 62
     7
 10
583.9367304066
 20
139.391949761
 30
0.0
 11
543.9367268303
 21
139.391949761
 31
0.0
  0
POLYLINE
  5
1E7
  8
0
  6
CONTINUOUS
 62
     7
 66
     1
 10
0.0
 20
0.0
 30
0.0
  0
VERTEX
  5
593
  8
0
  6
CONTINUOUS
 62
     7
 10
583.9365992764
 20
134.0103953958
 30
0.0
  0
VERTEX
  5
594
  8
0
  6
CONTINUOUS
 62
     7
 10
584.6645210007
 20
134.0068131567
 30
0.0
  0
VERTEX
  5
595
  8
0
  6
CONTINUOUS
 62
     7
 10
585.5051908711
 20
133.9906126142
 30
0.0
  0
VERTEX
  5
596
  8
0
  6
CONTINUOUS
 62
     7
 10
586.3344762543
 20
133.9624911428
 30
0.0
  0
VERTEX
  5
597
  8
0
  6
CONTINUOUS
 62
     7
 10
587.146392844
 20
133.9226513982
 30
0.0
  0
VERTEX
  5
598
  8
0
  6
CONTINUOUS
 62
     7
 10
587.9354212502
 20
133.8718622804
 30
0.0
  0
VERTEX
  5
599
  8
0
  6
CONTINUOUS
 62
     7
 10
588.7086663464
 20
133.8102549196
 30
0.0
  0
VERTEX
  5
59A
  8
0
  6
CONTINUOUS
 62
     7
 10
589.4609842518
 20
133.7385445715
 30
0.0
  0
VERTEX
  5
59B
  8
0
  6
CONTINUOUS
 62
     7
 10
590.1834223488
 20
133.6579173685
 30
0.0
  0
VERTEX
  5
59C
  8
0
  6
CONTINUOUS
 62
     7
 10
590.8658418873
 20
133.5700183988
 30
0.0
  0
VERTEX
  5
59D
  8
0
  6
CONTINUOUS
 62
     7
 10
591.4998088101
 20
133.4766536833
 30
0.0
  0
VERTEX
  5
59E
  8
0
  6
CONTINUOUS
 62
     7
 10
592.0775149086
 20
133.3799093843
 30
0.0
  0
VERTEX
  5
59F
  8
0
  6
CONTINUOUS
 62
     7
 10
592.5961766461
 20
133.2815915228
 30
0.0
  0
VERTEX
  5
5A0
  8
0
  6
CONTINUOUS
 62
     7
 10
593.0735740879
 20
133.1796020151
 30
0.0
  0
VERTEX
  5
5A1
  8
0
  6
CONTINUOUS
 62
     7
 10
593.4885595063
 20
133.0794960142
 30
0.0
  0
VERTEX
  5
5A2
  8
0
  6
CONTINUOUS
 62
     7
 10
593.8380573014
 20
132.9840689779
 30
0.0
  0
VERTEX
  5
5A3
  8
0
  6
CONTINUOUS
 62
     7
 10
594.1166970948
 20
132.8975349546
 30
0.0
  0
VERTEX
  5
5A4
  8
0
  6
CONTINUOUS
 62
     7
 10
594.300720475
 20
132.8325956941
 30
0.0
  0
VERTEX
  5
5A5
  8
0
  6
CONTINUOUS
 62
     7
 10
594.4222662667
 20
132.7840059877
 30
0.0
  0
VERTEX
  5
5A6
  8
0
  6
CONTINUOUS
 62
     7
 10
594.4853458622
 20
132.7553778768
 30
0.0
  0
VERTEX
  5
5A7
  8
0
  6
CONTINUOUS
 62
     7
 10
594.4931957939
 20
132.7514737726
 30
0.0
  0
SEQEND
  5
A9F
  8
0
  6
CONTINUOUS
 62
     7
  0
LINE
  5
1E8
  8
0
  6
CONTINUOUS
 62
     7
 10
554.9367282608
 20
134.0119451166
 30
0.0
 11
583.9367304066
 21
134.0119451166
 31
0.0
  0
LINE
  5
1E9
  8
0
  6
CONTINUOUS
 62
     7
 10
554.9367282608
 20
133.9094549299
 30
0.0
 11
587.3514149407
 21
133.9094549299
 31
0.0
  0
ARC
  5
1EA
  8
0
  6
CONTINUOUS
 62
     7
 10
596.2467281178
 20
132.9094559505
 30
0.0
 40
2.690000000000055
 50
180.0
 51
270.0
  0
ARC
  5
1EB
  8
0
  6
CONTINUOUS
 62
     7
 10
596.2467281178
 20
132.9094559505
 30
0.0
 40
2.690000000000055
 50
270.0
 51
0.0
  0
LINE
  5
1EC
  8
0
  6
CONTINUOUS
 62
     7
 10
514.8367282072
 20
121.4614421011
 30
0.0
 11
522.8367280284
 21
121.4614421011
 31
0.0
  0
ARC
  5
1ED
  8
0
  6
CONTINUOUS
 62
     7
 10
514.8367281178
 20
112.461444676
 30
0.0
 40
1.0
 50
180.0
 51
270.0
  0
ARC
  5
1EE
  8
0
  6
CONTINUOUS
 62
     7
 10
514.8367281178
 20
120.461444676
 30
0.0
 40
1.000000000000014
 50
90.0
 51
180.0
  0
LINE
  5
1EF
  8
0
  6
CONTINUOUS
 62
     7
 10
513.8367280433
 20
112.4614447237
 30
0.0
 11
513.8367280433
 21
120.4614430547
 31
0.0
  0
LINE
  5
1F0
  8
0
  6
CONTINUOUS
 62
     7
 10
522.8367280284
 20
111.4614456773
 30
0.0
 11
514.8367282072
 21
111.4614456773
 31
0.0
  0
ARC
  5
1F1
  8
0
  6
CONTINUOUS
 62
     7
 10
522.8367281178
 20
112.461444676
 30
0.0
 40
1.0
 50
270.0
 51
0.0
  0
ARC
  5
1F2
  8
0
  6
CONTINUOUS
 62
     7
 10
522.8367281178
 20
120.461444676
 30
0.0
 40
1.000000000000014
 50
0.0
 51
90.0
  0
LINE
  5
1F3
  8
0
  6
CONTINUOUS
 62
     7
 10
523.8367281923
 20
120.4614430547
 30
0.0
 11
523.8367281923
 21
112.4614447237
 31
0.0
  0
LINE
  5
1F4
  8
0
  6
CONTINUOUS
 62
     7
 10
510.8367282966
 20
46.261444676
 30
0.0
 11
506.836728386
 21
46.261444676
 31
0.0
  0
LINE
  5
1F5
  8
0
  6
CONTINUOUS
 62
     7
 10
506.836728386
 20
46.261444676
 30
0.0
 11
506.836728386
 21
47.4614446864
 31
0.0
  0
LINE
  5
1F6
  8
0
  6
CONTINUOUS
 62
     7
 10
506.836728386
 20
47.4614446864
 30
0.0
 11
510.8367282966
 21
47.4614446864
 31
0.0
  0
LINE
  5
1F7
  8
0
  6
CONTINUOUS
 62
     7
 10
510.8367282966
 20
46.261444676
 30
0.0
 11
512.8367282519
 21
46.261444676
 31
0.0
  0
LINE
  5
1F8
  8
0
  6
CONTINUOUS
 62
     7
 10
510.8367282966
 20
47.4614446864
 30
0.0
 11
512.8367282519
 21
47.4614446864
 31
0.0
  0
LINE
  5
1F9
  8
0
  6
CONTINUOUS
 62
     7
 10
512.8367282519
 20
46.261444676
 30
0.0
 11
540.205149732
 21
46.261444676
 31
0.0
  0
LINE
  5
1FA
  8
0
  6
CONTINUOUS
 62
     7
 10
540.205149732
 20
47.4614446864
 30
0.0
 11
512.8367282519
 21
47.4614446864
 31
0.0
  0
LINE
  5
1FB
  8
0
  6
CONTINUOUS
 62
     7
 10
542.8367275813
 20
47.4614446864
 30
0.0
 11
542.8367275813
 21
46.261444676
 31
0.0
  0
LINE
  5
1FC
  8
0
  6
CONTINUOUS
 62
     7
 10
542.8367275813
 20
46.261444676
 30
0.0
 11
540.205149732
 21
46.261444676
 31
0.0
  0
LINE
  5
1FD
  8
0
  6
CONTINUOUS
 62
     7
 10
540.205149732
 20
47.4614446864
 30
0.0
 11
542.8367275813
 21
47.4614446864
 31
0.0
  0
LINE
  5
1FE
  8
0
  6
CONTINUOUS
 62
     7
 10
513.8367280433
 20
47.4614446864
 30
0.0
 11
513.8367280433
 21
111.2614422918
 31
0.0
  0
LINE
  5
1FF
  8
0
  6
CONTINUOUS
 62
     7
 10
523.8367281923
 20
112.4614447237
 30
0.0
 11
523.8367281923
 21
47.4614446864
 31
0.0
  0
POLYLINE
  5
200
  8
0
  6
CONTINUOUS
 62
     7
 66
     1
 10
0.0
 20
0.0
 30
0.0
  0
VERTEX
  5
5A8
  8
0
  6
CONTINUOUS
 62
     7
 10
498.9172253826
 20
231.987527001
 30
0.0
  0
VERTEX
  5
5A9
  8
0
  6
CONTINUOUS
 62
     7
 10
498.4653834322
 20
231.9320469976
 30
0.0
  0
VERTEX
  5
5AA
  8
0
  6
CONTINUOUS
 62
     7
 10
498.0827663163
 20
231.8850666166
 30
0.0
  0
VERTEX
  5
5AB
  8
0
  6
CONTINUOUS
 62
     7
 10
497.7695200661
 20
231.8466096998
 30
0.0
  0
VERTEX
  5
5AC
  8
0
  6
CONTINUOUS
 62
     7
 10
497.5257594207
 20
231.8166762472
 30
0.0
  0
VERTEX
  5
5AD
  8
0
  6
CONTINUOUS
 62
     7
 10
497.3515797475
 20
231.7952901006
 30
0.0
  0
VERTEX
  5
5AE
  8
0
  6
CONTINUOUS
 62
     7
 10
497.2470466116
 20
231.7824512602
 30
0.0
  0
VERTEX
  5
5AF
  8
0
  6
CONTINUOUS
 62
     7
 10
497.2121972659
 20
231.7781716467
 30
0.0
  0
SEQEND
  5
A9E
  8
0
  6
CONTINUOUS
 62
     7
  0
ARC
  5
201
  8
0
  6
CONTINUOUS
 62
     7
 10
497.5640811002
 20
229.1135643141
 30
0.0
 40
2.711877846194782
 50
165.6589414935
 51
187.0498969926
  0
POLYLINE
  5
202
  8
0
  6
CONTINUOUS
 62
     7
 66
     1
 10
0.0
 20
0.0
 30
0.0
  0
VERTEX
  5
5B0
  8
0
  6
CONTINUOUS
 62
     7
 10
497.8678543189
 20
226.4382749677
 30
0.0
  0
VERTEX
  5
5B1
  8
0
  6
CONTINUOUS
 62
     7
 10
497.9027036646
 20
226.4425545812
 30
0.0
  0
VERTEX
  5
5B2
  8
0
  6
CONTINUOUS
 62
     7
 10
497.9832474211
 20
226.4524489523
 30
0.0
  0
SEQEND
  5
A9D
  8
0
  6
CONTINUOUS
 62
     7
  0
POLYLINE
  5
203
  8
0
  6
CONTINUOUS
 62
     7
 66
     1
 10
0.0
 20
0.0
 30
0.0
  0
VERTEX
  5
5B3
  8
0
  6
CONTINUOUS
 62
     7
 10
495.1778370956
 20
227.8214722753
 30
0.0
  0
VERTEX
  5
5B4
  8
0
  6
CONTINUOUS
 62
     7
 10
495.1813850621
 20
227.8148561598
 30
0.0
  0
VERTEX
  5
5B5
  8
0
  6
CONTINUOUS
 62
     7
 10
495.1439950684
 20
227.886298287
 30
0.0
  0
VERTEX
  5
5B6
  8
0
  6
CONTINUOUS
 62
     7
 10
495.0698319891
 20
228.0460029722
 30
0.0
  0
VERTEX
  5
5B7
  8
0
  6
CONTINUOUS
 62
     7
 10
494.9774805525
 20
228.2965212942
 30
0.0
  0
VERTEX
  5
5B8
  8
0
  6
CONTINUOUS
 62
     7
 10
494.8987040737
 20
228.6125331999
 30
0.0
  0
VERTEX
  5
5B9
  8
0
  6
CONTINUOUS
 62
     7
 10
494.8727060178
 20
228.7807255865
 30
0.0
  0
SEQEND
  5
A9C
  8
0
  6
CONTINUOUS
 62
     7
  0
POLYLINE
  5
204
  8
0
  6
CONTINUOUS
 62
     7
 66
     1
 10
0.0
 20
0.0
 30
0.0
  0
VERTEX
  5
5BA
  8
0
  6
CONTINUOUS
 62
     7
 10
505.2040819147
 20
167.6541715742
 30
0.0
  0
VERTEX
  5
5BB
  8
0
  6
CONTINUOUS
 62
     7
 10
505.1222432473
 20
167.6441222311
 30
0.0
  0
VERTEX
  5
5BC
  8
0
  6
CONTINUOUS
 62
     7
 10
505.0873939017
 20
167.6398426176
 30
0.0
  0
SEQEND
  5
A9B
  8
0
  6
CONTINUOUS
 62
     7
  0
ARC
  5
205
  8
0
  6
CONTINUOUS
 62
     7
 10
505.4403427951
 20
164.9751674714
 30
0.0
 40
2.71292652071668
 50
165.6631254353
 51
187.0459686316
  0
POLYLINE
  5
206
  8
0
  6
CONTINUOUS
 62
     7
 66
     1
 10
0.0
 20
0.0
 30
0.0
  0
VERTEX
  5
5BD
  8
0
  6
CONTINUOUS
 62
     7
 10
505.7430509547
 20
162.2999459387
 30
0.0
  0
VERTEX
  5
5BE
  8
0
  6
CONTINUOUS
 62
     7
 10
505.7779003003
 20
162.3042255521
 30
0.0
  0
VERTEX
  5
5BF
  8
0
  6
CONTINUOUS
 62
     7
 10
505.8824349263
 20
162.3170643926
 30
0.0
  0
VERTEX
  5
5C0
  8
0
  6
CONTINUOUS
 62
     7
 10
506.0566145995
 20
162.3384505392
 30
0.0
  0
VERTEX
  5
5C1
  8
0
  6
CONTINUOUS
 62
     7
 10
506.3003737548
 20
162.3683720709
 30
0.0
  0
VERTEX
  5
5C2
  8
0
  6
CONTINUOUS
 62
     7
 10
506.61362075
 20
162.4068409086
 30
0.0
  0
VERTEX
  5
5C3
  8
0
  6
CONTINUOUS
 62
     7
 10
506.9962371209
 20
162.4538212896
 30
0.0
  0
VERTEX
  5
5C4
  8
0
  6
CONTINUOUS
 62
     7
 10
507.4480790714
 20
162.509301293
 30
0.0
  0
SEQEND
  5
A9A
  8
0
  6
CONTINUOUS
 62
     7
  0
POLYLINE
  5
207
  8
0
  6
CONTINUOUS
 62
     7
 66
     1
 10
0.0
 20
0.0
 30
0.0
  0
VERTEX
  5
5C5
  8
0
  6
CONTINUOUS
 62
     7
 10
503.0530352214
 20
163.6831432462
 30
0.0
  0
VERTEX
  5
5C6
  8
0
  6
CONTINUOUS
 62
     7
 10
503.0565816978
 20
163.6765152097
 30
0.0
  0
VERTEX
  5
5C7
  8
0
  6
CONTINUOUS
 62
     7
 10
503.0191917041
 20
163.7479692579
 30
0.0
  0
VERTEX
  5
5C8
  8
0
  6
CONTINUOUS
 62
     7
 10
502.945030115
 20
163.9076739431
 30
0.0
  0
VERTEX
  5
5C9
  8
0
  6
CONTINUOUS
 62
     7
 10
502.8526771882
 20
164.1581922651
 30
0.0
  0
VERTEX
  5
5CA
  8
0
  6
CONTINUOUS
 62
     7
 10
502.7739007095
 20
164.4742041708
 30
0.0
  0
VERTEX
  5
5CB
  8
0
  6
CONTINUOUS
 62
     7
 10
502.7479041436
 20
164.6423846365
 30
0.0
  0
SEQEND
  5
A99
  8
0
  6
CONTINUOUS
 62
     7
  0
LINE
  5
208
  8
0
  6
CONTINUOUS
 62
     7
 10
507.4480790714
 20
162.509301293
 30
0.0
 11
507.4959237197
 21
162.5156193853
 31
0.0
  0
LINE
  5
209
  8
0
  6
CONTINUOUS
 62
     7
 10
501.6399044612
 20
162.5013977171
 30
0.0
 11
497.669719539
 21
162.0139270902
 31
0.0
  0
LINE
  5
20A
  8
0
  6
CONTINUOUS
 62
     7
 10
493.2796660879
 20
230.5900603414
 30
0.0
 11
489.309484146
 21
230.1025897146
 31
0.0
  0
LINE
  5
20B
  8
0
  6
CONTINUOUS
 62
     7
 10
496.6771740535
 20
161.8920475126
 30
0.0
 11
488.3169356802
 21
229.9807220579
 31
0.0
  0
POLYLINE
  5
20C
  8
0
  6
CONTINUOUS
 62
     7
 66
     1
 10
0.0
 20
0.0
 30
0.0
  0
VERTEX
  5
5CC
  8
0
  6
CONTINUOUS
 62
     7
 10
497.669719539
 20
162.0139270902
 30
0.0
  0
VERTEX
  5
5CD
  8
0
  6
CONTINUOUS
 62
     7
 10
497.4760834196
 20
161.990144837
 30
0.0
  0
VERTEX
  5
5CE
  8
0
  6
CONTINUOUS
 62
     7
 10
497.2898889402
 20
161.9672804952
 30
0.0
  0
VERTEX
  5
5CF
  8
0
  6
CONTINUOUS
 62
     7
 10
497.1182901481
 20
161.9462162138
 30
0.0
  0
VERTEX
  5
5D0
  8
0
  6
CONTINUOUS
 62
     7
 10
496.9678837875
 20
161.9277506948
 30
0.0
  0
VERTEX
  5
5D1
  8
0
  6
CONTINUOUS
 62
     7
 10
496.8444485286
 20
161.9125872732
 30
0.0
  0
VERTEX
  5
5D2
  8
0
  6
CONTINUOUS
 62
     7
 10
496.7527274111
 20
161.9013339163
 30
0.0
  0
VERTEX
  5
5D3
  8
0
  6
CONTINUOUS
 62
     7
 10
496.6962445596
 20
161.8943959356
 30
0.0
  0
VERTEX
  5
5D4
  8
0
  6
CONTINUOUS
 62
     7
 10
496.6771740535
 20
161.8920475126
 30
0.0
  0
SEQEND
  5
A98
  8
0
  6
CONTINUOUS
 62
     7
  0
POLYLINE
  5
20D
  8
0
  6
CONTINUOUS
 62
     7
 66
     1
 10
0.0
 20
0.0
 30
0.0
  0
VERTEX
  5
5D5
  8
0
  6
CONTINUOUS
 62
     7
 10
488.3169356802
 20
229.9807220579
 30
0.0
  0
VERTEX
  5
5D6
  8
0
  6
CONTINUOUS
 62
     7
 10
488.3360091666
 20
229.98305856
 30
0.0
  0
VERTEX
  5
5D7
  8
0
  6
CONTINUOUS
 62
     7
 10
488.3924905279
 20
229.9899965406
 30
0.0
  0
VERTEX
  5
5D8
  8
0
  6
CONTINUOUS
 62
     7
 10
488.4842101553
 20
230.0012618185
 30
0.0
  0
VERTEX
  5
5D9
  8
0
  6
CONTINUOUS
 62
     7
 10
488.6076454142
 20
230.0164133192
 30
0.0
  0
VERTEX
  5
5DA
  8
0
  6
CONTINUOUS
 62
     7
 10
488.758054755
 20
230.0348788381
 30
0.0
  0
VERTEX
  5
5DB
  8
0
  6
CONTINUOUS
 62
     7
 10
488.9296505669
 20
230.0559550405
 30
0.0
  0
VERTEX
  5
5DC
  8
0
  6
CONTINUOUS
 62
     7
 10
489.1158465365
 20
230.0788074613
 30
0.0
  0
VERTEX
  5
5DD
  8
0
  6
CONTINUOUS
 62
     7
 10
489.309484146
 20
230.1025897146
 30
0.0
  0
SEQEND
  5
A97
  8
0
  6
CONTINUOUS
 62
     7
  0
LINE
  5
20E
  8
0
  6
CONTINUOUS
 62
     7
 10
494.2722130636
 20
230.7119399191
 30
0.0
 11
502.6324499467
 21
162.6232653738
 31
0.0
  0
POLYLINE
  5
20F
  8
0
  6
CONTINUOUS
 62
     7
 66
     1
 10
0.0
 20
0.0
 30
0.0
  0
VERTEX
  5
5DE
  8
0
  6
CONTINUOUS
 62
     7
 10
502.6324499467
 20
162.6232653738
 30
0.0
  0
VERTEX
  5
5DF
  8
0
  6
CONTINUOUS
 62
     7
 10
502.6133794406
 20
162.6209288717
 30
0.0
  0
VERTEX
  5
5E0
  8
0
  6
CONTINUOUS
 62
     7
 10
502.5568980792
 20
162.613990891
 30
0.0
  0
VERTEX
  5
5E1
  8
0
  6
CONTINUOUS
 62
     7
 10
502.4651769617
 20
162.6027256132
 30
0.0
  0
VERTEX
  5
5E2
  8
0
  6
CONTINUOUS
 62
     7
 10
502.3417402128
 20
162.5875741125
 30
0.0
  0
VERTEX
  5
5E3
  8
0
  6
CONTINUOUS
 62
     7
 10
502.1913338521
 20
162.5691085935
 30
0.0
  0
VERTEX
  5
5E4
  8
0
  6
CONTINUOUS
 62
     7
 10
502.0197350601
 20
162.5480323911
 30
0.0
  0
VERTEX
  5
5E5
  8
0
  6
CONTINUOUS
 62
     7
 10
501.8335405806
 20
162.5251799703
 30
0.0
  0
VERTEX
  5
5E6
  8
0
  6
CONTINUOUS
 62
     7
 10
501.6399044612
 20
162.5013977171
 30
0.0
  0
SEQEND
  5
A96
  8
0
  6
CONTINUOUS
 62
     7
  0
POLYLINE
  5
210
  8
0
  6
CONTINUOUS
 62
     7
 66
     1
 10
0.0
 20
0.0
 30
0.0
  0
VERTEX
  5
5E7
  8
0
  6
CONTINUOUS
 62
     7
 10
493.2796660879
 20
230.5900603414
 30
0.0
  0
VERTEX
  5
5E8
  8
0
  6
CONTINUOUS
 62
     7
 10
493.4733036974
 20
230.6138425947
 30
0.0
  0
VERTEX
  5
5E9
  8
0
  6
CONTINUOUS
 62
     7
 10
493.659499667
 20
230.6367069364
 30
0.0
  0
VERTEX
  5
5EA
  8
0
  6
CONTINUOUS
 62
     7
 10
493.8310954789
 20
230.6577712179
 30
0.0
  0
VERTEX
  5
5EB
  8
0
  6
CONTINUOUS
 62
     7
 10
493.9815033296
 20
230.6762367368
 30
0.0
  0
VERTEX
  5
5EC
  8
0
  6
CONTINUOUS
 62
     7
 10
494.1049400786
 20
230.6914001585
 30
0.0
  0
VERTEX
  5
5ED
  8
0
  6
CONTINUOUS
 62
     7
 10
494.1966611961
 20
230.7026535154
 30
0.0
  0
VERTEX
  5
5EE
  8
0
  6
CONTINUOUS
 62
     7
 10
494.2531425575
 20
230.7095914961
 30
0.0
  0
VERTEX
  5
5EF
  8
0
  6
CONTINUOUS
 62
     7
 10
494.2722130636
 20
230.7119399191
 30
0.0
  0
SEQEND
  5
A95
  8
0
  6
CONTINUOUS
 62
     7
  0
LINE
  5
211
  8
0
  6
CONTINUOUS
 62
     7
 10
512.2367281535
 20
111.2614422918
 30
0.0
 11
508.236728243
 21
111.2614422918
 31
0.0
  0
LINE
  5
212
  8
0
  6
CONTINUOUS
 62
     7
 10
503.4064848045
 20
156.3192635656
 30
0.0
 11
502.6324499467
 21
162.6232653738
 31
0.0
  0
POLYLINE
  5
213
  8
0
  6
CONTINUOUS
 62
     7
 66
     1
 10
0.0
 20
0.0
 30
0.0
  0
VERTEX
  5
5F0
  8
0
  6
CONTINUOUS
 62
     7
 10
502.6324499467
 20
162.6232653738
 30
0.0
  0
VERTEX
  5
5F1
  8
0
  6
CONTINUOUS
 62
     7
 10
502.6133794406
 20
162.6209288717
 30
0.0
  0
VERTEX
  5
5F2
  8
0
  6
CONTINUOUS
 62
     7
 10
502.5568980792
 20
162.613990891
 30
0.0
  0
VERTEX
  5
5F3
  8
0
  6
CONTINUOUS
 62
     7
 10
502.4651769617
 20
162.6027256132
 30
0.0
  0
VERTEX
  5
5F4
  8
0
  6
CONTINUOUS
 62
     7
 10
502.3417402128
 20
162.5875741125
 30
0.0
  0
VERTEX
  5
5F5
  8
0
  6
CONTINUOUS
 62
     7
 10
502.1913338521
 20
162.5691085935
 30
0.0
  0
VERTEX
  5
5F6
  8
0
  6
CONTINUOUS
 62
     7
 10
502.0197350601
 20
162.5480323911
 30
0.0
  0
VERTEX
  5
5F7
  8
0
  6
CONTINUOUS
 62
     7
 10
501.8335405806
 20
162.5251799703
 30
0.0
  0
VERTEX
  5
5F8
  8
0
  6
CONTINUOUS
 62
     7
 10
501.6399044612
 20
162.5013977171
 30
0.0
  0
SEQEND
  5
A94
  8
0
  6
CONTINUOUS
 62
     7
  0
ARC
  5
214
  8
0
  6
CONTINUOUS
 62
     7
 10
516.309585101
 20
157.9035648288
 30
0.0
 40
18.99999999999999
 50
187.0
 51
203.0
  0
LINE
  5
215
  8
0
  6
CONTINUOUS
 62
     7
 10
498.8199923256
 20
150.4796773077
 30
0.0
 11
506.2032911995
 21
133.0857127786
 31
0.0
  0
LINE
  5
216
  8
0
  6
CONTINUOUS
 62
     7
 10
497.4512089113
 20
155.5880457044
 30
0.0
 11
496.6771740535
 21
161.8920475126
 31
0.0
  0
POLYLINE
  5
217
  8
0
  6
CONTINUOUS
 62
     7
 66
     1
 10
0.0
 20
0.0
 30
0.0
  0
VERTEX
  5
5F9
  8
0
  6
CONTINUOUS
 62
     7
 10
497.669719539
 20
162.0139270902
 30
0.0
  0
VERTEX
  5
5FA
  8
0
  6
CONTINUOUS
 62
     7
 10
497.4760834196
 20
161.990144837
 30
0.0
  0
VERTEX
  5
5FB
  8
0
  6
CONTINUOUS
 62
     7
 10
497.2898889402
 20
161.9672804952
 30
0.0
  0
VERTEX
  5
5FC
  8
0
  6
CONTINUOUS
 62
     7
 10
497.1182901481
 20
161.9462162138
 30
0.0
  0
VERTEX
  5
5FD
  8
0
  6
CONTINUOUS
 62
     7
 10
496.9678837875
 20
161.9277506948
 30
0.0
  0
VERTEX
  5
5FE
  8
0
  6
CONTINUOUS
 62
     7
 10
496.8444485286
 20
161.9125872732
 30
0.0
  0
VERTEX
  5
5FF
  8
0
  6
CONTINUOUS
 62
     7
 10
496.7527274111
 20
161.9013339163
 30
0.0
  0
VERTEX
  5
600
  8
0
  6
CONTINUOUS
 62
     7
 10
496.6962445596
 20
161.8943959356
 30
0.0
  0
VERTEX
  5
601
  8
0
  6
CONTINUOUS
 62
     7
 10
496.6771740535
 20
161.8920475126
 30
0.0
  0
SEQEND
  5
A93
  8
0
  6
CONTINUOUS
 62
     7
  0
ARC
  5
218
  8
0
  6
CONTINUOUS
 62
     7
 10
516.309585101
 20
157.9035648288
 30
0.0
 40
13.00000000000002
 50
187.0
 51
203.0
  0
LINE
  5
219
  8
0
  6
CONTINUOUS
 62
     7
 10
507.2367284516
 20
128.0062049509
 30
0.0
 11
507.2367284516
 21
111.2614422918
 31
0.0
  0
LINE
  5
21A
  8
0
  6
CONTINUOUS
 62
     7
 10
508.236728243
 20
111.2614422918
 30
0.0
 11
507.2367284516
 21
111.2614422918
 31
0.0
  0
LINE
  5
21B
  8
0
  6
CONTINUOUS
 62
     7
 10
504.3430212954
 20
152.8240591169
 30
0.0
 11
511.7263201693
 21
135.4301005483
 31
0.0
  0
ARC
  5
21C
  8
0
  6
CONTINUOUS
 62
     7
 10
494.2367281178
 20
128.0062078852
 30
0.0
 40
13.00000000000001
 50
0.0
 51
23.0
  0
LINE
  5
21D
  8
0
  6
CONTINUOUS
 62
     7
 10
513.0367282847
 20
111.2614422918
 30
0.0
 11
512.2367281535
 21
111.2614422918
 31
0.0
  0
POLYLINE
  5
21E
  8
0
  6
CONTINUOUS
 62
     7
 66
     1
 10
0.0
 20
0.0
 30
0.0
  0
VERTEX
  5
602
  8
0
  6
CONTINUOUS
 62
     7
 10
511.7263201693
 20
135.4301005483
 30
0.0
  0
VERTEX
  5
603
  8
0
  6
CONTINUOUS
 62
     7
 10
512.0766680756
 20
134.543529141
 30
0.0
  0
VERTEX
  5
604
  8
0
  6
CONTINUOUS
 62
     7
 10
512.3122770408
 20
133.8606506468
 30
0.0
  0
SEQEND
  5
A92
  8
0
  6
CONTINUOUS
 62
     7
  0
POLYLINE
  5
21F
  8
0
  6
CONTINUOUS
 62
     7
 66
     1
 10
0.0
 20
0.0
 30
0.0
  0
VERTEX
  5
605
  8
0
  6
CONTINUOUS
 62
     7
 10
516.4770413259
 20
150.0922948003
 30
0.0
  0
VERTEX
  5
606
  8
0
  6
CONTINUOUS
 62
     7
 10
516.1287723178
 20
150.29337703
 30
0.0
  0
VERTEX
  5
607
  8
0
  6
CONTINUOUS
 62
     7
 10
515.8133918488
 20
150.5694419027
 30
0.0
  0
VERTEX
  5
608
  8
0
  6
CONTINUOUS
 62
     7
 10
515.47595673
 20
150.9924679876
 30
0.0
  0
VERTEX
  5
609
  8
0
  6
CONTINUOUS
 62
     7
 10
515.2012527058
 20
151.4758735777
 30
0.0
  0
VERTEX
  5
60A
  8
0
  6
CONTINUOUS
 62
     7
 10
514.9436969379
 20
152.11561023
 30
0.0
  0
VERTEX
  5
60B
  8
0
  6
CONTINUOUS
 62
     7
 10
514.7577118197
 20
152.789977181
 30
0.0
  0
SEQEND
  5
A91
  8
0
  6
CONTINUOUS
 62
     7
  0
POLYLINE
  5
220
  8
0
  6
CONTINUOUS
 62
     7
 66
     1
 10
0.0
 20
0.0
 30
0.0
  0
VERTEX
  5
60C
  8
0
  6
CONTINUOUS
 62
     7
 10
519.7599328192
 20
155.6097179533
 30
0.0
  0
VERTEX
  5
60D
  8
0
  6
CONTINUOUS
 62
     7
 10
519.5263327168
 20
153.5910040022
 30
0.0
  0
VERTEX
  5
60E
  8
0
  6
CONTINUOUS
 62
     7
 10
519.303614979
 20
152.51547395
 30
0.0
  0
VERTEX
  5
60F
  8
0
  6
CONTINUOUS
 62
     7
 10
518.9390252762
 20
151.4833480001
 30
0.0
  0
VERTEX
  5
610
  8
0
  6
CONTINUOUS
 62
     7
 10
518.5563363436
 20
150.8229166151
 30
0.0
  0
VERTEX
  5
611
  8
0
  6
CONTINUOUS
 62
     7
 10
518.3082327315
 20
150.5277067304
 30
0.0
  0
VERTEX
  5
612
  8
0
  6
CONTINUOUS
 62
     7
 10
518.0177143844
 20
150.2752333761
 30
0.0
  0
VERTEX
  5
613
  8
0
  6
CONTINUOUS
 62
     7
 10
517.5318699399
 20
150.0276356817
 30
0.0
  0
VERTEX
  5
614
  8
0
  6
CONTINUOUS
 62
     7
 10
516.9871574336
 20
149.9632030607
 30
0.0
  0
VERTEX
  5
615
  8
0
  6
CONTINUOUS
 62
     7
 10
516.4770413259
 20
150.0922948003
 30
0.0
  0
SEQEND
  5
A90
  8
0
  6
CONTINUOUS
 62
     7
  0
LINE
  5
221
  8
0
  6
CONTINUOUS
 62
     7
 10
519.9491021292
 20
157.8683644415
 30
0.0
 11
519.7599328192
 21
155.6097179533
 31
0.0
  0
LINE
  5
222
  8
0
  6
CONTINUOUS
 62
     7
 10
520.9078153664
 20
168.8265114904
 30
0.0
 11
519.9491021292
 21
157.8683644415
 31
0.0
  0
ARC
  5
223
  8
0
  6
CONTINUOUS
 62
     7
 10
405.0254031527
 20
139.4204114171
 30
0.0
 40
120.0000000000006
 50
357.9188963395
 51
14.1646231125
  0
LINE
  5
224
  8
0
  6
CONTINUOUS
 62
     7
 10
513.2754460046
 20
135.8476012827
 30
0.0
 11
514.7577118197
 21
152.789977181
 31
0.0
  0
LINE
  5
225
  8
0
  6
CONTINUOUS
 62
     7
 10
520.9078153664
 20
168.8265114904
 30
0.0
 11
521.3769985432
 21
168.785467732
 31
0.0
  0
POLYLINE
  5
226
  8
0
  6
CONTINUOUS
 62
     7
 66
     1
 10
0.0
 20
0.0
 30
0.0
  0
VERTEX
  5
616
  8
0
  6
CONTINUOUS
 62
     7
 10
525.2762544969
 20
207.2118431211
 30
0.0
  0
VERTEX
  5
617
  8
0
  6
CONTINUOUS
 62
     7
 10
525.3574837068
 20
207.2047382475
 30
0.0
  0
VERTEX
  5
618
  8
0
  6
CONTINUOUS
 62
     7
 10
525.3924612025
 20
207.2016745687
 30
0.0
  0
SEQEND
  5
A8F
  8
0
  6
CONTINUOUS
 62
     7
  0
POLYLINE
  5
227
  8
0
  6
CONTINUOUS
 62
     7
 66
     1
 10
0.0
 20
0.0
 30
0.0
  0
VERTEX
  5
619
  8
0
  6
CONTINUOUS
 62
     7
 10
525.861359022
 20
212.5612050176
 30
0.0
  0
VERTEX
  5
61A
  8
0
  6
CONTINUOUS
 62
     7
 10
525.8263815263
 20
212.5642686964
 30
0.0
  0
VERTEX
  5
61B
  8
0
  6
CONTINUOUS
 62
     7
 10
525.7214631954
 20
212.5734478117
 30
0.0
  0
VERTEX
  5
61C
  8
0
  6
CONTINUOUS
 62
     7
 10
525.5466435173
 20
212.5887423635
 30
0.0
  0
VERTEX
  5
61D
  8
0
  6
CONTINUOUS
 62
     7
 10
525.3019880572
 20
212.610140431
 30
0.0
  0
VERTEX
  5
61E
  8
0
  6
CONTINUOUS
 62
     7
 10
524.9875892022
 20
212.637653935
 30
0.0
  0
VERTEX
  5
61F
  8
0
  6
CONTINUOUS
 62
     7
 10
524.6035657892
 20
212.6712471128
 30
0.0
  0
VERTEX
  5
620
  8
0
  6
CONTINUOUS
 62
     7
 10
524.1500631043
 20
212.7109199644
 30
0.0
  0
SEQEND
  5
A8E
  8
0
  6
CONTINUOUS
 62
     7
  0
LINE
  5
228
  8
0
  6
CONTINUOUS
 62
     7
 10
524.1500631043
 20
212.7109199644
 30
0.0
 11
524.1019506076
 21
212.7146869779
 31
0.0
  0
POLYLINE
  5
229
  8
0
  6
CONTINUOUS
 62
     7
 66
     1
 10
0.0
 20
0.0
 30
0.0
  0
VERTEX
  5
621
  8
0
  6
CONTINUOUS
 62
     7
 10
535.8876336435
 20
136.8135362745
 30
0.0
  0
VERTEX
  5
622
  8
0
  6
CONTINUOUS
 62
     7
 10
536.0576007584
 20
137.1780067564
 30
0.0
  0
VERTEX
  5
623
  8
0
  6
CONTINUOUS
 62
     7
 10
536.3051254371
 20
137.5162511945
 30
0.0
  0
VERTEX
  5
624
  8
0
  6
CONTINUOUS
 62
     7
 10
536.6971377352
 20
137.8892689825
 30
0.0
  0
VERTEX
  5
625
  8
0
  6
CONTINUOUS
 62
     7
 10
537.1547523955
 20
138.205060351
 30
0.0
  0
VERTEX
  5
626
  8
0
  6
CONTINUOUS
 62
     7
 10
537.7696055988
 20
138.51739465
 30
0.0
  0
VERTEX
  5
627
  8
0
  6
CONTINUOUS
 62
     7
 10
538.4252030471
 20
138.7614458681
 30
0.0
  0
SEQEND
  5
A8D
  8
0
  6
CONTINUOUS
 62
     7
  0
POLYLINE
  5
22A
  8
0
  6
CONTINUOUS
 62
     7
 66
     1
 10
0.0
 20
0.0
 30
0.0
  0
VERTEX
  5
628
  8
0
  6
CONTINUOUS
 62
     7
 10
541.670187197
 20
134.0240150572
 30
0.0
  0
VERTEX
  5
629
  8
0
  6
CONTINUOUS
 62
     7
 10
539.638795338
 20
134.0807825208
 30
0.0
  0
VERTEX
  5
62A
  8
0
  6
CONTINUOUS
 62
     7
 10
538.5479394415
 20
134.2089146257
 30
0.0
  0
VERTEX
  5
62B
  8
0
  6
CONTINUOUS
 62
     7
 10
537.4879721621
 20
134.4821601988
 30
0.0
  0
VERTEX
  5
62C
  8
0
  6
CONTINUOUS
 62
     7
 10
536.7966998437
 20
134.8058372617
 30
0.0
  0
VERTEX
  5
62D
  8
0
  6
CONTINUOUS
 62
     7
 10
536.4809934119
 20
135.0272625566
 30
0.0
  0
VERTEX
  5
62E
  8
0
  6
CONTINUOUS
 62
     7
 10
536.204156659
 20
135.2946728349
 30
0.0
  0
VERTEX
  5
62F
  8
0
  6
CONTINUOUS
 62
     7
 10
535.9151501277
 20
135.7570856691
 30
0.0
  0
VERTEX
  5
630
  8
0
  6
CONTINUOUS
 62
     7
 10
535.8034912566
 20
136.2941115976
 30
0.0
  0
VERTEX
  5
631
  8
0
  6
CONTINUOUS
 62
     7
 10
535.8876336435
 20
136.8135362745
 30
0.0
  0
SEQEND
  5
A8C
  8
0
  6
CONTINUOUS
 62
     7
  0
LINE
  5
22B
  8
0
  6
CONTINUOUS
 62
     7
 10
543.9367268303
 20
134.0324193121
 30
0.0
 11
541.670187197
 21
134.0240150572
 31
0.0
  0
LINE
  5
22C
  8
0
  6
CONTINUOUS
 62
     7
 10
554.9367282608
 20
134.0324193121
 30
0.0
 11
543.9367268303
 21
134.0324193121
 31
0.0
  0
ARC
  5
22D
  8
0
  6
CONTINUOUS
 62
     7
 10
515.5427098755
 20
246.9109542767
 30
0.0
 40
120.0000000000007
 50
273.9626587205
 51
289.1646231125
  0
LINE
  5
22E
  8
0
  6
CONTINUOUS
 62
     7
 10
525.0235937604
 20
138.7614458681
 30
0.0
 11
538.4252030471
 21
138.7614458681
 31
0.0
  0
LINE
  5
22F
  8
0
  6
CONTINUOUS
 62
     7
 10
554.9367282608
 20
134.0324193121
 30
0.0
 11
554.9367282608
 21
133.5614472509
 31
0.0
  0
LINE
  5
230
  8
0
  6
CONTINUOUS
 62
     7
 10
593.5567293385
 20
133.0261081339
 30
0.0
 11
593.5567293385
 21
132.9094558836
 31
0.0
  0
LINE
  5
231
  8
0
  6
CONTINUOUS
 62
     7
 10
598.9367280224
 20
132.9094558836
 30
0.0
 11
598.9367280224
 21
134.6272915483
 31
0.0
  0
LINE
  5
232
  8
0
  6
CONTINUOUS
 62
     7
 10
598.9367280224
 20
134.6272915483
 30
0.0
 11
598.936286948
 21
134.6755474687
 31
0.0
  0
LINE
  5
233
  8
0
  6
CONTINUOUS
 62
     7
 10
513.8367280433
 20
111.2614422918
 30
0.0
 11
513.0367282847
 21
111.2614422918
 31
0.0
  0
LINE
  5
234
  8
0
  6
CONTINUOUS
 62
     7
 10
513.0367282847
 20
111.2614422918
 30
0.0
 11
513.0367282847
 21
113.2614463449
 31
0.0
  0
LINE
  5
235
  8
0
  6
CONTINUOUS
 62
     7
 10
513.8367280433
 20
112.4614447237
 30
0.0
 11
513.8367280433
 21
111.2614422918
 31
0.0
  0
LINE
  5
236
  8
0
  6
CONTINUOUS
 62
     7
 10
524.0367282251
 20
113.2614463449
 30
0.0
 11
524.0367282251
 21
121.0614472509
 31
0.0
  0
ARC
  5
237
  8
0
  6
CONTINUOUS
 62
     7
 10
523.6367281178
 20
121.061444676
 30
0.0
 40
0.4000000000000057
 50
0.0
 51
90.0
  0
ARC
  5
238
  8
0
  6
CONTINUOUS
 62
     7
 10
533.7367281178
 20
125.7960359829
 30
0.0
 40
10.0
 50
154.4805415091
 51
180.0
  0
LINE
  5
239
  8
0
  6
CONTINUOUS
 62
     7
 10
523.7367279896
 20
125.7960349203
 30
0.0
 11
523.7367279896
 21
122.2614437223
 31
0.0
  0
ARC
  5
23A
  8
0
  6
CONTINUOUS
 62
     7
 10
523.8367281178
 20
121.261444676
 30
0.0
 40
1.0
 50
0.0
 51
90.0
  0
LINE
  5
23B
  8
0
  6
CONTINUOUS
 62
     7
 10
524.8367279837
 20
113.2614463449
 30
0.0
 11
524.8367279837
 21
121.261444676
 31
0.0
  0
LINE
  5
23C
  8
0
  6
CONTINUOUS
 62
     7
 10
523.6367281595
 20
121.4614421011
 30
0.0
 11
522.8367280284
 21
121.4614421011
 31
0.0
  0
LINE
  5
23D
  8
0
  6
CONTINUOUS
 62
     7
 10
514.8367282072
 20
121.4614421011
 30
0.0
 11
514.2367281088
 21
121.4614421011
 31
0.0
  0
LINE
  5
23E
  8
0
  6
CONTINUOUS
 62
     7
 10
513.0367282847
 20
118.261447537
 30
0.0
 11
513.0367282847
 21
113.2614463449
 31
0.0
  0
ARC
  5
23F
  8
0
  6
CONTINUOUS
 62
     7
 10
514.2367281178
 20
121.061444676
 30
0.0
 40
0.4000000000000909
 50
90.0
 51
180.0
  0
ARC
  5
240
  8
0
  6
CONTINUOUS
 62
     7
 10
518.9367281178
 20
132.861444676
 30
0.0
 40
6.399999999999999
 50
334.4805415091
 51
151.3013359141
  0
LINE
  5
241
  8
0
  6
CONTINUOUS
 62
     7
 10
523.8367281923
 20
122.2614437223
 30
0.0
 11
523.7367279896
 21
122.2614437223
 31
0.0
  0
LINE
  5
242
  8
0
  6
CONTINUOUS
 62
     7
 10
513.8367280433
 20
121.0614472509
 30
0.0
 11
513.8367280433
 21
120.4614430547
 31
0.0
  0
LINE
  5
243
  8
0
  6
CONTINUOUS
 62
     7
 10
513.0367282847
 20
118.261447537
 30
0.0
 11
511.0888261417
 21
118.261447537
 31
0.0
  0
ARC
  5
244
  8
0
  6
CONTINUOUS
 62
     7
 10
534.6458190269
 20
124.261444676
 30
0.0
 40
24.30909090909085
 50
151.3013359141
 51
194.2894890274
  0
LINE
  5
245
  8
0
  6
CONTINUOUS
 62
     7
 10
524.8367279837
 20
111.2614422918
 30
0.0
 11
524.0367282251
 21
111.2614422918
 31
0.0
  0
LINE
  5
246
  8
0
  6
CONTINUOUS
 62
     7
 10
524.8367279837
 20
113.2614463449
 30
0.0
 11
524.8367279837
 21
111.2614422918
 31
0.0
  0
LINE
  5
247
  8
0
  6
CONTINUOUS
 62
     7
 10
524.0367282251
 20
111.2614422918
 30
0.0
 11
524.0367282251
 21
113.2614463449
 31
0.0
  0
POLYLINE
  5
248
  8
0
  6
CONTINUOUS
 62
     7
 66
     1
 10
0.0
 20
0.0
 30
0.0
  0
VERTEX
  5
632
  8
0
  6
CONTINUOUS
 62
     7
 10
186.2555370592
 20
-30.7168806924
 30
0.0
  0
VERTEX
  5
633
  8
0
  6
CONTINUOUS
 62
     7
 10
185.459436562
 20
-30.8288554682
 30
0.0
  0
VERTEX
  5
634
  8
0
  6
CONTINUOUS
 62
     7
 10
184.5527515673
 20
-30.968652202
 30
0.0
  0
VERTEX
  5
635
  8
0
  6
CONTINUOUS
 62
     7
 10
183.6555079483
 20
-31.119435562
 30
0.0
  0
VERTEX
  5
636
  8
0
  6
CONTINUOUS
 62
     7
 10
182.7723340057
 20
-31.2805513872
 30
0.0
  0
VERTEX
  5
637
  8
0
  6
CONTINUOUS
 62
     7
 10
181.9178209566
 20
-31.4488093389
 30
0.0
  0
VERTEX
  5
638
  8
0
  6
CONTINUOUS
 62
     7
 10
181.0788766407
 20
-31.6260914339
 30
0.0
  0
VERTEX
  5
639
  8
0
  6
CONTINUOUS
 62
     7
 10
180.2568034195
 20
-31.8119387163
 30
0.0
  0
VERTEX
  5
63A
  8
0
  6
CONTINUOUS
 62
     7
 10
179.4577018284
 20
-32.0048938526
 30
0.0
  0
VERTEX
  5
63B
  8
0
  6
CONTINUOUS
 62
     7
 10
178.6874161028
 20
-32.2034995092
 30
0.0
  0
VERTEX
  5
63C
  8
0
  6
CONTINUOUS
 62
     7
 10
177.9511974119
 20
-32.4064116014
 30
0.0
  0
VERTEX
  5
63D
  8
0
  6
CONTINUOUS
 62
     7
 10
177.2532508635
 20
-32.6126034392
 30
0.0
  0
VERTEX
  5
63E
  8
0
  6
CONTINUOUS
 62
     7
 10
176.599051144
 20
-32.82024516
 30
0.0
  0
VERTEX
  5
63F
  8
0
  6
CONTINUOUS
 62
     7
 10
175.999869492
 20
-33.0248187317
 30
0.0
  0
VERTEX
  5
640
  8
0
  6
CONTINUOUS
 62
     7
 10
175.4156664871
 20
-33.2407589091
 30
0.0
  0
VERTEX
  5
641
  8
0
  6
CONTINUOUS
 62
     7
 10
174.8622313999
 20
-33.4648097886
 30
0.0
  0
VERTEX
  5
642
  8
0
  6
CONTINUOUS
 62
     7
 10
174.331910994
 20
-33.703937663
 30
0.0
  0
VERTEX
  5
643
  8
0
  6
CONTINUOUS
 62
     7
 10
173.8059596085
 20
-33.9760447873
 30
0.0
  0
VERTEX
  5
644
  8
0
  6
CONTINUOUS
 62
     7
 10
173.3642534279
 20
-34.2468525304
 30
0.0
  0
VERTEX
  5
645
  8
0
  6
CONTINUOUS
 62
     7
 10
173.0596260094
 20
-34.4688723816
 30
0.0
  0
VERTEX
  5
646
  8
0
  6
CONTINUOUS
 62
     7
 10
172.8000984453
 20
-34.6919040216
 30
0.0
  0
VERTEX
  5
647
  8
0
  6
CONTINUOUS
 62
     7
 10
172.5657866263
 20
-34.9320183529
 30
0.0
  0
VERTEX
  5
648
  8
0
  6
CONTINUOUS
 62
     7
 10
172.3533497118
 20
-35.1967657937
 30
0.0
  0
VERTEX
  5
649
  8
0
  6
CONTINUOUS
 62
     7
 10
172.1637413763
 20
-35.4928012027
 30
0.0
  0
VERTEX
  5
64A
  8
0
  6
CONTINUOUS
 62
     7
 10
172.0031187796
 20
-35.8223552836
 30
0.0
  0
VERTEX
  5
64B
  8
0
  6
CONTINUOUS
 62
     7
 10
171.8802676462
 20
-36.1824403538
 30
0.0
  0
VERTEX
  5
64C
  8
0
  6
CONTINUOUS
 62
     7
 10
171.8036250137
 20
-36.5658412708
 30
0.0
  0
VERTEX
  5
64D
  8
0
  6
CONTINUOUS
 62
     7
 10
171.7812494301
 20
-36.931804849
 30
0.0
  0
SEQEND
  5
A8B
  8
0
  6
CONTINUOUS
 62
     7
  0
POLYLINE
  5
249
  8
0
  6
CONTINUOUS
 62
     7
 66
     1
 10
0.0
 20
0.0
 30
0.0
  0
VERTEX
  5
64E
  8
0
  6
CONTINUOUS
 62
     7
 10
251.891480472
 20
-36.9445930256
 30
0.0
  0
VERTEX
  5
64F
  8
0
  6
CONTINUOUS
 62
     7
 10
251.8950746321
 20
-36.8713329567
 30
0.0
  0
VERTEX
  5
650
  8
0
  6
CONTINUOUS
 62
     7
 10
251.857884314
 20
-36.4724750651
 30
0.0
  0
VERTEX
  5
651
  8
0
  6
CONTINUOUS
 62
     7
 10
251.7709539198
 20
-36.0980640186
 30
0.0
  0
VERTEX
  5
652
  8
0
  6
CONTINUOUS
 62
     7
 10
251.6428516172
 20
-35.7533390654
 30
0.0
  0
VERTEX
  5
653
  8
0
  6
CONTINUOUS
 62
     7
 10
251.4824286961
 20
-35.4414562715
 30
0.0
  0
VERTEX
  5
654
  8
0
  6
CONTINUOUS
 62
     7
 10
251.2977288031
 20
-35.1626942886
 30
0.0
  0
VERTEX
  5
655
  8
0
  6
CONTINUOUS
 62
     7
 10
251.0941700005
 20
-34.9138434066
 30
0.0
  0
VERTEX
  5
656
  8
0
  6
CONTINUOUS
 62
     7
 10
250.872583773
 20
-34.6883977784
 30
0.0
  0
VERTEX
  5
657
  8
0
  6
CONTINUOUS
 62
     7
 10
250.6274566912
 20
-34.477206601
 30
0.0
  0
VERTEX
  5
658
  8
0
  6
CONTINUOUS
 62
     7
 10
250.3412411474
 20
-34.266507162
 30
0.0
  0
VERTEX
  5
659
  8
0
  6
CONTINUOUS
 62
     7
 10
249.9682442211
 20
-34.0322638883
 30
0.0
  0
VERTEX
  5
65A
  8
0
  6
CONTINUOUS
 62
     7
 10
249.4884238504
 20
-33.7750162019
 30
0.0
  0
VERTEX
  5
65B
  8
0
  6
CONTINUOUS
 62
     7
 10
248.957096126
 20
-33.5274214877
 30
0.0
  0
VERTEX
  5
65C
  8
0
  6
CONTINUOUS
 62
     7
 10
248.4199599289
 20
-33.3037774099
 30
0.0
  0
VERTEX
  5
65D
  8
0
  6
CONTINUOUS
 62
     7
 10
247.8017971777
 20
-33.0700437559
 30
0.0
  0
VERTEX
  5
65E
  8
0
  6
CONTINUOUS
 62
     7
 10
247.1636281275
 20
-32.8488866819
 30
0.0
  0
VERTEX
  5
65F
  8
0
  6
CONTINUOUS
 62
     7
 10
246.5007648729
 20
-32.6364154948
 30
0.0
  0
VERTEX
  5
660
  8
0
  6
CONTINUOUS
 62
     7
 10
245.8136276268
 20
-32.4315498604
 30
0.0
  0
VERTEX
  5
661
  8
0
  6
CONTINUOUS
 62
     7
 10
245.0805441403
 20
-32.2275261415
 30
0.0
  0
VERTEX
  5
662
  8
0
  6
CONTINUOUS
 62
     7
 10
244.3143413328
 20
-32.0281471146
 30
0.0
  0
VERTEX
  5
663
  8
0
  6
CONTINUOUS
 62
     7
 10
243.5174987578
 20
-31.8341265453
 30
0.0
  0
VERTEX
  5
664
  8
0
  6
CONTINUOUS
 62
     7
 10
242.6931844019
 20
-31.6464151276
 30
0.0
  0
VERTEX
  5
665
  8
0
  6
CONTINUOUS
 62
     7
 10
241.8450669312
 20
-31.4660976662
 30
0.0
  0
VERTEX
  5
666
  8
0
  6
CONTINUOUS
 62
     7
 10
240.9770862125
 20
-31.2942977084
 30
0.0
  0
VERTEX
  5
667
  8
0
  6
CONTINUOUS
 62
     7
 10
240.0934056305
 20
-31.1321417822
 30
0.0
  0
VERTEX
  5
668
  8
0
  6
CONTINUOUS
 62
     7
 10
239.2036066317
 20
-30.9814627303
 30
0.0
  0
VERTEX
  5
669
  8
0
  6
CONTINUOUS
 62
     7
 10
238.3020625376
 20
-30.8412040604
 30
0.0
  0
VERTEX
  5
66A
  8
0
  6
CONTINUOUS
 62
     7
 10
237.4211505913
 20
-30.7160700692
 30
0.0
  0
SEQEND
  5
A8A
  8
0
  6
CONTINUOUS
 62
     7
  0
ARC
  5
24A
  8
0
  6
CONTINUOUS
 62
     7
 10
211.7158624189
 20
-217.8084086711
 30
0.0
 40
188.8174305777961
 50
90.2489000752
 51
97.7494231048
  0
ARC
  5
24B
  8
0
  6
CONTINUOUS
 62
     7
 10
212.0451441765
 20
-216.899918764
 30
0.0
 40
187.905861201124
 50
82.2387238284
 51
89.7798291344
  0
POLYLINE
  5
24C
  8
0
  6
CONTINUOUS
 62
     7
 66
     1
 10
0.0
 20
0.0
 30
0.0
  0
VERTEX
  5
66B
  8
0
  6
CONTINUOUS
 62
     7
 10
176.3743565344
 20
-38.7058804764
 30
0.0
  0
VERTEX
  5
66C
  8
0
  6
CONTINUOUS
 62
     7
 10
176.3728813194
 20
-38.7070099844
 30
0.0
  0
VERTEX
  5
66D
  8
0
  6
CONTINUOUS
 62
     7
 10
176.4132932686
 20
-38.6824066771
 30
0.0
  0
VERTEX
  5
66E
  8
0
  6
CONTINUOUS
 62
     7
 10
176.5047357344
 20
-38.6319319738
 30
0.0
  0
VERTEX
  5
66F
  8
0
  6
CONTINUOUS
 62
     7
 10
176.6539529823
 20
-38.5570357574
 30
0.0
  0
VERTEX
  5
670
  8
0
  6
CONTINUOUS
 62
     7
 10
176.8660084271
 20
-38.459732665
 30
0.0
  0
VERTEX
  5
671
  8
0
  6
CONTINUOUS
 62
     7
 10
177.1435455345
 20
-38.3426676525
 30
0.0
  0
VERTEX
  5
672
  8
0
  6
CONTINUOUS
 62
     7
 10
177.4867222571
 20
-38.2089371814
 30
0.0
  0
VERTEX
  5
673
  8
0
  6
CONTINUOUS
 62
     7
 10
177.8935835623
 20
-38.0618075861
 30
0.0
  0
VERTEX
  5
674
  8
0
  6
CONTINUOUS
 62
     7
 10
178.3606753611
 20
-37.9044930471
 30
0.0
  0
VERTEX
  5
675
  8
0
  6
CONTINUOUS
 62
     7
 10
178.8833067679
 20
-37.740093006
 30
0.0
  0
VERTEX
  5
676
  8
0
  6
CONTINUOUS
 62
     7
 10
179.4585899376
 20
-37.5710438026
 30
0.0
  0
VERTEX
  5
677
  8
0
  6
CONTINUOUS
 62
     7
 10
180.0675050282
 20
-37.4034787549
 30
0.0
  0
VERTEX
  5
678
  8
0
  6
CONTINUOUS
 62
     7
 10
180.7281450295
 20
-37.2328559889
 30
0.0
  0
VERTEX
  5
679
  8
0
  6
CONTINUOUS
 62
     7
 10
181.4336196446
 20
-37.0619024171
 30
0.0
  0
VERTEX
  5
67A
  8
0
  6
CONTINUOUS
 62
     7
 10
182.1765945219
 20
-36.893203391
 30
0.0
  0
VERTEX
  5
67B
  8
0
  6
CONTINUOUS
 62
     7
 10
182.9490468763
 20
-36.729266776
 30
0.0
  0
VERTEX
  5
67C
  8
0
  6
CONTINUOUS
 62
     7
 10
183.7411628031
 20
-36.5727241172
 30
0.0
  0
VERTEX
  5
67D
  8
0
  6
CONTINUOUS
 62
     7
 10
184.5444098972
 20
-36.4256571068
 30
0.0
  0
VERTEX
  5
67E
  8
0
  6
CONTINUOUS
 62
     7
 10
185.355056908
 20
-36.2887884511
 30
0.0
  0
VERTEX
  5
67F
  8
0
  6
CONTINUOUS
 62
     7
 10
186.184133675
 20
-36.1601929201
 30
0.0
  0
VERTEX
  5
680
  8
0
  6
CONTINUOUS
 62
     7
 10
186.9799957537
 20
-36.0474805368
 30
0.0
  0
SEQEND
  5
A89
  8
0
  6
CONTINUOUS
 62
     7
  0
POLYLINE
  5
24D
  8
0
  6
CONTINUOUS
 62
     7
 66
     1
 10
0.0
 20
0.0
 30
0.0
  0
VERTEX
  5
681
  8
0
  6
CONTINUOUS
 62
     7
 10
236.6966620945
 20
-36.047854556
 30
0.0
  0
VERTEX
  5
682
  8
0
  6
CONTINUOUS
 62
     7
 10
237.3566226029
 20
-36.1399496926
 30
0.0
  0
VERTEX
  5
683
  8
0
  6
CONTINUOUS
 62
     7
 10
238.1940529608
 20
-36.2681697143
 30
0.0
  0
VERTEX
  5
684
  8
0
  6
CONTINUOUS
 62
     7
 10
239.0232310556
 20
-36.4065940513
 30
0.0
  0
VERTEX
  5
685
  8
0
  6
CONTINUOUS
 62
     7
 10
239.8376868033
 20
-36.5541200174
 30
0.0
  0
VERTEX
  5
686
  8
0
  6
CONTINUOUS
 62
     7
 10
240.6265036129
 20
-36.7083172335
 30
0.0
  0
VERTEX
  5
687
  8
0
  6
CONTINUOUS
 62
     7
 10
241.3946465515
 20
-36.8695775999
 30
0.0
  0
VERTEX
  5
688
  8
0
  6
CONTINUOUS
 62
     7
 10
242.1382890009
 20
-37.0367224349
 30
0.0
  0
VERTEX
  5
689
  8
0
  6
CONTINUOUS
 62
     7
 10
242.8514228129
 20
-37.2079948915
 30
0.0
  0
VERTEX
  5
68A
  8
0
  6
CONTINUOUS
 62
     7
 10
243.5280279183
 20
-37.3814637793
 30
0.0
  0
VERTEX
  5
68B
  8
0
  6
CONTINUOUS
 62
     7
 10
244.1623196863
 20
-37.5550623073
 30
0.0
  0
VERTEX
  5
68C
  8
0
  6
CONTINUOUS
 62
     7
 10
244.7486773991
 20
-37.7265493406
 30
0.0
  0
VERTEX
  5
68D
  8
0
  6
CONTINUOUS
 62
     7
 10
245.2820704245
 20
-37.8935809268
 30
0.0
  0
VERTEX
  5
68E
  8
0
  6
CONTINUOUS
 62
     7
 10
245.7613960766
 20
-38.0546222462
 30
0.0
  0
VERTEX
  5
68F
  8
0
  6
CONTINUOUS
 62
     7
 10
246.1875633263
 20
-38.2087255849
 30
0.0
  0
VERTEX
  5
690
  8
0
  6
CONTINUOUS
 62
     7
 10
246.5533421301
 20
-38.351811005
 30
0.0
  0
VERTEX
  5
691
  8
0
  6
CONTINUOUS
 62
     7
 10
246.8519524597
 20
-38.4790430797
 30
0.0
  0
VERTEX
  5
692
  8
0
  6
CONTINUOUS
 62
     7
 10
247.0561639332
 20
-38.5741512312
 30
0.0
  0
VERTEX
  5
693
  8
0
  6
CONTINUOUS
 62
     7
 10
247.1975372099
 20
-38.6462639107
 30
0.0
  0
VERTEX
  5
694
  8
0
  6
CONTINUOUS
 62
     7
 10
247.2797260546
 20
-38.6924619807
 30
0.0
  0
VERTEX
  5
695
  8
0
  6
CONTINUOUS
 62
     7
 10
247.309143927
 20
-38.7106965317
 30
0.0
  0
VERTEX
  5
696
  8
0
  6
CONTINUOUS
 62
     7
 10
247.3069445156
 20
-38.7090946568
 30
0.0
  0
SEQEND
  5
A88
  8
0
  6
CONTINUOUS
 62
     7
  0
LINE
  5
24E
  8
0
  6
CONTINUOUS
 62
     7
 10
210.8383036145
 20
-28.6505992545
 30
0.0
 11
210.8383036145
 21
-29.00857134
 31
0.0
  0
LINE
  5
24F
  8
0
  6
CONTINUOUS
 62
     7
 10
212.8383035698
 20
-29.00857134
 30
0.0
 11
212.8383035698
 21
-28.6505992545
 31
0.0
  0
ARC
  5
250
  8
0
  6
CONTINUOUS
 62
     7
 10
211.8383035921
 20
-219.0573347956
 30
0.0
 40
184.6914670168486
 50
82.2647823914
 51
97.7352176086
  0
LINE
  5
251
  8
0
  6
CONTINUOUS
 62
     7
 10
251.8970594668
 20
-41.8150994016
 30
0.0
 11
251.8970594668
 21
-36.940325333
 31
0.0
  0
LINE
  5
252
  8
0
  6
CONTINUOUS
 62
     7
 10
171.7795477175
 20
-36.940325333
 30
0.0
 11
171.7795477175
 21
-41.8150994016
 31
0.0
  0
POLYLINE
  5
253
  8
0
  6
CONTINUOUS
 62
     7
 66
     1
 10
0.0
 20
0.0
 30
0.0
  0
VERTEX
  5
697
  8
0
  6
CONTINUOUS
 62
     7
 10
236.6968409084
 20
-43.9219209386
 30
0.0
  0
VERTEX
  5
698
  8
0
  6
CONTINUOUS
 62
     7
 10
237.4734894299
 20
-44.026126249
 30
0.0
  0
VERTEX
  5
699
  8
0
  6
CONTINUOUS
 62
     7
 10
238.3559183144
 20
-44.1408987178
 30
0.0
  0
VERTEX
  5
69A
  8
0
  6
CONTINUOUS
 62
     7
 10
239.2278538012
 20
-44.2506994141
 30
0.0
  0
VERTEX
  5
69B
  8
0
  6
CONTINUOUS
 62
     7
 10
240.0853441023
 20
-44.3549561335
 30
0.0
  0
VERTEX
  5
69C
  8
0
  6
CONTINUOUS
 62
     7
 10
240.9212277197
 20
-44.4524760379
 30
0.0
  0
VERTEX
  5
69D
  8
0
  6
CONTINUOUS
 62
     7
 10
241.7426631712
 20
-44.5437918438
 30
0.0
  0
VERTEX
  5
69E
  8
0
  6
CONTINUOUS
 62
     7
 10
242.5488487743
 20
-44.6283574237
 30
0.0
  0
VERTEX
  5
69F
  8
0
  6
CONTINUOUS
 62
     7
 10
243.3333680891
 20
-44.7049620582
 30
0.0
  0
VERTEX
  5
6A0
  8
0
  6
CONTINUOUS
 62
     7
 10
244.0901533627
 20
-44.7724352611
 30
0.0
  0
VERTEX
  5
6A1
  8
0
  6
CONTINUOUS
 62
     7
 10
244.8138759398
 20
-44.8296654059
 30
0.0
  0
VERTEX
  5
6A2
  8
0
  6
CONTINUOUS
 62
     7
 10
245.5004618429
 20
-44.8755922748
 30
0.0
  0
VERTEX
  5
6A3
  8
0
  6
CONTINUOUS
 62
     7
 10
246.1486504339
 20
-44.9092271758
 30
0.0
  0
VERTEX
  5
6A4
  8
0
  6
CONTINUOUS
 62
     7
 10
246.7666939758
 20
-44.9298570885
 30
0.0
  0
VERTEX
  5
6A5
  8
0
  6
CONTINUOUS
 62
     7
 10
247.3596797251
 20
-44.9357005788
 30
0.0
  0
VERTEX
  5
6A6
  8
0
  6
CONTINUOUS
 62
     7
 10
247.936146047
 20
-44.9232908918
 30
0.0
  0
VERTEX
  5
6A7
  8
0
  6
CONTINUOUS
 62
     7
 10
248.5180930161
 20
-44.8845031692
 30
0.0
  0
VERTEX
  5
6A8
  8
0
  6
CONTINUOUS
 62
     7
 10
249.0808323883
 20
-44.8089065982
 30
0.0
  0
VERTEX
  5
6A9
  8
0
  6
CONTINUOUS
 62
     7
 10
249.446763184
 20
-44.730317129
 30
0.0
  0
VERTEX
  5
6AA
  8
0
  6
CONTINUOUS
 62
     7
 10
249.7844115757
 20
-44.6296903325
 30
0.0
  0
VERTEX
  5
6AB
  8
0
  6
CONTINUOUS
 62
     7
 10
250.0973091387
 20
-44.505887015
 30
0.0
  0
VERTEX
  5
6AC
  8
0
  6
CONTINUOUS
 62
     7
 10
250.3990665936
 20
-44.3517628147
 30
0.0
  0
VERTEX
  5
6AD
  8
0
  6
CONTINUOUS
 62
     7
 10
250.6920234226
 20
-44.1610033645
 30
0.0
  0
VERTEX
  5
6AE
  8
0
  6
CONTINUOUS
 62
     7
 10
250.9725407623
 20
-43.9286584987
 30
0.0
  0
VERTEX
  5
6AF
  8
0
  6
CONTINUOUS
 62
     7
 10
251.2320355438
 20
-43.6532857849
 30
0.0
  0
VERTEX
  5
6B0
  8
0
  6
CONTINUOUS
 62
     7
 10
251.4600084089
 20
-43.3375145329
 30
0.0
  0
VERTEX
  5
6B1
  8
0
  6
CONTINUOUS
 62
     7
 10
251.6467736029
 20
-42.9872083498
 30
0.0
  0
VERTEX
  5
6B2
  8
0
  6
CONTINUOUS
 62
     7
 10
251.796545174
 20
-42.5685103072
 30
0.0
  0
VERTEX
  5
6B3
  8
0
  6
CONTINUOUS
 62
     7
 10
251.8223659062
 20
-42.434650941
 30
0.0
  0
SEQEND
  5
A87
  8
0
  6
CONTINUOUS
 62
     7
  0
POLYLINE
  5
254
  8
0
  6
CONTINUOUS
 62
     7
 66
     1
 10
0.0
 20
0.0
 30
0.0
  0
VERTEX
  5
6B4
  8
0
  6
CONTINUOUS
 62
     7
 10
171.8491003775
 20
-42.4353244735
 30
0.0
  0
VERTEX
  5
6B5
  8
0
  6
CONTINUOUS
 62
     7
 10
171.8500451111
 20
-42.4418347908
 30
0.0
  0
VERTEX
  5
6B6
  8
0
  6
CONTINUOUS
 62
     7
 10
171.972878363
 20
-42.8472514285
 30
0.0
  0
VERTEX
  5
6B7
  8
0
  6
CONTINUOUS
 62
     7
 10
172.1460447573
 20
-43.2161624564
 30
0.0
  0
VERTEX
  5
6B8
  8
0
  6
CONTINUOUS
 62
     7
 10
172.359575417
 20
-43.544222696
 30
0.0
  0
VERTEX
  5
6B9
  8
0
  6
CONTINUOUS
 62
     7
 10
172.6035253071
 20
-43.829210384
 30
0.0
  0
VERTEX
  5
6BA
  8
0
  6
CONTINUOUS
 62
     7
 10
172.8682176136
 20
-44.070809616
 30
0.0
  0
VERTEX
  5
6BB
  8
0
  6
CONTINUOUS
 62
     7
 10
173.1452063583
 20
-44.2709180547
 30
0.0
  0
VERTEX
  5
6BC
  8
0
  6
CONTINUOUS
 62
     7
 10
173.4289989733
 20
-44.4337445332
 30
0.0
  0
VERTEX
  5
6BD
  8
0
  6
CONTINUOUS
 62
     7
 10
173.7189427876
 20
-44.5651884211
 30
0.0
  0
VERTEX
  5
6BE
  8
0
  6
CONTINUOUS
 62
     7
 10
174.0222231411
 20
-44.6720722152
 30
0.0
  0
VERTEX
  5
6BF
  8
0
  6
CONTINUOUS
 62
     7
 10
174.3557498716
 20
-44.7603161467
 30
0.0
  0
VERTEX
  5
6C0
  8
0
  6
CONTINUOUS
 62
     7
 10
174.712924745
 20
-44.8280836476
 30
0.0
  0
VERTEX
  5
6C1
  8
0
  6
CONTINUOUS
 62
     7
 10
175.1784936451
 20
-44.8855648769
 30
0.0
  0
VERTEX
  5
6C2
  8
0
  6
CONTINUOUS
 62
     7
 10
175.8449719214
 20
-44.9262673987
 30
0.0
  0
VERTEX
  5
6C3
  8
0
  6
CONTINUOUS
 62
     7
 10
176.4183239006
 20
-44.9351790382
 30
0.0
  0
VERTEX
  5
6C4
  8
0
  6
CONTINUOUS
 62
     7
 10
176.9989655279
 20
-44.9273224009
 30
0.0
  0
VERTEX
  5
6C5
  8
0
  6
CONTINUOUS
 62
     7
 10
177.6567713284
 20
-44.9033345116
 30
0.0
  0
VERTEX
  5
6C6
  8
0
  6
CONTINUOUS
 62
     7
 10
178.3307001852
 20
-44.8660838438
 30
0.0
  0
VERTEX
  5
6C7
  8
0
  6
CONTINUOUS
 62
     7
 10
179.034052875
 20
-44.8169569506
 30
0.0
  0
VERTEX
  5
6C8
  8
0
  6
CONTINUOUS
 62
     7
 10
179.7691271566
 20
-44.7570222451
 30
0.0
  0
VERTEX
  5
6C9
  8
0
  6
CONTINUOUS
 62
     7
 10
180.5344031118
 20
-44.6871588959
 30
0.0
  0
VERTEX
  5
6CA
  8
0
  6
CONTINUOUS
 62
     7
 10
181.3274339699
 20
-44.6081998779
 30
0.0
  0
VERTEX
  5
6CB
  8
0
  6
CONTINUOUS
 62
     7
 10
182.144911673
 20
-44.5210020079
 30
0.0
  0
VERTEX
  5
6CC
  8
0
  6
CONTINUOUS
 62
     7
 10
182.9830006622
 20
-44.4264466895
 30
0.0
  0
VERTEX
  5
6CD
  8
0
  6
CONTINUOUS
 62
     7
 10
183.8375762962
 20
-44.3254339529
 30
0.0
  0
VERTEX
  5
6CE
  8
0
  6
CONTINUOUS
 62
     7
 10
184.7029612326
 20
-44.2190731896
 30
0.0
  0
VERTEX
  5
6CF
  8
0
  6
CONTINUOUS
 62
     7
 10
185.5744377636
 20
-44.1083143486
 30
0.0
  0
VERTEX
  5
6D0
  8
0
  6
CONTINUOUS
 62
     7
 10
186.4540145659
 20
-43.9929182662
 30
0.0
  0
VERTEX
  5
6D1
  8
0
  6
CONTINUOUS
 62
     7
 10
186.9798258804
 20
-43.9217749072
 30
0.0
  0
SEQEND
  5
A86
  8
0
  6
CONTINUOUS
 62
     7
  0
POLYLINE
  5
255
  8
0
  6
CONTINUOUS
 62
     7
 66
     1
 10
0.0
 20
0.0
 30
0.0
  0
VERTEX
  5
6D2
  8
0
  6
CONTINUOUS
 62
     7
 10
251.8358574175
 20
-42.3647175564
 30
0.0
  0
VERTEX
  5
6D3
  8
0
  6
CONTINUOUS
 62
     7
 10
251.878352549
 20
-42.1444187893
 30
0.0
  0
VERTEX
  5
6D4
  8
0
  6
CONTINUOUS
 62
     7
 10
251.8923685812
 20
-41.8159532381
 30
0.0
  0
SEQEND
  5
A85
  8
0
  6
CONTINUOUS
 62
     7
  0
POLYLINE
  5
256
  8
0
  6
CONTINUOUS
 62
     7
 66
     1
 10
0.0
 20
0.0
 30
0.0
  0
VERTEX
  5
6D5
  8
0
  6
CONTINUOUS
 62
     7
 10
171.7876986527
 20
-41.8087336255
 30
0.0
  0
VERTEX
  5
6D6
  8
0
  6
CONTINUOUS
 62
     7
 10
171.7872784399
 20
-42.008582039
 30
0.0
  0
VERTEX
  5
6D7
  8
0
  6
CONTINUOUS
 62
     7
 10
171.8491003775
 20
-42.4353244735
 30
0.0
  0
SEQEND
  5
A84
  8
0
  6
CONTINUOUS
 62
     7
  0
ARC
  5
257
  8
0
  6
CONTINUOUS
 62
     7
 10
211.8383035921
 20
-226.9324643656
 30
0.0
 40
184.6913998231541
 50
82.26477956
 51
97.73522044
  0
POLYLINE
  5
258
  8
0
  6
CONTINUOUS
 62
     7
 66
     1
 10
0.0
 20
0.0
 30
0.0
  0
VERTEX
  5
6D8
  8
0
  6
CONTINUOUS
 62
     7
 10
306.2555358671
 20
-30.7168806924
 30
0.0
  0
VERTEX
  5
6D9
  8
0
  6
CONTINUOUS
 62
     7
 10
305.4594383501
 20
-30.8288554682
 30
0.0
  0
VERTEX
  5
6DA
  8
0
  6
CONTINUOUS
 62
     7
 10
304.5527503752
 20
-30.968652202
 30
0.0
  0
VERTEX
  5
6DB
  8
0
  6
CONTINUOUS
 62
     7
 10
303.6555097365
 20
-31.119435562
 30
0.0
  0
VERTEX
  5
6DC
  8
0
  6
CONTINUOUS
 62
     7
 10
302.7723298334
 20
-31.2805513872
 30
0.0
  0
VERTEX
  5
6DD
  8
0
  6
CONTINUOUS
 62
     7
 10
301.9178197645
 20
-31.4488093389
 30
0.0
  0
VERTEX
  5
6DE
  8
0
  6
CONTINUOUS
 62
     7
 10
301.0788784288
 20
-31.6260914339
 30
0.0
  0
VERTEX
  5
6DF
  8
0
  6
CONTINUOUS
 62
     7
 10
300.2568052076
 20
-31.8119387163
 30
0.0
  0
VERTEX
  5
6E0
  8
0
  6
CONTINUOUS
 62
     7
 10
299.4577036165
 20
-32.0048938526
 30
0.0
  0
VERTEX
  5
6E1
  8
0
  6
CONTINUOUS
 62
     7
 10
298.6874149107
 20
-32.2034995092
 30
0.0
  0
VERTEX
  5
6E2
  8
0
  6
CONTINUOUS
 62
     7
 10
297.9511962198
 20
-32.4064116014
 30
0.0
  0
VERTEX
  5
6E3
  8
0
  6
CONTINUOUS
 62
     7
 10
297.2532496714
 20
-32.6126034392
 30
0.0
  0
VERTEX
  5
6E4
  8
0
  6
CONTINUOUS
 62
     7
 10
296.5990529322
 20
-32.82024516
 30
0.0
  0
VERTEX
  5
6E5
  8
0
  6
CONTINUOUS
 62
     7
 10
295.9998712801
 20
-33.0248187317
 30
0.0
  0
VERTEX
  5
6E6
  8
0
  6
CONTINUOUS
 62
     7
 10
295.4156682753
 20
-33.2407589091
 30
0.0
  0
VERTEX
  5
6E7
  8
0
  6
CONTINUOUS
 62
     7
 10
294.8622331881
 20
-33.4648097886
 30
0.0
  0
VERTEX
  5
6E8
  8
0
  6
CONTINUOUS
 62
     7
 10
294.3319127821
 20
-33.703937663
 30
0.0
  0
VERTEX
  5
6E9
  8
0
  6
CONTINUOUS
 62
     7
 10
293.8059613966
 20
-33.9760447873
 30
0.0
  0
VERTEX
  5
6EA
  8
0
  6
CONTINUOUS
 62
     7
 10
293.3642492556
 20
-34.2468525304
 30
0.0
  0
VERTEX
  5
6EB
  8
0
  6
CONTINUOUS
 62
     7
 10
293.0596277975
 20
-34.4688723816
 30
0.0
  0
VERTEX
  5
6EC
  8
0
  6
CONTINUOUS
 62
     7
 10
292.8000972532
 20
-34.6919040216
 30
0.0
  0
VERTEX
  5
6ED
  8
0
  6
CONTINUOUS
 62
     7
 10
292.5657854342
 20
-34.9320183529
 30
0.0
  0
VERTEX
  5
6EE
  8
0
  6
CONTINUOUS
 62
     7
 10
292.3533485197
 20
-35.1967657937
 30
0.0
  0
VERTEX
  5
6EF
  8
0
  6
CONTINUOUS
 62
     7
 10
292.1637401842
 20
-35.4928012027
 30
0.0
  0
VERTEX
  5
6F0
  8
0
  6
CONTINUOUS
 62
     7
 10
292.0031175875
 20
-35.8223552836
 30
0.0
  0
VERTEX
  5
6F1
  8
0
  6
CONTINUOUS
 62
     7
 10
291.8802664541
 20
-36.1824403538
 30
0.0
  0
VERTEX
  5
6F2
  8
0
  6
CONTINUOUS
 62
     7
 10
291.8036268019
 20
-36.5658412708
 30
0.0
  0
VERTEX
  5
6F3
  8
0
  6
CONTINUOUS
 62
     7
 10
291.7812512182
 20
-36.931804849
 30
0.0
  0
SEQEND
  5
A83
  8
0
  6
CONTINUOUS
 62
     7
  0
POLYLINE
  5
259
  8
0
  6
CONTINUOUS
 62
     7
 66
     1
 10
0.0
 20
0.0
 30
0.0
  0
VERTEX
  5
6F4
  8
0
  6
CONTINUOUS
 62
     7
 10
371.8914852404
 20
-36.9445930256
 30
0.0
  0
VERTEX
  5
6F5
  8
0
  6
CONTINUOUS
 62
     7
 10
371.89507344
 20
-36.8713329567
 30
0.0
  0
VERTEX
  5
6F6
  8
0
  6
CONTINUOUS
 62
     7
 10
371.8578801416
 20
-36.4724750651
 30
0.0
  0
VERTEX
  5
6F7
  8
0
  6
CONTINUOUS
 62
     7
 10
371.7709527277
 20
-36.0980640186
 30
0.0
  0
VERTEX
  5
6F8
  8
0
  6
CONTINUOUS
 62
     7
 10
371.6428504252
 20
-35.7533390654
 30
0.0
  0
VERTEX
  5
6F9
  8
0
  6
CONTINUOUS
 62
     7
 10
371.4824304842
 20
-35.4414562715
 30
0.0
  0
VERTEX
  5
6FA
  8
0
  6
CONTINUOUS
 62
     7
 10
371.297727611
 20
-35.1626942886
 30
0.0
  0
VERTEX
  5
6FB
  8
0
  6
CONTINUOUS
 62
     7
 10
371.0941658281
 20
-34.9138434066
 30
0.0
  0
VERTEX
  5
6FC
  8
0
  6
CONTINUOUS
 62
     7
 10
370.8725796007
 20
-34.6883977784
 30
0.0
  0
VERTEX
  5
6FD
  8
0
  6
CONTINUOUS
 62
     7
 10
370.6274614595
 20
-34.477206601
 30
0.0
  0
VERTEX
  5
6FE
  8
0
  6
CONTINUOUS
 62
     7
 10
370.3412399553
 20
-34.266507162
 30
0.0
  0
VERTEX
  5
6FF
  8
0
  6
CONTINUOUS
 62
     7
 10
369.9682460093
 20
-34.0322638883
 30
0.0
  0
VERTEX
  5
700
  8
0
  6
CONTINUOUS
 62
     7
 10
369.4884166979
 20
-33.7750162019
 30
0.0
  0
VERTEX
  5
701
  8
0
  6
CONTINUOUS
 62
     7
 10
368.9571008944
 20
-33.5274214877
 30
0.0
  0
VERTEX
  5
702
  8
0
  6
CONTINUOUS
 62
     7
 10
368.4199557566
 20
-33.3037774099
 30
0.0
  0
VERTEX
  5
703
  8
0
  6
CONTINUOUS
 62
     7
 10
367.8017959856
 20
-33.0700437559
 30
0.0
  0
VERTEX
  5
704
  8
0
  6
CONTINUOUS
 62
     7
 10
367.1636328959
 20
-32.8488866819
 30
0.0
  0
VERTEX
  5
705
  8
0
  6
CONTINUOUS
 62
     7
 10
366.5007696413
 20
-32.6364154948
 30
0.0
  0
VERTEX
  5
706
  8
0
  6
CONTINUOUS
 62
     7
 10
365.8136234545
 20
-32.4315498604
 30
0.0
  0
VERTEX
  5
707
  8
0
  6
CONTINUOUS
 62
     7
 10
365.0805459284
 20
-32.2275261415
 30
0.0
  0
VERTEX
  5
708
  8
0
  6
CONTINUOUS
 62
     7
 10
364.3143401407
 20
-32.0281471146
 30
0.0
  0
VERTEX
  5
709
  8
0
  6
CONTINUOUS
 62
     7
 10
363.5174975657
 20
-31.8341265453
 30
0.0
  0
VERTEX
  5
70A
  8
0
  6
CONTINUOUS
 62
     7
 10
362.6931891703
 20
-31.6464151276
 30
0.0
  0
VERTEX
  5
70B
  8
0
  6
CONTINUOUS
 62
     7
 10
361.8450627588
 20
-31.4660976662
 30
0.0
  0
VERTEX
  5
70C
  8
0
  6
CONTINUOUS
 62
     7
 10
360.9770880007
 20
-31.2942977084
 30
0.0
  0
VERTEX
  5
70D
  8
0
  6
CONTINUOUS
 62
     7
 10
360.0934014582
 20
-31.1321417822
 30
0.0
  0
VERTEX
  5
70E
  8
0
  6
CONTINUOUS
 62
     7
 10
359.2036114
 20
-30.9814627303
 30
0.0
  0
VERTEX
  5
70F
  8
0
  6
CONTINUOUS
 62
     7
 10
358.302067306
 20
-30.8412040604
 30
0.0
  0
VERTEX
  5
710
  8
0
  6
CONTINUOUS
 62
     7
 10
357.421146419
 20
-30.7160700692
 30
0.0
  0
SEQEND
  5
A82
  8
0
  6
CONTINUOUS
 62
     7
  0
ARC
  5
25A
  8
0
  6
CONTINUOUS
 62
     7
 10
331.7158504427
 20
-217.8082085088
 30
0.0
 40
188.8172303875906
 50
90.2488982536
 51
97.7494271563
  0
ARC
  5
25B
  8
0
  6
CONTINUOUS
 62
     7
 10
332.0451616286
 20
-216.8996064147
 30
0.0
 40
187.9055487928445
 50
82.2387174998
 51
89.7798336298
  0
POLYLINE
  5
25C
  8
0
  6
CONTINUOUS
 62
     7
 66
     1
 10
0.0
 20
0.0
 30
0.0
  0
VERTEX
  5
711
  8
0
  6
CONTINUOUS
 62
     7
 10
296.3743553423
 20
-38.7058804764
 30
0.0
  0
VERTEX
  5
712
  8
0
  6
CONTINUOUS
 62
     7
 10
296.3728831076
 20
-38.7070099844
 30
0.0
  0
VERTEX
  5
713
  8
0
  6
CONTINUOUS
 62
     7
 10
296.4132890963
 20
-38.6824066771
 30
0.0
  0
VERTEX
  5
714
  8
0
  6
CONTINUOUS
 62
     7
 10
296.5047345423
 20
-38.6319319738
 30
0.0
  0
VERTEX
  5
715
  8
0
  6
CONTINUOUS
 62
     7
 10
296.6539547705
 20
-38.5570357574
 30
0.0
  0
VERTEX
  5
716
  8
0
  6
CONTINUOUS
 62
     7
 10
296.8660102152
 20
-38.459732665
 30
0.0
  0
VERTEX
  5
717
  8
0
  6
CONTINUOUS
 62
     7
 10
297.1435473227
 20
-38.3426676525
 30
0.0
  0
VERTEX
  5
718
  8
0
  6
CONTINUOUS
 62
     7
 10
297.486721065
 20
-38.2089371814
 30
0.0
  0
VERTEX
  5
719
  8
0
  6
CONTINUOUS
 62
     7
 10
297.8935823702
 20
-38.0618075861
 30
0.0
  0
VERTEX
  5
71A
  8
0
  6
CONTINUOUS
 62
     7
 10
298.360674169
 20
-37.9044930471
 30
0.0
  0
VERTEX
  5
71B
  8
0
  6
CONTINUOUS
 62
     7
 10
298.8833055758
 20
-37.740093006
 30
0.0
  0
VERTEX
  5
71C
  8
0
  6
CONTINUOUS
 62
     7
 10
299.4585917257
 20
-37.5710438026
 30
0.0
  0
VERTEX
  5
71D
  8
0
  6
CONTINUOUS
 62
     7
 10
300.0675068163
 20
-37.4034787549
 30
0.0
  0
VERTEX
  5
71E
  8
0
  6
CONTINUOUS
 62
     7
 10
300.7281468176
 20
-37.2328559889
 30
0.0
  0
VERTEX
  5
71F
  8
0
  6
CONTINUOUS
 62
     7
 10
301.4336214327
 20
-37.0619024171
 30
0.0
  0
VERTEX
  5
720
  8
0
  6
CONTINUOUS
 62
     7
 10
302.1765933298
 20
-36.893203391
 30
0.0
  0
VERTEX
  5
721
  8
0
  6
CONTINUOUS
 62
     7
 10
302.9490456843
 20
-36.729266776
 30
0.0
  0
VERTEX
  5
722
  8
0
  6
CONTINUOUS
 62
     7
 10
303.741161611
 20
-36.5727241172
 30
0.0
  0
VERTEX
  5
723
  8
0
  6
CONTINUOUS
 62
     7
 10
304.5444116854
 20
-36.4256571068
 30
0.0
  0
VERTEX
  5
724
  8
0
  6
CONTINUOUS
 62
     7
 10
305.3550586962
 20
-36.2887884511
 30
0.0
  0
VERTEX
  5
725
  8
0
  6
CONTINUOUS
 62
     7
 10
306.1841354632
 20
-36.1601929201
 30
0.0
  0
VERTEX
  5
726
  8
0
  6
CONTINUOUS
 62
     7
 10
306.9799945616
 20
-36.0474805368
 30
0.0
  0
SEQEND
  5
A81
  8
0
  6
CONTINUOUS
 62
     7
  0
POLYLINE
  5
25D
  8
0
  6
CONTINUOUS
 62
     7
 66
     1
 10
0.0
 20
0.0
 30
0.0
  0
VERTEX
  5
727
  8
0
  6
CONTINUOUS
 62
     7
 10
356.6966638826
 20
-36.047854556
 30
0.0
  0
VERTEX
  5
728
  8
0
  6
CONTINUOUS
 62
     7
 10
357.3566184305
 20
-36.1399496926
 30
0.0
  0
VERTEX
  5
729
  8
0
  6
CONTINUOUS
 62
     7
 10
358.1940517687
 20
-36.2681697143
 30
0.0
  0
VERTEX
  5
72A
  8
0
  6
CONTINUOUS
 62
     7
 10
359.023235824
 20
-36.4065940513
 30
0.0
  0
VERTEX
  5
72B
  8
0
  6
CONTINUOUS
 62
     7
 10
359.8376856112
 20
-36.5541200174
 30
0.0
  0
VERTEX
  5
72C
  8
0
  6
CONTINUOUS
 62
     7
 10
360.626505401
 20
-36.7083172335
 30
0.0
  0
VERTEX
  5
72D
  8
0
  6
CONTINUOUS
 62
     7
 10
361.3946423792
 20
-36.8695775999
 30
0.0
  0
VERTEX
  5
72E
  8
0
  6
CONTINUOUS
 62
     7
 10
362.1382937693
 20
-37.0367224349
 30
0.0
  0
VERTEX
  5
72F
  8
0
  6
CONTINUOUS
 62
     7
 10
362.8514275812
 20
-37.2079948915
 30
0.0
  0
VERTEX
  5
730
  8
0
  6
CONTINUOUS
 62
     7
 10
363.5280237459
 20
-37.3814637793
 30
0.0
  0
VERTEX
  5
731
  8
0
  6
CONTINUOUS
 62
     7
 10
364.1623244547
 20
-37.5550623073
 30
0.0
  0
VERTEX
  5
732
  8
0
  6
CONTINUOUS
 62
     7
 10
364.7486791872
 20
-37.7265493406
 30
0.0
  0
VERTEX
  5
733
  8
0
  6
CONTINUOUS
 62
     7
 10
365.2820692324
 20
-37.8935809268
 30
0.0
  0
VERTEX
  5
734
  8
0
  6
CONTINUOUS
 62
     7
 10
365.7613978647
 20
-38.0546222462
 30
0.0
  0
VERTEX
  5
735
  8
0
  6
CONTINUOUS
 62
     7
 10
366.1875591539
 20
-38.2087255849
 30
0.0
  0
VERTEX
  5
736
  8
0
  6
CONTINUOUS
 62
     7
 10
366.553340938
 20
-38.351811005
 30
0.0
  0
VERTEX
  5
737
  8
0
  6
CONTINUOUS
 62
     7
 10
366.8519482874
 20
-38.4790430797
 30
0.0
  0
VERTEX
  5
738
  8
0
  6
CONTINUOUS
 62
     7
 10
367.0561657213
 20
-38.5741512312
 30
0.0
  0
VERTEX
  5
739
  8
0
  6
CONTINUOUS
 62
     7
 10
367.1975360178
 20
-38.6462639107
 30
0.0
  0
VERTEX
  5
73A
  8
0
  6
CONTINUOUS
 62
     7
 10
367.279730823
 20
-38.6924619807
 30
0.0
  0
VERTEX
  5
73B
  8
0
  6
CONTINUOUS
 62
     7
 10
367.3091397547
 20
-38.7106965317
 30
0.0
  0
VERTEX
  5
73C
  8
0
  6
CONTINUOUS
 62
     7
 10
367.3069463038
 20
-38.7090946568
 30
0.0
  0
SEQEND
  5
A80
  8
0
  6
CONTINUOUS
 62
     7
  0
LINE
  5
25E
  8
0
  6
CONTINUOUS
 62
     7
 10
330.8383093142
 20
-28.6505992545
 30
0.0
 11
330.8383093142
 21
-29.00857134
 31
0.0
  0
LINE
  5
25F
  8
0
  6
CONTINUOUS
 62
     7
 10
332.8383074068
 20
-29.00857134
 30
0.0
 11
332.8383074068
 21
-28.6505992545
 31
0.0
  0
ARC
  5
260
  8
0
  6
CONTINUOUS
 62
     7
 10
331.8383024
 20
-219.0573623803
 30
0.0
 40
184.6914943505459
 50
82.2647835432
 51
97.7352164568
  0
LINE
  5
261
  8
0
  6
CONTINUOUS
 62
     7
 10
371.8970642351
 20
-41.8150994016
 30
0.0
 11
371.8970642351
 21
-36.940325333
 31
0.0
  0
LINE
  5
262
  8
0
  6
CONTINUOUS
 62
     7
 10
291.7795465254
 20
-36.940325333
 30
0.0
 11
291.7795465254
 21
-41.8150994016
 31
0.0
  0
POLYLINE
  5
263
  8
0
  6
CONTINUOUS
 62
     7
 66
     1
 10
0.0
 20
0.0
 30
0.0
  0
VERTEX
  5
73D
  8
0
  6
CONTINUOUS
 62
     7
 10
356.6968426966
 20
-43.9219209386
 30
0.0
  0
VERTEX
  5
73E
  8
0
  6
CONTINUOUS
 62
     7
 10
357.473491218
 20
-44.026126249
 30
0.0
  0
VERTEX
  5
73F
  8
0
  6
CONTINUOUS
 62
     7
 10
358.355914142
 20
-44.1408987178
 30
0.0
  0
VERTEX
  5
740
  8
0
  6
CONTINUOUS
 62
     7
 10
359.2278585695
 20
-44.2506994141
 30
0.0
  0
VERTEX
  5
741
  8
0
  6
CONTINUOUS
 62
     7
 10
360.0853429102
 20
-44.3549561335
 30
0.0
  0
VERTEX
  5
742
  8
0
  6
CONTINUOUS
 62
     7
 10
360.9212265276
 20
-44.4524760379
 30
0.0
  0
VERTEX
  5
743
  8
0
  6
CONTINUOUS
 62
     7
 10
361.7426619791
 20
-44.5437918438
 30
0.0
  0
VERTEX
  5
744
  8
0
  6
CONTINUOUS
 62
     7
 10
362.5488505625
 20
-44.6283574237
 30
0.0
  0
VERTEX
  5
745
  8
0
  6
CONTINUOUS
 62
     7
 10
363.333366897
 20
-44.7049620582
 30
0.0
  0
VERTEX
  5
746
  8
0
  6
CONTINUOUS
 62
     7
 10
364.0901551508
 20
-44.7724352611
 30
0.0
  0
VERTEX
  5
747
  8
0
  6
CONTINUOUS
 62
     7
 10
364.8138747477
 20
-44.8296654059
 30
0.0
  0
VERTEX
  5
748
  8
0
  6
CONTINUOUS
 62
     7
 10
365.5004606508
 20
-44.8755922748
 30
0.0
  0
VERTEX
  5
749
  8
0
  6
CONTINUOUS
 62
     7
 10
366.1486492418
 20
-44.9092271758
 30
0.0
  0
VERTEX
  5
74A
  8
0
  6
CONTINUOUS
 62
     7
 10
366.7666898035
 20
-44.9298570885
 30
0.0
  0
VERTEX
  5
74B
  8
0
  6
CONTINUOUS
 62
     7
 10
367.3596844935
 20
-44.9357005788
 30
0.0
  0
VERTEX
  5
74C
  8
0
  6
CONTINUOUS
 62
     7
 10
367.9361448549
 20
-44.9232908918
 30
0.0
  0
VERTEX
  5
74D
  8
0
  6
CONTINUOUS
 62
     7
 10
368.5180888437
 20
-44.8845031692
 30
0.0
  0
VERTEX
  5
74E
  8
0
  6
CONTINUOUS
 62
     7
 10
369.080828216
 20
-44.8089065982
 30
0.0
  0
VERTEX
  5
74F
  8
0
  6
CONTINUOUS
 62
     7
 10
369.4467649721
 20
-44.730317129
 30
0.0
  0
VERTEX
  5
750
  8
0
  6
CONTINUOUS
 62
     7
 10
369.7844133638
 20
-44.6296903325
 30
0.0
  0
VERTEX
  5
751
  8
0
  6
CONTINUOUS
 62
     7
 10
370.0973139071
 20
-44.505887015
 30
0.0
  0
VERTEX
  5
752
  8
0
  6
CONTINUOUS
 62
     7
 10
370.3990683817
 20
-44.3517628147
 30
0.0
  0
VERTEX
  5
753
  8
0
  6
CONTINUOUS
 62
     7
 10
370.6920252108
 20
-44.1610033645
 30
0.0
  0
VERTEX
  5
754
  8
0
  6
CONTINUOUS
 62
     7
 10
370.97253659
 20
-43.9286584987
 30
0.0
  0
VERTEX
  5
755
  8
0
  6
CONTINUOUS
 62
     7
 10
371.2320313715
 20
-43.6532857849
 30
0.0
  0
VERTEX
  5
756
  8
0
  6
CONTINUOUS
 62
     7
 10
371.4600072168
 20
-43.3375145329
 30
0.0
  0
VERTEX
  5
757
  8
0
  6
CONTINUOUS
 62
     7
 10
371.6467724108
 20
-42.9872083498
 30
0.0
  0
VERTEX
  5
758
  8
0
  6
CONTINUOUS
 62
     7
 10
371.7965469622
 20
-42.5685103072
 30
0.0
  0
VERTEX
  5
759
  8
0
  6
CONTINUOUS
 62
     7
 10
371.8223676943
 20
-42.434650941
 30
0.0
  0
SEQEND
  5
A7F
  8
0
  6
CONTINUOUS
 62
     7
  0
POLYLINE
  5
264
  8
0
  6
CONTINUOUS
 62
     7
 66
     1
 10
0.0
 20
0.0
 30
0.0
  0
VERTEX
  5
75A
  8
0
  6
CONTINUOUS
 62
     7
 10
291.8490991854
 20
-42.4353244735
 30
0.0
  0
VERTEX
  5
75B
  8
0
  6
CONTINUOUS
 62
     7
 10
291.8500468992
 20
-42.4418347908
 30
0.0
  0
VERTEX
  5
75C
  8
0
  6
CONTINUOUS
 62
     7
 10
291.9728801512
 20
-42.8472514285
 30
0.0
  0
VERTEX
  5
75D
  8
0
  6
CONTINUOUS
 62
     7
 10
292.1460435652
 20
-43.2161624564
 30
0.0
  0
VERTEX
  5
75E
  8
0
  6
CONTINUOUS
 62
     7
 10
292.3595772051
 20
-43.544222696
 30
0.0
  0
VERTEX
  5
75F
  8
0
  6
CONTINUOUS
 62
     7
 10
292.6035270952
 20
-43.829210384
 30
0.0
  0
VERTEX
  5
760
  8
0
  6
CONTINUOUS
 62
     7
 10
292.8682194017
 20
-44.070809616
 30
0.0
  0
VERTEX
  5
761
  8
0
  6
CONTINUOUS
 62
     7
 10
293.1452081465
 20
-44.2709180547
 30
0.0
  0
VERTEX
  5
762
  8
0
  6
CONTINUOUS
 62
     7
 10
293.4289977812
 20
-44.4337445332
 30
0.0
  0
VERTEX
  5
763
  8
0
  6
CONTINUOUS
 62
     7
 10
293.7189445757
 20
-44.5651884211
 30
0.0
  0
VERTEX
  5
764
  8
0
  6
CONTINUOUS
 62
     7
 10
294.0222249292
 20
-44.6720722152
 30
0.0
  0
VERTEX
  5
765
  8
0
  6
CONTINUOUS
 62
     7
 10
294.3557486796
 20
-44.7603161467
 30
0.0
  0
VERTEX
  5
766
  8
0
  6
CONTINUOUS
 62
     7
 10
294.7129235529
 20
-44.8280836476
 30
0.0
  0
VERTEX
  5
767
  8
0
  6
CONTINUOUS
 62
     7
 10
295.1784954332
 20
-44.8855648769
 30
0.0
  0
VERTEX
  5
768
  8
0
  6
CONTINUOUS
 62
     7
 10
295.8449707293
 20
-44.9262673987
 30
0.0
  0
VERTEX
  5
769
  8
0
  6
CONTINUOUS
 62
     7
 10
296.4183256888
 20
-44.9351790382
 30
0.0
  0
VERTEX
  5
76A
  8
0
  6
CONTINUOUS
 62
     7
 10
296.9989643358
 20
-44.9273224009
 30
0.0
  0
VERTEX
  5
76B
  8
0
  6
CONTINUOUS
 62
     7
 10
297.6567731165
 20
-44.9033345116
 30
0.0
  0
VERTEX
  5
76C
  8
0
  6
CONTINUOUS
 62
     7
 10
298.3306989931
 20
-44.8660838438
 30
0.0
  0
VERTEX
  5
76D
  8
0
  6
CONTINUOUS
 62
     7
 10
299.0340516829
 20
-44.8169569506
 30
0.0
  0
VERTEX
  5
76E
  8
0
  6
CONTINUOUS
 62
     7
 10
299.7691259646
 20
-44.7570222451
 30
0.0
  0
VERTEX
  5
76F
  8
0
  6
CONTINUOUS
 62
     7
 10
300.5344019198
 20
-44.6871588959
 30
0.0
  0
VERTEX
  5
770
  8
0
  6
CONTINUOUS
 62
     7
 10
301.327435758
 20
-44.6081998779
 30
0.0
  0
VERTEX
  5
771
  8
0
  6
CONTINUOUS
 62
     7
 10
302.1449134611
 20
-44.5210020079
 30
0.0
  0
VERTEX
  5
772
  8
0
  6
CONTINUOUS
 62
     7
 10
302.9829964899
 20
-44.4264466895
 30
0.0
  0
VERTEX
  5
773
  8
0
  6
CONTINUOUS
 62
     7
 10
303.8375721239
 20
-44.3254339529
 30
0.0
  0
VERTEX
  5
774
  8
0
  6
CONTINUOUS
 62
     7
 10
304.7029600405
 20
-44.2190731896
 30
0.0
  0
VERTEX
  5
775
  8
0
  6
CONTINUOUS
 62
     7
 10
305.5744335913
 20
-44.1083143486
 30
0.0
  0
VERTEX
  5
776
  8
0
  6
CONTINUOUS
 62
     7
 10
306.4540133738
 20
-43.9929182662
 30
0.0
  0
VERTEX
  5
777
  8
0
  6
CONTINUOUS
 62
     7
 10
306.9798276686
 20
-43.9217749072
 30
0.0
  0
SEQEND
  5
A7E
  8
0
  6
CONTINUOUS
 62
     7
  0
POLYLINE
  5
265
  8
0
  6
CONTINUOUS
 62
     7
 66
     1
 10
0.0
 20
0.0
 30
0.0
  0
VERTEX
  5
778
  8
0
  6
CONTINUOUS
 62
     7
 10
371.8358621859
 20
-42.3647175564
 30
0.0
  0
VERTEX
  5
779
  8
0
  6
CONTINUOUS
 62
     7
 10
371.8783483767
 20
-42.1444187893
 30
0.0
  0
VERTEX
  5
77A
  8
0
  6
CONTINUOUS
 62
     7
 10
371.8923673891
 20
-41.8159532381
 30
0.0
  0
SEQEND
  5
A7D
  8
0
  6
CONTINUOUS
 62
     7
  0
POLYLINE
  5
266
  8
0
  6
CONTINUOUS
 62
     7
 66
     1
 10
0.0
 20
0.0
 30
0.0
  0
VERTEX
  5
77B
  8
0
  6
CONTINUOUS
 62
     7
 10
291.7877004408
 20
-41.8087336255
 30
0.0
  0
VERTEX
  5
77C
  8
0
  6
CONTINUOUS
 62
     7
 10
291.7872772478
 20
-42.008582039
 30
0.0
  0
VERTEX
  5
77D
  8
0
  6
CONTINUOUS
 62
     7
 10
291.8490991854
 20
-42.4353244735
 30
0.0
  0
SEQEND
  5
A7C
  8
0
  6
CONTINUOUS
 62
     7
  0
ARC
  5
267
  8
0
  6
CONTINUOUS
 62
     7
 10
331.8383024
 20
-226.9324919503
 30
0.0
 40
184.6914271568431
 50
82.2647807118
 51
97.7352192882
  0
POLYLINE
  5
268
  8
0
  6
CONTINUOUS
 62
     7
 66
     1
 10
0.0
 20
0.0
 30
0.0
  0
VERTEX
  5
77E
  8
0
  6
CONTINUOUS
 62
     7
 10
66.2555442118
 20
-30.7168806924
 30
0.0
  0
VERTEX
  5
77F
  8
0
  6
CONTINUOUS
 62
     7
 10
65.4594407343
 20
-30.8288554682
 30
0.0
  0
VERTEX
  5
780
  8
0
  6
CONTINUOUS
 62
     7
 10
64.5527467989
 20
-30.968652202
 30
0.0
  0
VERTEX
  5
781
  8
0
  6
CONTINUOUS
 62
     7
 10
63.6555061602
 20
-31.119435562
 30
0.0
  0
VERTEX
  5
782
  8
0
  6
CONTINUOUS
 62
     7
 10
62.7723322176
 20
-31.2805513872
 30
0.0
  0
VERTEX
  5
783
  8
0
  6
CONTINUOUS
 62
     7
 10
61.9178161882
 20
-31.4488093389
 30
0.0
  0
VERTEX
  5
784
  8
0
  6
CONTINUOUS
 62
     7
 10
61.078880813
 20
-31.6260914339
 30
0.0
  0
VERTEX
  5
785
  8
0
  6
CONTINUOUS
 62
     7
 10
60.2568016314
 20
-31.8119387163
 30
0.0
  0
VERTEX
  5
786
  8
0
  6
CONTINUOUS
 62
     7
 10
59.4577060007
 20
-32.0048938526
 30
0.0
  0
VERTEX
  5
787
  8
0
  6
CONTINUOUS
 62
     7
 10
58.6874232554
 20
-32.2034995092
 30
0.0
  0
VERTEX
  5
788
  8
0
  6
CONTINUOUS
 62
     7
 10
57.951198604
 20
-32.4064116014
 30
0.0
  0
VERTEX
  5
789
  8
0
  6
CONTINUOUS
 62
     7
 10
57.2532520556
 20
-32.6126034392
 30
0.0
  0
VERTEX
  5
78A
  8
0
  6
CONTINUOUS
 62
     7
 10
56.5990553164
 20
-32.82024516
 30
0.0
  0
VERTEX
  5
78B
  8
0
  6
CONTINUOUS
 62
     7
 10
55.9998736643
 20
-33.0248187317
 30
0.0
  0
VERTEX
  5
78C
  8
0
  6
CONTINUOUS
 62
     7
 10
55.415664699
 20
-33.2407589091
 30
0.0
  0
VERTEX
  5
78D
  8
0
  6
CONTINUOUS
 62
     7
 10
54.8622355723
 20
-33.4648097886
 30
0.0
  0
VERTEX
  5
78E
  8
0
  6
CONTINUOUS
 62
     7
 10
54.3319092058
 20
-33.703937663
 30
0.0
  0
VERTEX
  5
78F
  8
0
  6
CONTINUOUS
 62
     7
 10
53.8059578203
 20
-33.9760447873
 30
0.0
  0
VERTEX
  5
790
  8
0
  6
CONTINUOUS
 62
     7
 10
53.3642516398
 20
-34.2468525304
 30
0.0
  0
VERTEX
  5
791
  8
0
  6
CONTINUOUS
 62
     7
 10
53.0596242212
 20
-34.4688723816
 30
0.0
  0
VERTEX
  5
792
  8
0
  6
CONTINUOUS
 62
     7
 10
52.800093677
 20
-34.6919040216
 30
0.0
  0
VERTEX
  5
793
  8
0
  6
CONTINUOUS
 62
     7
 10
52.5657878183
 20
-34.9320183529
 30
0.0
  0
VERTEX
  5
794
  8
0
  6
CONTINUOUS
 62
     7
 10
52.3533449434
 20
-35.1967657937
 30
0.0
  0
VERTEX
  5
795
  8
0
  6
CONTINUOUS
 62
     7
 10
52.1637425684
 20
-35.4928012027
 30
0.0
  0
VERTEX
  5
796
  8
0
  6
CONTINUOUS
 62
     7
 10
52.0031199717
 20
-35.8223552836
 30
0.0
  0
VERTEX
  5
797
  8
0
  6
CONTINUOUS
 62
     7
 10
51.8802628779
 20
-36.1824403538
 30
0.0
  0
VERTEX
  5
798
  8
0
  6
CONTINUOUS
 62
     7
 10
51.8036232256
 20
-36.5658412708
 30
0.0
  0
VERTEX
  5
799
  8
0
  6
CONTINUOUS
 62
     7
 10
51.781247642
 20
-36.931804849
 30
0.0
  0
SEQEND
  5
A7B
  8
0
  6
CONTINUOUS
 62
     7
  0
POLYLINE
  5
269
  8
0
  6
CONTINUOUS
 62
     7
 66
     1
 10
0.0
 20
0.0
 30
0.0
  0
VERTEX
  5
79A
  8
0
  6
CONTINUOUS
 62
     7
 10
131.8914816641
 20
-36.9445930256
 30
0.0
  0
VERTEX
  5
79B
  8
0
  6
CONTINUOUS
 62
     7
 10
131.8950758242
 20
-36.8713329567
 30
0.0
  0
VERTEX
  5
79C
  8
0
  6
CONTINUOUS
 62
     7
 10
131.8578825258
 20
-36.4724750651
 30
0.0
  0
VERTEX
  5
79D
  8
0
  6
CONTINUOUS
 62
     7
 10
131.7709551119
 20
-36.0980640186
 30
0.0
  0
VERTEX
  5
79E
  8
0
  6
CONTINUOUS
 62
     7
 10
131.6428528093
 20
-35.7533390654
 30
0.0
  0
VERTEX
  5
79F
  8
0
  6
CONTINUOUS
 62
     7
 10
131.4824269079
 20
-35.4414562715
 30
0.0
  0
VERTEX
  5
7A0
  8
0
  6
CONTINUOUS
 62
     7
 10
131.2977299952
 20
-35.1626942886
 30
0.0
  0
VERTEX
  5
7A1
  8
0
  6
CONTINUOUS
 62
     7
 10
131.0941682123
 20
-34.9138434066
 30
0.0
  0
VERTEX
  5
7A2
  8
0
  6
CONTINUOUS
 62
     7
 10
130.8725819849
 20
-34.6883977784
 30
0.0
  0
VERTEX
  5
7A3
  8
0
  6
CONTINUOUS
 62
     7
 10
130.6274578833
 20
-34.477206601
 30
0.0
  0
VERTEX
  5
7A4
  8
0
  6
CONTINUOUS
 62
     7
 10
130.3412423395
 20
-34.266507162
 30
0.0
  0
VERTEX
  5
7A5
  8
0
  6
CONTINUOUS
 62
     7
 10
129.968242433
 20
-34.0322638883
 30
0.0
  0
VERTEX
  5
7A6
  8
0
  6
CONTINUOUS
 62
     7
 10
129.4884250425
 20
-33.7750162019
 30
0.0
  0
VERTEX
  5
7A7
  8
0
  6
CONTINUOUS
 62
     7
 10
128.9570973181
 20
-33.5274214877
 30
0.0
  0
VERTEX
  5
7A8
  8
0
  6
CONTINUOUS
 62
     7
 10
128.4199581408
 20
-33.3037774099
 30
0.0
  0
VERTEX
  5
7A9
  8
0
  6
CONTINUOUS
 62
     7
 10
127.8017983698
 20
-33.0700437559
 30
0.0
  0
VERTEX
  5
7AA
  8
0
  6
CONTINUOUS
 62
     7
 10
127.1636293196
 20
-32.8488866819
 30
0.0
  0
VERTEX
  5
7AB
  8
0
  6
CONTINUOUS
 62
     7
 10
126.500766065
 20
-32.6364154948
 30
0.0
  0
VERTEX
  5
7AC
  8
0
  6
CONTINUOUS
 62
     7
 10
125.8136258387
 20
-32.4315498604
 30
0.0
  0
VERTEX
  5
7AD
  8
0
  6
CONTINUOUS
 62
     7
 10
125.0805423521
 20
-32.2275261415
 30
0.0
  0
VERTEX
  5
7AE
  8
0
  6
CONTINUOUS
 62
     7
 10
124.3143425249
 20
-32.0281471146
 30
0.0
  0
VERTEX
  5
7AF
  8
0
  6
CONTINUOUS
 62
     7
 10
123.5174999498
 20
-31.8341265453
 30
0.0
  0
VERTEX
  5
7B0
  8
0
  6
CONTINUOUS
 62
     7
 10
122.693185594
 20
-31.6464151276
 30
0.0
  0
VERTEX
  5
7B1
  8
0
  6
CONTINUOUS
 62
     7
 10
121.845065143
 20
-31.4660976662
 30
0.0
  0
VERTEX
  5
7B2
  8
0
  6
CONTINUOUS
 62
     7
 10
120.9770844244
 20
-31.2942977084
 30
0.0
  0
VERTEX
  5
7B3
  8
0
  6
CONTINUOUS
 62
     7
 10
120.0934038424
 20
-31.1321417822
 30
0.0
  0
VERTEX
  5
7B4
  8
0
  6
CONTINUOUS
 62
     7
 10
119.2036078238
 20
-30.9814627303
 30
0.0
  0
VERTEX
  5
7B5
  8
0
  6
CONTINUOUS
 62
     7
 10
118.3020637297
 20
-30.8412040604
 30
0.0
  0
VERTEX
  5
7B6
  8
0
  6
CONTINUOUS
 62
     7
 10
117.4211488031
 20
-30.7160700692
 30
0.0
  0
SEQEND
  5
A7A
  8
0
  6
CONTINUOUS
 62
     7
  0
ARC
  5
26A
  8
0
  6
CONTINUOUS
 62
     7
 10
91.7158528269
 20
-217.8082085088
 30
0.0
 40
188.8172303875913
 50
90.2488982536
 51
97.7494271563
  0
ARC
  5
26B
  8
0
  6
CONTINUOUS
 62
     7
 10
92.0451537295
 20
-216.899753815
 30
0.0
 40
187.9056962316232
 50
82.2387204626
 51
89.779830667
  0
POLYLINE
  5
26C
  8
0
  6
CONTINUOUS
 62
     7
 66
     1
 10
0.0
 20
0.0
 30
0.0
  0
VERTEX
  5
7B7
  8
0
  6
CONTINUOUS
 62
     7
 10
56.3743577265
 20
-38.7058804764
 30
0.0
  0
VERTEX
  5
7B8
  8
0
  6
CONTINUOUS
 62
     7
 10
56.3728795313
 20
-38.7070099844
 30
0.0
  0
VERTEX
  5
7B9
  8
0
  6
CONTINUOUS
 62
     7
 10
56.4132914805
 20
-38.6824066771
 30
0.0
  0
VERTEX
  5
7BA
  8
0
  6
CONTINUOUS
 62
     7
 10
56.5047369265
 20
-38.6319319738
 30
0.0
  0
VERTEX
  5
7BB
  8
0
  6
CONTINUOUS
 62
     7
 10
56.6539511942
 20
-38.5570357574
 30
0.0
  0
VERTEX
  5
7BC
  8
0
  6
CONTINUOUS
 62
     7
 10
56.8660125994
 20
-38.459732665
 30
0.0
  0
VERTEX
  5
7BD
  8
0
  6
CONTINUOUS
 62
     7
 10
57.1435437464
 20
-38.3426676525
 30
0.0
  0
VERTEX
  5
7BE
  8
0
  6
CONTINUOUS
 62
     7
 10
57.4867234491
 20
-38.2089371814
 30
0.0
  0
VERTEX
  5
7BF
  8
0
  6
CONTINUOUS
 62
     7
 10
57.8935847544
 20
-38.0618075861
 30
0.0
  0
VERTEX
  5
7C0
  8
0
  6
CONTINUOUS
 62
     7
 10
58.3606705927
 20
-37.9044930471
 30
0.0
  0
VERTEX
  5
7C1
  8
0
  6
CONTINUOUS
 62
     7
 10
58.8833079599
 20
-37.740093006
 30
0.0
  0
VERTEX
  5
7C2
  8
0
  6
CONTINUOUS
 62
     7
 10
59.4585881495
 20
-37.5710438026
 30
0.0
  0
VERTEX
  5
7C3
  8
0
  6
CONTINUOUS
 62
     7
 10
60.0675092005
 20
-37.4034787549
 30
0.0
  0
VERTEX
  5
7C4
  8
0
  6
CONTINUOUS
 62
     7
 10
60.7281432413
 20
-37.2328559889
 30
0.0
  0
VERTEX
  5
7C5
  8
0
  6
CONTINUOUS
 62
     7
 10
61.4336238169
 20
-37.0619024171
 30
0.0
  0
VERTEX
  5
7C6
  8
0
  6
CONTINUOUS
 62
     7
 10
62.176595714
 20
-36.893203391
 30
0.0
  0
VERTEX
  5
7C7
  8
0
  6
CONTINUOUS
 62
     7
 10
62.9490480684
 20
-36.729266776
 30
0.0
  0
VERTEX
  5
7C8
  8
0
  6
CONTINUOUS
 62
     7
 10
63.7411580347
 20
-36.5727241172
 30
0.0
  0
VERTEX
  5
7C9
  8
0
  6
CONTINUOUS
 62
     7
 10
64.5444140696
 20
-36.4256571068
 30
0.0
  0
VERTEX
  5
7CA
  8
0
  6
CONTINUOUS
 62
     7
 10
65.3550610804
 20
-36.2887884511
 30
0.0
  0
VERTEX
  5
7CB
  8
0
  6
CONTINUOUS
 62
     7
 10
66.1841378473
 20
-36.1601929201
 30
0.0
  0
VERTEX
  5
7CC
  8
0
  6
CONTINUOUS
 62
     7
 10
66.9799909853
 20
-36.0474805368
 30
0.0
  0
SEQEND
  5
A79
  8
0
  6
CONTINUOUS
 62
     7
  0
POLYLINE
  5
26D
  8
0
  6
CONTINUOUS
 62
     7
 66
     1
 10
0.0
 20
0.0
 30
0.0
  0
VERTEX
  5
7CD
  8
0
  6
CONTINUOUS
 62
     7
 10
116.6966603064
 20
-36.047854556
 30
0.0
  0
VERTEX
  5
7CE
  8
0
  6
CONTINUOUS
 62
     7
 10
117.3566208147
 20
-36.1399496926
 30
0.0
  0
VERTEX
  5
7CF
  8
0
  6
CONTINUOUS
 62
     7
 10
118.1940541529
 20
-36.2681697143
 30
0.0
  0
VERTEX
  5
7D0
  8
0
  6
CONTINUOUS
 62
     7
 10
119.0232322477
 20
-36.4065940513
 30
0.0
  0
VERTEX
  5
7D1
  8
0
  6
CONTINUOUS
 62
     7
 10
119.8376879953
 20
-36.5541200174
 30
0.0
  0
VERTEX
  5
7D2
  8
0
  6
CONTINUOUS
 62
     7
 10
120.6265018248
 20
-36.7083172335
 30
0.0
  0
VERTEX
  5
7D3
  8
0
  6
CONTINUOUS
 62
     7
 10
121.3946447634
 20
-36.8695775999
 30
0.0
  0
VERTEX
  5
7D4
  8
0
  6
CONTINUOUS
 62
     7
 10
122.138290193
 20
-37.0367224349
 30
0.0
  0
VERTEX
  5
7D5
  8
0
  6
CONTINUOUS
 62
     7
 10
122.8514240049
 20
-37.2079948915
 30
0.0
  0
VERTEX
  5
7D6
  8
0
  6
CONTINUOUS
 62
     7
 10
123.5280261301
 20
-37.3814637793
 30
0.0
  0
VERTEX
  5
7D7
  8
0
  6
CONTINUOUS
 62
     7
 10
124.1623208784
 20
-37.5550623073
 30
0.0
  0
VERTEX
  5
7D8
  8
0
  6
CONTINUOUS
 62
     7
 10
124.7486756109
 20
-37.7265493406
 30
0.0
  0
VERTEX
  5
7D9
  8
0
  6
CONTINUOUS
 62
     7
 10
125.2820716166
 20
-37.8935809268
 30
0.0
  0
VERTEX
  5
7DA
  8
0
  6
CONTINUOUS
 62
     7
 10
125.7613942885
 20
-38.0546222462
 30
0.0
  0
VERTEX
  5
7DB
  8
0
  6
CONTINUOUS
 62
     7
 10
126.1875674986
 20
-38.2087255849
 30
0.0
  0
VERTEX
  5
7DC
  8
0
  6
CONTINUOUS
 62
     7
 10
126.5533433222
 20
-38.351811005
 30
0.0
  0
VERTEX
  5
7DD
  8
0
  6
CONTINUOUS
 62
     7
 10
126.8519506716
 20
-38.4790430797
 30
0.0
  0
VERTEX
  5
7DE
  8
0
  6
CONTINUOUS
 62
     7
 10
127.0561621451
 20
-38.5741512312
 30
0.0
  0
VERTEX
  5
7DF
  8
0
  6
CONTINUOUS
 62
     7
 10
127.197538402
 20
-38.6462639107
 30
0.0
  0
VERTEX
  5
7E0
  8
0
  6
CONTINUOUS
 62
     7
 10
127.2797272467
 20
-38.6924619807
 30
0.0
  0
VERTEX
  5
7E1
  8
0
  6
CONTINUOUS
 62
     7
 10
127.3091421389
 20
-38.7106965317
 30
0.0
  0
VERTEX
  5
7E2
  8
0
  6
CONTINUOUS
 62
     7
 10
127.3069427275
 20
-38.7090946568
 30
0.0
  0
SEQEND
  5
A78
  8
0
  6
CONTINUOUS
 62
     7
  0
LINE
  5
26E
  8
0
  6
CONTINUOUS
 62
     7
 10
90.8382997774
 20
-28.6505992545
 30
0.0
 11
90.8382997774
 21
-29.00857134
 31
0.0
  0
LINE
  5
26F
  8
0
  6
CONTINUOUS
 62
     7
 10
92.8382978701
 20
-29.00857134
 30
0.0
 11
92.8382978701
 21
-28.6505992545
 31
0.0
  0
ARC
  5
270
  8
0
  6
CONTINUOUS
 62
     7
 10
91.8383047842
 20
-219.0573220452
 30
0.0
 40
184.691454382523
 50
82.264781859
 51
97.735218141
  0
LINE
  5
271
  8
0
  6
CONTINUOUS
 62
     7
 10
51.7795429491
 20
-36.940325333
 30
0.0
 11
51.7795429491
 21
-41.8150994016
 31
0.0
  0
LINE
  5
272
  8
0
  6
CONTINUOUS
 62
     7
 10
131.8970606588
 20
-41.8150994016
 30
0.0
 11
131.8970606588
 21
-36.940325333
 31
0.0
  0
POLYLINE
  5
273
  8
0
  6
CONTINUOUS
 62
     7
 66
     1
 10
0.0
 20
0.0
 30
0.0
  0
VERTEX
  5
7E3
  8
0
  6
CONTINUOUS
 62
     7
 10
116.6968391203
 20
-43.9219209386
 30
0.0
  0
VERTEX
  5
7E4
  8
0
  6
CONTINUOUS
 62
     7
 10
117.4734876417
 20
-44.026126249
 30
0.0
  0
VERTEX
  5
7E5
  8
0
  6
CONTINUOUS
 62
     7
 10
118.3559165262
 20
-44.1408987178
 30
0.0
  0
VERTEX
  5
7E6
  8
0
  6
CONTINUOUS
 62
     7
 10
119.2278549933
 20
-44.2506994141
 30
0.0
  0
VERTEX
  5
7E7
  8
0
  6
CONTINUOUS
 62
     7
 10
120.0853452944
 20
-44.3549561335
 30
0.0
  0
VERTEX
  5
7E8
  8
0
  6
CONTINUOUS
 62
     7
 10
120.9212289118
 20
-44.4524760379
 30
0.0
  0
VERTEX
  5
7E9
  8
0
  6
CONTINUOUS
 62
     7
 10
121.7426643633
 20
-44.5437918438
 30
0.0
  0
VERTEX
  5
7EA
  8
0
  6
CONTINUOUS
 62
     7
 10
122.5488529467
 20
-44.6283574237
 30
0.0
  0
VERTEX
  5
7EB
  8
0
  6
CONTINUOUS
 62
     7
 10
123.3333692812
 20
-44.7049620582
 30
0.0
  0
VERTEX
  5
7EC
  8
0
  6
CONTINUOUS
 62
     7
 10
124.0901515745
 20
-44.7724352611
 30
0.0
  0
VERTEX
  5
7ED
  8
0
  6
CONTINUOUS
 62
     7
 10
124.8138771319
 20
-44.8296654059
 30
0.0
  0
VERTEX
  5
7EE
  8
0
  6
CONTINUOUS
 62
     7
 10
125.500463035
 20
-44.8755922748
 30
0.0
  0
VERTEX
  5
7EF
  8
0
  6
CONTINUOUS
 62
     7
 10
126.148651626
 20
-44.9092271758
 30
0.0
  0
VERTEX
  5
7F0
  8
0
  6
CONTINUOUS
 62
     7
 10
126.7666921877
 20
-44.9298570885
 30
0.0
  0
VERTEX
  5
7F1
  8
0
  6
CONTINUOUS
 62
     7
 10
127.3596809172
 20
-44.9357005788
 30
0.0
  0
VERTEX
  5
7F2
  8
0
  6
CONTINUOUS
 62
     7
 10
127.9361472391
 20
-44.9232908918
 30
0.0
  0
VERTEX
  5
7F3
  8
0
  6
CONTINUOUS
 62
     7
 10
128.5180912279
 20
-44.8845031692
 30
0.0
  0
VERTEX
  5
7F4
  8
0
  6
CONTINUOUS
 62
     7
 10
129.0808306002
 20
-44.8089065982
 30
0.0
  0
VERTEX
  5
7F5
  8
0
  6
CONTINUOUS
 62
     7
 10
129.4467613958
 20
-44.730317129
 30
0.0
  0
VERTEX
  5
7F6
  8
0
  6
CONTINUOUS
 62
     7
 10
129.7844097876
 20
-44.6296903325
 30
0.0
  0
VERTEX
  5
7F7
  8
0
  6
CONTINUOUS
 62
     7
 10
130.0973103308
 20
-44.505887015
 30
0.0
  0
VERTEX
  5
7F8
  8
0
  6
CONTINUOUS
 62
     7
 10
130.3990648054
 20
-44.3517628147
 30
0.0
  0
VERTEX
  5
7F9
  8
0
  6
CONTINUOUS
 62
     7
 10
130.692027595
 20
-44.1610033645
 30
0.0
  0
VERTEX
  5
7FA
  8
0
  6
CONTINUOUS
 62
     7
 10
130.9725389742
 20
-43.9286584987
 30
0.0
  0
VERTEX
  5
7FB
  8
0
  6
CONTINUOUS
 62
     7
 10
131.2320337557
 20
-43.6532857849
 30
0.0
  0
VERTEX
  5
7FC
  8
0
  6
CONTINUOUS
 62
     7
 10
131.460009601
 20
-43.3375145329
 30
0.0
  0
VERTEX
  5
7FD
  8
0
  6
CONTINUOUS
 62
     7
 10
131.646774795
 20
-42.9872083498
 30
0.0
  0
VERTEX
  5
7FE
  8
0
  6
CONTINUOUS
 62
     7
 10
131.7965433859
 20
-42.5685103072
 30
0.0
  0
VERTEX
  5
7FF
  8
0
  6
CONTINUOUS
 62
     7
 10
131.822364118
 20
-42.434650941
 30
0.0
  0
SEQEND
  5
A77
  8
0
  6
CONTINUOUS
 62
     7
  0
POLYLINE
  5
274
  8
0
  6
CONTINUOUS
 62
     7
 66
     1
 10
0.0
 20
0.0
 30
0.0
  0
VERTEX
  5
800
  8
0
  6
CONTINUOUS
 62
     7
 10
51.8491015696
 20
-42.4353244735
 30
0.0
  0
VERTEX
  5
801
  8
0
  6
CONTINUOUS
 62
     7
 10
51.850043323
 20
-42.4418347908
 30
0.0
  0
VERTEX
  5
802
  8
0
  6
CONTINUOUS
 62
     7
 10
51.9728765749
 20
-42.8472514285
 30
0.0
  0
VERTEX
  5
803
  8
0
  6
CONTINUOUS
 62
     7
 10
52.1460399889
 20
-43.2161624564
 30
0.0
  0
VERTEX
  5
804
  8
0
  6
CONTINUOUS
 62
     7
 10
52.3595795893
 20
-43.544222696
 30
0.0
  0
VERTEX
  5
805
  8
0
  6
CONTINUOUS
 62
     7
 10
52.6035294794
 20
-43.829210384
 30
0.0
  0
VERTEX
  5
806
  8
0
  6
CONTINUOUS
 62
     7
 10
52.8682217859
 20
-44.070809616
 30
0.0
  0
VERTEX
  5
807
  8
0
  6
CONTINUOUS
 62
     7
 10
53.1452045702
 20
-44.2709180547
 30
0.0
  0
VERTEX
  5
808
  8
0
  6
CONTINUOUS
 62
     7
 10
53.4289942049
 20
-44.4337445332
 30
0.0
  0
VERTEX
  5
809
  8
0
  6
CONTINUOUS
 62
     7
 10
53.7189469599
 20
-44.5651884211
 30
0.0
  0
VERTEX
  5
80A
  8
0
  6
CONTINUOUS
 62
     7
 10
54.0222273134
 20
-44.6720722152
 30
0.0
  0
VERTEX
  5
80B
  8
0
  6
CONTINUOUS
 62
     7
 10
54.3557510637
 20
-44.7603161467
 30
0.0
  0
VERTEX
  5
80C
  8
0
  6
CONTINUOUS
 62
     7
 10
54.7129259371
 20
-44.8280836476
 30
0.0
  0
VERTEX
  5
80D
  8
0
  6
CONTINUOUS
 62
     7
 10
55.1784978174
 20
-44.8855648769
 30
0.0
  0
VERTEX
  5
80E
  8
0
  6
CONTINUOUS
 62
     7
 10
55.8449731134
 20
-44.9262673987
 30
0.0
  0
VERTEX
  5
80F
  8
0
  6
CONTINUOUS
 62
     7
 10
56.4183221125
 20
-44.9351790382
 30
0.0
  0
VERTEX
  5
810
  8
0
  6
CONTINUOUS
 62
     7
 10
56.99896672
 20
-44.9273224009
 30
0.0
  0
VERTEX
  5
811
  8
0
  6
CONTINUOUS
 62
     7
 10
57.6567755007
 20
-44.9033345116
 30
0.0
  0
VERTEX
  5
812
  8
0
  6
CONTINUOUS
 62
     7
 10
58.3307013773
 20
-44.8660838438
 30
0.0
  0
VERTEX
  5
813
  8
0
  6
CONTINUOUS
 62
     7
 10
59.0340481066
 20
-44.8169569506
 30
0.0
  0
VERTEX
  5
814
  8
0
  6
CONTINUOUS
 62
     7
 10
59.7691283487
 20
-44.7570222451
 30
0.0
  0
VERTEX
  5
815
  8
0
  6
CONTINUOUS
 62
     7
 10
60.5344043039
 20
-44.6871588959
 30
0.0
  0
VERTEX
  5
816
  8
0
  6
CONTINUOUS
 62
     7
 10
61.3274321817
 20
-44.6081998779
 30
0.0
  0
VERTEX
  5
817
  8
0
  6
CONTINUOUS
 62
     7
 10
62.1449098848
 20
-44.5210020079
 30
0.0
  0
VERTEX
  5
818
  8
0
  6
CONTINUOUS
 62
     7
 10
62.9829988741
 20
-44.4264466895
 30
0.0
  0
VERTEX
  5
819
  8
0
  6
CONTINUOUS
 62
     7
 10
63.8375745081
 20
-44.3254339529
 30
0.0
  0
VERTEX
  5
81A
  8
0
  6
CONTINUOUS
 62
     7
 10
64.7029624247
 20
-44.2190731896
 30
0.0
  0
VERTEX
  5
81B
  8
0
  6
CONTINUOUS
 62
     7
 10
65.5744419359
 20
-44.1083143486
 30
0.0
  0
VERTEX
  5
81C
  8
0
  6
CONTINUOUS
 62
     7
 10
66.454015758
 20
-43.9929182662
 30
0.0
  0
VERTEX
  5
81D
  8
0
  6
CONTINUOUS
 62
     7
 10
66.9798240923
 20
-43.9217749072
 30
0.0
  0
SEQEND
  5
A76
  8
0
  6
CONTINUOUS
 62
     7
  0
POLYLINE
  5
275
  8
0
  6
CONTINUOUS
 62
     7
 66
     1
 10
0.0
 20
0.0
 30
0.0
  0
VERTEX
  5
81E
  8
0
  6
CONTINUOUS
 62
     7
 10
131.8358586096
 20
-42.3647175564
 30
0.0
  0
VERTEX
  5
81F
  8
0
  6
CONTINUOUS
 62
     7
 10
131.8783507608
 20
-42.1444187893
 30
0.0
  0
VERTEX
  5
820
  8
0
  6
CONTINUOUS
 62
     7
 10
131.8923697733
 20
-41.8159532381
 30
0.0
  0
SEQEND
  5
A75
  8
0
  6
CONTINUOUS
 62
     7
  0
POLYLINE
  5
276
  8
0
  6
CONTINUOUS
 62
     7
 66
     1
 10
0.0
 20
0.0
 30
0.0
  0
VERTEX
  5
821
  8
0
  6
CONTINUOUS
 62
     7
 10
51.7876968645
 20
-41.8087336255
 30
0.0
  0
VERTEX
  5
822
  8
0
  6
CONTINUOUS
 62
     7
 10
51.787279632
 20
-42.008582039
 30
0.0
  0
VERTEX
  5
823
  8
0
  6
CONTINUOUS
 62
     7
 10
51.8491015696
 20
-42.4353244735
 30
0.0
  0
SEQEND
  5
A74
  8
0
  6
CONTINUOUS
 62
     7
  0
ARC
  5
277
  8
0
  6
CONTINUOUS
 62
     7
 10
91.8383047842
 20
-226.9324516153
 30
0.0
 40
184.6913871888199
 50
82.2647790276
 51
97.7352209724
  0
POLYLINE
  5
278
  8
0
  6
CONTINUOUS
 62
     7
 66
     1
 10
0.0
 20
0.0
 30
0.0
  0
VERTEX
  5
824
  8
0
  6
CONTINUOUS
 62
     7
 10
237.4223993086
 20
-60.7155087425
 30
0.0
  0
VERTEX
  5
825
  8
0
  6
CONTINUOUS
 62
     7
 10
238.213355925
 20
-60.6045852436
 30
0.0
  0
VERTEX
  5
826
  8
0
  6
CONTINUOUS
 62
     7
 10
239.1138330959
 20
-60.4683603181
 30
0.0
  0
VERTEX
  5
827
  8
0
  6
CONTINUOUS
 62
     7
 10
240.0047318005
 20
-60.3234942092
 30
0.0
  0
VERTEX
  5
828
  8
0
  6
CONTINUOUS
 62
     7
 10
240.8812032007
 20
-60.170693232
 30
0.0
  0
VERTEX
  5
829
  8
0
  6
CONTINUOUS
 62
     7
 10
241.7289451622
 20
-60.0129525198
 30
0.0
  0
VERTEX
  5
82A
  8
0
  6
CONTINUOUS
 62
     7
 10
242.5609276556
 20
-59.8484936191
 30
0.0
  0
VERTEX
  5
82B
  8
0
  6
CONTINUOUS
 62
     7
 10
243.375419166
 20
-59.6778969301
 30
0.0
  0
VERTEX
  5
82C
  8
0
  6
CONTINUOUS
 62
     7
 10
244.1660747789
 20
-59.5026570393
 30
0.0
  0
VERTEX
  5
82D
  8
0
  6
CONTINUOUS
 62
     7
 10
244.9267492556
 20
-59.3242953552
 30
0.0
  0
VERTEX
  5
82E
  8
0
  6
CONTINUOUS
 62
     7
 10
245.6517801546
 20
-59.1442755444
 30
0.0
  0
VERTEX
  5
82F
  8
0
  6
CONTINUOUS
 62
     7
 10
246.3363454603
 20
-58.9638761265
 30
0.0
  0
VERTEX
  5
830
  8
0
  6
CONTINUOUS
 62
     7
 10
246.9753966593
 20
-58.7848271264
 30
0.0
  0
VERTEX
  5
831
  8
0
  6
CONTINUOUS
 62
     7
 10
247.5601182245
 20
-58.6104991866
 30
0.0
  0
VERTEX
  5
832
  8
0
  6
CONTINUOUS
 62
     7
 10
248.1245593094
 20
-58.430461867
 30
0.0
  0
VERTEX
  5
833
  8
0
  6
CONTINUOUS
 62
     7
 10
248.6536697411
 20
-58.2481714918
 30
0.0
  0
VERTEX
  5
834
  8
0
  6
CONTINUOUS
 62
     7
 10
249.1527692341
 20
-58.0598513616
 30
0.0
  0
VERTEX
  5
835
  8
0
  6
CONTINUOUS
 62
     7
 10
249.6366129183
 20
-57.8550274505
 30
0.0
  0
VERTEX
  5
836
  8
0
  6
CONTINUOUS
 62
     7
 10
250.1513735317
 20
-57.5977976455
 30
0.0
  0
VERTEX
  5
837
  8
0
  6
CONTINUOUS
 62
     7
 10
250.4390136265
 20
-57.4252734913
 30
0.0
  0
VERTEX
  5
838
  8
0
  6
CONTINUOUS
 62
     7
 10
250.6750241779
 20
-57.2602714433
 30
0.0
  0
VERTEX
  5
839
  8
0
  6
CONTINUOUS
 62
     7
 10
250.8973047995
 20
-57.0781565292
 30
0.0
  0
VERTEX
  5
83A
  8
0
  6
CONTINUOUS
 62
     7
 10
251.1095181965
 20
-56.8712390049
 30
0.0
  0
VERTEX
  5
83B
  8
0
  6
CONTINUOUS
 62
     7
 10
251.3126299643
 20
-56.6304682775
 30
0.0
  0
VERTEX
  5
83C
  8
0
  6
CONTINUOUS
 62
     7
 10
251.5011356138
 20
-56.3500545008
 30
0.0
  0
VERTEX
  5
83D
  8
0
  6
CONTINUOUS
 62
     7
 10
251.6641274952
 20
-56.0308461098
 30
0.0
  0
VERTEX
  5
83E
  8
0
  6
CONTINUOUS
 62
     7
 10
251.7903760933
 20
-55.6778761579
 30
0.0
  0
VERTEX
  5
83F
  8
0
  6
CONTINUOUS
 62
     7
 10
251.8702373766
 20
-55.3002496271
 30
0.0
  0
VERTEX
  5
840
  8
0
  6
CONTINUOUS
 62
     7
 10
251.8961981796
 20
-54.9255284501
 30
0.0
  0
SEQEND
  5
A73
  8
0
  6
CONTINUOUS
 62
     7
  0
POLYLINE
  5
279
  8
0
  6
CONTINUOUS
 62
     7
 66
     1
 10
0.0
 20
0.0
 30
0.0
  0
VERTEX
  5
841
  8
0
  6
CONTINUOUS
 62
     7
 10
171.7880592608
 20
-54.9089758678
 30
0.0
  0
VERTEX
  5
842
  8
0
  6
CONTINUOUS
 62
     7
 10
171.7884526514
 20
-55.1202251597
 30
0.0
  0
VERTEX
  5
843
  8
0
  6
CONTINUOUS
 62
     7
 10
171.8439326548
 20
-55.5035299642
 30
0.0
  0
VERTEX
  5
844
  8
0
  6
CONTINUOUS
 62
     7
 10
171.9458953404
 20
-55.8597228511
 30
0.0
  0
VERTEX
  5
845
  8
0
  6
CONTINUOUS
 62
     7
 10
172.0852480196
 20
-56.183495654
 30
0.0
  0
VERTEX
  5
846
  8
0
  6
CONTINUOUS
 62
     7
 10
172.2520575785
 20
-56.4710888101
 30
0.0
  0
VERTEX
  5
847
  8
0
  6
CONTINUOUS
 62
     7
 10
172.4367753529
 20
-56.7217375172
 30
0.0
  0
VERTEX
  5
848
  8
0
  6
CONTINUOUS
 62
     7
 10
172.6316139959
 20
-56.9376721068
 30
0.0
  0
VERTEX
  5
849
  8
0
  6
CONTINUOUS
 62
     7
 10
172.8331015371
 20
-57.1247539504
 30
0.0
  0
VERTEX
  5
84A
  8
0
  6
CONTINUOUS
 62
     7
 10
173.0436638855
 20
-57.2914543582
 30
0.0
  0
VERTEX
  5
84B
  8
0
  6
CONTINUOUS
 62
     7
 10
173.2725367807
 20
-57.4476963861
 30
0.0
  0
VERTEX
  5
84C
  8
0
  6
CONTINUOUS
 62
     7
 10
173.5420391821
 20
-57.6070706381
 30
0.0
  0
VERTEX
  5
84D
  8
0
  6
CONTINUOUS
 62
     7
 10
173.9152387642
 20
-57.7969445868
 30
0.0
  0
VERTEX
  5
84E
  8
0
  6
CONTINUOUS
 62
     7
 10
174.4567111992
 20
-58.0323210938
 30
0.0
  0
VERTEX
  5
84F
  8
0
  6
CONTINUOUS
 62
     7
 10
174.9503479265
 20
-58.2212059779
 30
0.0
  0
VERTEX
  5
850
  8
0
  6
CONTINUOUS
 62
     7
 10
175.462170031
 20
-58.3999495043
 30
0.0
  0
VERTEX
  5
851
  8
0
  6
CONTINUOUS
 62
     7
 10
176.0532573723
 20
-58.5906195475
 30
0.0
  0
VERTEX
  5
852
  8
0
  6
CONTINUOUS
 62
     7
 10
176.6716734432
 20
-58.7761747671
 30
0.0
  0
VERTEX
  5
853
  8
0
  6
CONTINUOUS
 62
     7
 10
177.3192838692
 20
-58.9581671192
 30
0.0
  0
VERTEX
  5
854
  8
0
  6
CONTINUOUS
 62
     7
 10
177.9929057621
 20
-59.1362225844
 30
0.0
  0
VERTEX
  5
855
  8
0
  6
CONTINUOUS
 62
     7
 10
178.7155167126
 20
-59.3163500561
 30
0.0
  0
VERTEX
  5
856
  8
0
  6
CONTINUOUS
 62
     7
 10
179.4728026651
 20
-59.4945761396
 30
0.0
  0
VERTEX
  5
857
  8
0
  6
CONTINUOUS
 62
     7
 10
180.2618847155
 20
-59.67000304
 30
0.0
  0
VERTEX
  5
858
  8
0
  6
CONTINUOUS
 62
     7
 10
181.0792581104
 20
-59.8415660693
 30
0.0
  0
VERTEX
  5
859
  8
0
  6
CONTINUOUS
 62
     7
 10
181.920982983
 20
-60.0081237985
 30
0.0
  0
VERTEX
  5
85A
  8
0
  6
CONTINUOUS
 62
     7
 10
182.7829138302
 20
-60.1685213877
 30
0.0
  0
VERTEX
  5
85B
  8
0
  6
CONTINUOUS
 62
     7
 10
183.660586264
 20
-60.3215943111
 30
0.0
  0
VERTEX
  5
85C
  8
0
  6
CONTINUOUS
 62
     7
 10
184.5441476368
 20
-60.4655097259
 30
0.0
  0
VERTEX
  5
85D
  8
0
  6
CONTINUOUS
 62
     7
 10
185.4399279617
 20
-60.6013651027
 30
0.0
  0
VERTEX
  5
85E
  8
0
  6
CONTINUOUS
 62
     7
 10
186.2541691326
 20
-60.7158768011
 30
0.0
  0
SEQEND
  5
A72
  8
0
  6
CONTINUOUS
 62
     7
  0
ARC
  5
27A
  8
0
  6
CONTINUOUS
 62
     7
 10
211.8383035921
 20
126.9398491204
 30
0.0
 40
189.3926361360352
 50
262.2364757419
 51
277.7635242581
  0
POLYLINE
  5
27B
  8
0
  6
CONTINUOUS
 62
     7
 66
     1
 10
0.0
 20
0.0
 30
0.0
  0
VERTEX
  5
85F
  8
0
  6
CONTINUOUS
 62
     7
 10
247.5329534077
 20
-52.8980922207
 30
0.0
  0
VERTEX
  5
860
  8
0
  6
CONTINUOUS
 62
     7
 10
247.5352362656
 20
-52.8967069366
 30
0.0
  0
VERTEX
  5
861
  8
0
  6
CONTINUOUS
 62
     7
 10
247.4982307219
 20
-52.9158278738
 30
0.0
  0
VERTEX
  5
862
  8
0
  6
CONTINUOUS
 62
     7
 10
247.4106714987
 20
-52.9571059894
 30
0.0
  0
VERTEX
  5
863
  8
0
  6
CONTINUOUS
 62
     7
 10
247.2642467283
 20
-53.0202857647
 30
0.0
  0
VERTEX
  5
864
  8
0
  6
CONTINUOUS
 62
     7
 10
247.0537439846
 20
-53.1038722277
 30
0.0
  0
VERTEX
  5
865
  8
0
  6
CONTINUOUS
 62
     7
 10
246.7765615248
 20
-53.2057599884
 30
0.0
  0
VERTEX
  5
866
  8
0
  6
CONTINUOUS
 62
     7
 10
246.4329049849
 20
-53.3233391142
 30
0.0
  0
VERTEX
  5
867
  8
0
  6
CONTINUOUS
 62
     7
 10
246.0251555704
 20
-53.4538162893
 30
0.0
  0
VERTEX
  5
868
  8
0
  6
CONTINUOUS
 62
     7
 10
245.5570951962
 20
-53.5944531227
 30
0.0
  0
VERTEX
  5
869
  8
0
  6
CONTINUOUS
 62
     7
 10
245.0332806372
 20
-53.742691504
 30
0.0
  0
VERTEX
  5
86A
  8
0
  6
CONTINUOUS
 62
     7
 10
244.4595889114
 20
-53.8957826814
 30
0.0
  0
VERTEX
  5
86B
  8
0
  6
CONTINUOUS
 62
     7
 10
243.844284203
 20
-54.0507607183
 30
0.0
  0
VERTEX
  5
86C
  8
0
  6
CONTINUOUS
 62
     7
 10
243.1850478911
 20
-54.2078532299
 30
0.0
  0
VERTEX
  5
86D
  8
0
  6
CONTINUOUS
 62
     7
 10
242.4803213142
 20
-54.3668168618
 30
0.0
  0
VERTEX
  5
86E
  8
0
  6
CONTINUOUS
 62
     7
 10
241.7371974253
 20
-54.5253648443
 30
0.0
  0
VERTEX
  5
86F
  8
0
  6
CONTINUOUS
 62
     7
 10
240.9633622431
 20
-54.6812492443
 30
0.0
  0
VERTEX
  5
870
  8
0
  6
CONTINUOUS
 62
     7
 10
240.168161776
 20
-54.8320825232
 30
0.0
  0
VERTEX
  5
871
  8
0
  6
CONTINUOUS
 62
     7
 10
239.3602446579
 20
-54.9758262022
 30
0.0
  0
VERTEX
  5
872
  8
0
  6
CONTINUOUS
 62
     7
 10
238.5459885859
 20
-55.1111568717
 30
0.0
  0
VERTEX
  5
873
  8
0
  6
CONTINUOUS
 62
     7
 10
237.7166257166
 20
-55.2396359874
 30
0.0
  0
VERTEX
  5
874
  8
0
  6
CONTINUOUS
 62
     7
 10
236.8733213209
 20
-55.3609744666
 30
0.0
  0
VERTEX
  5
875
  8
0
  6
CONTINUOUS
 62
     7
 10
236.6956115626
 20
-55.3846064044
 30
0.0
  0
SEQEND
  5
A71
  8
0
  6
CONTINUOUS
 62
     7
  0
POLYLINE
  5
27C
  8
0
  6
CONTINUOUS
 62
     7
 66
     1
 10
0.0
 20
0.0
 30
0.0
  0
VERTEX
  5
876
  8
0
  6
CONTINUOUS
 62
     7
 10
186.9812549018
 20
-55.3848783506
 30
0.0
  0
VERTEX
  5
877
  8
0
  6
CONTINUOUS
 62
     7
 10
186.3158062958
 20
-55.2921553163
 30
0.0
  0
VERTEX
  5
878
  8
0
  6
CONTINUOUS
 62
     7
 10
185.472141292
 20
-55.1652680172
 30
0.0
  0
VERTEX
  5
879
  8
0
  6
CONTINUOUS
 62
     7
 10
184.6366540455
 20
-55.0301820992
 30
0.0
  0
VERTEX
  5
87A
  8
0
  6
CONTINUOUS
 62
     7
 10
183.8156656288
 20
-54.8879317029
 30
0.0
  0
VERTEX
  5
87B
  8
0
  6
CONTINUOUS
 62
     7
 10
183.0199495815
 20
-54.7408035977
 30
0.0
  0
VERTEX
  5
87C
  8
0
  6
CONTINUOUS
 62
     7
 10
182.2446779274
 20
-54.5884291662
 30
0.0
  0
VERTEX
  5
87D
  8
0
  6
CONTINUOUS
 62
     7
 10
181.4933375382
 20
-54.431852421
 30
0.0
  0
VERTEX
  5
87E
  8
0
  6
CONTINUOUS
 62
     7
 10
180.7715848946
 20
-54.2726195438
 30
0.0
  0
VERTEX
  5
87F
  8
0
  6
CONTINUOUS
 62
     7
 10
180.085404303
 20
-54.1124759263
 30
0.0
  0
VERTEX
  5
880
  8
0
  6
CONTINUOUS
 62
     7
 10
179.4403926396
 20
-53.9532170652
 30
0.0
  0
VERTEX
  5
881
  8
0
  6
CONTINUOUS
 62
     7
 10
178.8419828676
 20
-53.796749471
 30
0.0
  0
VERTEX
  5
882
  8
0
  6
CONTINUOUS
 62
     7
 10
178.2948509716
 20
-53.644988781
 30
0.0
  0
VERTEX
  5
883
  8
0
  6
CONTINUOUS
 62
     7
 10
177.8007791304
 20
-53.4993755652
 30
0.0
  0
VERTEX
  5
884
  8
0
  6
CONTINUOUS
 62
     7
 10
177.3584888243
 20
-53.360457767
 30
0.0
  0
VERTEX
  5
885
  8
0
  6
CONTINUOUS
 62
     7
 10
176.9747451805
 20
-53.2313781345
 30
0.0
  0
VERTEX
  5
886
  8
0
  6
CONTINUOUS
 62
     7
 10
176.6566411518
 20
-53.1160166973
 30
0.0
  0
VERTEX
  5
887
  8
0
  6
CONTINUOUS
 62
     7
 10
176.4337942862
 20
-53.028509407
 30
0.0
  0
VERTEX
  5
888
  8
0
  6
CONTINUOUS
 62
     7
 10
176.2758002543
 20
-52.961116968
 30
0.0
  0
VERTEX
  5
889
  8
0
  6
CONTINUOUS
 62
     7
 10
176.1801020168
 20
-52.9164697064
 30
0.0
  0
VERTEX
  5
88A
  8
0
  6
CONTINUOUS
 62
     7
 10
176.1406020187
 20
-52.8962421019
 30
0.0
  0
VERTEX
  5
88B
  8
0
  6
CONTINUOUS
 62
     7
 10
176.1433915161
 20
-52.897935159
 30
0.0
  0
SEQEND
  5
A70
  8
0
  6
CONTINUOUS
 62
     7
  0
ARC
  5
27D
  8
0
  6
CONTINUOUS
 62
     7
 10
211.8383035921
 20
126.9398557383
 30
0.0
 40
184.0126429371263
 50
262.2364821677
 51
277.7635178323
  0
LINE
  5
27E
  8
0
  6
CONTINUOUS
 62
     7
 10
171.7795477175
 20
-51.4255981913
 30
0.0
 11
171.7795477175
 21
-54.91182795
 31
0.0
  0
LINE
  5
27F
  8
0
  6
CONTINUOUS
 62
     7
 10
251.8970594668
 20
-54.91182795
 30
0.0
 11
251.8970594668
 21
-51.4255981913
 31
0.0
  0
LINE
  5
280
  8
0
  6
CONTINUOUS
 62
     7
 10
248.5383049511
 20
-59.1612684561
 30
0.0
 11
249.5383039974
 21
-59.1612684561
 31
0.0
  0
LINE
  5
281
  8
0
  6
CONTINUOUS
 62
     7
 10
174.1383031868
 20
-59.1612684561
 30
0.0
 11
175.1383022331
 21
-59.1612684561
 31
0.0
  0
POLYLINE
  5
282
  8
0
  6
CONTINUOUS
 62
     7
 66
     1
 10
0.0
 20
0.0
 30
0.0
  0
VERTEX
  5
88C
  8
0
  6
CONTINUOUS
 62
     7
 10
186.9810552262
 20
-49.7536762638
 30
0.0
  0
VERTEX
  5
88D
  8
0
  6
CONTINUOUS
 62
     7
 10
186.2103746199
 20
-49.6491703225
 30
0.0
  0
VERTEX
  5
88E
  8
0
  6
CONTINUOUS
 62
     7
 10
185.3346661591
 20
-49.5318035616
 30
0.0
  0
VERTEX
  5
88F
  8
0
  6
CONTINUOUS
 62
     7
 10
184.4697699808
 20
-49.4172296507
 30
0.0
  0
VERTEX
  5
890
  8
0
  6
CONTINUOUS
 62
     7
 10
183.6198911928
 20
-49.3060546948
 30
0.0
  0
VERTEX
  5
891
  8
0
  6
CONTINUOUS
 62
     7
 10
182.7917800211
 20
-49.1994927658
 30
0.0
  0
VERTEX
  5
892
  8
0
  6
CONTINUOUS
 62
     7
 10
181.9784627222
 20
-49.0969779922
 30
0.0
  0
VERTEX
  5
893
  8
0
  6
CONTINUOUS
 62
     7
 10
181.1813400053
 20
-48.9990907742
 30
0.0
  0
VERTEX
  5
894
  8
0
  6
CONTINUOUS
 62
     7
 10
180.4071710371
 20
-48.9071103765
 30
0.0
  0
VERTEX
  5
895
  8
0
  6
CONTINUOUS
 62
     7
 10
179.6624676251
 20
-48.8222784383
 30
0.0
  0
VERTEX
  5
896
  8
0
  6
CONTINUOUS
 62
     7
 10
178.953118708
 20
-48.7457606031
 30
0.0
  0
VERTEX
  5
897
  8
0
  6
CONTINUOUS
 62
     7
 10
178.284166839
 20
-48.6786278917
 30
0.0
  0
VERTEX
  5
898
  8
0
  6
CONTINUOUS
 62
     7
 10
177.6569322609
 20
-48.6216752811
 30
0.0
  0
VERTEX
  5
899
  8
0
  6
CONTINUOUS
 62
     7
 10
177.0629540943
 20
-48.5749288483
 30
0.0
  0
VERTEX
  5
89A
  8
0
  6
CONTINUOUS
 62
     7
 10
176.5009657406
 20
-48.539429812
 30
0.0
  0
VERTEX
  5
89B
  8
0
  6
CONTINUOUS
 62
     7
 10
175.9667144083
 20
-48.5167558326
 30
0.0
  0
VERTEX
  5
89C
  8
0
  6
CONTINUOUS
 62
     7
 10
175.4477367663
 20
-48.5099761768
 30
0.0
  0
VERTEX
  5
89D
  8
0
  6
CONTINUOUS
 62
     7
 10
174.9065444731
 20
-48.528106047
 30
0.0
  0
VERTEX
  5
89E
  8
0
  6
CONTINUOUS
 62
     7
 10
174.5524720215
 20
-48.5615185483
 30
0.0
  0
VERTEX
  5
89F
  8
0
  6
CONTINUOUS
 62
     7
 10
174.2534683012
 20
-48.6087913646
 30
0.0
  0
VERTEX
  5
8A0
  8
0
  6
CONTINUOUS
 62
     7
 10
173.9710078501
 20
-48.6740606858
 30
0.0
  0
VERTEX
  5
8A1
  8
0
  6
CONTINUOUS
 62
     7
 10
173.6947313809
 20
-48.7615331097
 30
0.0
  0
VERTEX
  5
8A2
  8
0
  6
CONTINUOUS
 62
     7
 10
173.4164551758
 20
-48.8779238446
 30
0.0
  0
VERTEX
  5
8A3
  8
0
  6
CONTINUOUS
 62
     7
 10
173.1336251759
 20
-49.031260146
 30
0.0
  0
VERTEX
  5
8A4
  8
0
  6
CONTINUOUS
 62
     7
 10
172.8511021399
 20
-49.2282888873
 30
0.0
  0
VERTEX
  5
8A5
  8
0
  6
CONTINUOUS
 62
     7
 10
172.58046427
 20
-49.4712150676
 30
0.0
  0
VERTEX
  5
8A6
  8
0
  6
CONTINUOUS
 62
     7
 10
172.3340735697
 20
-49.7586528791
 30
0.0
  0
VERTEX
  5
8A7
  8
0
  6
CONTINUOUS
 62
     7
 10
172.1238837504
 20
-50.0849851428
 30
0.0
  0
VERTEX
  5
8A8
  8
0
  6
CONTINUOUS
 62
     7
 10
171.9589875006
 20
-50.4424625097
 30
0.0
  0
VERTEX
  5
8A9
  8
0
  6
CONTINUOUS
 62
     7
 10
171.8476579451
 20
-50.825109428
 30
0.0
  0
SEQEND
  5
A6F
  8
0
  6
CONTINUOUS
 62
     7
  0
POLYLINE
  5
283
  8
0
  6
CONTINUOUS
 62
     7
 66
     1
 10
0.0
 20
0.0
 30
0.0
  0
VERTEX
  5
8AA
  8
0
  6
CONTINUOUS
 62
     7
 10
251.8252477907
 20
-50.8259098066
 30
0.0
  0
VERTEX
  5
8AB
  8
0
  6
CONTINUOUS
 62
     7
 10
251.7369554304
 20
-50.4992463647
 30
0.0
  0
VERTEX
  5
8AC
  8
0
  6
CONTINUOUS
 62
     7
 10
251.5754208826
 20
-50.1297281144
 30
0.0
  0
VERTEX
  5
8AD
  8
0
  6
CONTINUOUS
 62
     7
 10
251.3721779846
 20
-49.8009289636
 30
0.0
  0
VERTEX
  5
8AE
  8
0
  6
CONTINUOUS
 62
     7
 10
251.1372671389
 20
-49.5153537972
 30
0.0
  0
VERTEX
  5
8AF
  8
0
  6
CONTINUOUS
 62
     7
 10
250.8811191582
 20
-49.274245931
 30
0.0
  0
VERTEX
  5
8B0
  8
0
  6
CONTINUOUS
 62
     7
 10
250.614275124
 20
-49.0770558847
 30
0.0
  0
VERTEX
  5
8B1
  8
0
  6
CONTINUOUS
 62
     7
 10
250.3456071877
 20
-48.9206145538
 30
0.0
  0
VERTEX
  5
8B2
  8
0
  6
CONTINUOUS
 62
     7
 10
250.0812456869
 20
-48.7997989191
 30
0.0
  0
VERTEX
  5
8B3
  8
0
  6
CONTINUOUS
 62
     7
 10
249.8216406368
 20
-48.7077957971
 30
0.0
  0
VERTEX
  5
8B4
  8
0
  6
CONTINUOUS
 62
     7
 10
249.5608554148
 20
-48.6378560795
 30
0.0
  0
VERTEX
  5
8B5
  8
0
  6
CONTINUOUS
 62
     7
 10
249.2848680281
 20
-48.5844465925
 30
0.0
  0
VERTEX
  5
8B6
  8
0
  6
CONTINUOUS
 62
     7
 10
248.9668414854
 20
-48.5442361815
 30
0.0
  0
VERTEX
  5
8B7
  8
0
  6
CONTINUOUS
 62
     7
 10
248.5915020966
 20
-48.5188866986
 30
0.0
  0
VERTEX
  5
8B8
  8
0
  6
CONTINUOUS
 62
     7
 10
247.9922042154
 20
-48.5114282949
 30
0.0
  0
VERTEX
  5
8B9
  8
0
  6
CONTINUOUS
 62
     7
 10
247.4702552818
 20
-48.5259211643
 30
0.0
  0
VERTEX
  5
8BA
  8
0
  6
CONTINUOUS
 62
     7
 10
246.9369308018
 20
-48.5537002815
 30
0.0
  0
VERTEX
  5
8BB
  8
0
  6
CONTINUOUS
 62
     7
 10
246.325753715
 20
-48.5967586769
 30
0.0
  0
VERTEX
  5
8BC
  8
0
  6
CONTINUOUS
 62
     7
 10
245.6927583479
 20
-48.6505395754
 30
0.0
  0
VERTEX
  5
8BD
  8
0
  6
CONTINUOUS
 62
     7
 10
245.036588695
 20
-48.7136281116
 30
0.0
  0
VERTEX
  5
8BE
  8
0
  6
CONTINUOUS
 62
     7
 10
244.338096764
 20
-48.7866665257
 30
0.0
  0
VERTEX
  5
8BF
  8
0
  6
CONTINUOUS
 62
     7
 10
243.6095909142
 20
-48.8677310778
 30
0.0
  0
VERTEX
  5
8C0
  8
0
  6
CONTINUOUS
 62
     7
 10
242.8490386271
 20
-48.9564898445
 30
0.0
  0
VERTEX
  5
8C1
  8
0
  6
CONTINUOUS
 62
     7
 10
242.0597867035
 20
-49.0520912243
 30
0.0
  0
VERTEX
  5
8C2
  8
0
  6
CONTINUOUS
 62
     7
 10
241.2457660698
 20
-49.1536307169
 30
0.0
  0
VERTEX
  5
8C3
  8
0
  6
CONTINUOUS
 62
     7
 10
240.4112622999
 20
-49.2601661964
 30
0.0
  0
VERTEX
  5
8C4
  8
0
  6
CONTINUOUS
 62
     7
 10
239.5607099794
 20
-49.3707443608
 30
0.0
  0
VERTEX
  5
8C5
  8
0
  6
CONTINUOUS
 62
     7
 10
238.7016967796
 20
-49.4839741869
 30
0.0
  0
VERTEX
  5
8C6
  8
0
  6
CONTINUOUS
 62
     7
 10
237.8341273331
 20
-49.5996705277
 30
0.0
  0
VERTEX
  5
8C7
  8
0
  6
CONTINUOUS
 62
     7
 10
236.9596050047
 20
-49.7176590396
 30
0.0
  0
VERTEX
  5
8C8
  8
0
  6
CONTINUOUS
 62
     7
 10
236.6954327487
 20
-49.75372283
 30
0.0
  0
SEQEND
  5
A6E
  8
0
  6
CONTINUOUS
 62
     7
  0
LINE
  5
284
  8
0
  6
CONTINUOUS
 62
     7
 10
251.8368766569
 20
-50.8884209229
 30
0.0
 11
251.8269763254
 21
-50.8260750232
 31
0.0
  0
POLYLINE
  5
285
  8
0
  6
CONTINUOUS
 62
     7
 66
     1
 10
0.0
 20
0.0
 30
0.0
  0
VERTEX
  5
8C9
  8
0
  6
CONTINUOUS
 62
     7
 10
171.8519763016
 20
-50.8269148899
 30
0.0
  0
VERTEX
  5
8CA
  8
0
  6
CONTINUOUS
 62
     7
 10
171.7977926993
 20
-51.1054002701
 30
0.0
  0
VERTEX
  5
8CB
  8
0
  6
CONTINUOUS
 62
     7
 10
171.7844025158
 20
-51.424464958
 30
0.0
  0
SEQEND
  5
A6D
  8
0
  6
CONTINUOUS
 62
     7
  0
ARC
  5
286
  8
0
  6
CONTINUOUS
 62
     7
 10
211.8383035921
 20
132.5718630832
 30
0.0
 40
184.0126462953932
 50
262.2364823103
 51
277.7635176897
  0
POLYLINE
  5
287
  8
0
  6
CONTINUOUS
 62
     7
 66
     1
 10
0.0
 20
0.0
 30
0.0
  0
VERTEX
  5
8CC
  8
0
  6
CONTINUOUS
 62
     7
 10
117.4224005007
 20
-60.7155087425
 30
0.0
  0
VERTEX
  5
8CD
  8
0
  6
CONTINUOUS
 62
     7
 10
118.2133541369
 20
-60.6045852436
 30
0.0
  0
VERTEX
  5
8CE
  8
0
  6
CONTINUOUS
 62
     7
 10
119.1138313078
 20
-60.4683603181
 30
0.0
  0
VERTEX
  5
8CF
  8
0
  6
CONTINUOUS
 62
     7
 10
120.0047300123
 20
-60.3234942092
 30
0.0
  0
VERTEX
  5
8D0
  8
0
  6
CONTINUOUS
 62
     7
 10
120.8812043928
 20
-60.170693232
 30
0.0
  0
VERTEX
  5
8D1
  8
0
  6
CONTINUOUS
 62
     7
 10
121.7289433741
 20
-60.0129525198
 30
0.0
  0
VERTEX
  5
8D2
  8
0
  6
CONTINUOUS
 62
     7
 10
122.5609288477
 20
-59.8484936191
 30
0.0
  0
VERTEX
  5
8D3
  8
0
  6
CONTINUOUS
 62
     7
 10
123.3754203581
 20
-59.6778969301
 30
0.0
  0
VERTEX
  5
8D4
  8
0
  6
CONTINUOUS
 62
     7
 10
124.166075971
 20
-59.5026570393
 30
0.0
  0
VERTEX
  5
8D5
  8
0
  6
CONTINUOUS
 62
     7
 10
124.9267504477
 20
-59.3242953552
 30
0.0
  0
VERTEX
  5
8D6
  8
0
  6
CONTINUOUS
 62
     7
 10
125.6517813467
 20
-59.1442755444
 30
0.0
  0
VERTEX
  5
8D7
  8
0
  6
CONTINUOUS
 62
     7
 10
126.3363466524
 20
-58.9638761265
 30
0.0
  0
VERTEX
  5
8D8
  8
0
  6
CONTINUOUS
 62
     7
 10
126.9753978514
 20
-58.7848271264
 30
0.0
  0
VERTEX
  5
8D9
  8
0
  6
CONTINUOUS
 62
     7
 10
127.5601194166
 20
-58.6104991866
 30
0.0
  0
VERTEX
  5
8DA
  8
0
  6
CONTINUOUS
 62
     7
 10
128.1245575213
 20
-58.430461867
 30
0.0
  0
VERTEX
  5
8DB
  8
0
  6
CONTINUOUS
 62
     7
 10
128.6536679529
 20
-58.2481714918
 30
0.0
  0
VERTEX
  5
8DC
  8
0
  6
CONTINUOUS
 62
     7
 10
129.152767446
 20
-58.0598513616
 30
0.0
  0
VERTEX
  5
8DD
  8
0
  6
CONTINUOUS
 62
     7
 10
129.6366141104
 20
-57.8550274505
 30
0.0
  0
VERTEX
  5
8DE
  8
0
  6
CONTINUOUS
 62
     7
 10
130.1513717436
 20
-57.5977976455
 30
0.0
  0
VERTEX
  5
8DF
  8
0
  6
CONTINUOUS
 62
     7
 10
130.4390177988
 20
-57.4252734913
 30
0.0
  0
VERTEX
  5
8E0
  8
0
  6
CONTINUOUS
 62
     7
 10
130.6750223898
 20
-57.2602714433
 30
0.0
  0
VERTEX
  5
8E1
  8
0
  6
CONTINUOUS
 62
     7
 10
130.8973059916
 20
-57.0781565292
 30
0.0
  0
VERTEX
  5
8E2
  8
0
  6
CONTINUOUS
 62
     7
 10
131.1095164084
 20
-56.8712390049
 30
0.0
  0
VERTEX
  5
8E3
  8
0
  6
CONTINUOUS
 62
     7
 10
131.3126311564
 20
-56.6304682775
 30
0.0
  0
VERTEX
  5
8E4
  8
0
  6
CONTINUOUS
 62
     7
 10
131.5011368059
 20
-56.3500545008
 30
0.0
  0
VERTEX
  5
8E5
  8
0
  6
CONTINUOUS
 62
     7
 10
131.6641257071
 20
-56.0308461098
 30
0.0
  0
VERTEX
  5
8E6
  8
0
  6
CONTINUOUS
 62
     7
 10
131.7903743052
 20
-55.6778761579
 30
0.0
  0
VERTEX
  5
8E7
  8
0
  6
CONTINUOUS
 62
     7
 10
131.8702385687
 20
-55.3002496271
 30
0.0
  0
VERTEX
  5
8E8
  8
0
  6
CONTINUOUS
 62
     7
 10
131.8961963915
 20
-54.9255284501
 30
0.0
  0
SEQEND
  5
A6C
  8
0
  6
CONTINUOUS
 62
     7
  0
POLYLINE
  5
288
  8
0
  6
CONTINUOUS
 62
     7
 66
     1
 10
0.0
 20
0.0
 30
0.0
  0
VERTEX
  5
8E9
  8
0
  6
CONTINUOUS
 62
     7
 10
51.7880544924
 20
-54.9089758678
 30
0.0
  0
VERTEX
  5
8EA
  8
0
  6
CONTINUOUS
 62
     7
 10
51.788447883
 20
-55.1202251597
 30
0.0
  0
VERTEX
  5
8EB
  8
0
  6
CONTINUOUS
 62
     7
 10
51.8439278864
 20
-55.5035299642
 30
0.0
  0
VERTEX
  5
8EC
  8
0
  6
CONTINUOUS
 62
     7
 10
51.9458995127
 20
-55.8597228511
 30
0.0
  0
VERTEX
  5
8ED
  8
0
  6
CONTINUOUS
 62
     7
 10
52.0852432512
 20
-56.183495654
 30
0.0
  0
VERTEX
  5
8EE
  8
0
  6
CONTINUOUS
 62
     7
 10
52.2520528101
 20
-56.4710888101
 30
0.0
  0
VERTEX
  5
8EF
  8
0
  6
CONTINUOUS
 62
     7
 10
52.4367795252
 20
-56.7217375172
 30
0.0
  0
VERTEX
  5
8F0
  8
0
  6
CONTINUOUS
 62
     7
 10
52.631615188
 20
-56.9376721068
 30
0.0
  0
VERTEX
  5
8F1
  8
0
  6
CONTINUOUS
 62
     7
 10
52.8331027292
 20
-57.1247539504
 30
0.0
  0
VERTEX
  5
8F2
  8
0
  6
CONTINUOUS
 62
     7
 10
53.0436620974
 20
-57.2914543582
 30
0.0
  0
VERTEX
  5
8F3
  8
0
  6
CONTINUOUS
 62
     7
 10
53.2725320124
 20
-57.4476963861
 30
0.0
  0
VERTEX
  5
8F4
  8
0
  6
CONTINUOUS
 62
     7
 10
53.5420403742
 20
-57.6070706381
 30
0.0
  0
VERTEX
  5
8F5
  8
0
  6
CONTINUOUS
 62
     7
 10
53.9152369761
 20
-57.7969445868
 30
0.0
  0
VERTEX
  5
8F6
  8
0
  6
CONTINUOUS
 62
     7
 10
54.4567094111
 20
-58.0323210938
 30
0.0
  0
VERTEX
  5
8F7
  8
0
  6
CONTINUOUS
 62
     7
 10
54.9503431582
 20
-58.2212059779
 30
0.0
  0
VERTEX
  5
8F8
  8
0
  6
CONTINUOUS
 62
     7
 10
55.4621682428
 20
-58.3999495043
 30
0.0
  0
VERTEX
  5
8F9
  8
0
  6
CONTINUOUS
 62
     7
 10
56.0532555842
 20
-58.5906195475
 30
0.0
  0
VERTEX
  5
8FA
  8
0
  6
CONTINUOUS
 62
     7
 10
56.6716776156
 20
-58.7761747671
 30
0.0
  0
VERTEX
  5
8FB
  8
0
  6
CONTINUOUS
 62
     7
 10
57.319282081
 20
-58.9581671192
 30
0.0
  0
VERTEX
  5
8FC
  8
0
  6
CONTINUOUS
 62
     7
 10
57.9929099344
 20
-59.1362225844
 30
0.0
  0
VERTEX
  5
8FD
  8
0
  6
CONTINUOUS
 62
     7
 10
58.7155208849
 20
-59.3163500561
 30
0.0
  0
VERTEX
  5
8FE
  8
0
  6
CONTINUOUS
 62
     7
 10
59.4727978968
 20
-59.4945761396
 30
0.0
  0
VERTEX
  5
8FF
  8
0
  6
CONTINUOUS
 62
     7
 10
60.2618799471
 20
-59.67000304
 30
0.0
  0
VERTEX
  5
900
  8
0
  6
CONTINUOUS
 62
     7
 10
61.0792622828
 20
-59.8415660693
 30
0.0
  0
VERTEX
  5
901
  8
0
  6
CONTINUOUS
 62
     7
 10
61.9209871554
 20
-60.0081237985
 30
0.0
  0
VERTEX
  5
902
  8
0
  6
CONTINUOUS
 62
     7
 10
62.7829180025
 20
-60.1685213877
 30
0.0
  0
VERTEX
  5
903
  8
0
  6
CONTINUOUS
 62
     7
 10
63.6605844759
 20
-60.3215943111
 30
0.0
  0
VERTEX
  5
904
  8
0
  6
CONTINUOUS
 62
     7
 10
64.5441518091
 20
-60.4655097259
 30
0.0
  0
VERTEX
  5
905
  8
0
  6
CONTINUOUS
 62
     7
 10
65.4399261736
 20
-60.6013651027
 30
0.0
  0
VERTEX
  5
906
  8
0
  6
CONTINUOUS
 62
     7
 10
66.2541733049
 20
-60.7158768011
 30
0.0
  0
SEQEND
  5
A6B
  8
0
  6
CONTINUOUS
 62
     7
  0
ARC
  5
289
  8
0
  6
CONTINUOUS
 62
     7
 10
91.838301804
 20
126.939858749
 30
0.0
 40
189.3926456764148
 50
262.2364761354
 51
277.7635238646
  0
POLYLINE
  5
28A
  8
0
  6
CONTINUOUS
 62
     7
 66
     1
 10
0.0
 20
0.0
 30
0.0
  0
VERTEX
  5
907
  8
0
  6
CONTINUOUS
 62
     7
 10
127.5329516195
 20
-52.8980922207
 30
0.0
  0
VERTEX
  5
908
  8
0
  6
CONTINUOUS
 62
     7
 10
127.5352344774
 20
-52.8967069366
 30
0.0
  0
VERTEX
  5
909
  8
0
  6
CONTINUOUS
 62
     7
 10
127.498231914
 20
-52.9158278738
 30
0.0
  0
VERTEX
  5
90A
  8
0
  6
CONTINUOUS
 62
     7
 10
127.4106726908
 20
-52.9571059894
 30
0.0
  0
VERTEX
  5
90B
  8
0
  6
CONTINUOUS
 62
     7
 10
127.2642479204
 20
-53.0202857647
 30
0.0
  0
VERTEX
  5
90C
  8
0
  6
CONTINUOUS
 62
     7
 10
127.0537481569
 20
-53.1038722277
 30
0.0
  0
VERTEX
  5
90D
  8
0
  6
CONTINUOUS
 62
     7
 10
126.7765627169
 20
-53.2057599884
 30
0.0
  0
VERTEX
  5
90E
  8
0
  6
CONTINUOUS
 62
     7
 10
126.432906177
 20
-53.3233391142
 30
0.0
  0
VERTEX
  5
90F
  8
0
  6
CONTINUOUS
 62
     7
 10
126.0251567625
 20
-53.4538162893
 30
0.0
  0
VERTEX
  5
910
  8
0
  6
CONTINUOUS
 62
     7
 10
125.557093408
 20
-53.5944531227
 30
0.0
  0
VERTEX
  5
911
  8
0
  6
CONTINUOUS
 62
     7
 10
125.0332818293
 20
-53.742691504
 30
0.0
  0
VERTEX
  5
912
  8
0
  6
CONTINUOUS
 62
     7
 10
124.4595930838
 20
-53.8957826814
 30
0.0
  0
VERTEX
  5
913
  8
0
  6
CONTINUOUS
 62
     7
 10
123.8442824148
 20
-54.0507607183
 30
0.0
  0
VERTEX
  5
914
  8
0
  6
CONTINUOUS
 62
     7
 10
123.1850490831
 20
-54.2078532299
 30
0.0
  0
VERTEX
  5
915
  8
0
  6
CONTINUOUS
 62
     7
 10
122.4803195261
 20
-54.3668168618
 30
0.0
  0
VERTEX
  5
916
  8
0
  6
CONTINUOUS
 62
     7
 10
121.7371986174
 20
-54.5253648443
 30
0.0
  0
VERTEX
  5
917
  8
0
  6
CONTINUOUS
 62
     7
 10
120.9633634352
 20
-54.6812492443
 30
0.0
  0
VERTEX
  5
918
  8
0
  6
CONTINUOUS
 62
     7
 10
120.1681599878
 20
-54.8320825232
 30
0.0
  0
VERTEX
  5
919
  8
0
  6
CONTINUOUS
 62
     7
 10
119.3602428698
 20
-54.9758262022
 30
0.0
  0
VERTEX
  5
91A
  8
0
  6
CONTINUOUS
 62
     7
 10
118.545989778
 20
-55.1111568717
 30
0.0
  0
VERTEX
  5
91B
  8
0
  6
CONTINUOUS
 62
     7
 10
117.7166269087
 20
-55.2396359874
 30
0.0
  0
VERTEX
  5
91C
  8
0
  6
CONTINUOUS
 62
     7
 10
116.873322513
 20
-55.3609744666
 30
0.0
  0
VERTEX
  5
91D
  8
0
  6
CONTINUOUS
 62
     7
 10
116.6956112646
 20
-55.3846064044
 30
0.0
  0
SEQEND
  5
A6A
  8
0
  6
CONTINUOUS
 62
     7
  0
POLYLINE
  5
28B
  8
0
  6
CONTINUOUS
 62
     7
 66
     1
 10
0.0
 20
0.0
 30
0.0
  0
VERTEX
  5
91E
  8
0
  6
CONTINUOUS
 62
     7
 10
66.9812546038
 20
-55.3848783506
 30
0.0
  0
VERTEX
  5
91F
  8
0
  6
CONTINUOUS
 62
     7
 10
66.3158045076
 20
-55.2921553163
 30
0.0
  0
VERTEX
  5
920
  8
0
  6
CONTINUOUS
 62
     7
 10
65.4721365236
 20
-55.1652680172
 30
0.0
  0
VERTEX
  5
921
  8
0
  6
CONTINUOUS
 62
     7
 10
64.6366582178
 20
-55.0301820992
 30
0.0
  0
VERTEX
  5
922
  8
0
  6
CONTINUOUS
 62
     7
 10
63.8156638407
 20
-54.8879317029
 30
0.0
  0
VERTEX
  5
923
  8
0
  6
CONTINUOUS
 62
     7
 10
63.0199537539
 20
-54.7408035977
 30
0.0
  0
VERTEX
  5
924
  8
0
  6
CONTINUOUS
 62
     7
 10
62.2446761393
 20
-54.5884291662
 30
0.0
  0
VERTEX
  5
925
  8
0
  6
CONTINUOUS
 62
     7
 10
61.49333575
 20
-54.431852421
 30
0.0
  0
VERTEX
  5
926
  8
0
  6
CONTINUOUS
 62
     7
 10
60.7715831064
 20
-54.2726195438
 30
0.0
  0
VERTEX
  5
927
  8
0
  6
CONTINUOUS
 62
     7
 10
60.0854025148
 20
-54.1124759263
 30
0.0
  0
VERTEX
  5
928
  8
0
  6
CONTINUOUS
 62
     7
 10
59.4403968119
 20
-53.9532170652
 30
0.0
  0
VERTEX
  5
929
  8
0
  6
CONTINUOUS
 62
     7
 10
58.8419780993
 20
-53.796749471
 30
0.0
  0
VERTEX
  5
92A
  8
0
  6
CONTINUOUS
 62
     7
 10
58.2948551439
 20
-53.644988781
 30
0.0
  0
VERTEX
  5
92B
  8
0
  6
CONTINUOUS
 62
     7
 10
57.8007803225
 20
-53.4993755652
 30
0.0
  0
VERTEX
  5
92C
  8
0
  6
CONTINUOUS
 62
     7
 10
57.3584900164
 20
-53.360457767
 30
0.0
  0
VERTEX
  5
92D
  8
0
  6
CONTINUOUS
 62
     7
 10
56.9747433924
 20
-53.2313781345
 30
0.0
  0
VERTEX
  5
92E
  8
0
  6
CONTINUOUS
 62
     7
 10
56.6566453241
 20
-53.1160166973
 30
0.0
  0
VERTEX
  5
92F
  8
0
  6
CONTINUOUS
 62
     7
 10
56.4337954783
 20
-53.028509407
 30
0.0
  0
VERTEX
  5
930
  8
0
  6
CONTINUOUS
 62
     7
 10
56.2757954859
 20
-52.961116968
 30
0.0
  0
VERTEX
  5
931
  8
0
  6
CONTINUOUS
 62
     7
 10
56.1801061892
 20
-52.9164697064
 30
0.0
  0
VERTEX
  5
932
  8
0
  6
CONTINUOUS
 62
     7
 10
56.1406002306
 20
-52.8962421019
 30
0.0
  0
VERTEX
  5
933
  8
0
  6
CONTINUOUS
 62
     7
 10
56.143389728
 20
-52.897935159
 30
0.0
  0
SEQEND
  5
A69
  8
0
  6
CONTINUOUS
 62
     7
  0
ARC
  5
28C
  8
0
  6
CONTINUOUS
 62
     7
 10
91.838301804
 20
126.9399566595
 30
0.0
 40
184.0127435370974
 50
262.2364850334
 51
277.7635149666
  0
LINE
  5
28D
  8
0
  6
CONTINUOUS
 62
     7
 10
131.8970606588
 20
-54.91182795
 30
0.0
 11
131.8970606588
 21
-51.4255981913
 31
0.0
  0
LINE
  5
28E
  8
0
  6
CONTINUOUS
 62
     7
 10
51.7795429491
 20
-51.4255981913
 30
0.0
 11
51.7795429491
 21
-54.91182795
 31
0.0
  0
LINE
  5
28F
  8
0
  6
CONTINUOUS
 62
     7
 10
54.1383013987
 20
-59.1612684561
 30
0.0
 11
55.138300445
 21
-59.1612684561
 31
0.0
  0
LINE
  5
290
  8
0
  6
CONTINUOUS
 62
     7
 10
128.538303163
 20
-59.1612684561
 30
0.0
 11
129.5383022093
 21
-59.1612684561
 31
0.0
  0
POLYLINE
  5
291
  8
0
  6
CONTINUOUS
 62
     7
 66
     1
 10
0.0
 20
0.0
 30
0.0
  0
VERTEX
  5
934
  8
0
  6
CONTINUOUS
 62
     7
 10
66.981051948
 20
-49.7536762638
 30
0.0
  0
VERTEX
  5
935
  8
0
  6
CONTINUOUS
 62
     7
 10
66.210375812
 20
-49.6491703225
 30
0.0
  0
VERTEX
  5
936
  8
0
  6
CONTINUOUS
 62
     7
 10
65.3346643709
 20
-49.5318035616
 30
0.0
  0
VERTEX
  5
937
  8
0
  6
CONTINUOUS
 62
     7
 10
64.4697652124
 20
-49.4172296507
 30
0.0
  0
VERTEX
  5
938
  8
0
  6
CONTINUOUS
 62
     7
 10
63.6198864245
 20
-49.3060546948
 30
0.0
  0
VERTEX
  5
939
  8
0
  6
CONTINUOUS
 62
     7
 10
62.7917752527
 20
-49.1994927658
 30
0.0
  0
VERTEX
  5
93A
  8
0
  6
CONTINUOUS
 62
     7
 10
61.9784579538
 20
-49.0969779922
 30
0.0
  0
VERTEX
  5
93B
  8
0
  6
CONTINUOUS
 62
     7
 10
61.1813411974
 20
-48.9990907742
 30
0.0
  0
VERTEX
  5
93C
  8
0
  6
CONTINUOUS
 62
     7
 10
60.4071722292
 20
-48.9071103765
 30
0.0
  0
VERTEX
  5
93D
  8
0
  6
CONTINUOUS
 62
     7
 10
59.6624717974
 20
-48.8222784383
 30
0.0
  0
VERTEX
  5
93E
  8
0
  6
CONTINUOUS
 62
     7
 10
58.9531169199
 20
-48.7457606031
 30
0.0
  0
VERTEX
  5
93F
  8
0
  6
CONTINUOUS
 62
     7
 10
58.2841620707
 20
-48.6786278917
 30
0.0
  0
VERTEX
  5
940
  8
0
  6
CONTINUOUS
 62
     7
 10
57.6569304728
 20
-48.6216752811
 30
0.0
  0
VERTEX
  5
941
  8
0
  6
CONTINUOUS
 62
     7
 10
57.0629582666
 20
-48.5749288483
 30
0.0
  0
VERTEX
  5
942
  8
0
  6
CONTINUOUS
 62
     7
 10
56.5009699129
 20
-48.539429812
 30
0.0
  0
VERTEX
  5
943
  8
0
  6
CONTINUOUS
 62
     7
 10
55.9667096399
 20
-48.5167558326
 30
0.0
  0
VERTEX
  5
944
  8
0
  6
CONTINUOUS
 62
     7
 10
55.4477319979
 20
-48.5099761768
 30
0.0
  0
VERTEX
  5
945
  8
0
  6
CONTINUOUS
 62
     7
 10
54.9065456652
 20
-48.528106047
 30
0.0
  0
VERTEX
  5
946
  8
0
  6
CONTINUOUS
 62
     7
 10
54.5524702334
 20
-48.5615185483
 30
0.0
  0
VERTEX
  5
947
  8
0
  6
CONTINUOUS
 62
     7
 10
54.2534694933
 20
-48.6087913646
 30
0.0
  0
VERTEX
  5
948
  8
0
  6
CONTINUOUS
 62
     7
 10
53.9710030817
 20
-48.6740606858
 30
0.0
  0
VERTEX
  5
949
  8
0
  6
CONTINUOUS
 62
     7
 10
53.6947355532
 20
-48.7615331097
 30
0.0
  0
VERTEX
  5
94A
  8
0
  6
CONTINUOUS
 62
     7
 10
53.4164533877
 20
-48.8779238446
 30
0.0
  0
VERTEX
  5
94B
  8
0
  6
CONTINUOUS
 62
     7
 10
53.1336293482
 20
-49.031260146
 30
0.0
  0
VERTEX
  5
94C
  8
0
  6
CONTINUOUS
 62
     7
 10
52.851103332
 20
-49.2282888873
 30
0.0
  0
VERTEX
  5
94D
  8
0
  6
CONTINUOUS
 62
     7
 10
52.5804624819
 20
-49.4712150676
 30
0.0
  0
VERTEX
  5
94E
  8
0
  6
CONTINUOUS
 62
     7
 10
52.3340688013
 20
-49.7586528791
 30
0.0
  0
VERTEX
  5
94F
  8
0
  6
CONTINUOUS
 62
     7
 10
52.123878982
 20
-50.0849851428
 30
0.0
  0
VERTEX
  5
950
  8
0
  6
CONTINUOUS
 62
     7
 10
51.9589886927
 20
-50.4424625097
 30
0.0
  0
VERTEX
  5
951
  8
0
  6
CONTINUOUS
 62
     7
 10
51.8476591372
 20
-50.825109428
 30
0.0
  0
SEQEND
  5
A68
  8
0
  6
CONTINUOUS
 62
     7
  0
POLYLINE
  5
292
  8
0
  6
CONTINUOUS
 62
     7
 66
     1
 10
0.0
 20
0.0
 30
0.0
  0
VERTEX
  5
952
  8
0
  6
CONTINUOUS
 62
     7
 10
131.8252489828
 20
-50.8259098066
 30
0.0
  0
VERTEX
  5
953
  8
0
  6
CONTINUOUS
 62
     7
 10
131.7369566225
 20
-50.4992463647
 30
0.0
  0
VERTEX
  5
954
  8
0
  6
CONTINUOUS
 62
     7
 10
131.5754220747
 20
-50.1297281144
 30
0.0
  0
VERTEX
  5
955
  8
0
  6
CONTINUOUS
 62
     7
 10
131.3721761965
 20
-49.8009289636
 30
0.0
  0
VERTEX
  5
956
  8
0
  6
CONTINUOUS
 62
     7
 10
131.137268331
 20
-49.5153537972
 30
0.0
  0
VERTEX
  5
957
  8
0
  6
CONTINUOUS
 62
     7
 10
130.88111737
 20
-49.274245931
 30
0.0
  0
VERTEX
  5
958
  8
0
  6
CONTINUOUS
 62
     7
 10
130.6142733358
 20
-49.0770558847
 30
0.0
  0
VERTEX
  5
959
  8
0
  6
CONTINUOUS
 62
     7
 10
130.3456053995
 20
-48.9206145538
 30
0.0
  0
VERTEX
  5
95A
  8
0
  6
CONTINUOUS
 62
     7
 10
130.081246879
 20
-48.7997989191
 30
0.0
  0
VERTEX
  5
95B
  8
0
  6
CONTINUOUS
 62
     7
 10
129.8216388487
 20
-48.7077957971
 30
0.0
  0
VERTEX
  5
95C
  8
0
  6
CONTINUOUS
 62
     7
 10
129.5608566069
 20
-48.6378560795
 30
0.0
  0
VERTEX
  5
95D
  8
0
  6
CONTINUOUS
 62
     7
 10
129.2848692202
 20
-48.5844465925
 30
0.0
  0
VERTEX
  5
95E
  8
0
  6
CONTINUOUS
 62
     7
 10
128.9668426775
 20
-48.5442361815
 30
0.0
  0
VERTEX
  5
95F
  8
0
  6
CONTINUOUS
 62
     7
 10
128.5915003084
 20
-48.5188866986
 30
0.0
  0
VERTEX
  5
960
  8
0
  6
CONTINUOUS
 62
     7
 10
127.9922054075
 20
-48.5114282949
 30
0.0
  0
VERTEX
  5
961
  8
0
  6
CONTINUOUS
 62
     7
 10
127.4702594542
 20
-48.5259211643
 30
0.0
  0
VERTEX
  5
962
  8
0
  6
CONTINUOUS
 62
     7
 10
126.9369290136
 20
-48.5537002815
 30
0.0
  0
VERTEX
  5
963
  8
0
  6
CONTINUOUS
 62
     7
 10
126.325754907
 20
-48.5967586769
 30
0.0
  0
VERTEX
  5
964
  8
0
  6
CONTINUOUS
 62
     7
 10
125.69275954
 20
-48.6505395754
 30
0.0
  0
VERTEX
  5
965
  8
0
  6
CONTINUOUS
 62
     7
 10
125.0365898871
 20
-48.7136281116
 30
0.0
  0
VERTEX
  5
966
  8
0
  6
CONTINUOUS
 62
     7
 10
124.3380949759
 20
-48.7866665257
 30
0.0
  0
VERTEX
  5
967
  8
0
  6
CONTINUOUS
 62
     7
 10
123.609589126
 20
-48.8677310778
 30
0.0
  0
VERTEX
  5
968
  8
0
  6
CONTINUOUS
 62
     7
 10
122.8490398192
 20
-48.9564898445
 30
0.0
  0
VERTEX
  5
969
  8
0
  6
CONTINUOUS
 62
     7
 10
122.0597849154
 20
-49.0520912243
 30
0.0
  0
VERTEX
  5
96A
  8
0
  6
CONTINUOUS
 62
     7
 10
121.2457642817
 20
-49.1536307169
 30
0.0
  0
VERTEX
  5
96B
  8
0
  6
CONTINUOUS
 62
     7
 10
120.411263492
 20
-49.2601661964
 30
0.0
  0
VERTEX
  5
96C
  8
0
  6
CONTINUOUS
 62
     7
 10
119.5607111715
 20
-49.3707443608
 30
0.0
  0
VERTEX
  5
96D
  8
0
  6
CONTINUOUS
 62
     7
 10
118.701700952
 20
-49.4839741869
 30
0.0
  0
VERTEX
  5
96E
  8
0
  6
CONTINUOUS
 62
     7
 10
117.8341255449
 20
-49.5996705277
 30
0.0
  0
VERTEX
  5
96F
  8
0
  6
CONTINUOUS
 62
     7
 10
116.9596061968
 20
-49.7176590396
 30
0.0
  0
VERTEX
  5
970
  8
0
  6
CONTINUOUS
 62
     7
 10
116.6954324507
 20
-49.75372283
 30
0.0
  0
SEQEND
  5
A67
  8
0
  6
CONTINUOUS
 62
     7
  0
LINE
  5
293
  8
0
  6
CONTINUOUS
 62
     7
 10
131.836877849
 20
-50.8884209229
 30
0.0
 11
131.8269775175
 21
-50.8260750232
 31
0.0
  0
POLYLINE
  5
294
  8
0
  6
CONTINUOUS
 62
     7
 66
     1
 10
0.0
 20
0.0
 30
0.0
  0
VERTEX
  5
971
  8
0
  6
CONTINUOUS
 62
     7
 10
51.8519745134
 20
-50.8269148899
 30
0.0
  0
VERTEX
  5
972
  8
0
  6
CONTINUOUS
 62
     7
 10
51.7977938913
 20
-51.1054002701
 30
0.0
  0
VERTEX
  5
973
  8
0
  6
CONTINUOUS
 62
     7
 10
51.7844066881
 20
-51.424464958
 30
0.0
  0
SEQEND
  5
A66
  8
0
  6
CONTINUOUS
 62
     7
  0
ARC
  5
295
  8
0
  6
CONTINUOUS
 62
     7
 10
91.838301804
 20
132.5719640044
 30
0.0
 40
184.0127468953656
 50
262.236485176
 51
277.763514824
  0
ARC
  5
296
  8
0
  6
CONTINUOUS
 62
     7
 10
357.0219539068
 20
-118.1957119886
 30
0.0
 40
14.86826436090088
 50
270.8245563239
 51
0.4742118724
  0
ARC
  5
297
  8
0
  6
CONTINUOUS
 62
     7
 10
306.6538595465
 20
-118.199184976
 30
0.0
 40
14.86658304665925
 50
179.5129234497
 51
269.3234098625
  0
ARC
  5
298
  8
0
  6
CONTINUOUS
 62
     7
 10
357.01075528
 20
-77.9842533856
 30
0.0
 40
14.87766607474713
 50
359.6599319319
 51
32.6990506551
  0
ARC
  5
299
  8
0
  6
CONTINUOUS
 62
     7
 10
306.7578823447
 20
-78.0168019628
 30
0.0
 40
14.97539647988909
 50
147.3882493518
 51
180.2160417858
  0
ARC
  5
29A
  8
0
  6
CONTINUOUS
 62
     7
 10
306.5819765715
 20
-77.7795826073
 30
0.0
 40
14.69879094920772
 50
90.6992088923
 51
141.1138682701
  0
ARC
  5
29B
  8
0
  6
CONTINUOUS
 62
     7
 10
357.0976612845
 20
-77.7562729567
 30
0.0
 40
14.67825235431629
 50
38.7742057935
 51
89.7631990045
  0
LINE
  5
29C
  8
0
  6
CONTINUOUS
 62
     7
 10
291.7795465254
 20
-78.0725921525
 30
0.0
 11
291.7795465254
 21
-118.0725957288
 31
0.0
  0
LINE
  5
29D
  8
0
  6
CONTINUOUS
 62
     7
 10
371.8970642351
 20
-118.0725957288
 30
0.0
 11
371.8970642351
 21
-78.0725921525
 31
0.0
  0
LINE
  5
29E
  8
0
  6
CONTINUOUS
 62
     7
 10
129.8383043074
 20
-59.4725932015
 30
0.0
 11
133.238302257
 21
-59.4725932015
 31
0.0
  0
LINE
  5
29F
  8
0
  6
CONTINUOUS
 62
     7
 10
129.8383043074
 20
-47.0725934042
 30
0.0
 11
112.4383018278
 21
-47.0725934042
 31
0.0
  0
LINE
  5
2A0
  8
0
  6
CONTINUOUS
 62
     7
 10
125.9237931036
 20
-59.0725935085
 30
0.0
 11
128.538303163
 21
-59.0725935085
 31
0.0
  0
LINE
  5
2A1
  8
0
  6
CONTINUOUS
 62
     7
 10
129.5383022093
 20
-59.0725935085
 30
0.0
 11
129.8383043074
 21
-59.0725935085
 31
0.0
  0
LINE
  5
2A2
  8
0
  6
CONTINUOUS
 62
     7
 10
133.238302257
 20
-44.4725933505
 30
0.0
 11
130.1624939703
 21
-44.4725933505
 31
0.0
  0
LINE
  5
2A3
  8
0
  6
CONTINUOUS
 62
     7
 10
369.8383078837
 20
-59.4725932015
 30
0.0
 11
373.2382998728
 21
-59.4725932015
 31
0.0
  0
LINE
  5
2A4
  8
0
  6
CONTINUOUS
 62
     7
 10
369.8383078837
 20
-47.0725934042
 30
0.0
 11
352.4383054041
 21
-47.0725934042
 31
0.0
  0
LINE
  5
2A5
  8
0
  6
CONTINUOUS
 62
     7
 10
352.4383054041
 20
-59.0725935085
 30
0.0
 11
368.5383067392
 21
-59.0725935085
 31
0.0
  0
LINE
  5
2A6
  8
0
  6
CONTINUOUS
 62
     7
 10
369.5383057856
 20
-59.0725935085
 30
0.0
 11
369.8383078837
 21
-59.0725935085
 31
0.0
  0
LINE
  5
2A7
  8
0
  6
CONTINUOUS
 62
     7
 10
373.2382998728
 20
-44.4725933505
 30
0.0
 11
370.1624975466
 21
-44.4725933505
 31
0.0
  0
LINE
  5
2A8
  8
0
  6
CONTINUOUS
 62
     7
 10
249.8383031153
 20
-59.4725932015
 30
0.0
 11
253.2383040451
 21
-59.4725932015
 31
0.0
  0
LINE
  5
2A9
  8
0
  6
CONTINUOUS
 62
     7
 10
249.8383031153
 20
-47.0725934042
 30
0.0
 11
232.438303616
 21
-47.0725934042
 31
0.0
  0
LINE
  5
2AA
  8
0
  6
CONTINUOUS
 62
     7
 10
245.9237948917
 20
-59.0725935085
 30
0.0
 11
248.5383049511
 21
-59.0725935085
 31
0.0
  0
LINE
  5
2AB
  8
0
  6
CONTINUOUS
 62
     7
 10
249.5383039974
 20
-59.0725935085
 30
0.0
 11
249.8383031153
 21
-59.0725935085
 31
0.0
  0
LINE
  5
2AC
  8
0
  6
CONTINUOUS
 62
     7
 10
253.2383040451
 20
-44.4725933505
 30
0.0
 11
250.1624957584
 21
-44.4725933505
 31
0.0
  0
LINE
  5
2AD
  8
0
  6
CONTINUOUS
 62
     7
 10
170.4383031391
 20
-59.4725932015
 30
0.0
 11
173.838304069
 21
-59.4725932015
 31
0.0
  0
LINE
  5
2AE
  8
0
  6
CONTINUOUS
 62
     7
 10
173.838304069
 20
-59.0725935085
 30
0.0
 11
174.1383031868
 21
-59.0725935085
 31
0.0
  0
LINE
  5
2AF
  8
0
  6
CONTINUOUS
 62
     7
 10
175.1383022331
 20
-59.0725935085
 30
0.0
 11
177.7521834635
 21
-59.0725935085
 31
0.0
  0
LINE
  5
2B0
  8
0
  6
CONTINUOUS
 62
     7
 10
191.2383035683
 20
-47.0725934042
 30
0.0
 11
173.838304069
 21
-47.0725934042
 31
0.0
  0
LINE
  5
2B1
  8
0
  6
CONTINUOUS
 62
     7
 10
173.5146925711
 20
-44.4725933505
 30
0.0
 11
170.4383031391
 21
-44.4725933505
 31
0.0
  0
LINE
  5
2B2
  8
0
  6
CONTINUOUS
 62
     7
 10
290.4383049273
 20
-59.4725932015
 30
0.0
 11
293.8383028769
 21
-59.4725932015
 31
0.0
  0
LINE
  5
2B3
  8
0
  6
CONTINUOUS
 62
     7
 10
293.8383028769
 20
-59.0725935085
 30
0.0
 11
294.1383049749
 21
-59.0725935085
 31
0.0
  0
LINE
  5
2B4
  8
0
  6
CONTINUOUS
 62
     7
 10
295.1383040213
 20
-59.0725935085
 30
0.0
 11
311.2383053564
 21
-59.0725935085
 31
0.0
  0
LINE
  5
2B5
  8
0
  6
CONTINUOUS
 62
     7
 10
311.2383053564
 20
-47.0725934042
 30
0.0
 11
293.8383028769
 21
-47.0725934042
 31
0.0
  0
LINE
  5
2B6
  8
0
  6
CONTINUOUS
 62
     7
 10
293.514691379
 20
-44.4725933505
 30
0.0
 11
290.4383049273
 21
-44.4725933505
 31
0.0
  0
LINE
  5
2B7
  8
0
  6
CONTINUOUS
 62
     7
 10
50.4383073114
 20
-59.4725932015
 30
0.0
 11
53.8382993006
 21
-59.4725932015
 31
0.0
  0
LINE
  5
2B8
  8
0
  6
CONTINUOUS
 62
     7
 10
53.8382993006
 20
-59.0725935085
 30
0.0
 11
54.1383013987
 21
-59.0725935085
 31
0.0
  0
LINE
  5
2B9
  8
0
  6
CONTINUOUS
 62
     7
 10
55.138300445
 20
-59.0725935085
 30
0.0
 11
57.7521786951
 21
-59.0725935085
 31
0.0
  0
LINE
  5
2BA
  8
0
  6
CONTINUOUS
 62
     7
 10
71.2383017801
 20
-47.0725934042
 30
0.0
 11
53.8382993006
 21
-47.0725934042
 31
0.0
  0
LINE
  5
2BB
  8
0
  6
CONTINUOUS
 62
     7
 10
53.5146937632
 20
-44.4725933505
 30
0.0
 11
50.4383073114
 21
-44.4725933505
 31
0.0
  0
LINE
  5
2BC
  8
0
  6
CONTINUOUS
 62
     7
 10
375.4383073114
 20
-48.372593431
 30
0.0
 11
375.4383073114
 21
-48.9725935294
 31
0.0
  0
ARC
  5
2BD
  8
0
  6
CONTINUOUS
 62
     7
 10
375.0383035921
 20
-48.3725934399
 30
0.0
 40
0.4000000000000057
 50
0.0
 51
90.0
  0
LINE
  5
2BE
  8
0
  6
CONTINUOUS
 62
     7
 10
48.2382998728
 20
-48.9725935294
 30
0.0
 11
48.2382998728
 21
-48.372593431
 31
0.0
  0
ARC
  5
2BF
  8
0
  6
CONTINUOUS
 62
     7
 10
48.6383035921
 20
-48.3725934399
 30
0.0
 40
0.4000000000000057
 50
90.0
 51
180.0
  0
LINE
  5
2C0
  8
0
  6
CONTINUOUS
 62
     7
 10
48.6383066439
 20
-47.9725933654
 30
0.0
 11
50.4383073114
 21
-47.9725933654
 31
0.0
  0
LINE
  5
2C1
  8
0
  6
CONTINUOUS
 62
     7
 10
71.2383017801
 20
-47.9725933654
 30
0.0
 11
73.838304069
 21
-47.9725933654
 31
0.0
  0
LINE
  5
2C2
  8
0
  6
CONTINUOUS
 62
     7
 10
109.8383054995
 20
-47.9725933654
 30
0.0
 11
112.4383018278
 21
-47.9725933654
 31
0.0
  0
LINE
  5
2C3
  8
0
  6
CONTINUOUS
 62
     7
 10
133.238302257
 20
-47.9725933654
 30
0.0
 11
170.4383031391
 21
-47.9725933654
 31
0.0
  0
LINE
  5
2C4
  8
0
  6
CONTINUOUS
 62
     7
 10
191.2383035683
 20
-47.9725933654
 30
0.0
 11
193.8383028769
 21
-47.9725933654
 31
0.0
  0
LINE
  5
2C5
  8
0
  6
CONTINUOUS
 62
     7
 10
229.8383043074
 20
-47.9725933654
 30
0.0
 11
232.438303616
 21
-47.9725933654
 31
0.0
  0
LINE
  5
2C6
  8
0
  6
CONTINUOUS
 62
     7
 10
253.2383040451
 20
-47.9725933654
 30
0.0
 11
290.4383049273
 21
-47.9725933654
 31
0.0
  0
LINE
  5
2C7
  8
0
  6
CONTINUOUS
 62
     7
 10
311.2383053564
 20
-47.9725933654
 30
0.0
 11
313.8383016848
 21
-47.9725933654
 31
0.0
  0
LINE
  5
2C8
  8
0
  6
CONTINUOUS
 62
     7
 10
349.8383031153
 20
-47.9725933654
 30
0.0
 11
352.4383054041
 21
-47.9725933654
 31
0.0
  0
LINE
  5
2C9
  8
0
  6
CONTINUOUS
 62
     7
 10
373.2382998728
 20
-47.9725933654
 30
0.0
 11
375.0383005404
 21
-47.9725933654
 31
0.0
  0
LINE
  5
2CA
  8
0
  6
CONTINUOUS
 62
     7
 10
48.2382998728
 20
-56.9725933505
 30
0.0
 11
48.2382998728
 21
-48.9725935294
 31
0.0
  0
LINE
  5
2CB
  8
0
  6
CONTINUOUS
 62
     7
 10
375.4383073114
 20
-48.9725935294
 30
0.0
 11
375.4383073114
 21
-56.9725933505
 31
0.0
  0
ARC
  5
2CC
  8
0
  6
CONTINUOUS
 62
     7
 10
48.6383035921
 20
-57.5725934399
 30
0.0
 40
0.4000000000000057
 50
180.0
 51
270.0
  0
LINE
  5
2CD
  8
0
  6
CONTINUOUS
 62
     7
 10
48.2382998728
 20
-57.5725934489
 30
0.0
 11
48.2382998728
 21
-56.9725933505
 31
0.0
  0
LINE
  5
2CE
  8
0
  6
CONTINUOUS
 62
     7
 10
375.4383073114
 20
-56.9725933505
 30
0.0
 11
375.4383073114
 21
-57.5725934489
 31
0.0
  0
ARC
  5
2CF
  8
0
  6
CONTINUOUS
 62
     7
 10
375.0383035921
 20
-57.5725934399
 30
0.0
 40
0.4000000000000057
 50
270.0
 51
0.0
  0
LINE
  5
2D0
  8
0
  6
CONTINUOUS
 62
     7
 10
375.0383005404
 20
-57.9725935145
 30
0.0
 11
373.2382998728
 21
-57.9725935145
 31
0.0
  0
LINE
  5
2D1
  8
0
  6
CONTINUOUS
 62
     7
 10
352.4383054041
 20
-57.9725935145
 30
0.0
 11
349.8383031153
 21
-57.9725935145
 31
0.0
  0
LINE
  5
2D2
  8
0
  6
CONTINUOUS
 62
     7
 10
313.8383016848
 20
-57.9725935145
 30
0.0
 11
311.2383053564
 21
-57.9725935145
 31
0.0
  0
LINE
  5
2D3
  8
0
  6
CONTINUOUS
 62
     7
 10
290.4383049273
 20
-57.9725935145
 30
0.0
 11
253.2383040451
 21
-57.9725935145
 31
0.0
  0
LINE
  5
2D4
  8
0
  6
CONTINUOUS
 62
     7
 10
170.4383031391
 20
-57.9725935145
 30
0.0
 11
133.238302257
 21
-57.9725935145
 31
0.0
  0
LINE
  5
2D5
  8
0
  6
CONTINUOUS
 62
     7
 10
50.4383073114
 20
-57.9725935145
 30
0.0
 11
48.6383066439
 21
-57.9725935145
 31
0.0
  0
ARC
  5
2D6
  8
0
  6
CONTINUOUS
 62
     7
 10
73.4240193067
 20
-72.9725934399
 30
0.0
 40
4.000000000000014
 50
200.0051900882
 51
270.0
  0
ARC
  5
2D7
  8
0
  6
CONTINUOUS
 62
     7
 10
144.8383035921
 20
-46.9725934399
 30
0.0
 40
80.00000000000004
 50
189.8685553009
 51
200.0051900882
  0
LINE
  5
2D8
  8
0
  6
CONTINUOUS
 62
     7
 10
64.8383603357
 20
-47.0725934042
 30
0.0
 11
64.8383007311
 21
-46.9725935741
 31
0.0
  0
LINE
  5
2D9
  8
0
  6
CONTINUOUS
 62
     7
 10
64.8383007311
 20
-44.9725936188
 30
0.0
 11
64.8383007311
 21
-46.9725935741
 31
0.0
  0
POLYLINE
  5
2DA
  8
0
  6
CONTINUOUS
 62
     7
 66
     1
 10
0.0
 20
0.0
 30
0.0
  0
VERTEX
  5
974
  8
0
  6
CONTINUOUS
 62
     7
 10
64.9162755274
 20
-44.1866512431
 30
0.0
  0
VERTEX
  5
975
  8
0
  6
CONTINUOUS
 62
     7
 10
64.8790226244
 20
-44.4033342434
 30
0.0
  0
VERTEX
  5
976
  8
0
  6
CONTINUOUS
 62
     7
 10
64.8383007311
 20
-44.9725936188
 30
0.0
  0
SEQEND
  5
A65
  8
0
  6
CONTINUOUS
 62
     7
  0
ARC
  5
2DB
  8
0
  6
CONTINUOUS
 62
     7
 10
84.8383035921
 20
-44.9725934399
 30
0.0
 40
4.0
 50
0.0
 51
42.3395639092
  0
LINE
  5
2DC
  8
0
  6
CONTINUOUS
 62
     7
 10
88.8383016848
 20
-46.9725935741
 30
0.0
 11
88.8383016848
 21
-46.3725934757
 31
0.0
  0
LINE
  5
2DD
  8
0
  6
CONTINUOUS
 62
     7
 10
88.8383016848
 20
-46.9725935741
 30
0.0
 11
88.8373003267
 21
-47.3725932671
 31
0.0
  0
ARC
  5
2DE
  8
0
  6
CONTINUOUS
 62
     7
 10
8.8383035921
 20
-46.9725934399
 30
0.0
 40
80.00000000000001
 50
339.9948099118
 51
348.883693452
  0
ARC
  5
2DF
  8
0
  6
CONTINUOUS
 62
     7
 10
80.2525878775
 20
-72.9725934399
 30
0.0
 40
4.000000000000025
 50
270.0
 51
339.9948099118
  0
LINE
  5
2E0
  8
0
  6
CONTINUOUS
 62
     7
 10
73.424016025
 20
-76.9725929035
 30
0.0
 11
80.2525863909
 21
-76.9725929035
 31
0.0
  0
ARC
  5
2E1
  8
0
  6
CONTINUOUS
 62
     7
 10
68.8383035921
 20
-44.9725934399
 30
0.0
 40
1.500000000000021
 50
270.0
 51
66.6219492715
  0
ARC
  5
2E2
  8
0
  6
CONTINUOUS
 62
     7
 10
68.8383035921
 20
-44.9725934399
 30
0.0
 40
1.50000000000001
 50
126.6959892436
 51
270.0
  0
CIRCLE
  5
2E3
  8
0
  6
CONTINUOUS
 62
     7
 10
84.8383035921
 20
-44.9725934399
 30
0.0
 40
1.500000000000014
  0
CIRCLE
  5
2E4
  8
0
  6
CONTINUOUS
 62
     7
 10
76.8383035921
 20
-72.9725934399
 30
0.0
 40
1.500000000000028
  0
POLYLINE
  5
2E5
  8
0
  6
CONTINUOUS
 62
     7
 66
     1
 10
0.0
 20
0.0
 30
0.0
  0
VERTEX
  5
977
  8
0
  6
CONTINUOUS
 62
     7
 10
358.8383064531
 20
-44.9725936188
 30
0.0
  0
VERTEX
  5
978
  8
0
  6
CONTINUOUS
 62
     7
 10
358.7975845598
 20
-44.4033342434
 30
0.0
  0
VERTEX
  5
979
  8
0
  6
CONTINUOUS
 62
     7
 10
358.7598905825
 20
-44.1844503416
 30
0.0
  0
SEQEND
  5
A64
  8
0
  6
CONTINUOUS
 62
     7
  0
LINE
  5
2E6
  8
0
  6
CONTINUOUS
 62
     7
 10
358.8383064531
 20
-46.9725935741
 30
0.0
 11
358.8383064531
 21
-44.9725936188
 31
0.0
  0
LINE
  5
2E7
  8
0
  6
CONTINUOUS
 62
     7
 10
358.8383064531
 20
-46.9725935741
 30
0.0
 11
358.8382468485
 21
-47.0725934042
 31
0.0
  0
ARC
  5
2E8
  8
0
  6
CONTINUOUS
 62
     7
 10
278.8383035921
 20
-46.9725934399
 30
0.0
 40
80.0
 50
348.3806348491
 51
351.3006271703
  0
ARC
  5
2E9
  8
0
  6
CONTINUOUS
 62
     7
 10
414.8383035921
 20
-46.9725934399
 30
0.0
 40
80.0
 50
188.6269265587
 51
191.610065148
  0
LINE
  5
2EA
  8
0
  6
CONTINUOUS
 62
     7
 10
334.8393068575
 20
-47.3725932671
 30
0.0
 11
334.8383054995
 21
-46.9725935741
 31
0.0
  0
LINE
  5
2EB
  8
0
  6
CONTINUOUS
 62
     7
 10
334.8383054995
 20
-46.3725934757
 30
0.0
 11
334.8383054995
 21
-46.9725935741
 31
0.0
  0
ARC
  5
2EC
  8
0
  6
CONTINUOUS
 62
     7
 10
338.8383035921
 20
-44.9725934399
 30
0.0
 40
4.000000000000057
 50
137.5994299178
 51
180.0
  0
ARC
  5
2ED
  8
0
  6
CONTINUOUS
 62
     7
 10
354.8383035921
 20
-44.9725934399
 30
0.0
 40
1.500000000000005
 50
114.2154858328
 51
51.3575194393
  0
CIRCLE
  5
2EE
  8
0
  6
CONTINUOUS
 62
     7
 10
338.8383035921
 20
-44.9725934399
 30
0.0
 40
1.500000000000014
  0
ARC
  5
2EF
  8
0
  6
CONTINUOUS
 62
     7
 10
211.8459211049
 20
-22.7747463522
 30
0.0
 40
6.286235465926824
 50
261.304747261
 51
278.4275782342
  0
ARC
  5
2F0
  8
0
  6
CONTINUOUS
 62
     7
 10
213.842018868
 20
-27.4117936447
 30
0.0
 40
0.9962916685299789
 50
269.7863349766
 51
359.785044188
  0
LINE
  5
2F1
  8
0
  6
CONTINUOUS
 62
     7
 10
214.8383035251
 20
-27.4155314101
 30
0.0
 11
214.8383035251
 21
-29.010574056
 31
0.0
  0
LINE
  5
2F2
  8
0
  6
CONTINUOUS
 62
     7
 10
208.8383036592
 20
-29.0151025189
 30
0.0
 11
208.8383036592
 21
-27.4155314101
 31
0.0
  0
ARC
  5
2F3
  8
0
  6
CONTINUOUS
 62
     7
 10
209.8345883162
 20
-27.4117936447
 30
0.0
 40
0.9962916685299789
 50
180.214955812
 51
270.2136650234
  0
LINE
  5
2F4
  8
0
  6
CONTINUOUS
 62
     7
 10
213.8383035474
 20
-28.4080783857
 30
0.0
 11
209.8383036368
 21
-28.4080783857
 31
0.0
  0
POLYLINE
  5
2F5
  8
0
  6
CONTINUOUS
 62
     7
 66
     1
 10
0.0
 20
0.0
 30
0.0
  0
VERTEX
  5
97A
  8
0
  6
CONTINUOUS
 62
     7
 10
211.8383035921
 20
-28.5287301077
 30
0.0
  0
VERTEX
  5
97B
  8
0
  6
CONTINUOUS
 62
     7
 10
211.568506823
 20
-28.5332496299
 30
0.0
  0
VERTEX
  5
97C
  8
0
  6
CONTINUOUS
 62
     7
 10
211.3187196591
 20
-28.5464714302
 30
0.0
  0
VERTEX
  5
97D
  8
0
  6
CONTINUOUS
 62
     7
 10
211.1074676198
 20
-28.5674165024
 30
0.0
  0
VERTEX
  5
97E
  8
0
  6
CONTINUOUS
 62
     7
 10
210.950418368
 20
-28.5945306553
 30
0.0
  0
VERTEX
  5
97F
  8
0
  6
CONTINUOUS
 62
     7
 10
210.8592195362
 20
-28.6258037223
 30
0.0
  0
VERTEX
  5
980
  8
0
  6
CONTINUOUS
 62
     7
 10
210.8383036145
 20
-28.6505992545
 30
0.0
  0
SEQEND
  5
A63
  8
0
  6
CONTINUOUS
 62
     7
  0
POLYLINE
  5
2F6
  8
0
  6
CONTINUOUS
 62
     7
 66
     1
 10
0.0
 20
0.0
 30
0.0
  0
VERTEX
  5
981
  8
0
  6
CONTINUOUS
 62
     7
 10
212.8383035698
 20
-28.6505992545
 30
0.0
  0
VERTEX
  5
982
  8
0
  6
CONTINUOUS
 62
     7
 10
212.817387648
 20
-28.6258037223
 30
0.0
  0
VERTEX
  5
983
  8
0
  6
CONTINUOUS
 62
     7
 10
212.7261888162
 20
-28.5945306553
 30
0.0
  0
VERTEX
  5
984
  8
0
  6
CONTINUOUS
 62
     7
 10
212.5691395645
 20
-28.5674165024
 30
0.0
  0
VERTEX
  5
985
  8
0
  6
CONTINUOUS
 62
     7
 10
212.3578875252
 20
-28.5464714302
 30
0.0
  0
VERTEX
  5
986
  8
0
  6
CONTINUOUS
 62
     7
 10
212.1081003613
 20
-28.5332496299
 30
0.0
  0
VERTEX
  5
987
  8
0
  6
CONTINUOUS
 62
     7
 10
211.8383035921
 20
-28.5287301077
 30
0.0
  0
SEQEND
  5
A62
  8
0
  6
CONTINUOUS
 62
     7
  0
LINE
  5
2F7
  8
0
  6
CONTINUOUS
 62
     7
 10
208.8383036592
 20
-27.4155314101
 30
0.0
 11
208.8383036592
 21
-23.4453494681
 31
0.0
  0
ARC
  5
2F8
  8
0
  6
CONTINUOUS
 62
     7
 10
209.8345919209
 20
-23.4490893695
 30
0.0
 40
0.9962952811582795
 50
89.7865430513
 51
179.7849221292
  0
LINE
  5
2F9
  8
0
  6
CONTINUOUS
 62
     7
 10
209.8383036368
 20
-22.4528010024
 30
0.0
 11
213.8383035474
 21
-22.4528010024
 31
0.0
  0
ARC
  5
2FA
  8
0
  6
CONTINUOUS
 62
     7
 10
213.8420152634
 20
-23.4490893695
 30
0.0
 40
0.9962952811582795
 50
0.2150778708
 51
90.2134569487
  0
LINE
  5
2FB
  8
0
  6
CONTINUOUS
 62
     7
 10
214.8383035251
 20
-23.4453494681
 30
0.0
 11
214.8383035251
 21
-27.4155314101
 31
0.0
  0
POLYLINE
  5
2FC
  8
0
  6
CONTINUOUS
 62
     7
 66
     1
 10
0.0
 20
0.0
 30
0.0
  0
VERTEX
  5
988
  8
0
  6
CONTINUOUS
 62
     7
 10
238.5388568901
 20
-42.7864777876
 30
0.0
  0
VERTEX
  5
989
  8
0
  6
CONTINUOUS
 62
     7
 10
239.6200106405
 20
-42.9158258273
 30
0.0
  0
VERTEX
  5
98A
  8
0
  6
CONTINUOUS
 62
     7
 10
240.6687990688
 20
-43.0317255689
 30
0.0
  0
VERTEX
  5
98B
  8
0
  6
CONTINUOUS
 62
     7
 10
241.665639069
 20
-43.131308539
 30
0.0
  0
VERTEX
  5
98C
  8
0
  6
CONTINUOUS
 62
     7
 10
242.6005617642
 20
-43.2126040591
 30
0.0
  0
VERTEX
  5
98D
  8
0
  6
CONTINUOUS
 62
     7
 10
243.4658751749
 20
-43.2740877403
 30
0.0
  0
VERTEX
  5
98E
  8
0
  6
CONTINUOUS
 62
     7
 10
244.2458883785
 20
-43.313607855
 30
0.0
  0
VERTEX
  5
98F
  8
0
  6
CONTINUOUS
 62
     7
 10
244.9361787104
 20
-43.3294544948
 30
0.0
  0
VERTEX
  5
990
  8
0
  6
CONTINUOUS
 62
     7
 10
245.5273703598
 20
-43.3205301894
 30
0.0
  0
VERTEX
  5
991
  8
0
  6
CONTINUOUS
 62
     7
 10
246.0090444349
 20
-43.2860794498
 30
0.0
  0
VERTEX
  5
992
  8
0
  6
CONTINUOUS
 62
     7
 10
246.3785932325
 20
-43.2244817747
 30
0.0
  0
VERTEX
  5
993
  8
0
  6
CONTINUOUS
 62
     7
 10
246.6293797754
 20
-43.1363093687
 30
0.0
  0
VERTEX
  5
994
  8
0
  6
CONTINUOUS
 62
     7
 10
246.7570290827
 20
-43.0227401687
 30
0.0
  0
VERTEX
  5
995
  8
0
  6
CONTINUOUS
 62
     7
 10
246.7739120983
 20
-42.9536717965
 30
0.0
  0
SEQEND
  5
A61
  8
0
  6
CONTINUOUS
 62
     7
  0
ARC
  5
2FD
  8
0
  6
CONTINUOUS
 62
     7
 10
211.8383035921
 20
-226.624700875
 30
0.0
 40
185.7670902348654
 50
81.7361790473
 51
98.2638209527
  0
POLYLINE
  5
2FE
  8
0
  6
CONTINUOUS
 62
     7
 66
     1
 10
0.0
 20
0.0
 30
0.0
  0
VERTEX
  5
996
  8
0
  6
CONTINUOUS
 62
     7
 10
176.9026950859
 20
-42.9536717965
 30
0.0
  0
VERTEX
  5
997
  8
0
  6
CONTINUOUS
 62
     7
 10
176.966782
 20
-43.0812048746
 30
0.0
  0
VERTEX
  5
998
  8
0
  6
CONTINUOUS
 62
     7
 10
177.1568016075
 20
-43.1835028364
 30
0.0
  0
VERTEX
  5
999
  8
0
  6
CONTINUOUS
 62
     7
 10
177.4693862461
 20
-43.2589943541
 30
0.0
  0
VERTEX
  5
99A
  8
0
  6
CONTINUOUS
 62
     7
 10
177.9034540915
 20
-43.3070558144
 30
0.0
  0
VERTEX
  5
99B
  8
0
  6
CONTINUOUS
 62
     7
 10
178.4536973499
 20
-43.3284784688
 30
0.0
  0
VERTEX
  5
99C
  8
0
  6
CONTINUOUS
 62
     7
 10
179.1101352238
 20
-43.3237659766
 30
0.0
  0
VERTEX
  5
99D
  8
0
  6
CONTINUOUS
 62
     7
 10
179.863502171
 20
-43.2938571109
 30
0.0
  0
VERTEX
  5
99E
  8
0
  6
CONTINUOUS
 62
     7
 10
180.7093159222
 20
-43.2405347957
 30
0.0
  0
VERTEX
  5
99F
  8
0
  6
CONTINUOUS
 62
     7
 10
181.6317901873
 20
-43.1658971144
 30
0.0
  0
VERTEX
  5
9A0
  8
0
  6
CONTINUOUS
 62
     7
 10
182.6136098169
 20
-43.0724534227
 30
0.0
  0
VERTEX
  5
9A1
  8
0
  6
CONTINUOUS
 62
     7
 10
183.6530850195
 20
-42.961622311
 30
0.0
  0
VERTEX
  5
9A2
  8
0
  6
CONTINUOUS
 62
     7
 10
184.7305611633
 20
-42.8362878991
 30
0.0
  0
VERTEX
  5
9A3
  8
0
  6
CONTINUOUS
 62
     7
 10
185.1377502941
 20
-42.7864777876
 30
0.0
  0
SEQEND
  5
A60
  8
0
  6
CONTINUOUS
 62
     7
  0
LINE
  5
2FF
  8
0
  6
CONTINUOUS
 62
     7
 10
176.9026950859
 20
-38.4442578091
 30
0.0
 11
176.9026950859
 21
-42.9536717965
 31
0.0
  0
LINE
  5
300
  8
0
  6
CONTINUOUS
 62
     7
 10
246.7739120983
 20
-42.9536717965
 30
0.0
 11
246.7739120983
 21
-38.4457926287
 31
0.0
  0
POLYLINE
  5
301
  8
0
  6
CONTINUOUS
 62
     7
 66
     1
 10
0.0
 20
0.0
 30
0.0
  0
VERTEX
  5
9A4
  8
0
  6
CONTINUOUS
 62
     7
 10
251.8970594668
 20
-41.8150994016
 30
0.0
  0
VERTEX
  5
9A5
  8
0
  6
CONTINUOUS
 62
     7
 10
251.894842174
 20
-41.923488213
 30
0.0
  0
VERTEX
  5
9A6
  8
0
  6
CONTINUOUS
 62
     7
 10
251.8341199421
 20
-42.3892821206
 30
0.0
  0
SEQEND
  5
A5F
  8
0
  6
CONTINUOUS
 62
     7
  0
ARC
  5
302
  8
0
  6
CONTINUOUS
 62
     7
 10
331.8459203849
 20
-22.7748443938
 30
0.0
 40
6.286138045189079
 50
261.304642316
 51
278.4276822735
  0
ARC
  5
303
  8
0
  6
CONTINUOUS
 62
     7
 10
333.8420131459
 20
-27.4117858869
 30
0.0
 40
0.9962993941202479
 50
269.7868328114
 51
359.7845997126
  0
LINE
  5
304
  8
0
  6
CONTINUOUS
 62
     7
 10
334.8383054995
 20
-27.4155314101
 30
0.0
 11
334.8383054995
 21
-29.010574056
 31
0.0
  0
LINE
  5
305
  8
0
  6
CONTINUOUS
 62
     7
 10
328.8382993006
 20
-29.0151025189
 30
0.0
 11
328.8382993006
 21
-27.4155314101
 31
0.0
  0
ARC
  5
306
  8
0
  6
CONTINUOUS
 62
     7
 10
329.8345965924
 20
-27.4117809116
 30
0.0
 40
0.9963043510305131
 50
180.2156853392
 51
270.2128821369
  0
LINE
  5
307
  8
0
  6
CONTINUOUS
 62
     7
 10
328.8382993006
 20
-27.4155314101
 30
0.0
 11
328.8382993006
 21
-23.4453494681
 31
0.0
  0
ARC
  5
308
  8
0
  6
CONTINUOUS
 62
     7
 10
329.8346001972
 20
-23.4491021027
 30
0.0
 40
0.9963079638385559
 50
89.7873259411
 51
179.7841925988
  0
LINE
  5
309
  8
0
  6
CONTINUOUS
 62
     7
 10
329.8382983469
 20
-22.4528010024
 30
0.0
 11
333.8383064531
 21
-22.4528010024
 31
0.0
  0
ARC
  5
30A
  8
0
  6
CONTINUOUS
 62
     7
 10
333.8420095413
 20
-23.4490971273
 30
0.0
 40
0.9963030067543431
 50
0.2155223421
 51
90.2129591179
  0
LINE
  5
30B
  8
0
  6
CONTINUOUS
 62
     7
 10
334.8383054995
 20
-23.4453494681
 30
0.0
 11
334.8383054995
 21
-27.4155314101
 31
0.0
  0
LINE
  5
30C
  8
0
  6
CONTINUOUS
 62
     7
 10
333.8383064531
 20
-28.4080783857
 30
0.0
 11
329.8382983469
 21
-28.4080783857
 31
0.0
  0
POLYLINE
  5
30D
  8
0
  6
CONTINUOUS
 62
     7
 66
     1
 10
0.0
 20
0.0
 30
0.0
  0
VERTEX
  5
9A7
  8
0
  6
CONTINUOUS
 62
     7
 10
331.8383083605
 20
-28.5287301077
 30
0.0
  0
VERTEX
  5
9A8
  8
0
  6
CONTINUOUS
 62
     7
 10
331.5685019754
 20
-28.5332496299
 30
0.0
  0
VERTEX
  5
9A9
  8
0
  6
CONTINUOUS
 62
     7
 10
331.3187227511
 20
-28.5464714302
 30
0.0
  0
VERTEX
  5
9AA
  8
0
  6
CONTINUOUS
 62
     7
 10
331.107471969
 20
-28.5674165024
 30
0.0
  0
VERTEX
  5
9AB
  8
0
  6
CONTINUOUS
 62
     7
 10
330.9504137301
 20
-28.5945306553
 30
0.0
  0
VERTEX
  5
9AC
  8
0
  6
CONTINUOUS
 62
     7
 10
330.8592186236
 20
-28.6258037223
 30
0.0
  0
VERTEX
  5
9AD
  8
0
  6
CONTINUOUS
 62
     7
 10
330.8383093142
 20
-28.6505992545
 30
0.0
  0
SEQEND
  5
A5E
  8
0
  6
CONTINUOUS
 62
     7
  0
POLYLINE
  5
30E
  8
0
  6
CONTINUOUS
 62
     7
 66
     1
 10
0.0
 20
0.0
 30
0.0
  0
VERTEX
  5
9AE
  8
0
  6
CONTINUOUS
 62
     7
 10
332.8383074068
 20
-28.6505992545
 30
0.0
  0
VERTEX
  5
9AF
  8
0
  6
CONTINUOUS
 62
     7
 10
332.8173861765
 20
-28.6258037223
 30
0.0
  0
VERTEX
  5
9B0
  8
0
  6
CONTINUOUS
 62
     7
 10
332.72619107
 20
-28.5945306553
 30
0.0
  0
VERTEX
  5
9B1
  8
0
  6
CONTINUOUS
 62
     7
 10
332.5691447519
 20
-28.5674165024
 30
0.0
  0
VERTEX
  5
9B2
  8
0
  6
CONTINUOUS
 62
     7
 10
332.357882049
 20
-28.5464714302
 30
0.0
  0
VERTEX
  5
9B3
  8
0
  6
CONTINUOUS
 62
     7
 10
332.1081028246
 20
-28.5332496299
 30
0.0
  0
VERTEX
  5
9B4
  8
0
  6
CONTINUOUS
 62
     7
 10
331.8383083605
 20
-28.5287301077
 30
0.0
  0
SEQEND
  5
A5D
  8
0
  6
CONTINUOUS
 62
     7
  0
POLYLINE
  5
30F
  8
0
  6
CONTINUOUS
 62
     7
 66
     1
 10
0.0
 20
0.0
 30
0.0
  0
VERTEX
  5
9B5
  8
0
  6
CONTINUOUS
 62
     7
 10
358.5388527178
 20
-42.7864777876
 30
0.0
  0
VERTEX
  5
9B6
  8
0
  6
CONTINUOUS
 62
     7
 10
359.6200094484
 20
-42.9158258273
 30
0.0
  0
VERTEX
  5
9B7
  8
0
  6
CONTINUOUS
 62
     7
 10
360.668800857
 20
-43.0317255689
 30
0.0
  0
VERTEX
  5
9B8
  8
0
  6
CONTINUOUS
 62
     7
 10
361.6656408571
 20
-43.131308539
 30
0.0
  0
VERTEX
  5
9B9
  8
0
  6
CONTINUOUS
 62
     7
 10
362.6005635523
 20
-43.2126040591
 30
0.0
  0
VERTEX
  5
9BA
  8
0
  6
CONTINUOUS
 62
     7
 10
363.4658799433
 20
-43.2740877403
 30
0.0
  0
VERTEX
  5
9BB
  8
0
  6
CONTINUOUS
 62
     7
 10
364.2458901667
 20
-43.313607855
 30
0.0
  0
VERTEX
  5
9BC
  8
0
  6
CONTINUOUS
 62
     7
 10
364.9361715578
 20
-43.3294544948
 30
0.0
  0
VERTEX
  5
9BD
  8
0
  6
CONTINUOUS
 62
     7
 10
365.5273661875
 20
-43.3205301894
 30
0.0
  0
VERTEX
  5
9BE
  8
0
  6
CONTINUOUS
 62
     7
 10
366.0090432428
 20
-43.2860794498
 30
0.0
  0
VERTEX
  5
9BF
  8
0
  6
CONTINUOUS
 62
     7
 10
366.3785920405
 20
-43.2244817747
 30
0.0
  0
VERTEX
  5
9C0
  8
0
  6
CONTINUOUS
 62
     7
 10
366.6293845438
 20
-43.1363093687
 30
0.0
  0
VERTEX
  5
9C1
  8
0
  6
CONTINUOUS
 62
     7
 10
366.7570338511
 20
-43.0227401687
 30
0.0
  0
VERTEX
  5
9C2
  8
0
  6
CONTINUOUS
 62
     7
 10
366.7739138865
 20
-42.9536717965
 30
0.0
  0
SEQEND
  5
A5C
  8
0
  6
CONTINUOUS
 62
     7
  0
ARC
  5
310
  8
0
  6
CONTINUOUS
 62
     7
 10
331.8383024
 20
-226.6246228567
 30
0.0
 40
185.7670125983007
 50
81.7361764983
 51
98.2638235017
  0
POLYLINE
  5
311
  8
0
  6
CONTINUOUS
 62
     7
 66
     1
 10
0.0
 20
0.0
 30
0.0
  0
VERTEX
  5
9C3
  8
0
  6
CONTINUOUS
 62
     7
 10
296.9026968741
 20
-42.9536717965
 30
0.0
  0
VERTEX
  5
9C4
  8
0
  6
CONTINUOUS
 62
     7
 10
296.9667837881
 20
-43.0812048746
 30
0.0
  0
VERTEX
  5
9C5
  8
0
  6
CONTINUOUS
 62
     7
 10
297.1568033957
 20
-43.1835028364
 30
0.0
  0
VERTEX
  5
9C6
  8
0
  6
CONTINUOUS
 62
     7
 10
297.4693880343
 20
-43.2589943541
 30
0.0
  0
VERTEX
  5
9C7
  8
0
  6
CONTINUOUS
 62
     7
 10
297.9034528994
 20
-43.3070558144
 30
0.0
  0
VERTEX
  5
9C8
  8
0
  6
CONTINUOUS
 62
     7
 10
298.4536991381
 20
-43.3284784688
 30
0.0
  0
VERTEX
  5
9C9
  8
0
  6
CONTINUOUS
 62
     7
 10
299.1101370119
 20
-43.3237659766
 30
0.0
  0
VERTEX
  5
9CA
  8
0
  6
CONTINUOUS
 62
     7
 10
299.8635039591
 20
-43.2938571109
 30
0.0
  0
VERTEX
  5
9CB
  8
0
  6
CONTINUOUS
 62
     7
 10
300.7093177103
 20
-43.2405347957
 30
0.0
  0
VERTEX
  5
9CC
  8
0
  6
CONTINUOUS
 62
     7
 10
301.6317889952
 20
-43.1658971144
 30
0.0
  0
VERTEX
  5
9CD
  8
0
  6
CONTINUOUS
 62
     7
 10
302.6136086248
 20
-43.0724534227
 30
0.0
  0
VERTEX
  5
9CE
  8
0
  6
CONTINUOUS
 62
     7
 10
303.6530838274
 20
-42.961622311
 30
0.0
  0
VERTEX
  5
9CF
  8
0
  6
CONTINUOUS
 62
     7
 10
304.7305629515
 20
-42.8362878991
 30
0.0
  0
VERTEX
  5
9D0
  8
0
  6
CONTINUOUS
 62
     7
 10
305.1377520823
 20
-42.7864777876
 30
0.0
  0
SEQEND
  5
A5B
  8
0
  6
CONTINUOUS
 62
     7
  0
LINE
  5
312
  8
0
  6
CONTINUOUS
 62
     7
 10
296.9026968741
 20
-38.4442578091
 30
0.0
 11
296.9026968741
 21
-42.9536717965
 31
0.0
  0
LINE
  5
313
  8
0
  6
CONTINUOUS
 62
     7
 10
366.7739138865
 20
-42.9536717965
 30
0.0
 11
366.7739138865
 21
-38.4457926287
 31
0.0
  0
POLYLINE
  5
314
  8
0
  6
CONTINUOUS
 62
     7
 66
     1
 10
0.0
 20
0.0
 30
0.0
  0
VERTEX
  5
9D1
  8
0
  6
CONTINUOUS
 62
     7
 10
371.8970642351
 20
-41.8150994016
 30
0.0
  0
VERTEX
  5
9D2
  8
0
  6
CONTINUOUS
 62
     7
 10
371.8948469423
 20
-41.923488213
 30
0.0
  0
VERTEX
  5
9D3
  8
0
  6
CONTINUOUS
 62
     7
 10
371.8341217302
 20
-42.3892821206
 30
0.0
  0
SEQEND
  5
A5A
  8
0
  6
CONTINUOUS
 62
     7
  0
ARC
  5
315
  8
0
  6
CONTINUOUS
 62
     7
 10
91.8459229809
 20
-22.7747536864
 30
0.0
 40
6.286227742113223
 50
261.304765396
 51
278.4275591935
  0
LINE
  5
316
  8
0
  6
CONTINUOUS
 62
     7
 10
88.8383016848
 20
-29.0151025189
 30
0.0
 11
88.8383016848
 21
-27.4155314101
 31
0.0
  0
ARC
  5
317
  8
0
  6
CONTINUOUS
 62
     7
 10
89.8345940383
 20
-27.4117858869
 30
0.0
 40
0.9962993941203047
 50
180.2154002874
 51
270.2131671886
  0
ARC
  5
318
  8
0
  6
CONTINUOUS
 62
     7
 10
93.8420105919
 20
-27.4117809116
 30
0.0
 40
0.9963043510305131
 50
269.7871178631
 51
359.7843146608
  0
LINE
  5
319
  8
0
  6
CONTINUOUS
 62
     7
 10
94.8383078837
 20
-27.4155314101
 30
0.0
 11
94.8383078837
 21
-29.010574056
 31
0.0
  0
LINE
  5
31A
  8
0
  6
CONTINUOUS
 62
     7
 10
93.8383088373
 20
-28.4080783857
 30
0.0
 11
89.8383007311
 21
-28.4080783857
 31
0.0
  0
POLYLINE
  5
31B
  8
0
  6
CONTINUOUS
 62
     7
 66
     1
 10
0.0
 20
0.0
 30
0.0
  0
VERTEX
  5
9D4
  8
0
  6
CONTINUOUS
 62
     7
 10
91.8382988237
 20
-28.5287301077
 30
0.0
  0
VERTEX
  5
9D5
  8
0
  6
CONTINUOUS
 62
     7
 10
91.5685043596
 20
-28.5332496299
 30
0.0
  0
VERTEX
  5
9D6
  8
0
  6
CONTINUOUS
 62
     7
 10
91.3187251352
 20
-28.5464714302
 30
0.0
  0
VERTEX
  5
9D7
  8
0
  6
CONTINUOUS
 62
     7
 10
91.1074624323
 20
-28.5674165024
 30
0.0
  0
VERTEX
  5
9D8
  8
0
  6
CONTINUOUS
 62
     7
 10
90.9504161142
 20
-28.5945306553
 30
0.0
  0
VERTEX
  5
9D9
  8
0
  6
CONTINUOUS
 62
     7
 10
90.8592210077
 20
-28.6258037223
 30
0.0
  0
VERTEX
  5
9DA
  8
0
  6
CONTINUOUS
 62
     7
 10
90.8382997774
 20
-28.6505992545
 30
0.0
  0
SEQEND
  5
A59
  8
0
  6
CONTINUOUS
 62
     7
  0
POLYLINE
  5
31C
  8
0
  6
CONTINUOUS
 62
     7
 66
     1
 10
0.0
 20
0.0
 30
0.0
  0
VERTEX
  5
9DB
  8
0
  6
CONTINUOUS
 62
     7
 10
92.8382978701
 20
-28.6505992545
 30
0.0
  0
VERTEX
  5
9DC
  8
0
  6
CONTINUOUS
 62
     7
 10
92.8173885607
 20
-28.6258037223
 30
0.0
  0
VERTEX
  5
9DD
  8
0
  6
CONTINUOUS
 62
     7
 10
92.7261934542
 20
-28.5945306553
 30
0.0
  0
VERTEX
  5
9DE
  8
0
  6
CONTINUOUS
 62
     7
 10
92.5691352152
 20
-28.5674165024
 30
0.0
  0
VERTEX
  5
9DF
  8
0
  6
CONTINUOUS
 62
     7
 10
92.3578844332
 20
-28.5464714302
 30
0.0
  0
VERTEX
  5
9E0
  8
0
  6
CONTINUOUS
 62
     7
 10
92.1081052088
 20
-28.5332496299
 30
0.0
  0
VERTEX
  5
9E1
  8
0
  6
CONTINUOUS
 62
     7
 10
91.8382988237
 20
-28.5287301077
 30
0.0
  0
SEQEND
  5
A58
  8
0
  6
CONTINUOUS
 62
     7
  0
LINE
  5
31D
  8
0
  6
CONTINUOUS
 62
     7
 10
88.8383016848
 20
-27.4155314101
 30
0.0
 11
88.8383016848
 21
-23.4453494681
 31
0.0
  0
ARC
  5
31E
  8
0
  6
CONTINUOUS
 62
     7
 10
89.834597643
 20
-23.4490971273
 30
0.0
 40
0.9963030067543927
 50
89.7870408821
 51
179.7844776579
  0
LINE
  5
31F
  8
0
  6
CONTINUOUS
 62
     7
 10
89.8383007311
 20
-22.4528010024
 30
0.0
 11
93.8383088373
 21
-22.4528010024
 31
0.0
  0
ARC
  5
320
  8
0
  6
CONTINUOUS
 62
     7
 10
93.8420069871
 20
-23.4491021027
 30
0.0
 40
0.9963079638385184
 50
0.2158074012
 51
90.2126740589
  0
LINE
  5
321
  8
0
  6
CONTINUOUS
 62
     7
 10
94.8383078837
 20
-23.4453494681
 30
0.0
 11
94.8383078837
 21
-27.4155314101
 31
0.0
  0
POLYLINE
  5
322
  8
0
  6
CONTINUOUS
 62
     7
 66
     1
 10
0.0
 20
0.0
 30
0.0
  0
VERTEX
  5
9E2
  8
0
  6
CONTINUOUS
 62
     7
 10
118.538855102
 20
-42.7864777876
 30
0.0
  0
VERTEX
  5
9E3
  8
0
  6
CONTINUOUS
 62
     7
 10
119.6200118326
 20
-42.9158258273
 30
0.0
  0
VERTEX
  5
9E4
  8
0
  6
CONTINUOUS
 62
     7
 10
120.6687972807
 20
-43.0317255689
 30
0.0
  0
VERTEX
  5
9E5
  8
0
  6
CONTINUOUS
 62
     7
 10
121.6656372809
 20
-43.131308539
 30
0.0
  0
VERTEX
  5
9E6
  8
0
  6
CONTINUOUS
 62
     7
 10
122.600559976
 20
-43.2126040591
 30
0.0
  0
VERTEX
  5
9E7
  8
0
  6
CONTINUOUS
 62
     7
 10
123.465876367
 20
-43.2740877403
 30
0.0
  0
VERTEX
  5
9E8
  8
0
  6
CONTINUOUS
 62
     7
 10
124.2458865904
 20
-43.313607855
 30
0.0
  0
VERTEX
  5
9E9
  8
0
  6
CONTINUOUS
 62
     7
 10
124.9361799025
 20
-43.3294544948
 30
0.0
  0
VERTEX
  5
9EA
  8
0
  6
CONTINUOUS
 62
     7
 10
125.5273685717
 20
-43.3205301894
 30
0.0
  0
VERTEX
  5
9EB
  8
0
  6
CONTINUOUS
 62
     7
 10
126.009045627
 20
-43.2860794498
 30
0.0
  0
VERTEX
  5
9EC
  8
0
  6
CONTINUOUS
 62
     7
 10
126.3785944246
 20
-43.2244817747
 30
0.0
  0
VERTEX
  5
9ED
  8
0
  6
CONTINUOUS
 62
     7
 10
126.6293809675
 20
-43.1363093687
 30
0.0
  0
VERTEX
  5
9EE
  8
0
  6
CONTINUOUS
 62
     7
 10
126.7570302748
 20
-43.0227401687
 30
0.0
  0
VERTEX
  5
9EF
  8
0
  6
CONTINUOUS
 62
     7
 10
126.7739103102
 20
-42.9536717965
 30
0.0
  0
SEQEND
  5
A57
  8
0
  6
CONTINUOUS
 62
     7
  0
ARC
  5
323
  8
0
  6
CONTINUOUS
 62
     7
 10
91.8383047842
 20
-226.6246228567
 30
0.0
 40
185.7670125983
 50
81.7361764983
 51
98.2638235017
  0
POLYLINE
  5
324
  8
0
  6
CONTINUOUS
 62
     7
 66
     1
 10
0.0
 20
0.0
 30
0.0
  0
VERTEX
  5
9F0
  8
0
  6
CONTINUOUS
 62
     7
 10
56.9026932978
 20
-42.9536717965
 30
0.0
  0
VERTEX
  5
9F1
  8
0
  6
CONTINUOUS
 62
     7
 10
56.9667802118
 20
-43.0812048746
 30
0.0
  0
VERTEX
  5
9F2
  8
0
  6
CONTINUOUS
 62
     7
 10
57.1567998194
 20
-43.1835028364
 30
0.0
  0
VERTEX
  5
9F3
  8
0
  6
CONTINUOUS
 62
     7
 10
57.4693904184
 20
-43.2589943541
 30
0.0
  0
VERTEX
  5
9F4
  8
0
  6
CONTINUOUS
 62
     7
 10
57.9034552836
 20
-43.3070558144
 30
0.0
  0
VERTEX
  5
9F5
  8
0
  6
CONTINUOUS
 62
     7
 10
58.4537015223
 20
-43.3284784688
 30
0.0
  0
VERTEX
  5
9F6
  8
0
  6
CONTINUOUS
 62
     7
 10
59.1101393961
 20
-43.3237659766
 30
0.0
  0
VERTEX
  5
9F7
  8
0
  6
CONTINUOUS
 62
     7
 10
59.8635063433
 20
-43.2938571109
 30
0.0
  0
VERTEX
  5
9F8
  8
0
  6
CONTINUOUS
 62
     7
 10
60.7093200945
 20
-43.2405347957
 30
0.0
  0
VERTEX
  5
9F9
  8
0
  6
CONTINUOUS
 62
     7
 10
61.6317854189
 20
-43.1658971144
 30
0.0
  0
VERTEX
  5
9FA
  8
0
  6
CONTINUOUS
 62
     7
 10
62.6136050486
 20
-43.0724534227
 30
0.0
  0
VERTEX
  5
9FB
  8
0
  6
CONTINUOUS
 62
     7
 10
63.6530862116
 20
-42.961622311
 30
0.0
  0
VERTEX
  5
9FC
  8
0
  6
CONTINUOUS
 62
     7
 10
64.7305593752
 20
-42.8362878991
 30
0.0
  0
VERTEX
  5
9FD
  8
0
  6
CONTINUOUS
 62
     7
 10
65.1377544664
 20
-42.7864777876
 30
0.0
  0
SEQEND
  5
A56
  8
0
  6
CONTINUOUS
 62
     7
  0
LINE
  5
325
  8
0
  6
CONTINUOUS
 62
     7
 10
56.9026932978
 20
-38.4442578091
 30
0.0
 11
56.9026932978
 21
-42.9536717965
 31
0.0
  0
LINE
  5
326
  8
0
  6
CONTINUOUS
 62
     7
 10
126.7739103102
 20
-42.9536717965
 30
0.0
 11
126.7739103102
 21
-38.4457926287
 31
0.0
  0
POLYLINE
  5
327
  8
0
  6
CONTINUOUS
 62
     7
 66
     1
 10
0.0
 20
0.0
 30
0.0
  0
VERTEX
  5
9FE
  8
0
  6
CONTINUOUS
 62
     7
 10
131.8970606588
 20
-41.8150994016
 30
0.0
  0
VERTEX
  5
9FF
  8
0
  6
CONTINUOUS
 62
     7
 10
131.8948433661
 20
-41.923488213
 30
0.0
  0
VERTEX
  5
A00
  8
0
  6
CONTINUOUS
 62
     7
 10
131.834118154
 20
-42.3892821206
 30
0.0
  0
SEQEND
  5
A55
  8
0
  6
CONTINUOUS
 62
     7
  0
LINE
  5
328
  8
0
  6
CONTINUOUS
 62
     7
 10
328.8382993006
 20
-42.2676670386
 30
0.0
 11
328.8382993006
 21
-44.9416811599
 31
0.0
  0
LINE
  5
329
  8
0
  6
CONTINUOUS
 62
     7
 10
334.8383054995
 20
-42.2721955015
 30
0.0
 11
334.8383054995
 21
-44.9416811599
 31
0.0
  0
ARC
  5
32A
  8
0
  6
CONTINUOUS
 62
     7
 10
329.8383035921
 20
-46.3725934399
 30
0.0
 40
1.0
 50
180.0
 51
270.0
  0
LINE
  5
32B
  8
0
  6
CONTINUOUS
 62
     7
 10
328.8382993006
 20
-44.9416811599
 30
0.0
 11
328.8382993006
 21
-46.3725934757
 31
0.0
  0
ARC
  5
32C
  8
0
  6
CONTINUOUS
 62
     7
 10
333.8383035921
 20
-46.3725934399
 30
0.0
 40
1.0
 50
270.0
 51
0.0
  0
LINE
  5
32D
  8
0
  6
CONTINUOUS
 62
     7
 10
334.8383054995
 20
-44.9416811599
 30
0.0
 11
334.8383054995
 21
-46.3725934757
 31
0.0
  0
LINE
  5
32E
  8
0
  6
CONTINUOUS
 62
     7
 10
333.8383064531
 20
-47.3725932671
 30
0.0
 11
329.8382983469
 21
-47.3725932671
 31
0.0
  0
LINE
  5
32F
  8
0
  6
CONTINUOUS
 62
     7
 10
349.8383031153
 20
-48.372593431
 30
0.0
 11
349.8383031153
 21
-57.9725935145
 31
0.0
  0
LINE
  5
330
  8
0
  6
CONTINUOUS
 62
     7
 10
313.8383016848
 20
-48.372593431
 30
0.0
 11
313.8383016848
 21
-57.9725935145
 31
0.0
  0
LINE
  5
331
  8
0
  6
CONTINUOUS
 62
     7
 10
349.8383031153
 20
-58.9725933058
 30
0.0
 11
313.8383016848
 21
-58.9725933058
 31
0.0
  0
LINE
  5
332
  8
0
  6
CONTINUOUS
 62
     7
 10
349.8383031153
 20
-57.9725935145
 30
0.0
 11
349.8383031153
 21
-58.9725933058
 31
0.0
  0
LINE
  5
333
  8
0
  6
CONTINUOUS
 62
     7
 10
313.8383016848
 20
-57.9725935145
 30
0.0
 11
313.8383016848
 21
-58.9725933058
 31
0.0
  0
LINE
  5
334
  8
0
  6
CONTINUOUS
 62
     7
 10
329.8382983469
 20
-47.3725932671
 30
0.0
 11
313.8383016848
 21
-47.3725932671
 31
0.0
  0
LINE
  5
335
  8
0
  6
CONTINUOUS
 62
     7
 10
349.8383031153
 20
-47.3725932671
 30
0.0
 11
333.8383064531
 21
-47.3725932671
 31
0.0
  0
LINE
  5
336
  8
0
  6
CONTINUOUS
 62
     7
 10
349.8383031153
 20
-47.3725932671
 30
0.0
 11
349.8383031153
 21
-48.372593431
 31
0.0
  0
LINE
  5
337
  8
0
  6
CONTINUOUS
 62
     7
 10
313.8383016848
 20
-47.3725932671
 30
0.0
 11
313.8383016848
 21
-48.372593431
 31
0.0
  0
LINE
  5
338
  8
0
  6
CONTINUOUS
 62
     7
 10
214.8383035251
 20
-42.2721955015
 30
0.0
 11
214.8383035251
 21
-44.9416811599
 31
0.0
  0
LINE
  5
339
  8
0
  6
CONTINUOUS
 62
     7
 10
208.8383036592
 20
-42.2676670386
 30
0.0
 11
208.8383036592
 21
-44.9416811599
 31
0.0
  0
ARC
  5
33A
  8
0
  6
CONTINUOUS
 62
     7
 10
213.8383035921
 20
-46.3725934399
 30
0.0
 40
1.0
 50
270.0
 51
0.0
  0
LINE
  5
33B
  8
0
  6
CONTINUOUS
 62
     7
 10
214.8383035251
 20
-44.9416811599
 30
0.0
 11
214.8383035251
 21
-46.3725934757
 31
0.0
  0
LINE
  5
33C
  8
0
  6
CONTINUOUS
 62
     7
 10
213.8383035474
 20
-47.3725932671
 30
0.0
 11
209.8383036368
 21
-47.3725932671
 31
0.0
  0
ARC
  5
33D
  8
0
  6
CONTINUOUS
 62
     7
 10
209.8383035921
 20
-46.3725934399
 30
0.0
 40
1.0
 50
180.0
 51
270.0
  0
LINE
  5
33E
  8
0
  6
CONTINUOUS
 62
     7
 10
208.8383036592
 20
-44.9416811599
 30
0.0
 11
208.8383036592
 21
-46.3725934757
 31
0.0
  0
LINE
  5
33F
  8
0
  6
CONTINUOUS
 62
     7
 10
193.8383028769
 20
-48.372593431
 30
0.0
 11
193.8383028769
 21
-50.5553876071
 31
0.0
  0
LINE
  5
340
  8
0
  6
CONTINUOUS
 62
     7
 10
229.8383043074
 20
-48.372593431
 30
0.0
 11
229.8383043074
 21
-50.5503990708
 31
0.0
  0
LINE
  5
341
  8
0
  6
CONTINUOUS
 62
     7
 10
209.8383036368
 20
-47.3725932671
 30
0.0
 11
193.8383028769
 21
-47.3725932671
 31
0.0
  0
LINE
  5
342
  8
0
  6
CONTINUOUS
 62
     7
 10
229.8383043074
 20
-47.3725932671
 30
0.0
 11
213.8383035474
 21
-47.3725932671
 31
0.0
  0
LINE
  5
343
  8
0
  6
CONTINUOUS
 62
     7
 10
193.8383028769
 20
-47.3725932671
 30
0.0
 11
193.8383028769
 21
-48.372593431
 31
0.0
  0
LINE
  5
344
  8
0
  6
CONTINUOUS
 62
     7
 10
229.8383043074
 20
-47.3725932671
 30
0.0
 11
229.8383043074
 21
-48.372593431
 31
0.0
  0
LINE
  5
345
  8
0
  6
CONTINUOUS
 62
     7
 10
94.8383078837
 20
-42.2721955015
 30
0.0
 11
94.8383078837
 21
-44.9416811599
 31
0.0
  0
LINE
  5
346
  8
0
  6
CONTINUOUS
 62
     7
 10
88.8383016848
 20
-42.2676670386
 30
0.0
 11
88.8383016848
 21
-44.9416811599
 31
0.0
  0
ARC
  5
347
  8
0
  6
CONTINUOUS
 62
     7
 10
89.8383035921
 20
-46.3725934399
 30
0.0
 40
1.0
 50
180.0
 51
270.0
  0
LINE
  5
348
  8
0
  6
CONTINUOUS
 62
     7
 10
88.8383016848
 20
-44.9416811599
 30
0.0
 11
88.8383016848
 21
-46.3725934757
 31
0.0
  0
ARC
  5
349
  8
0
  6
CONTINUOUS
 62
     7
 10
93.8383035921
 20
-46.3725934399
 30
0.0
 40
1.0
 50
270.0
 51
0.0
  0
LINE
  5
34A
  8
0
  6
CONTINUOUS
 62
     7
 10
94.8383078837
 20
-44.9416811599
 30
0.0
 11
94.8383078837
 21
-46.3725934757
 31
0.0
  0
LINE
  5
34B
  8
0
  6
CONTINUOUS
 62
     7
 10
93.8383088373
 20
-47.3725932671
 30
0.0
 11
89.8383007311
 21
-47.3725932671
 31
0.0
  0
LINE
  5
34C
  8
0
  6
CONTINUOUS
 62
     7
 10
109.8383054995
 20
-48.372593431
 30
0.0
 11
109.8383054995
 21
-50.5503990708
 31
0.0
  0
LINE
  5
34D
  8
0
  6
CONTINUOUS
 62
     7
 10
73.838304069
 20
-48.372593431
 30
0.0
 11
73.838304069
 21
-50.5553876071
 31
0.0
  0
LINE
  5
34E
  8
0
  6
CONTINUOUS
 62
     7
 10
89.8383007311
 20
-47.3725932671
 30
0.0
 11
73.838304069
 21
-47.3725932671
 31
0.0
  0
LINE
  5
34F
  8
0
  6
CONTINUOUS
 62
     7
 10
109.8383054995
 20
-47.3725932671
 30
0.0
 11
93.8383088373
 21
-47.3725932671
 31
0.0
  0
LINE
  5
350
  8
0
  6
CONTINUOUS
 62
     7
 10
109.8383054995
 20
-47.3725932671
 30
0.0
 11
109.8383054995
 21
-48.372593431
 31
0.0
  0
LINE
  5
351
  8
0
  6
CONTINUOUS
 62
     7
 10
73.838304069
 20
-47.3725932671
 30
0.0
 11
73.838304069
 21
-48.372593431
 31
0.0
  0
LINE
  5
352
  8
0
  6
CONTINUOUS
 62
     7
 10
176.9026950859
 20
-50.2828408985
 30
0.0
 11
176.9026950859
 21
-53.2052492511
 31
0.0
  0
POLYLINE
  5
353
  8
0
  6
CONTINUOUS
 62
     7
 66
     1
 10
0.0
 20
0.0
 30
0.0
  0
VERTEX
  5
A01
  8
0
  6
CONTINUOUS
 62
     7
 10
185.1377502941
 20
-50.8022653891
 30
0.0
  0
VERTEX
  5
A02
  8
0
  6
CONTINUOUS
 62
     7
 10
184.0565965437
 20
-50.6634944139
 30
0.0
  0
VERTEX
  5
A03
  8
0
  6
CONTINUOUS
 62
     7
 10
183.0078081154
 20
-50.5339521004
 30
0.0
  0
VERTEX
  5
A04
  8
0
  6
CONTINUOUS
 62
     7
 10
182.0109681152
 20
-50.4167662023
 30
0.0
  0
VERTEX
  5
A05
  8
0
  6
CONTINUOUS
 62
     7
 10
181.0760454201
 20
-50.3140254898
 30
0.0
  0
VERTEX
  5
A06
  8
0
  6
CONTINUOUS
 62
     7
 10
180.2107320093
 20
-50.2275223864
 30
0.0
  0
VERTEX
  5
A07
  8
0
  6
CONTINUOUS
 62
     7
 10
179.4307188057
 20
-50.1598865746
 30
0.0
  0
VERTEX
  5
A08
  8
0
  6
CONTINUOUS
 62
     7
 10
178.7404284739
 20
-50.1128771363
 30
0.0
  0
VERTEX
  5
A09
  8
0
  6
CONTINUOUS
 62
     7
 10
178.1492368244
 20
-50.0880858882
 30
0.0
  0
VERTEX
  5
A0A
  8
0
  6
CONTINUOUS
 62
     7
 10
177.6675627493
 20
-50.086899942
 30
0.0
  0
VERTEX
  5
A0B
  8
0
  6
CONTINUOUS
 62
     7
 10
177.2980139517
 20
-50.1108943505
 30
0.0
  0
VERTEX
  5
A0C
  8
0
  6
CONTINUOUS
 62
     7
 10
177.0472274088
 20
-50.1602060182
 30
0.0
  0
VERTEX
  5
A0D
  8
0
  6
CONTINUOUS
 62
     7
 10
176.9195781015
 20
-50.2343782244
 30
0.0
  0
VERTEX
  5
A0E
  8
0
  6
CONTINUOUS
 62
     7
 10
176.9026950859
 20
-50.2828408985
 30
0.0
  0
SEQEND
  5
A54
  8
0
  6
CONTINUOUS
 62
     7
  0
ARC
  5
354
  8
0
  6
CONTINUOUS
 62
     7
 10
211.8383035921
 20
132.3571590989
 30
0.0
 40
185.095365488121
 50
261.7059781721
 51
278.2940218279
  0
POLYLINE
  5
355
  8
0
  6
CONTINUOUS
 62
     7
 66
     1
 10
0.0
 20
0.0
 30
0.0
  0
VERTEX
  5
A0F
  8
0
  6
CONTINUOUS
 62
     7
 10
246.7739120983
 20
-50.2828408985
 30
0.0
  0
VERTEX
  5
A10
  8
0
  6
CONTINUOUS
 62
     7
 10
246.7098251843
 20
-50.195184259
 30
0.0
  0
VERTEX
  5
A11
  8
0
  6
CONTINUOUS
 62
     7
 10
246.5198055767
 20
-50.132474771
 30
0.0
  0
VERTEX
  5
A12
  8
0
  6
CONTINUOUS
 62
     7
 10
246.2072209381
 20
-50.0955360962
 30
0.0
  0
VERTEX
  5
A13
  8
0
  6
CONTINUOUS
 62
     7
 10
245.7731530928
 20
-50.0845958499
 30
0.0
  0
VERTEX
  5
A14
  8
0
  6
CONTINUOUS
 62
     7
 10
245.2229098343
 20
-50.0985288082
 30
0.0
  0
VERTEX
  5
A15
  8
0
  6
CONTINUOUS
 62
     7
 10
244.5664719605
 20
-50.1361486523
 30
0.0
  0
VERTEX
  5
A16
  8
0
  6
CONTINUOUS
 62
     7
 10
243.8131050133
 20
-50.1959766282
 30
0.0
  0
VERTEX
  5
A17
  8
0
  6
CONTINUOUS
 62
     7
 10
242.9672912621
 20
-50.2761741189
 30
0.0
  0
VERTEX
  5
A18
  8
0
  6
CONTINUOUS
 62
     7
 10
242.044816997
 20
-50.3741153537
 30
0.0
  0
VERTEX
  5
A19
  8
0
  6
CONTINUOUS
 62
     7
 10
241.0629973673
 20
-50.486831276
 30
0.0
  0
VERTEX
  5
A1A
  8
0
  6
CONTINUOUS
 62
     7
 10
240.0235221647
 20
-50.6130022017
 30
0.0
  0
VERTEX
  5
A1B
  8
0
  6
CONTINUOUS
 62
     7
 10
238.9460460209
 20
-50.7494459881
 30
0.0
  0
VERTEX
  5
A1C
  8
0
  6
CONTINUOUS
 62
     7
 10
238.5388568901
 20
-50.8022653891
 30
0.0
  0
SEQEND
  5
A53
  8
0
  6
CONTINUOUS
 62
     7
  0
LINE
  5
356
  8
0
  6
CONTINUOUS
 62
     7
 10
246.7739120983
 20
-53.2066662118
 30
0.0
 11
246.7739120983
 21
-50.2828408985
 31
0.0
  0
POLYLINE
  5
357
  8
0
  6
CONTINUOUS
 62
     7
 66
     1
 10
0.0
 20
0.0
 30
0.0
  0
VERTEX
  5
A1D
  8
0
  6
CONTINUOUS
 62
     7
 10
171.8424872421
 20
-50.849304816
 30
0.0
  0
VERTEX
  5
A1E
  8
0
  6
CONTINUOUS
 62
     7
 10
171.7817650103
 20
-51.3168110533
 30
0.0
  0
VERTEX
  5
A1F
  8
0
  6
CONTINUOUS
 62
     7
 10
171.7795477175
 20
-51.4255981913
 30
0.0
  0
SEQEND
  5
A52
  8
0
  6
CONTINUOUS
 62
     7
  0
POLYLINE
  5
358
  8
0
  6
CONTINUOUS
 62
     7
 66
     1
 10
0.0
 20
0.0
 30
0.0
  0
VERTEX
  5
A20
  8
0
  6
CONTINUOUS
 62
     7
 10
251.8970594668
 20
-51.4255981913
 30
0.0
  0
VERTEX
  5
A21
  8
0
  6
CONTINUOUS
 62
     7
 10
251.894842174
 20
-51.3168110533
 30
0.0
  0
VERTEX
  5
A22
  8
0
  6
CONTINUOUS
 62
     7
 10
251.8341199421
 20
-50.849304816
 30
0.0
  0
SEQEND
  5
A51
  8
0
  6
CONTINUOUS
 62
     7
  0
LINE
  5
359
  8
0
  6
CONTINUOUS
 62
     7
 10
248.5383049511
 20
-58.3189344986
 30
0.0
 11
248.5383049511
 21
-59.1612684561
 31
0.0
  0
LINE
  5
35A
  8
0
  6
CONTINUOUS
 62
     7
 10
249.5383039974
 20
-57.9121614827
 30
0.0
 11
249.5383039974
 21
-59.1612684561
 31
0.0
  0
LINE
  5
35B
  8
0
  6
CONTINUOUS
 62
     7
 10
175.1383022331
 20
-58.3179286702
 30
0.0
 11
175.1383022331
 21
-59.1612684561
 31
0.0
  0
LINE
  5
35C
  8
0
  6
CONTINUOUS
 62
     7
 10
174.1383031868
 20
-57.909040062
 30
0.0
 11
174.1383031868
 21
-59.1612684561
 31
0.0
  0
LINE
  5
35D
  8
0
  6
CONTINUOUS
 62
     7
 10
248.5383049511
 20
-47.2901205553
 30
0.0
 11
248.5383049511
 21
-48.5182247145
 31
0.0
  0
LINE
  5
35E
  8
0
  6
CONTINUOUS
 62
     7
 10
249.5383039974
 20
-47.2901205553
 30
0.0
 11
249.5383039974
 21
-48.6334915294
 31
0.0
  0
LINE
  5
35F
  8
0
  6
CONTINUOUS
 62
     7
 10
175.1383022331
 20
-47.2901205553
 30
0.0
 11
175.1383022331
 21
-48.5203421695
 31
0.0
  0
LINE
  5
360
  8
0
  6
CONTINUOUS
 62
     7
 10
174.1383031868
 20
-47.2901205553
 30
0.0
 11
174.1383031868
 21
-48.6354033483
 31
0.0
  0
LINE
  5
361
  8
0
  6
CONTINUOUS
 62
     7
 10
56.9026932978
 20
-50.2828408985
 30
0.0
 11
56.9026932978
 21
-53.2052492511
 31
0.0
  0
POLYLINE
  5
362
  8
0
  6
CONTINUOUS
 62
     7
 66
     1
 10
0.0
 20
0.0
 30
0.0
  0
VERTEX
  5
A23
  8
0
  6
CONTINUOUS
 62
     7
 10
65.1377544664
 20
-50.8022653891
 30
0.0
  0
VERTEX
  5
A24
  8
0
  6
CONTINUOUS
 62
     7
 10
64.0565977358
 20
-50.6634944139
 30
0.0
  0
VERTEX
  5
A25
  8
0
  6
CONTINUOUS
 62
     7
 10
63.0078063273
 20
-50.5339521004
 30
0.0
  0
VERTEX
  5
A26
  8
0
  6
CONTINUOUS
 62
     7
 10
62.0109663271
 20
-50.4167662023
 30
0.0
  0
VERTEX
  5
A27
  8
0
  6
CONTINUOUS
 62
     7
 10
61.0760436319
 20
-50.3140254898
 30
0.0
  0
VERTEX
  5
A28
  8
0
  6
CONTINUOUS
 62
     7
 10
60.210727241
 20
-50.2275223864
 30
0.0
  0
VERTEX
  5
A29
  8
0
  6
CONTINUOUS
 62
     7
 10
59.4307170176
 20
-50.1598865746
 30
0.0
  0
VERTEX
  5
A2A
  8
0
  6
CONTINUOUS
 62
     7
 10
58.7404356264
 20
-50.1128771363
 30
0.0
  0
VERTEX
  5
A2B
  8
0
  6
CONTINUOUS
 62
     7
 10
58.1492409968
 20
-50.0880858882
 30
0.0
  0
VERTEX
  5
A2C
  8
0
  6
CONTINUOUS
 62
     7
 10
57.6675639414
 20
-50.086899942
 30
0.0
  0
VERTEX
  5
A2D
  8
0
  6
CONTINUOUS
 62
     7
 10
57.2980151438
 20
-50.1108943505
 30
0.0
  0
VERTEX
  5
A2E
  8
0
  6
CONTINUOUS
 62
     7
 10
57.0472226404
 20
-50.1602060182
 30
0.0
  0
VERTEX
  5
A2F
  8
0
  6
CONTINUOUS
 62
     7
 10
56.9195733332
 20
-50.2343782244
 30
0.0
  0
VERTEX
  5
A30
  8
0
  6
CONTINUOUS
 62
     7
 10
56.9026932978
 20
-50.2828408985
 30
0.0
  0
SEQEND
  5
A50
  8
0
  6
CONTINUOUS
 62
     7
  0
ARC
  5
363
  8
0
  6
CONTINUOUS
 62
     7
 10
91.8383047842
 20
132.3570813663
 30
0.0
 40
185.0952881386614
 50
261.705975614
 51
278.294024386
  0
POLYLINE
  5
364
  8
0
  6
CONTINUOUS
 62
     7
 66
     1
 10
0.0
 20
0.0
 30
0.0
  0
VERTEX
  5
A31
  8
0
  6
CONTINUOUS
 62
     7
 10
126.7739103102
 20
-50.2828408985
 30
0.0
  0
VERTEX
  5
A32
  8
0
  6
CONTINUOUS
 62
     7
 10
126.7098233961
 20
-50.195184259
 30
0.0
  0
VERTEX
  5
A33
  8
0
  6
CONTINUOUS
 62
     7
 10
126.5198037886
 20
-50.132474771
 30
0.0
  0
VERTEX
  5
A34
  8
0
  6
CONTINUOUS
 62
     7
 10
126.20721915
 20
-50.0955360962
 30
0.0
  0
VERTEX
  5
A35
  8
0
  6
CONTINUOUS
 62
     7
 10
125.7731542849
 20
-50.0845958499
 30
0.0
  0
VERTEX
  5
A36
  8
0
  6
CONTINUOUS
 62
     7
 10
125.2229080462
 20
-50.0985288082
 30
0.0
  0
VERTEX
  5
A37
  8
0
  6
CONTINUOUS
 62
     7
 10
124.5664701723
 20
-50.1361486523
 30
0.0
  0
VERTEX
  5
A38
  8
0
  6
CONTINUOUS
 62
     7
 10
123.8131032251
 20
-50.1959766282
 30
0.0
  0
VERTEX
  5
A39
  8
0
  6
CONTINUOUS
 62
     7
 10
122.9672894739
 20
-50.2761741189
 30
0.0
  0
VERTEX
  5
A3A
  8
0
  6
CONTINUOUS
 62
     7
 10
122.0448181891
 20
-50.3741153537
 30
0.0
  0
VERTEX
  5
A3B
  8
0
  6
CONTINUOUS
 62
     7
 10
121.0629985594
 20
-50.486831276
 30
0.0
  0
VERTEX
  5
A3C
  8
0
  6
CONTINUOUS
 62
     7
 10
120.0235233568
 20
-50.6130022017
 30
0.0
  0
VERTEX
  5
A3D
  8
0
  6
CONTINUOUS
 62
     7
 10
118.9460442328
 20
-50.7494459881
 30
0.0
  0
VERTEX
  5
A3E
  8
0
  6
CONTINUOUS
 62
     7
 10
118.538855102
 20
-50.8022653891
 30
0.0
  0
SEQEND
  5
A4F
  8
0
  6
CONTINUOUS
 62
     7
  0
LINE
  5
365
  8
0
  6
CONTINUOUS
 62
     7
 10
126.7739103102
 20
-53.2066662118
 30
0.0
 11
126.7739103102
 21
-50.2828408985
 31
0.0
  0
POLYLINE
  5
366
  8
0
  6
CONTINUOUS
 62
     7
 66
     1
 10
0.0
 20
0.0
 30
0.0
  0
VERTEX
  5
A3F
  8
0
  6
CONTINUOUS
 62
     7
 10
131.8970606588
 20
-51.4255981913
 30
0.0
  0
VERTEX
  5
A40
  8
0
  6
CONTINUOUS
 62
     7
 10
131.8948433661
 20
-51.3168110533
 30
0.0
  0
VERTEX
  5
A41
  8
0
  6
CONTINUOUS
 62
     7
 10
131.834118154
 20
-50.849304816
 30
0.0
  0
SEQEND
  5
A4E
  8
0
  6
CONTINUOUS
 62
     7
  0
POLYLINE
  5
367
  8
0
  6
CONTINUOUS
 62
     7
 66
     1
 10
0.0
 20
0.0
 30
0.0
  0
VERTEX
  5
A42
  8
0
  6
CONTINUOUS
 62
     7
 10
51.842485454
 20
-50.849304816
 30
0.0
  0
VERTEX
  5
A43
  8
0
  6
CONTINUOUS
 62
     7
 10
51.7817602419
 20
-51.3168110533
 30
0.0
  0
VERTEX
  5
A44
  8
0
  6
CONTINUOUS
 62
     7
 10
51.7795429491
 20
-51.4255981913
 30
0.0
  0
SEQEND
  5
A4D
  8
0
  6
CONTINUOUS
 62
     7
  0
LINE
  5
368
  8
0
  6
CONTINUOUS
 62
     7
 10
55.138300445
 20
-58.3179286702
 30
0.0
 11
55.138300445
 21
-59.1612684561
 31
0.0
  0
LINE
  5
369
  8
0
  6
CONTINUOUS
 62
     7
 10
54.1383013987
 20
-57.909040062
 30
0.0
 11
54.1383013987
 21
-59.1612684561
 31
0.0
  0
LINE
  5
36A
  8
0
  6
CONTINUOUS
 62
     7
 10
128.538303163
 20
-58.3189344986
 30
0.0
 11
128.538303163
 21
-59.1612684561
 31
0.0
  0
LINE
  5
36B
  8
0
  6
CONTINUOUS
 62
     7
 10
129.5383022093
 20
-57.9121614827
 30
0.0
 11
129.5383022093
 21
-59.1612684561
 31
0.0
  0
LINE
  5
36C
  8
0
  6
CONTINUOUS
 62
     7
 10
128.538303163
 20
-47.2901205553
 30
0.0
 11
128.538303163
 21
-48.5182247145
 31
0.0
  0
LINE
  5
36D
  8
0
  6
CONTINUOUS
 62
     7
 10
129.5383022093
 20
-47.2901205553
 30
0.0
 11
129.5383022093
 21
-48.6334915294
 31
0.0
  0
LINE
  5
36E
  8
0
  6
CONTINUOUS
 62
     7
 10
55.138300445
 20
-47.2901205553
 30
0.0
 11
55.138300445
 21
-48.5203421695
 31
0.0
  0
LINE
  5
36F
  8
0
  6
CONTINUOUS
 62
     7
 10
54.1383013987
 20
-47.2901205553
 30
0.0
 11
54.1383013987
 21
-48.6354033483
 31
0.0
  0
ARC
  5
370
  8
0
  6
CONTINUOUS
 62
     7
 10
356.6987240254
 20
-118.1664233295
 30
0.0
 40
10.07562674746257
 50
280.5230856997
 51
0.5335651429
  0
LINE
  5
371
  8
0
  6
CONTINUOUS
 62
     7
 10
357.1702347063
 20
-133.0662096871
 30
0.0
 11
357.0589885973
 21
-133.0725933446
 31
0.0
  0
POLYLINE
  5
372
  8
0
  6
CONTINUOUS
 62
     7
 66
     1
 10
0.0
 20
0.0
 30
0.0
  0
VERTEX
  5
A45
  8
0
  6
CONTINUOUS
 62
     7
 10
295.1383040213
 20
-71.1087982191
 30
0.0
  0
VERTEX
  5
A46
  8
0
  6
CONTINUOUS
 62
     7
 10
294.6060047411
 20
-71.8076149954
 30
0.0
  0
VERTEX
  5
A47
  8
0
  6
CONTINUOUS
 62
     7
 10
294.1383049749
 20
-72.5610683693
 30
0.0
  0
SEQEND
  5
A4C
  8
0
  6
CONTINUOUS
 62
     7
  0
LINE
  5
373
  8
0
  6
CONTINUOUS
 62
     7
 10
306.4940855764
 20
-63.0779328777
 30
0.0
 11
306.6176221632
 21
-63.0725937916
 31
0.0
  0
ARC
  5
374
  8
0
  6
CONTINUOUS
 62
     7
 10
306.9778754716
 20
-77.9787512271
 30
0.0
 40
10.07561560852432
 50
100.5230667938
 51
180.5336415078
  0
POLYLINE
  5
375
  8
0
  6
CONTINUOUS
 62
     7
 66
     1
 10
0.0
 20
0.0
 30
0.0
  0
VERTEX
  5
A48
  8
0
  6
CONTINUOUS
 62
     7
 10
368.5383067392
 20
-71.1087982191
 30
0.0
  0
VERTEX
  5
A49
  8
0
  6
CONTINUOUS
 62
     7
 10
369.0706000589
 20
-71.8076149954
 30
0.0
  0
VERTEX
  5
A4A
  8
0
  6
CONTINUOUS
 62
     7
 10
369.5383057856
 20
-72.5610683693
 30
0.0
  0
SEQEND
  5
A4B
  8
0
  6
CONTINUOUS
 62
     7
  0
ARC
  5
376
  8
0
  6
CONTINUOUS
 62
     7
 10
356.7164536373
 20
-77.9641611548
 30
0.0
 40
10.05804473762521
 50
359.3823094803
 51
79.5610229186
  0
ARC
  5
377
  8
0
  6
CONTINUOUS
 62
     7
 10
306.9601378594
 20
-118.1810407287
 30
0.0
 40
10.05802562587865
 50
179.3822285381
 51
259.5610799189
  0
LINE
  5
378
  8
0
  6
CONTINUOUS
 62
     7
 10
306.6176221632
 20
-133.0725933446
 30
0.0
 11
306.5244839453
 21
-133.0673362149
 31
0.0
  0
LINE
  5
379
  8
0
  6
CONTINUOUS
 62
     7
 10
296.9026968741
 20
-78.0725921525
 30
0.0
 11
296.9026968741
 21
-118.0725957288
 31
0.0
  0
LINE
  5
37A
  8
0
  6
CONTINUOUS
 62
     7
 10
366.7739138865
 20
-118.0725957288
 30
0.0
 11
366.7739138865
 21
-78.0725921525
 31
0.0
  0
LINE
  5
37B
  8
0
  6
CONTINUOUS
 62
     7
 10
295.1383040213
 20
-54.1634646265
 30
0.0
 11
295.1383040213
 21
-71.1087982191
 31
0.0
  0
LINE
  5
37C
  8
0
  6
CONTINUOUS
 62
     7
 10
294.1383049749
 20
-54.1634646265
 30
0.0
 11
294.1383049749
 21
-72.5610683693
 31
0.0
  0
LINE
  5
37D
  8
0
  6
CONTINUOUS
 62
     7
 10
368.5383067392
 20
-54.1634646265
 30
0.0
 11
368.5383067392
 21
-71.1087982191
 31
0.0
  0
LINE
  5
37E
  8
0
  6
CONTINUOUS
 62
     7
 10
369.5383057856
 20
-54.1634646265
 30
0.0
 11
369.5383057856
 21
-72.5610683693
 31
0.0
  0
LINE
  5
37F
  8
0
  6
CONTINUOUS
 62
     7
 10
305.1377520823
 20
-128.0725921525
 30
0.0
 11
358.5388527178
 21
-128.0725921525
 31
0.0
  0
LINE
  5
380
  8
0
  6
CONTINUOUS
 62
     7
 10
305.1377520823
 20
-68.0725927485
 30
0.0
 11
358.5388527178
 21
-68.0725927485
 31
0.0
  0
LINE
  5
381
  8
0
  6
CONTINUOUS
 62
     7
 10
306.6176221632
 20
-63.0725937916
 30
0.0
 11
357.0589885973
 21
-63.0725937916
 31
0.0
  0
LINE
  5
382
  8
0
  6
CONTINUOUS
 62
     7
 10
357.0589885973
 20
-133.0725933446
 30
0.0
 11
306.6176221632
 21
-133.0725933446
 31
0.0
  0
LINE
  5
383
  8
0
  6
CONTINUOUS
 62
     7
 10
133.238302257
 20
-47.4587864263
 30
0.0
 11
133.238302257
 21
-59.4725932015
 31
0.0
  0
LINE
  5
384
  8
0
  6
CONTINUOUS
 62
     7
 10
129.8383043074
 20
-47.4587864263
 30
0.0
 11
129.8383043074
 21
-48.6897106303
 31
0.0
  0
LINE
  5
385
  8
0
  6
CONTINUOUS
 62
     7
 10
129.8383043074
 20
-57.75823137
 30
0.0
 11
129.8383043074
 21
-59.4725932015
 31
0.0
  0
LINE
  5
386
  8
0
  6
CONTINUOUS
 62
     7
 10
112.4383018278
 20
-47.0725934042
 30
0.0
 11
112.4383018278
 21
-50.2765887438
 31
0.0
  0
LINE
  5
387
  8
0
  6
CONTINUOUS
 62
     7
 10
133.238302257
 20
-44.4725933505
 30
0.0
 11
133.238302257
 21
-47.4587864263
 31
0.0
  0
LINE
  5
388
  8
0
  6
CONTINUOUS
 62
     7
 10
129.8383043074
 20
-44.4725933505
 30
0.0
 11
129.8383043074
 21
-47.4587864263
 31
0.0
  0
LINE
  5
389
  8
0
  6
CONTINUOUS
 62
     7
 10
373.2382998728
 20
-47.4587864263
 30
0.0
 11
373.2382998728
 21
-59.4725932015
 31
0.0
  0
LINE
  5
38A
  8
0
  6
CONTINUOUS
 62
     7
 10
369.8383078837
 20
-47.4587864263
 30
0.0
 11
369.8383078837
 21
-59.4725932015
 31
0.0
  0
LINE
  5
38B
  8
0
  6
CONTINUOUS
 62
     7
 10
352.4383054041
 20
-47.0725934042
 30
0.0
 11
352.4383054041
 21
-59.0725935085
 31
0.0
  0
LINE
  5
38C
  8
0
  6
CONTINUOUS
 62
     7
 10
373.2382998728
 20
-44.4725933505
 30
0.0
 11
373.2382998728
 21
-47.4587864263
 31
0.0
  0
LINE
  5
38D
  8
0
  6
CONTINUOUS
 62
     7
 10
369.8383078837
 20
-44.4725933505
 30
0.0
 11
369.8383078837
 21
-47.4587864263
 31
0.0
  0
LINE
  5
38E
  8
0
  6
CONTINUOUS
 62
     7
 10
249.8383031153
 20
-47.4587864263
 30
0.0
 11
249.8383031153
 21
-48.6897106303
 31
0.0
  0
LINE
  5
38F
  8
0
  6
CONTINUOUS
 62
     7
 10
249.8383031153
 20
-57.75823137
 30
0.0
 11
249.8383031153
 21
-59.4725932015
 31
0.0
  0
LINE
  5
390
  8
0
  6
CONTINUOUS
 62
     7
 10
253.2383040451
 20
-47.4587864263
 30
0.0
 11
253.2383040451
 21
-59.4725932015
 31
0.0
  0
LINE
  5
391
  8
0
  6
CONTINUOUS
 62
     7
 10
232.438303616
 20
-47.0725934042
 30
0.0
 11
232.438303616
 21
-50.2765887438
 31
0.0
  0
LINE
  5
392
  8
0
  6
CONTINUOUS
 62
     7
 10
249.8383031153
 20
-44.4725933505
 30
0.0
 11
249.8383031153
 21
-47.4587864263
 31
0.0
  0
LINE
  5
393
  8
0
  6
CONTINUOUS
 62
     7
 10
253.2383040451
 20
-44.4725933505
 30
0.0
 11
253.2383040451
 21
-47.4587864263
 31
0.0
  0
LINE
  5
394
  8
0
  6
CONTINUOUS
 62
     7
 10
173.838304069
 20
-47.4587864263
 30
0.0
 11
173.838304069
 21
-48.6920936985
 31
0.0
  0
LINE
  5
395
  8
0
  6
CONTINUOUS
 62
     7
 10
173.838304069
 20
-57.7622315867
 30
0.0
 11
173.838304069
 21
-59.4725932015
 31
0.0
  0
LINE
  5
396
  8
0
  6
CONTINUOUS
 62
     7
 10
170.4383031391
 20
-47.4587864263
 30
0.0
 11
170.4383031391
 21
-59.4725932015
 31
0.0
  0
LINE
  5
397
  8
0
  6
CONTINUOUS
 62
     7
 10
191.2383035683
 20
-47.0725934042
 30
0.0
 11
191.2383035683
 21
-50.2790396122
 31
0.0
  0
LINE
  5
398
  8
0
  6
CONTINUOUS
 62
     7
 10
173.838304069
 20
-44.5837880505
 30
0.0
 11
173.838304069
 21
-47.4587864263
 31
0.0
  0
LINE
  5
399
  8
0
  6
CONTINUOUS
 62
     7
 10
170.4383031391
 20
-44.4725933505
 30
0.0
 11
170.4383031391
 21
-47.4587864263
 31
0.0
  0
LINE
  5
39A
  8
0
  6
CONTINUOUS
 62
     7
 10
293.8383028769
 20
-47.4587864263
 30
0.0
 11
293.8383028769
 21
-59.4725932015
 31
0.0
  0
LINE
  5
39B
  8
0
  6
CONTINUOUS
 62
     7
 10
290.4383049273
 20
-47.4587864263
 30
0.0
 11
290.4383049273
 21
-59.4725932015
 31
0.0
  0
LINE
  5
39C
  8
0
  6
CONTINUOUS
 62
     7
 10
311.2383053564
 20
-47.0725934042
 30
0.0
 11
311.2383053564
 21
-59.0725935085
 31
0.0
  0
LINE
  5
39D
  8
0
  6
CONTINUOUS
 62
     7
 10
293.8383028769
 20
-44.5837880505
 30
0.0
 11
293.8383028769
 21
-47.4587864263
 31
0.0
  0
LINE
  5
39E
  8
0
  6
CONTINUOUS
 62
     7
 10
290.4383049273
 20
-44.4725933505
 30
0.0
 11
290.4383049273
 21
-47.4587864263
 31
0.0
  0
LINE
  5
39F
  8
0
  6
CONTINUOUS
 62
     7
 10
53.8382993006
 20
-47.4587864263
 30
0.0
 11
53.8382993006
 21
-48.6920936985
 31
0.0
  0
LINE
  5
3A0
  8
0
  6
CONTINUOUS
 62
     7
 10
53.8382993006
 20
-57.7622315867
 30
0.0
 11
53.8382993006
 21
-59.4725932015
 31
0.0
  0
LINE
  5
3A1
  8
0
  6
CONTINUOUS
 62
     7
 10
50.4383073114
 20
-47.4587864263
 30
0.0
 11
50.4383073114
 21
-59.4725932015
 31
0.0
  0
LINE
  5
3A2
  8
0
  6
CONTINUOUS
 62
     7
 10
71.2383017801
 20
-47.0725934042
 30
0.0
 11
71.2383017801
 21
-50.2790396122
 31
0.0
  0
LINE
  5
3A3
  8
0
  6
CONTINUOUS
 62
     7
 10
53.8382993006
 20
-44.5837880505
 30
0.0
 11
53.8382993006
 21
-47.4587864263
 31
0.0
  0
LINE
  5
3A4
  8
0
  6
CONTINUOUS
 62
     7
 10
50.4383073114
 20
-44.4725933505
 30
0.0
 11
50.4383073114
 21
-47.4587864263
 31
0.0
  0
ENDSEC
  0
EOF
