  0
SECTION
  2
HEADER
  9
$ACADVER
  1
AC1009
  9
$DWGCODEPAGE
  3
ansi_1252
  9
$INSBASE
 10
0.0
 20
0.0
 30
0.0
  9
$EXTMIN
 10
0.0
 20
0.0
 30
0.0
  9
$EXTMAX
 10
420.0
 20
297.0
 30
0.0
  9
$LIMMIN
 10
0.0
 20
0.0
  9
$LIMMAX
 10
420.0
 20
297.0
  9
$ORTHOMODE
 70
     0
  9
$REGENMODE
 70
     1
  9
$FILLMODE
 70
     1
  9
$QTEXTMODE
 70
     0
  9
$MIRRTEXT
 70
     1
  9
$DRAGMODE
 70
     2
  9
$LTSCALE
 40
1.0
  9
$OSMODE
 70
    37
  9
$ATTMODE
 70
     1
  9
$TEXTSIZE
 40
3.5
  9
$TRACEWID
 40
1.0
  9
$TEXTSTYLE
  7
STANDARD
  9
$CLAYER
  8
0
  9
$CELTYPE
  6
BYLAYER
  9
$CECOLOR
 62
   256
  9
$DIMSCALE
 40
1.0
  9
$DIMASZ
 40
4.0
  9
$DIMEXO
 40
0.0
  9
$DIMDLI
 40
3.75
  9
$DIMRND
 40
0.0
  9
$DIMDLE
 40
0.0
  9
$DIMEXE
 40
2.0
  9
$DIMTP
 40
0.0
  9
$DIMTM
 40
0.0
  9
$DIMTXT
 40
3.5
  9
$DIMCEN
 40
2.5
  9
$DIMTSZ
 40
0.0
  9
$DIMTOL
 70
     0
  9
$DIMLIM
 70
     0
  9
$DIMTIH
 70
     1
  9
$DIMTOH
 70
     1
  9
$DIMSE1
 70
     0
  9
$DIMSE2
 70
     0
  9
$DIMTAD
 70
     1
  9
$DIMZIN
 70
     0
  9
$DIMBLK
  1

  9
$DIMASO
 70
     1
  9
$DIMSHO
 70
     1
  9
$DIMPOST
  1

  9
$DIMAPOST
  1

  9
$DIMALT
 70
     0
  9
$DIMALTD
 70
     3
  9
$DIMALTF
 40
0.0393700787
  9
$DIMLFAC
 40
5.0
  9
$DIMTOFL
 70
     1
  9
$DIMTVP
 40
0.0
  9
$DIMTIX
 70
     0
  9
$DIMSOXD
 70
     0
  9
$DIMSAH
 70
     0
  9
$DIMBLK1
  1

  9
$DIMBLK2
  1

  9
$DIMSTYLE
  2
ISO-25
  9
$DIMCLRD
 70
     0
  9
$DIMCLRE
 70
     0
  9
$DIMCLRT
 70
     0
  9
$DIMTFAC
 40
1.0
  9
$DIMGAP
 40
1.524
  9
$LUNITS
 70
     2
  9
$LUPREC
 70
     2
  9
$SKETCHINC
 40
1.0
  9
$FILLETRAD
 40
10.0
  9
$AUNITS
 70
     0
  9
$AUPREC
 70
     2
  9
$MENU
  1
.
  9
$ELEVATION
 40
0.0
  9
$PELEVATION
 40
0.0
  9
$THICKNESS
 40
0.0
  9
$LIMCHECK
 70
     0
  9
$CHAMFERA
 40
10.0
  9
$CHAMFERB
 40
10.0
  9
$SKPOLY
 70
     0
  9
$TDCREATE
 40
2457801.631464861
  9
$TDUPDATE
 40
2457801.631465046
  9
$TDINDWG
 40
0.0000000116
  9
$TDUSRTIMER
 40
0.0000000116
  9
$USRTIMER
 70
     1
  9
$ANGBASE
 50
0.0
  9
$ANGDIR
 70
     0
  9
$PDMODE
 70
     0
  9
$PDSIZE
 40
-1.0
  9
$PLINEWID
 40
0.0
  9
$COORDS
 70
     1
  9
$SPLFRAME
 70
     0
  9
$SPLINETYPE
 70
     6
  9
$SPLINESEGS
 70
     8
  9
$ATTDIA
 70
     0
  9
$ATTREQ
 70
     1
  9
$HANDLING
 70
     1
  9
$HANDSEED
  5
68A
  9
$SURFTAB1
 70
     6
  9
$SURFTAB2
 70
     6
  9
$SURFTYPE
 70
     6
  9
$SURFU
 70
     6
  9
$SURFV
 70
     6
  9
$UCSNAME
  2

  9
$UCSORG
 10
0.0
 20
0.0
 30
0.0
  9
$UCSXDIR
 10
1.0
 20
0.0
 30
0.0
  9
$UCSYDIR
 10
0.0
 20
1.0
 30
0.0
  9
$PUCSNAME
  2

  9
$PUCSORG
 10
0.0
 20
0.0
 30
0.0
  9
$PUCSXDIR
 10
1.0
 20
0.0
 30
0.0
  9
$PUCSYDIR
 10
0.0
 20
1.0
 30
0.0
  9
$USERI1
 70
     0
  9
$USERI2
 70
     0
  9
$USERI3
 70
     0
  9
$USERI4
 70
     0
  9
$USERI5
 70
     0
  9
$USERR1
 40
0.0
  9
$USERR2
 40
0.0
  9
$USERR3
 40
0.0
  9
$USERR4
 40
0.0
  9
$USERR5
 40
0.0
  9
$WORLDVIEW
 70
     1
  9
$SHADEDGE
 70
     3
  9
$SHADEDIF
 70
    70
  9
$TILEMODE
 70
     1
  9
$MAXACTVP
 70
    64
  9
$PLIMCHECK
 70
     0
  9
$PEXTMIN
 10
1.0000000000E+20
 20
1.0000000000E+20
 30
1.0000000000E+20
  9
$PEXTMAX
 10
-1.0000000000E+20
 20
-1.0000000000E+20
 30
-1.0000000000E+20
  9
$PLIMMIN
 10
0.0
 20
0.0
  9
$PLIMMAX
 10
420.0
 20
297.0
  9
$UNITMODE
 70
     0
  9
$VISRETAIN
 70
     1
  9
$PLINEGEN
 70
     0
  9
$PSLTSCALE
 70
     1
  0
ENDSEC
  0
SECTION
  2
TABLES
  0
TABLE
  2
VPORT
 70
     1
  0
VPORT
  2
*ACTIVE
 70
     0
 10
0.0
 20
0.0
 11
1.0
 21
1.0
 12
210.0
 22
148.5
 13
0.0
 23
0.0
 14
10.0
 24
10.0
 15
10.0
 25
10.0
 16
0.0
 26
0.0
 36
1.0
 17
0.0
 27
0.0
 37
0.0
 40
297.0
 41
1.4141414141
 42
50.0
 43
0.0
 44
0.0
 50
0.0
 51
0.0
 71
     0
 72
  2000
 73
     1
 74
     3
 75
     0
 76
     0
 77
     0
 78
     0
  0
ENDTAB
  0
TABLE
  2
LTYPE
 70
     6
  0
LTYPE
  2
CONTINUOUS
 70
     0
  3
Solid line
 72
    65
 73
     0
 40
0.0
  0
LTYPE
  2
HIDDEN
 70
     0
  3
Hidden __ __ __ __ __ __ __ __ __ __ __ __ __ __
 72
    65
 73
     2
 40
1.905
 49
1.27
 49
-0.635
  0
LTYPE
  2
PHANTOM
 70
     0
  3
Phantom ______  __  __  ______  __  __  ______
 72
    65
 73
     6
 40
12.7
 49
6.35
 49
-1.27
 49
1.27
 49
-1.27
 49
1.27
 49
-1.27
  0
LTYPE
  2
CENTER
 70
     0
  3
Center ____ _ ____ _ ____ _ ____ _ ____ _ ____
 72
    65
 73
     4
 40
10.16
 49
6.35
 49
-1.27
 49
1.27
 49
-1.27
  0
LTYPE
  2
CENTERX2
 70
     0
  3
Center (2x) ________  __  ________  __  _____
 72
    65
 73
     4
 40
20.32
 49
12.7
 49
-2.54
 49
2.54
 49
-2.54
  0
LTYPE
  2
DOT2
 70
     0
  3
Dot (.5x) ........................................
 72
    65
 73
     2
 40
0.635
 49
0.0
 49
-0.635
  0
ENDTAB
  0
TABLE
  2
LAYER
 70
     2
  0
LAYER
  2
0
 70
     0
 62
     7
  6
CONTINUOUS
  0
LAYER
  2
FORMAT
 70
     0
 62
     7
  6
CONTINUOUS
  0
ENDTAB
  0
TABLE
  2
STYLE
 70
     1
  0
STYLE
  2
STANDARD
 70
     0
 40
0.0
 41
1.0
 50
0.0
 71
     0
 42
3.5
  3
txt
  4

  0
ENDTAB
  0
TABLE
  2
VIEW
 70
     0
  0
ENDTAB
  0
TABLE
  2
UCS
 70
     0
  0
ENDTAB
  0
TABLE
  2
APPID
 70
     1
  0
APPID
  2
ACAD
 70
     0
  0
ENDTAB
  0
TABLE
  2
DIMSTYLE
 70
     1
  0
DIMSTYLE
  2
ISO-25
 70
     0
  3

  4

  5

  6

  7

 40
1.0
 41
2.5
 42
0.625
 43
3.75
 44
1.25
 45
0.0
 46
0.0
 47
0.0
 48
0.0
140
2.5
141
2.5
142
0.0
143
0.0393700787
144
1.0
145
0.0
146
1.0
147
0.625
 71
     0
 72
     0
 73
     0
 74
     0
 75
     0
 76
     0
 77
     1
 78
     8
170
     0
171
     3
172
     1
173
     0
174
     0
175
     0
176
     0
177
     0
178
     0
  0
ENDTAB
  0
ENDSEC
  0
SECTION
  2
BLOCKS
  0
BLOCK
  8
0
  2
$MODEL_SPACE
 70
     0
 10
0.0
 20
0.0
 30
0.0
  3
$MODEL_SPACE
  1

  0
ENDBLK
  5
21
  8
0
  0
BLOCK
 67
     1
  8
0
  2
$PAPER_SPACE
 70
     0
 10
0.0
 20
0.0
 30
0.0
  3
$PAPER_SPACE
  1

  0
ENDBLK
  5
1D
 67
     1
  8
0
  0
ENDSEC
  0
SECTION
  2
ENTITIES
  0
LINE
  5
45
  8
0
  6
CONTINUOUS
 62
     7
 10
27.6969597541
 20
267.3485825819
 30
0.0
 11
27.6969597541
 21
247.9452322286
 31
0.0
  0
LINE
  5
46
  8
0
  6
CONTINUOUS
 62
     7
 10
107.8144715033
 20
247.9452322286
 30
0.0
 11
107.8144715033
 21
267.3485825819
 31
0.0
  0
ARC
  5
47
  8
0
  6
CONTINUOUS
 62
     7
 10
42.2154539122
 20
267.7463910871
 30
0.0
 40
14.2537255992475
 50
88.5351387924
 51
113.3277248135
  0
ARC
  5
48
  8
0
  6
CONTINUOUS
 62
     7
 10
93.2945691317
 20
267.7089883338
 30
0.0
 40
14.29230839019026
 50
66.7644782449
 51
91.4553543428
  0
POLYLINE
  5
49
  8
0
  6
CONTINUOUS
 62
     7
 66
     1
 10
0.0
 20
0.0
 30
0.0
  0
VERTEX
  5
226
  8
0
  6
CONTINUOUS
 62
     7
 10
33.8792965613
 20
279.3491910261
 30
0.0
  0
VERTEX
  5
227
  8
0
  6
CONTINUOUS
 62
     7
 10
33.8339106045
 20
279.3193648618
 30
0.0
  0
VERTEX
  5
228
  8
0
  6
CONTINUOUS
 62
     7
 10
33.5021273099
 20
279.0684412282
 30
0.0
  0
SEQEND
  5
689
  8
0
  6
CONTINUOUS
 62
     7
  0
ARC
  5
4A
  8
0
  6
CONTINUOUS
 62
     7
 10
42.2621739839
 20
267.445758582
 30
0.0
 40
14.55832711012356
 50
128.4665915627
 51
180.3828711424
  0
ARC
  5
4B
  8
0
  6
CONTINUOUS
 62
     7
 10
93.2267299592
 20
267.4410213506
 30
0.0
 40
14.57976237068462
 50
359.6361680626
 51
54.8680404427
  0
POLYLINE
  5
4C
  8
0
  6
CONTINUOUS
 62
     7
 66
     1
 10
0.0
 20
0.0
 30
0.0
  0
VERTEX
  5
229
  8
0
  6
CONTINUOUS
 62
     7
 10
92.9315374099
 20
282.0036242765
 30
0.0
  0
VERTEX
  5
22A
  8
0
  6
CONTINUOUS
 62
     7
 10
91.1461979948
 20
281.9749186796
 30
0.0
  0
VERTEX
  5
22B
  8
0
  6
CONTINUOUS
 62
     7
 10
87.7479837142
 20
281.9261978429
 30
0.0
  0
VERTEX
  5
22C
  8
0
  6
CONTINUOUS
 62
     7
 10
84.3428910576
 20
281.8851183218
 30
0.0
  0
VERTEX
  5
22D
  8
0
  6
CONTINUOUS
 62
     7
 10
80.9321106277
 20
281.851692037
 30
0.0
  0
VERTEX
  5
22E
  8
0
  6
CONTINUOUS
 62
     7
 10
77.5168106757
 20
281.8259309095
 30
0.0
  0
VERTEX
  5
22F
  8
0
  6
CONTINUOUS
 62
     7
 10
74.0981616877
 20
281.8078468603
 30
0.0
  0
VERTEX
  5
230
  8
0
  6
CONTINUOUS
 62
     7
 10
70.67733564
 20
281.7974398893
 30
0.0
  0
VERTEX
  5
231
  8
0
  6
CONTINUOUS
 62
     7
 10
67.2555033915
 20
281.7947219175
 30
0.0
  0
VERTEX
  5
232
  8
0
  6
CONTINUOUS
 62
     7
 10
63.8338376634
 20
281.7996929449
 30
0.0
  0
VERTEX
  5
233
  8
0
  6
CONTINUOUS
 62
     7
 10
60.4135119222
 20
281.8123410505
 30
0.0
  0
VERTEX
  5
234
  8
0
  6
CONTINUOUS
 62
     7
 10
56.9956981443
 20
281.8326662344
 30
0.0
  0
VERTEX
  5
235
  8
0
  6
CONTINUOUS
 62
     7
 10
53.5815686785
 20
281.8606684965
 30
0.0
  0
VERTEX
  5
236
  8
0
  6
CONTINUOUS
 62
     7
 10
50.1722902857
 20
281.8963359159
 30
0.0
  0
VERTEX
  5
237
  8
0
  6
CONTINUOUS
 62
     7
 10
46.7690349422
 20
281.9396565717
 30
0.0
  0
VERTEX
  5
238
  8
0
  6
CONTINUOUS
 62
     7
 10
43.5515136324
 20
281.9877336782
 30
0.0
  0
VERTEX
  5
239
  8
0
  6
CONTINUOUS
 62
     7
 10
42.5798938475
 20
282.0036242765
 30
0.0
  0
SEQEND
  5
688
  8
0
  6
CONTINUOUS
 62
     7
  0
POLYLINE
  5
4D
  8
0
  6
CONTINUOUS
 62
     7
 66
     1
 10
0.0
 20
0.0
 30
0.0
  0
VERTEX
  5
23A
  8
0
  6
CONTINUOUS
 62
     7
 10
42.5029502116
 20
257.3377679151
 30
0.0
  0
VERTEX
  5
23B
  8
0
  6
CONTINUOUS
 62
     7
 10
44.2938358389
 20
257.3171804708
 30
0.0
  0
VERTEX
  5
23C
  8
0
  6
CONTINUOUS
 62
     7
 10
47.7026671968
 20
257.2822283071
 30
0.0
  0
VERTEX
  5
23D
  8
0
  6
CONTINUOUS
 62
     7
 10
51.118302425
 20
257.2527597707
 30
0.0
  0
VERTEX
  5
23E
  8
0
  6
CONTINUOUS
 62
     7
 10
54.5395509206
 20
257.2287748617
 30
0.0
  0
VERTEX
  5
23F
  8
0
  6
CONTINUOUS
 62
     7
 10
57.9652570985
 20
257.2102974218
 30
0.0
  0
VERTEX
  5
240
  8
0
  6
CONTINUOUS
 62
     7
 10
61.3942661188
 20
257.1973274511
 30
0.0
  0
VERTEX
  5
241
  8
0
  6
CONTINUOUS
 62
     7
 10
64.8254203476
 20
257.1898649496
 30
0.0
  0
VERTEX
  5
242
  8
0
  6
CONTINUOUS
 62
     7
 10
68.2575614057
 20
257.1879218381
 30
0.0
  0
VERTEX
  5
243
  8
0
  6
CONTINUOUS
 62
     7
 10
71.6895309143
 20
257.191474275
 30
0.0
  0
VERTEX
  5
244
  8
0
  6
CONTINUOUS
 62
     7
 10
75.1201697491
 20
257.2005580228
 30
0.0
  0
VERTEX
  5
245
  8
0
  6
CONTINUOUS
 62
     7
 10
78.5483189724
 20
257.2151373189
 30
0.0
  0
VERTEX
  5
246
  8
0
  6
CONTINUOUS
 62
     7
 10
81.9728211365
 20
257.2352240842
 30
0.0
  0
VERTEX
  5
247
  8
0
  6
CONTINUOUS
 62
     7
 10
85.3925214015
 20
257.2608063978
 30
0.0
  0
VERTEX
  5
248
  8
0
  6
CONTINUOUS
 62
     7
 10
88.8062656723
 20
257.2918842596
 30
0.0
  0
VERTEX
  5
249
  8
0
  6
CONTINUOUS
 62
     7
 10
92.0338422857
 20
257.326371507
 30
0.0
  0
VERTEX
  5
24A
  8
0
  6
CONTINUOUS
 62
     7
 10
93.0084810458
 20
257.3377679151
 30
0.0
  0
SEQEND
  5
687
  8
0
  6
CONTINUOUS
 62
     7
  0
ARC
  5
4E
  8
0
  6
CONTINUOUS
 62
     7
 10
42.3902643473
 20
248.0375452207
 30
0.0
 40
14.68924329032797
 50
117.9336818774
 51
180.3580721729
  0
ARC
  5
4F
  8
0
  6
CONTINUOUS
 62
     7
 10
93.1503782569
 20
248.0559368767
 30
0.0
 40
14.65733392400887
 50
359.5662242332
 51
61.8683188179
  0
ARC
  5
50
  8
0
  6
CONTINUOUS
 62
     7
 10
42.2216932856
 20
248.8217105942
 30
0.0
 40
8.514468619577821
 50
88.1095827446
 51
112.7583235274
  0
ARC
  5
51
  8
0
  6
CONTINUOUS
 62
     7
 10
93.2927911084
 20
248.9315689408
 30
0.0
 40
8.40679214440998
 50
67.889462682
 51
91.9316995647
  0
POLYLINE
  5
52
  8
0
  6
CONTINUOUS
 62
     7
 66
     1
 10
0.0
 20
0.0
 30
0.0
  0
VERTEX
  5
24B
  8
0
  6
CONTINUOUS
 62
     7
 10
92.9443136655
 20
262.7173851293
 30
0.0
  0
VERTEX
  5
24C
  8
0
  6
CONTINUOUS
 62
     7
 10
91.1580533586
 20
262.6968453687
 30
0.0
  0
VERTEX
  5
24D
  8
0
  6
CONTINUOUS
 62
     7
 10
87.7580956422
 20
262.6619885725
 30
0.0
  0
VERTEX
  5
24E
  8
0
  6
CONTINUOUS
 62
     7
 10
84.3512714706
 20
262.6325915617
 30
0.0
  0
VERTEX
  5
24F
  8
0
  6
CONTINUOUS
 62
     7
 10
80.9387714468
 20
262.6086781782
 30
0.0
  0
VERTEX
  5
250
  8
0
  6
CONTINUOUS
 62
     7
 10
77.5217608414
 20
262.590248422
 30
0.0
  0
VERTEX
  5
251
  8
0
  6
CONTINUOUS
 62
     7
 10
74.1014093958
 20
262.5773022932
 30
0.0
  0
VERTEX
  5
252
  8
0
  6
CONTINUOUS
 62
     7
 10
70.6788861058
 20
262.5698636335
 30
0.0
  0
VERTEX
  5
253
  8
0
  6
CONTINUOUS
 62
     7
 10
67.2553599212
 20
262.5679205221
 30
0.0
  0
VERTEX
  5
254
  8
0
  6
CONTINUOUS
 62
     7
 10
63.8320010952
 20
262.5714729589
 30
0.0
  0
VERTEX
  5
255
  8
0
  6
CONTINUOUS
 62
     7
 10
60.409980347
 20
262.580520944
 30
0.0
  0
VERTEX
  5
256
  8
0
  6
CONTINUOUS
 62
     7
 10
56.9904685817
 20
262.5950644773
 30
0.0
  0
VERTEX
  5
257
  8
0
  6
CONTINUOUS
 62
     7
 10
53.574633678
 20
262.6151035589
 30
0.0
  0
VERTEX
  5
258
  8
0
  6
CONTINUOUS
 62
     7
 10
50.1636431418
 20
262.6406262678
 30
0.0
  0
VERTEX
  5
259
  8
0
  6
CONTINUOUS
 62
     7
 10
46.758663734
 20
262.6716087621
 30
0.0
  0
VERTEX
  5
25A
  8
0
  6
CONTINUOUS
 62
     7
 10
43.5394898854
 20
262.7060125631
 30
0.0
  0
VERTEX
  5
25B
  8
0
  6
CONTINUOUS
 62
     7
 10
42.5671175919
 20
262.7173851293
 30
0.0
  0
SEQEND
  5
686
  8
0
  6
CONTINUOUS
 62
     7
  0
ARC
  5
53
  8
0
  6
CONTINUOUS
 62
     7
 10
93.2592213664
 20
249.012278874
 30
0.0
 40
13.70364881378662
 50
74.2381917225
 51
91.3149816118
  0
ARC
  5
54
  8
0
  6
CONTINUOUS
 62
     7
 10
42.2427524885
 20
248.8869496529
 30
0.0
 40
13.82737964819129
 50
88.6548340344
 51
105.7866380611
  0
ARC
  5
55
  8
0
  6
CONTINUOUS
 62
     7
 10
93.1566644207
 20
248.0548519016
 30
0.0
 40
9.272513854756461
 50
359.3257273882
 51
69.1493326474
  0
ARC
  5
56
  8
0
  6
CONTINUOUS
 62
     7
 10
42.3724224416
 20
248.0429769117
 30
0.0
 40
9.292299327416869
 50
111.7578173119
 51
180.5967450394
  0
LINE
  5
57
  8
0
  6
CONTINUOUS
 62
     7
 10
107.8144715033
 20
208.0974529546
 30
0.0
 11
107.8144715033
 21
247.9452322286
 31
0.0
  0
LINE
  5
58
  8
0
  6
CONTINUOUS
 62
     7
 10
27.6969597541
 20
247.9452322286
 30
0.0
 11
27.6969597541
 21
208.0974529546
 31
0.0
  0
POLYLINE
  5
59
  8
0
  6
CONTINUOUS
 62
     7
 66
     1
 10
0.0
 20
0.0
 30
0.0
  0
VERTEX
  5
25C
  8
0
  6
CONTINUOUS
 62
     7
 10
42.5029502116
 20
192.9636667532
 30
0.0
  0
VERTEX
  5
25D
  8
0
  6
CONTINUOUS
 62
     7
 10
44.2938358389
 20
192.9430733484
 30
0.0
  0
VERTEX
  5
25E
  8
0
  6
CONTINUOUS
 62
     7
 10
47.7026671968
 20
192.9081271451
 30
0.0
  0
VERTEX
  5
25F
  8
0
  6
CONTINUOUS
 62
     7
 10
51.118302425
 20
192.8786586088
 30
0.0
  0
VERTEX
  5
260
  8
0
  6
CONTINUOUS
 62
     7
 10
54.5395509206
 20
192.8546796602
 30
0.0
  0
VERTEX
  5
261
  8
0
  6
CONTINUOUS
 62
     7
 10
57.9652570985
 20
192.8362022203
 30
0.0
  0
VERTEX
  5
262
  8
0
  6
CONTINUOUS
 62
     7
 10
61.3942661188
 20
192.8232262891
 30
0.0
  0
VERTEX
  5
263
  8
0
  6
CONTINUOUS
 62
     7
 10
64.8254203476
 20
192.8157637876
 30
0.0
  0
VERTEX
  5
264
  8
0
  6
CONTINUOUS
 62
     7
 10
68.2575614057
 20
192.8138147157
 30
0.0
  0
VERTEX
  5
265
  8
0
  6
CONTINUOUS
 62
     7
 10
71.6895309143
 20
192.8173790735
 30
0.0
  0
VERTEX
  5
266
  8
0
  6
CONTINUOUS
 62
     7
 10
75.1201697491
 20
192.8264509004
 30
0.0
  0
VERTEX
  5
267
  8
0
  6
CONTINUOUS
 62
     7
 10
78.5483189724
 20
192.841036157
 30
0.0
  0
VERTEX
  5
268
  8
0
  6
CONTINUOUS
 62
     7
 10
81.9728211365
 20
192.8611229223
 30
0.0
  0
VERTEX
  5
269
  8
0
  6
CONTINUOUS
 62
     7
 10
85.3925214015
 20
192.8867052358
 30
0.0
  0
VERTEX
  5
26A
  8
0
  6
CONTINUOUS
 62
     7
 10
88.8062656723
 20
192.9177771371
 30
0.0
  0
VERTEX
  5
26B
  8
0
  6
CONTINUOUS
 62
     7
 10
92.0338422857
 20
192.9522703451
 30
0.0
  0
VERTEX
  5
26C
  8
0
  6
CONTINUOUS
 62
     7
 10
93.0084810458
 20
192.9636667532
 30
0.0
  0
SEQEND
  5
685
  8
0
  6
CONTINUOUS
 62
     7
  0
ARC
  5
5A
  8
0
  6
CONTINUOUS
 62
     7
 10
42.6627316324
 20
207.8026348694
 30
0.0
 40
14.83230726688513
 50
218.4767112409
 51
269.3846904411
  0
ARC
  5
5B
  8
0
  6
CONTINUOUS
 62
     7
 10
92.8502761359
 20
207.7982153776
 30
0.0
 40
14.8285817337883
 50
270.6098445185
 51
321.4778692604
  0
LINE
  5
5C
  8
0
  6
CONTINUOUS
 62
     7
 10
102.4344728194
 20
247.9452322286
 30
0.0
 11
102.4344728194
 21
208.0974529546
 31
0.0
  0
LINE
  5
5D
  8
0
  6
CONTINUOUS
 62
     7
 10
33.076958438
 20
208.0974529546
 30
0.0
 11
33.076958438
 21
247.9452322286
 31
0.0
  0
ARC
  5
5E
  8
0
  6
CONTINUOUS
 62
     7
 10
92.6791432085
 20
208.0678075688
 30
0.0
 40
15.12948831199446
 50
327.6393586013
 51
0.1104170026
  0
ARC
  5
5F
  8
0
  6
CONTINUOUS
 62
     7
 10
42.659903745
 20
208.0233858404
 30
0.0
 40
14.95604934241905
 50
179.716251913
 51
212.5691945225
  0
POLYLINE
  5
60
  8
0
  6
CONTINUOUS
 62
     7
 66
     1
 10
0.0
 20
0.0
 30
0.0
  0
VERTEX
  5
26D
  8
0
  6
CONTINUOUS
 62
     7
 10
92.9443136655
 20
198.3432839674
 30
0.0
  0
VERTEX
  5
26E
  8
0
  6
CONTINUOUS
 62
     7
 10
91.1580533586
 20
198.3227442068
 30
0.0
  0
VERTEX
  5
26F
  8
0
  6
CONTINUOUS
 62
     7
 10
87.7580956422
 20
198.2878874105
 30
0.0
  0
VERTEX
  5
270
  8
0
  6
CONTINUOUS
 62
     7
 10
84.3512714706
 20
198.2584903997
 30
0.0
  0
VERTEX
  5
271
  8
0
  6
CONTINUOUS
 62
     7
 10
80.9387714468
 20
198.2345770162
 30
0.0
  0
VERTEX
  5
272
  8
0
  6
CONTINUOUS
 62
     7
 10
77.5217608414
 20
198.21614726
 30
0.0
  0
VERTEX
  5
273
  8
0
  6
CONTINUOUS
 62
     7
 10
74.1014093958
 20
198.2032011312
 30
0.0
  0
VERTEX
  5
274
  8
0
  6
CONTINUOUS
 62
     7
 10
70.6788861058
 20
198.1957624715
 30
0.0
  0
VERTEX
  5
275
  8
0
  6
CONTINUOUS
 62
     7
 10
67.2553599212
 20
198.1938193601
 30
0.0
  0
VERTEX
  5
276
  8
0
  6
CONTINUOUS
 62
     7
 10
63.8320010952
 20
198.1973717969
 30
0.0
  0
VERTEX
  5
277
  8
0
  6
CONTINUOUS
 62
     7
 10
60.409980347
 20
198.206419782
 30
0.0
  0
VERTEX
  5
278
  8
0
  6
CONTINUOUS
 62
     7
 10
56.9904685817
 20
198.2209633153
 30
0.0
  0
VERTEX
  5
279
  8
0
  6
CONTINUOUS
 62
     7
 10
53.574633678
 20
198.2410023969
 30
0.0
  0
VERTEX
  5
27A
  8
0
  6
CONTINUOUS
 62
     7
 10
50.1636431418
 20
198.2665131849
 30
0.0
  0
VERTEX
  5
27B
  8
0
  6
CONTINUOUS
 62
     7
 10
46.758663734
 20
198.2975076002
 30
0.0
  0
VERTEX
  5
27C
  8
0
  6
CONTINUOUS
 62
     7
 10
43.5394898854
 20
198.3319114011
 30
0.0
  0
VERTEX
  5
27D
  8
0
  6
CONTINUOUS
 62
     7
 10
42.5671175919
 20
198.3432839674
 30
0.0
  0
SEQEND
  5
684
  8
0
  6
CONTINUOUS
 62
     7
  0
ARC
  5
61
  8
0
  6
CONTINUOUS
 62
     7
 10
42.7542609361
 20
208.0171036327
 30
0.0
 40
9.670913321936597
 50
179.5279163947
 51
268.8864937524
  0
ARC
  5
62
  8
0
  6
CONTINUOUS
 62
     7
 10
92.760389228
 20
208.0193413992
 30
0.0
 40
9.670570784271105
 50
271.0898262389
 51
0.454956971
  0
LINE
  5
63
  8
0
  6
CONTINUOUS
 62
     7
 10
109.1557160817
 20
189.2578612131
 30
0.0
 11
105.7557151519
 21
189.2578612131
 31
0.0
  0
LINE
  5
64
  8
0
  6
CONTINUOUS
 62
     7
 10
105.7557151519
 20
188.8578604024
 30
0.0
 11
105.455716034
 21
188.8578604024
 31
0.0
  0
LINE
  5
65
  8
0
  6
CONTINUOUS
 62
     7
 10
104.4557169877
 20
188.8578604024
 30
0.0
 11
88.3557156525
 21
188.8578604024
 31
0.0
  0
LINE
  5
66
  8
0
  6
CONTINUOUS
 62
     7
 10
88.3557156525
 20
176.8578599256
 30
0.0
 11
105.7557151519
 21
176.8578599256
 31
0.0
  0
LINE
  5
67
  8
0
  6
CONTINUOUS
 62
     7
 10
29.7557161055
 20
189.2578612131
 30
0.0
 11
26.3557151757
 21
189.2578612131
 31
0.0
  0
LINE
  5
68
  8
0
  6
CONTINUOUS
 62
     7
 10
29.7557161055
 20
176.8578599256
 30
0.0
 11
47.1557156049
 21
176.8578599256
 31
0.0
  0
LINE
  5
69
  8
0
  6
CONTINUOUS
 62
     7
 10
47.1557156049
 20
188.8578604024
 30
0.0
 11
31.0557142697
 21
188.8578604024
 31
0.0
  0
LINE
  5
6A
  8
0
  6
CONTINUOUS
 62
     7
 10
30.0557152234
 20
188.8578604024
 30
0.0
 11
29.7557161055
 21
188.8578604024
 31
0.0
  0
LINE
  5
6B
  8
0
  6
CONTINUOUS
 62
     7
 10
32.8201071225
 20
267.4883912366
 30
0.0
 11
32.8201071225
 21
259.184522466
 31
0.0
  0
ARC
  5
6C
  8
0
  6
CONTINUOUS
 62
     7
 10
42.6032572799
 20
267.583326669
 30
0.0
 40
9.783610771990938
 50
99.1043769416
 51
180.5559792896
  0
POLYLINE
  5
6D
  8
0
  6
CONTINUOUS
 62
     7
 66
     1
 10
0.0
 20
0.0
 30
0.0
  0
VERTEX
  5
27E
  8
0
  6
CONTINUOUS
 62
     7
 10
41.0551623307
 20
277.2436807912
 30
0.0
  0
VERTEX
  5
27F
  8
0
  6
CONTINUOUS
 62
     7
 10
44.8481232725
 20
277.1809290212
 30
0.0
  0
VERTEX
  5
280
  8
0
  6
CONTINUOUS
 62
     7
 10
48.6509547435
 20
277.1277855199
 30
0.0
  0
VERTEX
  5
281
  8
0
  6
CONTINUOUS
 62
     7
 10
52.462019106
 20
277.0842741292
 30
0.0
  0
VERTEX
  5
282
  8
0
  6
CONTINUOUS
 62
     7
 10
56.279673507
 20
277.050418691
 30
0.0
  0
VERTEX
  5
283
  8
0
  6
CONTINUOUS
 62
     7
 10
60.1022728585
 20
277.0262192052
 30
0.0
  0
VERTEX
  5
284
  8
0
  6
CONTINUOUS
 62
     7
 10
63.9281694643
 20
277.0116875928
 30
0.0
  0
VERTEX
  5
285
  8
0
  6
CONTINUOUS
 62
     7
 10
67.7557156287
 20
277.0068476957
 30
0.0
  0
VERTEX
  5
286
  8
0
  6
CONTINUOUS
 62
     7
 10
71.5832617931
 20
277.0116875928
 30
0.0
  0
VERTEX
  5
287
  8
0
  6
CONTINUOUS
 62
     7
 10
75.4091583989
 20
277.0262192052
 30
0.0
  0
VERTEX
  5
288
  8
0
  6
CONTINUOUS
 62
     7
 10
79.2317577503
 20
277.050418691
 30
0.0
  0
VERTEX
  5
289
  8
0
  6
CONTINUOUS
 62
     7
 10
83.0494121514
 20
277.0842741292
 30
0.0
  0
VERTEX
  5
28A
  8
0
  6
CONTINUOUS
 62
     7
 10
86.8604765139
 20
277.1277855199
 30
0.0
  0
VERTEX
  5
28B
  8
0
  6
CONTINUOUS
 62
     7
 10
90.6633079849
 20
277.1809290212
 30
0.0
  0
VERTEX
  5
28C
  8
0
  6
CONTINUOUS
 62
     7
 10
94.4562689267
 20
277.2436807912
 30
0.0
  0
SEQEND
  5
683
  8
0
  6
CONTINUOUS
 62
     7
  0
ARC
  5
6E
  8
0
  6
CONTINUOUS
 62
     7
 10
92.9196016248
 20
267.5929734669
 30
0.0
 40
9.772282141696683
 50
359.3868131615
 51
80.9528306073
  0
LINE
  5
6F
  8
0
  6
CONTINUOUS
 62
     7
 10
102.6913241349
 20
259.1869900983
 30
0.0
 11
102.6913241349
 21
267.4883912366
 31
0.0
  0
ARC
  5
70
  8
0
  6
CONTINUOUS
 62
     7
 10
40.7911315293
 20
270.1096063028
 30
0.0
 40
11.53015475366062
 50
111.5475430072
 51
126.7247218963
  0
ARC
  5
71
  8
0
  6
CONTINUOUS
 62
     7
 10
94.3350034564
 20
269.3396545299
 30
0.0
 40
12.38098184039949
 50
54.0747924108
 51
68.1455166041
  0
LINE
  5
72
  8
0
  6
CONTINUOUS
 62
     7
 10
85.755716344
 20
171.0578630727
 30
0.0
 11
85.755716344
 21
164.2578612131
 31
0.0
  0
ARC
  5
73
  8
0
  6
CONTINUOUS
 62
     7
 10
82.7557156287
 20
164.2578604978
 30
0.0
 40
3.0
 50
270.0
 51
0.0
  0
LINE
  5
74
  8
0
  6
CONTINUOUS
 62
     7
 10
82.7557162247
 20
161.2578581136
 30
0.0
 11
52.7557150326
 21
161.2578581136
 31
0.0
  0
ARC
  5
75
  8
0
  6
CONTINUOUS
 62
     7
 10
52.7557156287
 20
164.2578604978
 30
0.0
 40
3.000000000000007
 50
180.0
 51
270.0
  0
LINE
  5
76
  8
0
  6
CONTINUOUS
 62
     7
 10
49.7557149134
 20
171.0578630727
 30
0.0
 11
49.7557149134
 21
164.2578612131
 31
0.0
  0
CIRCLE
  5
77
  8
0
  6
CONTINUOUS
 62
     7
 10
52.7557156287
 20
165.4578604978
 30
0.0
 40
1.099999999999994
  0
CIRCLE
  5
78
  8
0
  6
CONTINUOUS
 62
     7
 10
82.7557156287
 20
165.4578604978
 30
0.0
 40
1.100000000000023
  0
LINE
  5
79
  8
0
  6
CONTINUOUS
 62
     7
 10
85.755716344
 20
172.0578621191
 30
0.0
 11
49.7557149134
 21
172.0578621191
 31
0.0
  0
LINE
  5
7A
  8
0
  6
CONTINUOUS
 62
     7
 10
85.755716344
 20
172.0578621191
 30
0.0
 11
85.755716344
 21
171.0578630727
 31
0.0
  0
LINE
  5
7B
  8
0
  6
CONTINUOUS
 62
     7
 10
49.7557149134
 20
172.0578621191
 30
0.0
 11
49.7557149134
 21
171.0578630727
 31
0.0
  0
LINE
  5
7C
  8
0
  6
CONTINUOUS
 62
     7
 10
64.7557156958
 20
178.0026207727
 30
0.0
 11
64.7557156958
 21
172.0578621191
 31
0.0
  0
LINE
  5
7D
  8
0
  6
CONTINUOUS
 62
     7
 10
70.7557155616
 20
178.0026207727
 30
0.0
 11
70.7557155616
 21
172.0578621191
 31
0.0
  0
LINE
  5
7E
  8
0
  6
CONTINUOUS
 62
     7
 10
70.7557155616
 20
185.0357840818
 30
0.0
 11
70.7557155616
 21
178.0026207727
 31
0.0
  0
LINE
  5
7F
  8
0
  6
CONTINUOUS
 62
     7
 10
64.7557156958
 20
185.0357840818
 30
0.0
 11
64.7557156958
 21
178.0026207727
 31
0.0
  0
LINE
  5
80
  8
0
  6
CONTINUOUS
 62
     7
 10
70.7557155616
 20
192.8164075178
 30
0.0
 11
70.7557155616
 21
185.0357840818
 31
0.0
  0
LINE
  5
81
  8
0
  6
CONTINUOUS
 62
     7
 10
64.7557156958
 20
192.8159187597
 30
0.0
 11
64.7557156958
 21
185.0357840818
 31
0.0
  0
LINE
  5
82
  8
0
  6
CONTINUOUS
 62
     7
 10
104.4557169877
 20
218.7818835538
 30
0.0
 11
104.4557169877
 21
183.6358617109
 31
0.0
  0
LINE
  5
83
  8
0
  6
CONTINUOUS
 62
     7
 10
104.4557169877
 20
218.7818835538
 30
0.0
 11
105.455716034
 21
218.7818835538
 31
0.0
  0
LINE
  5
84
  8
0
  6
CONTINUOUS
 62
     7
 10
105.455716034
 20
218.7818835538
 30
0.0
 11
105.455716034
 21
183.6358617109
 31
0.0
  0
LINE
  5
85
  8
0
  6
CONTINUOUS
 62
     7
 10
31.0557142697
 20
218.7818835538
 30
0.0
 11
30.0557152234
 21
218.7818835538
 31
0.0
  0
LINE
  5
86
  8
0
  6
CONTINUOUS
 62
     7
 10
31.0557142697
 20
218.7818835538
 30
0.0
 11
31.0557142697
 21
183.6358617109
 31
0.0
  0
LINE
  5
87
  8
0
  6
CONTINUOUS
 62
     7
 10
30.0557152234
 20
218.7818835538
 30
0.0
 11
30.0557152234
 21
183.6358617109
 31
0.0
  0
ARC
  5
88
  8
0
  6
CONTINUOUS
 62
     7
 10
40.8718104356
 20
251.7768574357
 30
0.0
 40
10.66454069604667
 50
102.9877021175
 51
120.0657719251
  0
ARC
  5
89
  8
0
  6
CONTINUOUS
 62
     7
 10
93.7231796921
 20
249.4150635336
 30
0.0
 40
13.19185546280251
 50
61.3383227431
 51
75.6468881451
  0
ARC
  5
8A
  8
0
  6
CONTINUOUS
 62
     7
 10
30.3864733599
 20
249.1611504864
 30
0.0
 40
30.34002614218149
 50
269.3753657109
 51
271.2639339724
  0
ARC
  5
8B
  8
0
  6
CONTINUOUS
 62
     7
 10
105.1249578975
 20
249.1611504864
 30
0.0
 40
30.34002614218138
 50
268.7360660276
 51
270.6246342891
  0
LINE
  5
8C
  8
0
  6
CONTINUOUS
 62
     7
 10
31.0557142697
 20
218.828506307
 30
0.0
 11
31.0557142697
 21
218.7818835538
 31
0.0
  0
LINE
  5
8D
  8
0
  6
CONTINUOUS
 62
     7
 10
30.0557152234
 20
218.8229273122
 30
0.0
 11
30.0557152234
 21
218.7818835538
 31
0.0
  0
LINE
  5
8E
  8
0
  6
CONTINUOUS
 62
     7
 10
104.4557169877
 20
218.828506307
 30
0.0
 11
104.4557169877
 21
218.7818835538
 31
0.0
  0
LINE
  5
8F
  8
0
  6
CONTINUOUS
 62
     7
 10
105.455716034
 20
218.8229273122
 30
0.0
 11
105.455716034
 21
218.7818835538
 31
0.0
  0
LINE
  5
90
  8
0
  6
CONTINUOUS
 62
     7
 10
105.7557151519
 20
189.2578612131
 30
0.0
 11
105.7557151519
 21
180.1006267828
 31
0.0
  0
LINE
  5
91
  8
0
  6
CONTINUOUS
 62
     7
 10
109.1557160817
 20
189.2578612131
 30
0.0
 11
109.1557160817
 21
180.1006267828
 31
0.0
  0
LINE
  5
92
  8
0
  6
CONTINUOUS
 62
     7
 10
88.3557156525
 20
188.8578604024
 30
0.0
 11
88.3557156525
 21
176.8578599256
 31
0.0
  0
LINE
  5
93
  8
0
  6
CONTINUOUS
 62
     7
 10
107.1557150088
 20
161.2578581136
 30
0.0
 11
101.3557151757
 21
161.2578581136
 31
0.0
  0
LINE
  5
94
  8
0
  6
CONTINUOUS
 62
     7
 10
99.355717083
 20
163.2578621667
 30
0.0
 11
99.355717083
 21
171.2578604978
 31
0.0
  0
CIRCLE
  5
95
  8
0
  6
CONTINUOUS
 62
     7
 10
105.2557156287
 20
165.6578604978
 30
0.0
 40
1.099999999999994
  0
ARC
  5
96
  8
0
  6
CONTINUOUS
 62
     7
 10
107.1557156287
 20
163.2578604978
 30
0.0
 40
2.0
 50
270.0
 51
0.0
  0
ARC
  5
97
  8
0
  6
CONTINUOUS
 62
     7
 10
101.3557156287
 20
163.2578604978
 30
0.0
 40
2.000000000000014
 50
180.0
 51
270.0
  0
LINE
  5
98
  8
0
  6
CONTINUOUS
 62
     7
 10
109.1557160817
 20
163.2578621667
 30
0.0
 11
109.1557160817
 21
171.2578604978
 31
0.0
  0
LINE
  5
99
  8
0
  6
CONTINUOUS
 62
     7
 10
99.355717083
 20
172.2578595441
 30
0.0
 11
109.1557160817
 21
172.2578595441
 31
0.0
  0
LINE
  5
9A
  8
0
  6
CONTINUOUS
 62
     7
 10
99.355717083
 20
171.2578604978
 30
0.0
 11
99.355717083
 21
172.2578595441
 31
0.0
  0
LINE
  5
9B
  8
0
  6
CONTINUOUS
 62
     7
 10
109.1557160817
 20
172.2578595441
 30
0.0
 11
109.1557160817
 21
171.2578604978
 31
0.0
  0
LINE
  5
9C
  8
0
  6
CONTINUOUS
 62
     7
 10
105.7557151519
 20
175.7924507421
 30
0.0
 11
105.7557151519
 21
180.1006267828
 31
0.0
  0
LINE
  5
9D
  8
0
  6
CONTINUOUS
 62
     7
 10
109.1557160817
 20
180.1006267828
 30
0.0
 11
109.1557160817
 21
175.7924507421
 31
0.0
  0
LINE
  5
9E
  8
0
  6
CONTINUOUS
 62
     7
 10
105.7557151519
 20
175.7924507421
 30
0.0
 11
105.7557151519
 21
172.2578595441
 31
0.0
  0
LINE
  5
9F
  8
0
  6
CONTINUOUS
 62
     7
 10
109.1557160817
 20
175.7924507421
 30
0.0
 11
109.1557160817
 21
172.2578595441
 31
0.0
  0
LINE
  5
A0
  8
0
  6
CONTINUOUS
 62
     7
 10
29.7557161055
 20
189.2578612131
 30
0.0
 11
29.7557161055
 21
180.1006267828
 31
0.0
  0
LINE
  5
A1
  8
0
  6
CONTINUOUS
 62
     7
 10
26.3557151757
 20
189.2578612131
 30
0.0
 11
26.3557151757
 21
180.1006267828
 31
0.0
  0
LINE
  5
A2
  8
0
  6
CONTINUOUS
 62
     7
 10
47.1557156049
 20
188.8578604024
 30
0.0
 11
47.1557156049
 21
176.8578599256
 31
0.0
  0
CIRCLE
  5
A3
  8
0
  6
CONTINUOUS
 62
     7
 10
30.2557156287
 20
165.6578604978
 30
0.0
 40
1.100000000000005
  0
ARC
  5
A4
  8
0
  6
CONTINUOUS
 62
     7
 10
28.3557156287
 20
163.2578604978
 30
0.0
 40
2.000000000000004
 50
180.0
 51
270.0
  0
ARC
  5
A5
  8
0
  6
CONTINUOUS
 62
     7
 10
34.1557156287
 20
163.2578604978
 30
0.0
 40
2.0
 50
270.0
 51
0.0
  0
LINE
  5
A6
  8
0
  6
CONTINUOUS
 62
     7
 10
36.1557141743
 20
171.2578604978
 30
0.0
 11
36.1557141743
 21
163.2578621667
 31
0.0
  0
LINE
  5
A7
  8
0
  6
CONTINUOUS
 62
     7
 10
34.1557160817
 20
161.2578581136
 30
0.0
 11
28.3557162486
 21
161.2578581136
 31
0.0
  0
LINE
  5
A8
  8
0
  6
CONTINUOUS
 62
     7
 10
26.3557151757
 20
163.2578621667
 30
0.0
 11
26.3557151757
 21
171.2578604978
 31
0.0
  0
LINE
  5
A9
  8
0
  6
CONTINUOUS
 62
     7
 10
26.3557151757
 20
172.2578595441
 30
0.0
 11
36.1557141743
 21
172.2578595441
 31
0.0
  0
LINE
  5
AA
  8
0
  6
CONTINUOUS
 62
     7
 10
36.1557141743
 20
172.2578595441
 30
0.0
 11
36.1557141743
 21
171.2578604978
 31
0.0
  0
LINE
  5
AB
  8
0
  6
CONTINUOUS
 62
     7
 10
26.3557151757
 20
171.2578604978
 30
0.0
 11
26.3557151757
 21
172.2578595441
 31
0.0
  0
LINE
  5
AC
  8
0
  6
CONTINUOUS
 62
     7
 10
29.7557161055
 20
180.1006267828
 30
0.0
 11
29.7557161055
 21
175.7924507421
 31
0.0
  0
LINE
  5
AD
  8
0
  6
CONTINUOUS
 62
     7
 10
26.3557151757
 20
175.7924507421
 30
0.0
 11
26.3557151757
 21
180.1006267828
 31
0.0
  0
LINE
  5
AE
  8
0
  6
CONTINUOUS
 62
     7
 10
29.7557161055
 20
175.7924507421
 30
0.0
 11
29.7557161055
 21
172.2578595441
 31
0.0
  0
LINE
  5
AF
  8
0
  6
CONTINUOUS
 62
     7
 10
26.3557151757
 20
175.7924507421
 30
0.0
 11
26.3557151757
 21
172.2578595441
 31
0.0
  0
LINE
  5
B0
  8
0
  6
CONTINUOUS
 62
     7
 10
60.582784643
 20
97.4578605082
 30
0.0
 11
64.3414311908
 21
97.4578605082
 31
0.0
  0
LINE
  5
B1
  8
0
  6
CONTINUOUS
 62
     7
 10
64.3414311908
 20
96.2578604978
 30
0.0
 11
60.582784643
 21
96.2578604978
 31
0.0
  0
LINE
  5
B2
  8
0
  6
CONTINUOUS
 62
     7
 10
74.9286466144
 20
96.2578604978
 30
0.0
 11
71.1700000666
 21
96.2578604978
 31
0.0
  0
LINE
  5
B3
  8
0
  6
CONTINUOUS
 62
     7
 10
71.1700000666
 20
97.4578605082
 30
0.0
 11
74.9286466144
 21
97.4578605082
 31
0.0
  0
LINE
  5
B4
  8
0
  6
CONTINUOUS
 62
     7
 10
64.3414311908
 20
96.2578604978
 30
0.0
 11
71.1700000666
 21
96.2578604978
 31
0.0
  0
LINE
  5
B5
  8
0
  6
CONTINUOUS
 62
     7
 10
64.3414311908
 20
97.4578605082
 30
0.0
 11
71.1700000666
 21
97.4578605082
 31
0.0
  0
LINE
  5
B6
  8
0
  6
CONTINUOUS
 62
     7
 10
79.7557153605
 20
96.2578604978
 30
0.0
 11
79.7557153605
 21
97.4578605082
 31
0.0
  0
LINE
  5
B7
  8
0
  6
CONTINUOUS
 62
     7
 10
74.9286466144
 20
96.2578604978
 30
0.0
 11
79.7557153605
 21
96.2578604978
 31
0.0
  0
LINE
  5
B8
  8
0
  6
CONTINUOUS
 62
     7
 10
79.7557153605
 20
97.4578605082
 30
0.0
 11
74.9286466144
 21
97.4578605082
 31
0.0
  0
LINE
  5
B9
  8
0
  6
CONTINUOUS
 62
     7
 10
55.7557158969
 20
96.2578604978
 30
0.0
 11
55.7557158969
 21
97.4578605082
 31
0.0
  0
LINE
  5
BA
  8
0
  6
CONTINUOUS
 62
     7
 10
55.7557158969
 20
96.2578604978
 30
0.0
 11
60.582784643
 21
96.2578604978
 31
0.0
  0
LINE
  5
BB
  8
0
  6
CONTINUOUS
 62
     7
 10
60.582784643
 20
97.4578605082
 30
0.0
 11
55.7557158969
 21
97.4578605082
 31
0.0
  0
LINE
  5
BC
  8
0
  6
CONTINUOUS
 62
     7
 10
110.9557167493
 20
161.4578614992
 30
0.0
 11
108.0274955235
 21
161.4578614992
 31
0.0
  0
LINE
  5
BD
  8
0
  6
CONTINUOUS
 62
     7
 10
100.483934661
 20
161.4578614992
 30
0.0
 11
83.832748314
 21
161.4578614992
 31
0.0
  0
LINE
  5
BE
  8
0
  6
CONTINUOUS
 62
     7
 10
72.7557157032
 20
161.2578581136
 30
0.0
 11
72.7557157032
 21
97.4578605082
 31
0.0
  0
LINE
  5
BF
  8
0
  6
CONTINUOUS
 62
     7
 10
24.1557166777
 20
161.8578623098
 30
0.0
 11
24.1557166777
 21
162.4578605455
 31
0.0
  0
ARC
  5
C0
  8
0
  6
CONTINUOUS
 62
     7
 10
24.5557156287
 20
161.8578604978
 30
0.0
 40
0.4000000000000057
 50
180.0
 51
270.0
  0
LINE
  5
C1
  8
0
  6
CONTINUOUS
 62
     7
 10
51.6786829434
 20
161.4578614992
 30
0.0
 11
35.0274965964
 21
161.4578614992
 31
0.0
  0
LINE
  5
C2
  8
0
  6
CONTINUOUS
 62
     7
 10
27.4839357339
 20
161.4578614992
 30
0.0
 11
24.5557145081
 21
161.4578614992
 31
0.0
  0
LINE
  5
C3
  8
0
  6
CONTINUOUS
 62
     7
 10
111.3557145797
 20
162.4578605455
 30
0.0
 11
111.3557145797
 21
161.8578623098
 31
0.0
  0
ARC
  5
C4
  8
0
  6
CONTINUOUS
 62
     7
 10
110.9557156287
 20
161.8578604978
 30
0.0
 40
0.3999999999999773
 50
270.0
 51
0.0
  0
CIRCLE
  5
C5
  8
0
  6
CONTINUOUS
 62
     7
 10
105.2557156287
 20
165.6578604978
 30
0.0
 40
1.049999999999997
  0
CIRCLE
  5
C6
  8
0
  6
CONTINUOUS
 62
     7
 10
30.2557156287
 20
165.6578604978
 30
0.0
 40
1.050000000000001
  0
LINE
  5
C7
  8
0
  6
CONTINUOUS
 62
     7
 10
111.3557145797
 20
171.0578630727
 30
0.0
 11
111.3557145797
 21
170.4578588766
 31
0.0
  0
ARC
  5
C8
  8
0
  6
CONTINUOUS
 62
     7
 10
110.9557156287
 20
171.0578604978
 30
0.0
 40
0.4000000000000057
 50
0.0
 51
90.0
  0
LINE
  5
C9
  8
0
  6
CONTINUOUS
 62
     7
 10
62.7557155542
 20
97.4578605082
 30
0.0
 11
62.7557155542
 21
161.2578581136
 31
0.0
  0
LINE
  5
CA
  8
0
  6
CONTINUOUS
 62
     7
 10
24.1557166777
 20
162.4578605455
 30
0.0
 11
24.1557166777
 21
170.4578588766
 31
0.0
  0
LINE
  5
CB
  8
0
  6
CONTINUOUS
 62
     7
 10
24.1557166777
 20
170.4578588766
 30
0.0
 11
24.1557166777
 21
171.0578630727
 31
0.0
  0
ARC
  5
CC
  8
0
  6
CONTINUOUS
 62
     7
 10
24.5557156287
 20
171.0578604978
 30
0.0
 40
0.4000000000000057
 50
90.0
 51
180.0
  0
LINE
  5
CD
  8
0
  6
CONTINUOUS
 62
     7
 10
111.3557145797
 20
170.4578588766
 30
0.0
 11
111.3557145797
 21
162.4578605455
 31
0.0
  0
LINE
  5
CE
  8
0
  6
CONTINUOUS
 62
     7
 10
24.5557145081
 20
171.4578579229
 30
0.0
 11
26.3557151757
 21
171.4578579229
 31
0.0
  0
LINE
  5
CF
  8
0
  6
CONTINUOUS
 62
     7
 10
36.1557141743
 20
171.4578579229
 30
0.0
 11
49.7557149134
 21
171.4578579229
 31
0.0
  0
LINE
  5
D0
  8
0
  6
CONTINUOUS
 62
     7
 10
85.755716344
 20
171.4578579229
 30
0.0
 11
99.355717083
 21
171.4578579229
 31
0.0
  0
LINE
  5
D1
  8
0
  6
CONTINUOUS
 62
     7
 10
109.1557160817
 20
171.4578579229
 30
0.0
 11
110.9557167493
 21
171.4578579229
 31
0.0
  0
POLYLINE
  5
D2
  8
0
  6
CONTINUOUS
 62
     7
 66
     1
 10
0.0
 20
0.0
 30
0.0
  0
VERTEX
  5
28D
  8
0
  6
CONTINUOUS
 62
     7
 10
194.1143507426
 20
267.6763366025
 30
0.0
  0
VERTEX
  5
28E
  8
0
  6
CONTINUOUS
 62
     7
 10
194.0202499097
 20
268.4162925046
 30
0.0
  0
VERTEX
  5
28F
  8
0
  6
CONTINUOUS
 62
     7
 10
193.891439802
 20
269.3248818677
 30
0.0
  0
VERTEX
  5
290
  8
0
  6
CONTINUOUS
 62
     7
 10
193.7502155369
 20
270.2261637014
 30
0.0
  0
VERTEX
  5
291
  8
0
  6
CONTINUOUS
 62
     7
 10
193.5973966783
 20
271.1143086713
 30
0.0
  0
VERTEX
  5
292
  8
0
  6
CONTINUOUS
 62
     7
 10
193.4358502095
 20
271.9751308721
 30
0.0
  0
VERTEX
  5
293
  8
0
  6
CONTINUOUS
 62
     7
 10
193.2647535866
 20
272.8160332006
 30
0.0
  0
VERTEX
  5
294
  8
0
  6
CONTINUOUS
 62
     7
 10
193.0846164291
 20
273.6355970663
 30
0.0
  0
VERTEX
  5
295
  8
0
  6
CONTINUOUS
 62
     7
 10
192.8964028423
 20
274.4300077718
 30
0.0
  0
VERTEX
  5
296
  8
0
  6
CONTINUOUS
 62
     7
 10
192.701035208
 20
275.1956532758
 30
0.0
  0
VERTEX
  5
297
  8
0
  6
CONTINUOUS
 62
     7
 10
192.4993077581
 20
275.9293030065
 30
0.0
  0
VERTEX
  5
298
  8
0
  6
CONTINUOUS
 62
     7
 10
192.2917479938
 20
276.6283820432
 30
0.0
  0
VERTEX
  5
299
  8
0
  6
CONTINUOUS
 62
     7
 10
192.0786062544
 20
277.290708856
 30
0.0
  0
VERTEX
  5
29A
  8
0
  6
CONTINUOUS
 62
     7
 10
191.8627852862
 20
277.9070924085
 30
0.0
  0
VERTEX
  5
29B
  8
0
  6
CONTINUOUS
 62
     7
 10
191.6392678683
 20
278.4903834623
 30
0.0
  0
VERTEX
  5
29C
  8
0
  6
CONTINUOUS
 62
     7
 10
191.4022485083
 20
279.0492008489
 30
0.0
  0
VERTEX
  5
29D
  8
0
  6
CONTINUOUS
 62
     7
 10
191.1424929565
 20
279.5917938512
 30
0.0
  0
VERTEX
  5
29E
  8
0
  6
CONTINUOUS
 62
     7
 10
190.8353710835
 20
280.1402042669
 30
0.0
  0
VERTEX
  5
29F
  8
0
  6
CONTINUOUS
 62
     7
 10
190.5836085146
 20
280.517215566
 30
0.0
  0
VERTEX
  5
2A0
  8
0
  6
CONTINUOUS
 62
     7
 10
190.3300995296
 20
280.8363030714
 30
0.0
  0
VERTEX
  5
2A1
  8
0
  6
CONTINUOUS
 62
     7
 10
190.0814870661
 20
281.097621755
 30
0.0
  0
VERTEX
  5
2A2
  8
0
  6
CONTINUOUS
 62
     7
 10
189.8127744263
 20
281.3312838834
 30
0.0
  0
VERTEX
  5
2A3
  8
0
  6
CONTINUOUS
 62
     7
 10
189.5182485049
 20
281.5380881589
 30
0.0
  0
VERTEX
  5
2A4
  8
0
  6
CONTINUOUS
 62
     7
 10
189.1934881275
 20
281.7154119771
 30
0.0
  0
VERTEX
  5
2A5
  8
0
  6
CONTINUOUS
 62
     7
 10
188.8387436336
 20
281.8566749853
 30
0.0
  0
VERTEX
  5
2A6
  8
0
  6
CONTINUOUS
 62
     7
 10
188.4588280981
 20
281.9540689748
 30
0.0
  0
VERTEX
  5
2A7
  8
0
  6
CONTINUOUS
 62
     7
 10
188.0617881482
 20
282.0009659093
 30
0.0
  0
VERTEX
  5
2A8
  8
0
  6
CONTINUOUS
 62
     7
 10
187.6133138602
 20
281.9888542455
 30
0.0
  0
VERTEX
  5
2A9
  8
0
  6
CONTINUOUS
 62
     7
 10
187.5603551333
 20
281.9792817396
 30
0.0
  0
SEQEND
  5
682
  8
0
  6
CONTINUOUS
 62
     7
  0
POLYLINE
  5
D3
  8
0
  6
CONTINUOUS
 62
     7
 66
     1
 10
0.0
 20
0.0
 30
0.0
  0
VERTEX
  5
2AA
  8
0
  6
CONTINUOUS
 62
     7
 10
196.0915999775
 20
212.5129292768
 30
0.0
  0
VERTEX
  5
2AB
  8
0
  6
CONTINUOUS
 62
     7
 10
196.3582868045
 20
212.5510643285
 30
0.0
  0
VERTEX
  5
2AC
  8
0
  6
CONTINUOUS
 62
     7
 10
196.7539685135
 20
212.6673529905
 30
0.0
  0
VERTEX
  5
2AD
  8
0
  6
CONTINUOUS
 62
     7
 10
197.1156249111
 20
212.8302167219
 30
0.0
  0
VERTEX
  5
2AE
  8
0
  6
CONTINUOUS
 62
     7
 10
197.4396536415
 20
213.0303095144
 30
0.0
  0
VERTEX
  5
2AF
  8
0
  6
CONTINUOUS
 62
     7
 10
197.724595881
 20
213.2584880155
 30
0.0
  0
VERTEX
  5
2B0
  8
0
  6
CONTINUOUS
 62
     7
 10
197.9714976912
 20
213.5068963331
 30
0.0
  0
VERTEX
  5
2B1
  8
0
  6
CONTINUOUS
 62
     7
 10
198.1840947931
 20
213.770682649
 30
0.0
  0
VERTEX
  5
2B2
  8
0
  6
CONTINUOUS
 62
     7
 10
198.3683476513
 20
214.0497873586
 30
0.0
  0
VERTEX
  5
2B3
  8
0
  6
CONTINUOUS
 62
     7
 10
198.5317150419
 20
214.351088838
 30
0.0
  0
VERTEX
  5
2B4
  8
0
  6
CONTINUOUS
 62
     7
 10
198.6833693748
 20
214.694053964
 30
0.0
  0
VERTEX
  5
2B5
  8
0
  6
CONTINUOUS
 62
     7
 10
198.8274591332
 20
215.1000688833
 30
0.0
  0
VERTEX
  5
2B6
  8
0
  6
CONTINUOUS
 62
     7
 10
198.9748874968
 20
215.6336615842
 30
0.0
  0
VERTEX
  5
2B7
  8
0
  6
CONTINUOUS
 62
     7
 10
199.0999693339
 20
216.2278245252
 30
0.0
  0
VERTEX
  5
2B8
  8
0
  6
CONTINUOUS
 62
     7
 10
199.1955923205
 20
216.8188403409
 30
0.0
  0
VERTEX
  5
2B9
  8
0
  6
CONTINUOUS
 62
     7
 10
199.2785433596
 20
217.4894760412
 30
0.0
  0
VERTEX
  5
2BA
  8
0
  6
CONTINUOUS
 62
     7
 10
199.3417689865
 20
218.1764672559
 30
0.0
  0
VERTEX
  5
2BB
  8
0
  6
CONTINUOUS
 62
     7
 10
199.3885914152
 20
218.8877652448
 30
0.0
  0
VERTEX
  5
2BC
  8
0
  6
CONTINUOUS
 62
     7
 10
199.4195567732
 20
219.609255628
 30
0.0
  0
VERTEX
  5
2BD
  8
0
  6
CONTINUOUS
 62
     7
 10
199.4370008176
 20
220.3805635732
 30
0.0
  0
VERTEX
  5
2BE
  8
0
  6
CONTINUOUS
 62
     7
 10
199.440290994
 20
221.1835811895
 30
0.0
  0
VERTEX
  5
2BF
  8
0
  6
CONTINUOUS
 62
     7
 10
199.4294414585
 20
222.0146845144
 30
0.0
  0
VERTEX
  5
2C0
  8
0
  6
CONTINUOUS
 62
     7
 10
199.4044045275
 20
222.8689263624
 30
0.0
  0
VERTEX
  5
2C1
  8
0
  6
CONTINUOUS
 62
     7
 10
199.365169025
 20
223.7405608457
 30
0.0
  0
VERTEX
  5
2C2
  8
0
  6
CONTINUOUS
 62
     7
 10
199.3118049865
 20
224.6233652395
 30
0.0
  0
VERTEX
  5
2C3
  8
0
  6
CONTINUOUS
 62
     7
 10
199.2445448702
 20
225.5107115072
 30
0.0
  0
VERTEX
  5
2C4
  8
0
  6
CONTINUOUS
 62
     7
 10
199.1634676521
 20
226.4040659231
 30
0.0
  0
VERTEX
  5
2C5
  8
0
  6
CONTINUOUS
 62
     7
 10
199.0675749546
 20
227.3144315046
 30
0.0
  0
VERTEX
  5
2C6
  8
0
  6
CONTINUOUS
 62
     7
 10
198.9885466462
 20
227.9742310804
 30
0.0
  0
SEQEND
  5
681
  8
0
  6
CONTINUOUS
 62
     7
  0
LINE
  5
D4
  8
0
  6
CONTINUOUS
 62
     7
 10
198.990661866
 20
227.9745648664
 30
0.0
 11
194.1158885425
 21
267.676420049
 31
0.0
  0
POLYLINE
  5
D5
  8
0
  6
CONTINUOUS
 62
     7
 66
     1
 10
0.0
 20
0.0
 30
0.0
  0
VERTEX
  5
2C7
  8
0
  6
CONTINUOUS
 62
     7
 10
193.6492095058
 20
227.3188541692
 30
0.0
  0
VERTEX
  5
2C8
  8
0
  6
CONTINUOUS
 62
     7
 10
193.7343607014
 20
226.5959213537
 30
0.0
  0
VERTEX
  5
2C9
  8
0
  6
CONTINUOUS
 62
     7
 10
193.8207367724
 20
225.7595489782
 30
0.0
  0
VERTEX
  5
2CA
  8
0
  6
CONTINUOUS
 62
     7
 10
193.8938850825
 20
224.9330113691
 30
0.0
  0
VERTEX
  5
2CB
  8
0
  6
CONTINUOUS
 62
     7
 10
193.9532960122
 20
224.1222928327
 30
0.0
  0
VERTEX
  5
2CC
  8
0
  6
CONTINUOUS
 62
     7
 10
193.9990395968
 20
223.3329485219
 30
0.0
  0
VERTEX
  5
2CD
  8
0
  6
CONTINUOUS
 62
     7
 10
194.0321276253
 20
222.5579570097
 30
0.0
  0
VERTEX
  5
2CE
  8
0
  6
CONTINUOUS
 62
     7
 10
194.0526331132
 20
221.8025158208
 30
0.0
  0
VERTEX
  5
2CF
  8
0
  6
CONTINUOUS
 62
     7
 10
194.0606499379
 20
221.0756371778
 30
0.0
  0
VERTEX
  5
2D0
  8
0
  6
CONTINUOUS
 62
     7
 10
194.0565729802
 20
220.3875969213
 30
0.0
  0
VERTEX
  5
2D1
  8
0
  6
CONTINUOUS
 62
     7
 10
194.0411681598
 20
219.7469661993
 30
0.0
  0
VERTEX
  5
2D2
  8
0
  6
CONTINUOUS
 62
     7
 10
194.0155456131
 20
219.1617797178
 30
0.0
  0
VERTEX
  5
2D3
  8
0
  6
CONTINUOUS
 62
     7
 10
193.9811716145
 20
218.6350057882
 30
0.0
  0
VERTEX
  5
2D4
  8
0
  6
CONTINUOUS
 62
     7
 10
193.9381206697
 20
218.1487272542
 30
0.0
  0
VERTEX
  5
2D5
  8
0
  6
CONTINUOUS
 62
     7
 10
193.8893387383
 20
217.7246402067
 30
0.0
  0
VERTEX
  5
2D6
  8
0
  6
CONTINUOUS
 62
     7
 10
193.8372144764
 20
217.3661182683
 30
0.0
  0
VERTEX
  5
2D7
  8
0
  6
CONTINUOUS
 62
     7
 10
193.7852854198
 20
217.0790146154
 30
0.0
  0
VERTEX
  5
2D8
  8
0
  6
CONTINUOUS
 62
     7
 10
193.7432522243
 20
216.8884466451
 30
0.0
  0
VERTEX
  5
2D9
  8
0
  6
CONTINUOUS
 62
     7
 10
193.7098378604
 20
216.7618821424
 30
0.0
  0
VERTEX
  5
2DA
  8
0
  6
CONTINUOUS
 62
     7
 10
193.6891163056
 20
216.6957805913
 30
0.0
  0
VERTEX
  5
2DB
  8
0
  6
CONTINUOUS
 62
     7
 10
193.686195678
 20
216.6875193876
 30
0.0
  0
SEQEND
  5
680
  8
0
  6
CONTINUOUS
 62
     7
  0
POLYLINE
  5
D6
  8
0
  6
CONTINUOUS
 62
     7
 66
     1
 10
0.0
 20
0.0
 30
0.0
  0
VERTEX
  5
2DC
  8
0
  6
CONTINUOUS
 62
     7
 10
186.2364301746
 20
277.3475597662
 30
0.0
  0
VERTEX
  5
2DD
  8
0
  6
CONTINUOUS
 62
     7
 10
186.2351546352
 20
277.3491571706
 30
0.0
  0
VERTEX
  5
2DE
  8
0
  6
CONTINUOUS
 62
     7
 10
186.2605015104
 20
277.308995561
 30
0.0
  0
VERTEX
  5
2DF
  8
0
  6
CONTINUOUS
 62
     7
 10
186.3124454682
 20
277.2179315847
 30
0.0
  0
VERTEX
  5
2E0
  8
0
  6
CONTINUOUS
 62
     7
 10
186.389399535
 20
277.0690034193
 30
0.0
  0
VERTEX
  5
2E1
  8
0
  6
CONTINUOUS
 62
     7
 10
186.4891821807
 20
276.8568585676
 30
0.0
  0
VERTEX
  5
2E2
  8
0
  6
CONTINUOUS
 62
     7
 10
186.6088429754
 20
276.5786598485
 30
0.0
  0
VERTEX
  5
2E3
  8
0
  6
CONTINUOUS
 62
     7
 10
186.7448220318
 20
276.234443025
 30
0.0
  0
VERTEX
  5
2E4
  8
0
  6
CONTINUOUS
 62
     7
 10
186.8932480281
 20
275.8268068594
 30
0.0
  0
VERTEX
  5
2E5
  8
0
  6
CONTINUOUS
 62
     7
 10
187.0502392118
 20
275.3603885931
 30
0.0
  0
VERTEX
  5
2E6
  8
0
  6
CONTINUOUS
 62
     7
 10
187.2122461265
 20
274.8407910627
 30
0.0
  0
VERTEX
  5
2E7
  8
0
  6
CONTINUOUS
 62
     7
 10
187.3761812513
 20
274.274761514
 30
0.0
  0
VERTEX
  5
2E8
  8
0
  6
CONTINUOUS
 62
     7
 10
187.5426361626
 20
273.657114343
 30
0.0
  0
VERTEX
  5
2E9
  8
0
  6
CONTINUOUS
 62
     7
 10
187.7091536587
 20
272.9931424421
 30
0.0
  0
VERTEX
  5
2EA
  8
0
  6
CONTINUOUS
 62
     7
 10
187.8735209172
 20
272.2882340711
 30
0.0
  0
VERTEX
  5
2EB
  8
0
  6
CONTINUOUS
 62
     7
 10
188.0336711472
 20
271.5480397504
 30
0.0
  0
VERTEX
  5
2EC
  8
0
  6
CONTINUOUS
 62
     7
 10
188.1876895493
 20
270.7784126562
 30
0.0
  0
VERTEX
  5
2ED
  8
0
  6
CONTINUOUS
 62
     7
 10
188.3337999051
 20
269.9854920667
 30
0.0
  0
VERTEX
  5
2EE
  8
0
  6
CONTINUOUS
 62
     7
 10
188.4702692097
 20
269.1763828558
 30
0.0
  0
VERTEX
  5
2EF
  8
0
  6
CONTINUOUS
 62
     7
 10
188.5958010619
 20
268.3584998411
 30
0.0
  0
VERTEX
  5
2F0
  8
0
  6
CONTINUOUS
 62
     7
 10
188.7109155124
 20
267.5287435812
 30
0.0
  0
VERTEX
  5
2F1
  8
0
  6
CONTINUOUS
 62
     7
 10
188.7740487521
 20
267.0204828542
 30
0.0
  0
SEQEND
  5
67F
  8
0
  6
CONTINUOUS
 62
     7
  0
LINE
  5
D7
  8
0
  6
CONTINUOUS
 62
     7
 10
188.7759903734
 20
267.0207570356
 30
0.0
 11
193.650763697
 21
227.3189137739
 31
0.0
  0
LINE
  5
D8
  8
0
  6
CONTINUOUS
 62
     7
 10
188.2585877841
 20
270.3936646741
 30
0.0
 11
193.9651811784
 21
223.9171813291
 31
0.0
  0
ARC
  5
D9
  8
0
  6
CONTINUOUS
 62
     7
 10
186.1815042828
 20
279.1046421499
 30
0.0
 40
2.690000000000044
 50
97.0
 51
165.4352045702
  0
ARC
  5
DA
  8
0
  6
CONTINUOUS
 62
     7
 10
186.1815042828
 20
279.1046421499
 30
0.0
 40
2.690000000000005
 50
208.5742842993
 51
277.0
  0
ARC
  5
DB
  8
0
  6
CONTINUOUS
 62
     7
 10
194.0567012537
 20
214.9663098309
 30
0.0
 40
2.689999999999995
 50
97.0
 51
165.4352045702
  0
ARC
  5
DC
  8
0
  6
CONTINUOUS
 62
     7
 10
194.0567012537
 20
214.9663098309
 30
0.0
 40
2.690000000000035
 50
208.5742842993
 51
277.0
  0
LINE
  5
DD
  8
0
  6
CONTINUOUS
 62
     7
 10
183.2780817812
 20
277.7406404775
 30
0.0
 11
183.8206509417
 21
277.8072546285
 31
0.0
  0
LINE
  5
DE
  8
0
  6
CONTINUOUS
 62
     7
 10
183.576912648
 20
279.79235156
 30
0.0
 11
183.0343434876
 21
279.725725488
 31
0.0
  0
LINE
  5
DF
  8
0
  6
CONTINUOUS
 62
     7
 10
191.1532784169
 20
213.6022995275
 30
0.0
 11
191.6958490675
 21
213.6689255994
 31
0.0
  0
LINE
  5
E0
  8
0
  6
CONTINUOUS
 62
     7
 10
191.4521092837
 20
215.65401061
 30
0.0
 11
190.9095401233
 21
215.587396459
 31
0.0
  0
POLYLINE
  5
E1
  8
0
  6
CONTINUOUS
 62
     7
 66
     1
 10
0.0
 20
0.0
 30
0.0
  0
VERTEX
  5
2F2
  8
0
  6
CONTINUOUS
 62
     7
 10
212.7880441313
 20
262.7007077497
 30
0.0
  0
VERTEX
  5
2F3
  8
0
  6
CONTINUOUS
 62
     7
 10
212.5192551231
 20
262.7188394826
 30
0.0
  0
VERTEX
  5
2F4
  8
0
  6
CONTINUOUS
 62
     7
 10
212.1080426788
 20
262.6873682302
 30
0.0
  0
VERTEX
  5
2F5
  8
0
  6
CONTINUOUS
 62
     7
 10
211.7204277133
 20
262.6032541555
 30
0.0
  0
VERTEX
  5
2F6
  8
0
  6
CONTINUOUS
 62
     7
 10
211.3618785804
 20
262.4749015134
 30
0.0
  0
VERTEX
  5
2F7
  8
0
  6
CONTINUOUS
 62
     7
 10
211.0357227092
 20
262.3109529775
 30
0.0
  0
VERTEX
  5
2F8
  8
0
  6
CONTINUOUS
 62
     7
 10
210.7425676947
 20
262.1193002027
 30
0.0
  0
VERTEX
  5
2F9
  8
0
  6
CONTINUOUS
 62
     7
 10
210.4797736099
 20
261.905486421
 30
0.0
  0
VERTEX
  5
2FA
  8
0
  6
CONTINUOUS
 62
     7
 10
210.2415180122
 20
261.6707871717
 30
0.0
  0
VERTEX
  5
2FB
  8
0
  6
CONTINUOUS
 62
     7
 10
210.0190775757
 20
261.4100526136
 30
0.0
  0
VERTEX
  5
2FC
  8
0
  6
CONTINUOUS
 62
     7
 10
209.7994299894
 20
261.106104688
 30
0.0
  0
VERTEX
  5
2FD
  8
0
  6
CONTINUOUS
 62
     7
 10
209.5740726506
 20
260.7389162344
 30
0.0
  0
VERTEX
  5
2FE
  8
0
  6
CONTINUOUS
 62
     7
 10
209.3189264005
 20
260.2476309103
 30
0.0
  0
VERTEX
  5
2FF
  8
0
  6
CONTINUOUS
 62
     7
 10
209.0730445748
 20
259.6924613279
 30
0.0
  0
VERTEX
  5
300
  8
0
  6
CONTINUOUS
 62
     7
 10
208.856633055
 20
259.1342519086
 30
0.0
  0
VERTEX
  5
301
  8
0
  6
CONTINUOUS
 62
     7
 10
208.6360604791
 20
258.4955046934
 30
0.0
  0
VERTEX
  5
302
  8
0
  6
CONTINUOUS
 62
     7
 10
208.4313842756
 20
257.8366826337
 30
0.0
  0
VERTEX
  5
303
  8
0
  6
CONTINUOUS
 62
     7
 10
208.2376967938
 20
257.1506570142
 30
0.0
  0
VERTEX
  5
304
  8
0
  6
CONTINUOUS
 62
     7
 10
208.0574011719
 20
256.4513753217
 30
0.0
  0
VERTEX
  5
305
  8
0
  6
CONTINUOUS
 62
     7
 10
207.8799747685
 20
255.7005475324
 30
0.0
  0
VERTEX
  5
306
  8
0
  6
CONTINUOUS
 62
     7
 10
207.7098010163
 20
254.9157689374
 30
0.0
  0
VERTEX
  5
307
  8
0
  6
CONTINUOUS
 62
     7
 10
207.5476175637
 20
254.1005681318
 30
0.0
  0
VERTEX
  5
308
  8
0
  6
CONTINUOUS
 62
     7
 10
207.3944981557
 20
253.2597730917
 30
0.0
  0
VERTEX
  5
309
  8
0
  6
CONTINUOUS
 62
     7
 10
207.2516555022
 20
252.3990462583
 30
0.0
  0
VERTEX
  5
30A
  8
0
  6
CONTINUOUS
 62
     7
 10
207.1203064229
 20
251.5244315427
 30
0.0
  0
VERTEX
  5
30B
  8
0
  6
CONTINUOUS
 62
     7
 10
207.0016088253
 20
250.6424973768
 30
0.0
  0
VERTEX
  5
30C
  8
0
  6
CONTINUOUS
 62
     7
 10
206.8951737424
 20
249.751801328
 30
0.0
  0
VERTEX
  5
30D
  8
0
  6
CONTINUOUS
 62
     7
 10
206.7996950643
 20
248.8413880628
 30
0.0
  0
VERTEX
  5
30E
  8
0
  6
CONTINUOUS
 62
     7
 10
206.7398162381
 20
248.17957385
 30
0.0
  0
SEQEND
  5
67E
  8
0
  6
CONTINUOUS
 62
     7
  0
ARC
  5
E2
  8
0
  6
CONTINUOUS
 62
     7
 10
256.3153546557
 20
203.2845730127
 30
0.0
 40
53.30187497098358
 50
174.5666044052
 51
183.8213552243
  0
LINE
  5
E3
  8
0
  6
CONTINUOUS
 62
     7
 10
206.7376775024
 20
248.1796811384
 30
0.0
 11
203.2514477437
 21
208.3319018644
 31
0.0
  0
POLYLINE
  5
E4
  8
0
  6
CONTINUOUS
 62
     7
 66
     1
 10
0.0
 20
0.0
 30
0.0
  0
VERTEX
  5
30F
  8
0
  6
CONTINUOUS
 62
     7
 10
212.0987372761
 20
247.7105210584
 30
0.0
  0
VERTEX
  5
310
  8
0
  6
CONTINUOUS
 62
     7
 10
212.1657537585
 20
248.4353612226
 30
0.0
  0
VERTEX
  5
311
  8
0
  6
CONTINUOUS
 62
     7
 10
212.2551570004
 20
249.2714236539
 30
0.0
  0
VERTEX
  5
312
  8
0
  6
CONTINUOUS
 62
     7
 10
212.3554537361
 20
250.0951002401
 30
0.0
  0
VERTEX
  5
313
  8
0
  6
CONTINUOUS
 62
     7
 10
212.4658996528
 20
250.9004543584
 30
0.0
  0
VERTEX
  5
314
  8
0
  6
CONTINUOUS
 62
     7
 10
212.5852683847
 20
251.6820619863
 30
0.0
  0
VERTEX
  5
315
  8
0
  6
CONTINUOUS
 62
     7
 10
212.7140326714
 20
252.4469922346
 30
0.0
  0
VERTEX
  5
316
  8
0
  6
CONTINUOUS
 62
     7
 10
212.8510406529
 20
253.1901906293
 30
0.0
  0
VERTEX
  5
317
  8
0
  6
CONTINUOUS
 62
     7
 10
212.9943261211
 20
253.9028595251
 30
0.0
  0
VERTEX
  5
318
  8
0
  6
CONTINUOUS
 62
     7
 10
213.1413655644
 20
254.5750211042
 30
0.0
  0
VERTEX
  5
319
  8
0
  6
CONTINUOUS
 62
     7
 10
213.2896272754
 20
255.1984380048
 30
0.0
  0
VERTEX
  5
31A
  8
0
  6
CONTINUOUS
 62
     7
 10
213.4363575196
 20
255.7655165952
 30
0.0
  0
VERTEX
  5
31B
  8
0
  6
CONTINUOUS
 62
     7
 10
213.5795036619
 20
256.273634271
 30
0.0
  0
VERTEX
  5
31C
  8
0
  6
CONTINUOUS
 62
     7
 10
213.7227146243
 20
256.7403267187
 30
0.0
  0
VERTEX
  5
31D
  8
0
  6
CONTINUOUS
 62
     7
 10
213.8586039012
 20
257.1450064939
 30
0.0
  0
VERTEX
  5
31E
  8
0
  6
CONTINUOUS
 62
     7
 10
213.9841312831
 20
257.4848602575
 30
0.0
  0
VERTEX
  5
31F
  8
0
  6
CONTINUOUS
 62
     7
 10
214.0946181779
 20
257.7548931402
 30
0.0
  0
VERTEX
  5
320
  8
0
  6
CONTINUOUS
 62
     7
 10
214.1753534143
 20
257.9325507444
 30
0.0
  0
VERTEX
  5
321
  8
0
  6
CONTINUOUS
 62
     7
 10
214.2343515819
 20
258.04939969
 30
0.0
  0
VERTEX
  5
322
  8
0
  6
CONTINUOUS
 62
     7
 10
214.2683634823
 20
258.1097553533
 30
0.0
  0
VERTEX
  5
323
  8
0
  6
CONTINUOUS
 62
     7
 10
214.2729396289
 20
258.1172297758
 30
0.0
  0
SEQEND
  5
67D
  8
0
  6
CONTINUOUS
 62
     7
  0
LINE
  5
E5
  8
0
  6
CONTINUOUS
 62
     7
 10
209.5696885427
 20
218.8211391729
 30
0.0
 11
212.0972050642
 21
247.7107833189
 31
0.0
  0
LINE
  5
E6
  8
0
  6
CONTINUOUS
 62
     7
 10
209.6717903679
 20
218.8122103971
 30
0.0
 11
212.4969167923
 21
251.103551225
 31
0.0
  0
ARC
  5
E7
  8
0
  6
CONTINUOUS
 62
     7
 10
214.2683887145
 20
259.8778570656
 30
0.0
 40
2.690000000000036
 50
355.0
 51
85.0
  0
ARC
  5
E8
  8
0
  6
CONTINUOUS
 62
     7
 10
214.2683887145
 20
259.8778570656
 30
0.0
 40
2.690000000000098
 50
265.0
 51
355.0
  0
POLYLINE
  5
E9
  8
0
  6
CONTINUOUS
 62
     7
 66
     1
 10
0.0
 20
0.0
 30
0.0
  0
VERTEX
  5
324
  8
0
  6
CONTINUOUS
 62
     7
 10
187.5587040847
 20
281.9839428228
 30
0.0
  0
VERTEX
  5
325
  8
0
  6
CONTINUOUS
 62
     7
 10
187.1068621343
 20
281.9284628194
 30
0.0
  0
VERTEX
  5
326
  8
0
  6
CONTINUOUS
 62
     7
 10
186.7242450183
 20
281.8814824384
 30
0.0
  0
VERTEX
  5
327
  8
0
  6
CONTINUOUS
 62
     7
 10
186.4109987681
 20
281.8430255216
 30
0.0
  0
VERTEX
  5
328
  8
0
  6
CONTINUOUS
 62
     7
 10
186.1672381228
 20
281.813092069
 30
0.0
  0
VERTEX
  5
329
  8
0
  6
CONTINUOUS
 62
     7
 10
185.9930584496
 20
281.7917059225
 30
0.0
  0
VERTEX
  5
32A
  8
0
  6
CONTINUOUS
 62
     7
 10
185.8885253137
 20
281.778867082
 30
0.0
  0
VERTEX
  5
32B
  8
0
  6
CONTINUOUS
 62
     7
 10
185.853675968
 20
281.7745874685
 30
0.0
  0
SEQEND
  5
67C
  8
0
  6
CONTINUOUS
 62
     7
  0
ARC
  5
EA
  8
0
  6
CONTINUOUS
 62
     7
 10
186.2055598022
 20
279.109980136
 30
0.0
 40
2.711877846185932
 50
165.6589414935
 51
187.0498969926
  0
POLYLINE
  5
EB
  8
0
  6
CONTINUOUS
 62
     7
 66
     1
 10
0.0
 20
0.0
 30
0.0
  0
VERTEX
  5
32C
  8
0
  6
CONTINUOUS
 62
     7
 10
186.509333021
 20
276.4346907896
 30
0.0
  0
VERTEX
  5
32D
  8
0
  6
CONTINUOUS
 62
     7
 10
186.5441823667
 20
276.4389704031
 30
0.0
  0
VERTEX
  5
32E
  8
0
  6
CONTINUOUS
 62
     7
 10
186.6247261231
 20
276.4488647741
 30
0.0
  0
SEQEND
  5
67B
  8
0
  6
CONTINUOUS
 62
     7
  0
POLYLINE
  5
EC
  8
0
  6
CONTINUOUS
 62
     7
 66
     1
 10
0.0
 20
0.0
 30
0.0
  0
VERTEX
  5
32F
  8
0
  6
CONTINUOUS
 62
     7
 10
183.8193157976
 20
277.8178880971
 30
0.0
  0
VERTEX
  5
330
  8
0
  6
CONTINUOUS
 62
     7
 10
183.8228637641
 20
277.8112719816
 30
0.0
  0
VERTEX
  5
331
  8
0
  6
CONTINUOUS
 62
     7
 10
183.7854737704
 20
277.8827141088
 30
0.0
  0
VERTEX
  5
332
  8
0
  6
CONTINUOUS
 62
     7
 10
183.7113106912
 20
278.042418794
 30
0.0
  0
VERTEX
  5
333
  8
0
  6
CONTINUOUS
 62
     7
 10
183.6189592546
 20
278.292937116
 30
0.0
  0
VERTEX
  5
334
  8
0
  6
CONTINUOUS
 62
     7
 10
183.5401827758
 20
278.6089490217
 30
0.0
  0
VERTEX
  5
335
  8
0
  6
CONTINUOUS
 62
     7
 10
183.5141847199
 20
278.7771414083
 30
0.0
  0
SEQEND
  5
67A
  8
0
  6
CONTINUOUS
 62
     7
  0
POLYLINE
  5
ED
  8
0
  6
CONTINUOUS
 62
     7
 66
     1
 10
0.0
 20
0.0
 30
0.0
  0
VERTEX
  5
336
  8
0
  6
CONTINUOUS
 62
     7
 10
193.8446531361
 20
217.6504801076
 30
0.0
  0
VERTEX
  5
337
  8
0
  6
CONTINUOUS
 62
     7
 10
193.7637219494
 20
217.6405380529
 30
0.0
  0
VERTEX
  5
338
  8
0
  6
CONTINUOUS
 62
     7
 10
193.7288726037
 20
217.6362584394
 30
0.0
  0
SEQEND
  5
679
  8
0
  6
CONTINUOUS
 62
     7
  0
ARC
  5
EE
  8
0
  6
CONTINUOUS
 62
     7
 10
194.0818214971
 20
214.9715832932
 30
0.0
 40
2.712926520734934
 50
165.6631254354
 51
187.0459686315
  0
POLYLINE
  5
EF
  8
0
  6
CONTINUOUS
 62
     7
 66
     1
 10
0.0
 20
0.0
 30
0.0
  0
VERTEX
  5
339
  8
0
  6
CONTINUOUS
 62
     7
 10
194.3845296567
 20
212.2963617605
 30
0.0
  0
VERTEX
  5
33A
  8
0
  6
CONTINUOUS
 62
     7
 10
194.4193790024
 20
212.300641374
 30
0.0
  0
VERTEX
  5
33B
  8
0
  6
CONTINUOUS
 62
     7
 10
194.5239136284
 20
212.3134802145
 30
0.0
  0
VERTEX
  5
33C
  8
0
  6
CONTINUOUS
 62
     7
 10
194.6980933016
 20
212.334866361
 30
0.0
  0
VERTEX
  5
33D
  8
0
  6
CONTINUOUS
 62
     7
 10
194.9418524569
 20
212.3647878927
 30
0.0
  0
VERTEX
  5
33E
  8
0
  6
CONTINUOUS
 62
     7
 10
195.2550994521
 20
212.4032567304
 30
0.0
  0
VERTEX
  5
33F
  8
0
  6
CONTINUOUS
 62
     7
 10
195.637715823
 20
212.4502371114
 30
0.0
  0
VERTEX
  5
340
  8
0
  6
CONTINUOUS
 62
     7
 10
196.0895577734
 20
212.5057171148
 30
0.0
  0
SEQEND
  5
678
  8
0
  6
CONTINUOUS
 62
     7
  0
POLYLINE
  5
F0
  8
0
  6
CONTINUOUS
 62
     7
 66
     1
 10
0.0
 20
0.0
 30
0.0
  0
VERTEX
  5
341
  8
0
  6
CONTINUOUS
 62
     7
 10
191.6945139235
 20
213.6795590681
 30
0.0
  0
VERTEX
  5
342
  8
0
  6
CONTINUOUS
 62
     7
 10
191.6980603998
 20
213.6729310316
 30
0.0
  0
VERTEX
  5
343
  8
0
  6
CONTINUOUS
 62
     7
 10
191.6606704062
 20
213.7443850797
 30
0.0
  0
VERTEX
  5
344
  8
0
  6
CONTINUOUS
 62
     7
 10
191.586508817
 20
213.9040897649
 30
0.0
  0
VERTEX
  5
345
  8
0
  6
CONTINUOUS
 62
     7
 10
191.4941558903
 20
214.1546080869
 30
0.0
  0
VERTEX
  5
346
  8
0
  6
CONTINUOUS
 62
     7
 10
191.4153794115
 20
214.4706199926
 30
0.0
  0
VERTEX
  5
347
  8
0
  6
CONTINUOUS
 62
     7
 10
191.3893828457
 20
214.6388004583
 30
0.0
  0
SEQEND
  5
677
  8
0
  6
CONTINUOUS
 62
     7
  0
LINE
  5
F1
  8
0
  6
CONTINUOUS
 62
     7
 10
196.0895577734
 20
212.5057171148
 30
0.0
 11
196.1374024218
 21
212.5120352071
 31
0.0
  0
LINE
  5
F2
  8
0
  6
CONTINUOUS
 62
     7
 10
185.3186527556
 20
211.8884633344
 30
0.0
 11
176.9584143823
 21
279.9771378797
 31
0.0
  0
POLYLINE
  5
F3
  8
0
  6
CONTINUOUS
 62
     7
 66
     1
 10
0.0
 20
0.0
 30
0.0
  0
VERTEX
  5
348
  8
0
  6
CONTINUOUS
 62
     7
 10
186.311198241
 20
212.0103429121
 30
0.0
  0
VERTEX
  5
349
  8
0
  6
CONTINUOUS
 62
     7
 10
186.1175621217
 20
211.9865606588
 30
0.0
  0
VERTEX
  5
34A
  8
0
  6
CONTINUOUS
 62
     7
 10
185.9313676422
 20
211.9636963171
 30
0.0
  0
VERTEX
  5
34B
  8
0
  6
CONTINUOUS
 62
     7
 10
185.7597688501
 20
211.9426320356
 30
0.0
  0
VERTEX
  5
34C
  8
0
  6
CONTINUOUS
 62
     7
 10
185.6093624895
 20
211.9241665166
 30
0.0
  0
VERTEX
  5
34D
  8
0
  6
CONTINUOUS
 62
     7
 10
185.4859272306
 20
211.909003095
 30
0.0
  0
VERTEX
  5
34E
  8
0
  6
CONTINUOUS
 62
     7
 10
185.3942061132
 20
211.8977497381
 30
0.0
  0
VERTEX
  5
34F
  8
0
  6
CONTINUOUS
 62
     7
 10
185.3377232616
 20
211.8908117574
 30
0.0
  0
VERTEX
  5
350
  8
0
  6
CONTINUOUS
 62
     7
 10
185.3186527556
 20
211.8884633344
 30
0.0
  0
SEQEND
  5
676
  8
0
  6
CONTINUOUS
 62
     7
  0
POLYLINE
  5
F4
  8
0
  6
CONTINUOUS
 62
     7
 66
     1
 10
0.0
 20
0.0
 30
0.0
  0
VERTEX
  5
351
  8
0
  6
CONTINUOUS
 62
     7
 10
176.9584143823
 20
279.9771378797
 30
0.0
  0
VERTEX
  5
352
  8
0
  6
CONTINUOUS
 62
     7
 10
176.9774878686
 20
279.9794743818
 30
0.0
  0
VERTEX
  5
353
  8
0
  6
CONTINUOUS
 62
     7
 10
177.03396923
 20
279.9864123624
 30
0.0
  0
VERTEX
  5
354
  8
0
  6
CONTINUOUS
 62
     7
 10
177.1256888574
 20
279.9976776403
 30
0.0
  0
VERTEX
  5
355
  8
0
  6
CONTINUOUS
 62
     7
 10
177.2491241162
 20
280.012829141
 30
0.0
  0
VERTEX
  5
356
  8
0
  6
CONTINUOUS
 62
     7
 10
177.3995334571
 20
280.0312946599
 30
0.0
  0
VERTEX
  5
357
  8
0
  6
CONTINUOUS
 62
     7
 10
177.5711292689
 20
280.0523708623
 30
0.0
  0
VERTEX
  5
358
  8
0
  6
CONTINUOUS
 62
     7
 10
177.7573252385
 20
280.0752232831
 30
0.0
  0
VERTEX
  5
359
  8
0
  6
CONTINUOUS
 62
     7
 10
177.950962848
 20
280.0990055364
 30
0.0
  0
SEQEND
  5
675
  8
0
  6
CONTINUOUS
 62
     7
  0
LINE
  5
F5
  8
0
  6
CONTINUOUS
 62
     7
 10
190.2813831633
 20
212.4978135389
 30
0.0
 11
186.311198241
 21
212.0103429121
 31
0.0
  0
LINE
  5
F6
  8
0
  6
CONTINUOUS
 62
     7
 10
181.92114479
 20
280.5864761632
 30
0.0
 11
177.950962848
 21
280.0990055364
 31
0.0
  0
LINE
  5
F7
  8
0
  6
CONTINUOUS
 62
     7
 10
182.9136917656
 20
280.7083557409
 30
0.0
 11
191.2739286488
 21
212.6196811956
 31
0.0
  0
POLYLINE
  5
F8
  8
0
  6
CONTINUOUS
 62
     7
 66
     1
 10
0.0
 20
0.0
 30
0.0
  0
VERTEX
  5
35A
  8
0
  6
CONTINUOUS
 62
     7
 10
191.2739286488
 20
212.6196811956
 30
0.0
  0
VERTEX
  5
35B
  8
0
  6
CONTINUOUS
 62
     7
 10
191.2548581427
 20
212.6173446935
 30
0.0
  0
VERTEX
  5
35C
  8
0
  6
CONTINUOUS
 62
     7
 10
191.1983767813
 20
212.6104067129
 30
0.0
  0
VERTEX
  5
35D
  8
0
  6
CONTINUOUS
 62
     7
 10
191.1066556638
 20
212.599141435
 30
0.0
  0
VERTEX
  5
35E
  8
0
  6
CONTINUOUS
 62
     7
 10
190.9832189148
 20
212.5839899343
 30
0.0
  0
VERTEX
  5
35F
  8
0
  6
CONTINUOUS
 62
     7
 10
190.8328125542
 20
212.5655244154
 30
0.0
  0
VERTEX
  5
360
  8
0
  6
CONTINUOUS
 62
     7
 10
190.6612137621
 20
212.544448213
 30
0.0
  0
VERTEX
  5
361
  8
0
  6
CONTINUOUS
 62
     7
 10
190.4750192826
 20
212.5215957922
 30
0.0
  0
VERTEX
  5
362
  8
0
  6
CONTINUOUS
 62
     7
 10
190.2813831633
 20
212.4978135389
 30
0.0
  0
SEQEND
  5
674
  8
0
  6
CONTINUOUS
 62
     7
  0
POLYLINE
  5
F9
  8
0
  6
CONTINUOUS
 62
     7
 66
     1
 10
0.0
 20
0.0
 30
0.0
  0
VERTEX
  5
363
  8
0
  6
CONTINUOUS
 62
     7
 10
181.92114479
 20
280.5864761632
 30
0.0
  0
VERTEX
  5
364
  8
0
  6
CONTINUOUS
 62
     7
 10
182.1147823995
 20
280.6102584165
 30
0.0
  0
VERTEX
  5
365
  8
0
  6
CONTINUOUS
 62
     7
 10
182.300978369
 20
280.6331227582
 30
0.0
  0
VERTEX
  5
366
  8
0
  6
CONTINUOUS
 62
     7
 10
182.4725741809
 20
280.6541870397
 30
0.0
  0
VERTEX
  5
367
  8
0
  6
CONTINUOUS
 62
     7
 10
182.6229820316
 20
280.6726525587
 30
0.0
  0
VERTEX
  5
368
  8
0
  6
CONTINUOUS
 62
     7
 10
182.7464187806
 20
280.6878159803
 30
0.0
  0
VERTEX
  5
369
  8
0
  6
CONTINUOUS
 62
     7
 10
182.8381398981
 20
280.6990693372
 30
0.0
  0
VERTEX
  5
36A
  8
0
  6
CONTINUOUS
 62
     7
 10
182.8946212595
 20
280.7060073179
 30
0.0
  0
VERTEX
  5
36B
  8
0
  6
CONTINUOUS
 62
     7
 10
182.9136917656
 20
280.7083557409
 30
0.0
  0
SEQEND
  5
673
  8
0
  6
CONTINUOUS
 62
     7
  0
LINE
  5
FA
  8
0
  6
CONTINUOUS
 62
     7
 10
186.0926876133
 20
205.5844615263
 30
0.0
 11
185.3186527556
 21
211.8884633344
 31
0.0
  0
POLYLINE
  5
FB
  8
0
  6
CONTINUOUS
 62
     7
 66
     1
 10
0.0
 20
0.0
 30
0.0
  0
VERTEX
  5
36C
  8
0
  6
CONTINUOUS
 62
     7
 10
186.311198241
 20
212.0103429121
 30
0.0
  0
VERTEX
  5
36D
  8
0
  6
CONTINUOUS
 62
     7
 10
186.1175621217
 20
211.9865606588
 30
0.0
  0
VERTEX
  5
36E
  8
0
  6
CONTINUOUS
 62
     7
 10
185.9313676422
 20
211.9636963171
 30
0.0
  0
VERTEX
  5
36F
  8
0
  6
CONTINUOUS
 62
     7
 10
185.7597688501
 20
211.9426320356
 30
0.0
  0
VERTEX
  5
370
  8
0
  6
CONTINUOUS
 62
     7
 10
185.6093624895
 20
211.9241665166
 30
0.0
  0
VERTEX
  5
371
  8
0
  6
CONTINUOUS
 62
     7
 10
185.4859272306
 20
211.909003095
 30
0.0
  0
VERTEX
  5
372
  8
0
  6
CONTINUOUS
 62
     7
 10
185.3942061132
 20
211.8977497381
 30
0.0
  0
VERTEX
  5
373
  8
0
  6
CONTINUOUS
 62
     7
 10
185.3377232616
 20
211.8908117574
 30
0.0
  0
VERTEX
  5
374
  8
0
  6
CONTINUOUS
 62
     7
 10
185.3186527556
 20
211.8884633344
 30
0.0
  0
SEQEND
  5
672
  8
0
  6
CONTINUOUS
 62
     7
  0
ARC
  5
FC
  8
0
  6
CONTINUOUS
 62
     7
 10
204.951063803
 20
207.8999806506
 30
0.0
 40
19.00000000000003
 50
187.0
 51
203.0
  0
LINE
  5
FD
  8
0
  6
CONTINUOUS
 62
     7
 10
200.8782068556
 20
161.2578581136
 30
0.0
 11
196.878206945
 21
161.2578581136
 31
0.0
  0
LINE
  5
FE
  8
0
  6
CONTINUOUS
 62
     7
 10
187.4614710277
 20
200.4760931295
 30
0.0
 11
194.8447699016
 21
183.0821286005
 31
0.0
  0
LINE
  5
FF
  8
0
  6
CONTINUOUS
 62
     7
 10
192.0479635065
 20
206.3156793874
 30
0.0
 11
191.2739286488
 21
212.6196811956
 31
0.0
  0
POLYLINE
  5
100
  8
0
  6
CONTINUOUS
 62
     7
 66
     1
 10
0.0
 20
0.0
 30
0.0
  0
VERTEX
  5
375
  8
0
  6
CONTINUOUS
 62
     7
 10
191.2739286488
 20
212.6196811956
 30
0.0
  0
VERTEX
  5
376
  8
0
  6
CONTINUOUS
 62
     7
 10
191.2548581427
 20
212.6173446935
 30
0.0
  0
VERTEX
  5
377
  8
0
  6
CONTINUOUS
 62
     7
 10
191.1983767813
 20
212.6104067129
 30
0.0
  0
VERTEX
  5
378
  8
0
  6
CONTINUOUS
 62
     7
 10
191.1066556638
 20
212.599141435
 30
0.0
  0
VERTEX
  5
379
  8
0
  6
CONTINUOUS
 62
     7
 10
190.9832189148
 20
212.5839899343
 30
0.0
  0
VERTEX
  5
37A
  8
0
  6
CONTINUOUS
 62
     7
 10
190.8328125542
 20
212.5655244154
 30
0.0
  0
VERTEX
  5
37B
  8
0
  6
CONTINUOUS
 62
     7
 10
190.6612137621
 20
212.544448213
 30
0.0
  0
VERTEX
  5
37C
  8
0
  6
CONTINUOUS
 62
     7
 10
190.4750192826
 20
212.5215957922
 30
0.0
  0
VERTEX
  5
37D
  8
0
  6
CONTINUOUS
 62
     7
 10
190.2813831633
 20
212.4978135389
 30
0.0
  0
SEQEND
  5
671
  8
0
  6
CONTINUOUS
 62
     7
  0
ARC
  5
101
  8
0
  6
CONTINUOUS
 62
     7
 10
204.951063803
 20
207.8999806506
 30
0.0
 40
13.00000000000003
 50
187.0
 51
203.0
  0
LINE
  5
102
  8
0
  6
CONTINUOUS
 62
     7
 10
192.9844999974
 20
202.8204749387
 30
0.0
 11
200.3677988713
 21
185.4265163702
 31
0.0
  0
LINE
  5
103
  8
0
  6
CONTINUOUS
 62
     7
 10
195.8782071536
 20
178.0026207727
 30
0.0
 11
195.8782071536
 21
161.2578581136
 31
0.0
  0
LINE
  5
104
  8
0
  6
CONTINUOUS
 62
     7
 10
196.878206945
 20
161.2578581136
 30
0.0
 11
195.8782071536
 21
161.2578581136
 31
0.0
  0
ARC
  5
105
  8
0
  6
CONTINUOUS
 62
     7
 10
182.8782068198
 20
178.002623707
 30
0.0
 40
13.0
 50
0.0
 51
23.0
  0
LINE
  5
106
  8
0
  6
CONTINUOUS
 62
     7
 10
201.6782069867
 20
161.2578581136
 30
0.0
 11
200.8782068556
 21
161.2578581136
 31
0.0
  0
POLYLINE
  5
107
  8
0
  6
CONTINUOUS
 62
     7
 66
     1
 10
0.0
 20
0.0
 30
0.0
  0
VERTEX
  5
37E
  8
0
  6
CONTINUOUS
 62
     7
 10
200.3677988713
 20
185.4265163702
 30
0.0
  0
VERTEX
  5
37F
  8
0
  6
CONTINUOUS
 62
     7
 10
200.7181467777
 20
184.5399449628
 30
0.0
  0
VERTEX
  5
380
  8
0
  6
CONTINUOUS
 62
     7
 10
200.9537557428
 20
183.8570664686
 30
0.0
  0
SEQEND
  5
670
  8
0
  6
CONTINUOUS
 62
     7
  0
POLYLINE
  5
108
  8
0
  6
CONTINUOUS
 62
     7
 66
     1
 10
0.0
 20
0.0
 30
0.0
  0
VERTEX
  5
381
  8
0
  6
CONTINUOUS
 62
     7
 10
205.1185200279
 20
200.0887106222
 30
0.0
  0
VERTEX
  5
382
  8
0
  6
CONTINUOUS
 62
     7
 10
204.7702510198
 20
200.2897928518
 30
0.0
  0
VERTEX
  5
383
  8
0
  6
CONTINUOUS
 62
     7
 10
204.4548705509
 20
200.5658577245
 30
0.0
  0
VERTEX
  5
384
  8
0
  6
CONTINUOUS
 62
     7
 10
204.117435432
 20
200.9888838094
 30
0.0
  0
VERTEX
  5
385
  8
0
  6
CONTINUOUS
 62
     7
 10
203.8427314078
 20
201.4722893995
 30
0.0
  0
VERTEX
  5
386
  8
0
  6
CONTINUOUS
 62
     7
 10
203.5851756399
 20
202.1120260519
 30
0.0
  0
VERTEX
  5
387
  8
0
  6
CONTINUOUS
 62
     7
 10
203.3991905218
 20
202.7863930028
 30
0.0
  0
SEQEND
  5
66F
  8
0
  6
CONTINUOUS
 62
     7
  0
POLYLINE
  5
109
  8
0
  6
CONTINUOUS
 62
     7
 66
     1
 10
0.0
 20
0.0
 30
0.0
  0
VERTEX
  5
388
  8
0
  6
CONTINUOUS
 62
     7
 10
208.4014115212
 20
205.6061337751
 30
0.0
  0
VERTEX
  5
389
  8
0
  6
CONTINUOUS
 62
     7
 10
208.1678114189
 20
203.587419824
 30
0.0
  0
VERTEX
  5
38A
  8
0
  6
CONTINUOUS
 62
     7
 10
207.9450936811
 20
202.5118897718
 30
0.0
  0
VERTEX
  5
38B
  8
0
  6
CONTINUOUS
 62
     7
 10
207.5805039783
 20
201.4797638219
 30
0.0
  0
VERTEX
  5
38C
  8
0
  6
CONTINUOUS
 62
     7
 10
207.1978150457
 20
200.8193324369
 30
0.0
  0
VERTEX
  5
38D
  8
0
  6
CONTINUOUS
 62
     7
 10
206.9497114336
 20
200.5241225523
 30
0.0
  0
VERTEX
  5
38E
  8
0
  6
CONTINUOUS
 62
     7
 10
206.6591930864
 20
200.2716491979
 30
0.0
  0
VERTEX
  5
38F
  8
0
  6
CONTINUOUS
 62
     7
 10
206.1733486419
 20
200.0240515035
 30
0.0
  0
VERTEX
  5
390
  8
0
  6
CONTINUOUS
 62
     7
 10
205.6286361357
 20
199.9596188825
 30
0.0
  0
VERTEX
  5
391
  8
0
  6
CONTINUOUS
 62
     7
 10
205.1185200279
 20
200.0887106222
 30
0.0
  0
SEQEND
  5
66E
  8
0
  6
CONTINUOUS
 62
     7
  0
LINE
  5
10A
  8
0
  6
CONTINUOUS
 62
     7
 10
208.5905808313
 20
207.8647802633
 30
0.0
 11
208.4014115212
 21
205.6061337751
 31
0.0
  0
LINE
  5
10B
  8
0
  6
CONTINUOUS
 62
     7
 10
209.5492940684
 20
218.8229273122
 30
0.0
 11
208.5905808313
 21
207.8647802633
 31
0.0
  0
ARC
  5
10C
  8
0
  6
CONTINUOUS
 62
     7
 10
93.6668818548
 20
189.4168272389
 30
0.0
 40
120.0000000000006
 50
357.9188963395
 51
14.1646231125
  0
LINE
  5
10D
  8
0
  6
CONTINUOUS
 62
     7
 10
201.9169247066
 20
185.8440171045
 30
0.0
 11
203.3991905218
 21
202.7863930028
 31
0.0
  0
LINE
  5
10E
  8
0
  6
CONTINUOUS
 62
     7
 10
209.5492940684
 20
218.8229273122
 30
0.0
 11
210.0184772452
 21
218.7818835538
 31
0.0
  0
POLYLINE
  5
10F
  8
0
  6
CONTINUOUS
 62
     7
 66
     1
 10
0.0
 20
0.0
 30
0.0
  0
VERTEX
  5
392
  8
0
  6
CONTINUOUS
 62
     7
 10
214.502837724
 20
262.5576208395
 30
0.0
  0
VERTEX
  5
393
  8
0
  6
CONTINUOUS
 62
     7
 10
214.4678602284
 20
262.5606845182
 30
0.0
  0
VERTEX
  5
394
  8
0
  6
CONTINUOUS
 62
     7
 10
214.3629418974
 20
262.5698636335
 30
0.0
  0
VERTEX
  5
395
  8
0
  6
CONTINUOUS
 62
     7
 10
214.1881222194
 20
262.5851581853
 30
0.0
  0
VERTEX
  5
396
  8
0
  6
CONTINUOUS
 62
     7
 10
213.9434667593
 20
262.6065562528
 30
0.0
  0
VERTEX
  5
397
  8
0
  6
CONTINUOUS
 62
     7
 10
213.6290679043
 20
262.6340697568
 30
0.0
  0
VERTEX
  5
398
  8
0
  6
CONTINUOUS
 62
     7
 10
213.2450444912
 20
262.6676629346
 30
0.0
  0
VERTEX
  5
399
  8
0
  6
CONTINUOUS
 62
     7
 10
212.7915418064
 20
262.7073357862
 30
0.0
  0
SEQEND
  5
66D
  8
0
  6
CONTINUOUS
 62
     7
  0
POLYLINE
  5
110
  8
0
  6
CONTINUOUS
 62
     7
 66
     1
 10
0.0
 20
0.0
 30
0.0
  0
VERTEX
  5
39A
  8
0
  6
CONTINUOUS
 62
     7
 10
213.9177331989
 20
257.2082589429
 30
0.0
  0
VERTEX
  5
39B
  8
0
  6
CONTINUOUS
 62
     7
 10
213.9989624088
 20
257.2011540693
 30
0.0
  0
VERTEX
  5
39C
  8
0
  6
CONTINUOUS
 62
     7
 10
214.0339399045
 20
257.1980903905
 30
0.0
  0
SEQEND
  5
66C
  8
0
  6
CONTINUOUS
 62
     7
  0
LINE
  5
111
  8
0
  6
CONTINUOUS
 62
     7
 10
212.7915418064
 20
262.7073357862
 30
0.0
 11
212.7434293097
 21
262.7111027998
 31
0.0
  0
LINE
  5
112
  8
0
  6
CONTINUOUS
 62
     7
 10
212.6782069271
 20
163.2578621667
 30
0.0
 11
212.6782069271
 21
171.0578630727
 31
0.0
  0
ARC
  5
113
  8
0
  6
CONTINUOUS
 62
     7
 10
212.2782068198
 20
171.0578604978
 30
0.0
 40
0.4000000000000341
 50
0.0
 51
90.0
  0
LINE
  5
114
  8
0
  6
CONTINUOUS
 62
     7
 10
212.2782068615
 20
171.4578579229
 30
0.0
 11
211.4782067304
 21
171.4578579229
 31
0.0
  0
LINE
  5
115
  8
0
  6
CONTINUOUS
 62
     7
 10
203.4782069092
 20
171.4578579229
 30
0.0
 11
202.8782068109
 21
171.4578579229
 31
0.0
  0
ARC
  5
116
  8
0
  6
CONTINUOUS
 62
     7
 10
202.8782068198
 20
171.0578604978
 30
0.0
 40
0.4000000000000341
 50
90.0
 51
180.0
  0
LINE
  5
117
  8
0
  6
CONTINUOUS
 62
     7
 10
202.4782067453
 20
171.0578630727
 30
0.0
 11
202.4782067453
 21
170.4578588766
 31
0.0
  0
LINE
  5
118
  8
0
  6
CONTINUOUS
 62
     7
 10
201.6782069867
 20
168.2578633588
 30
0.0
 11
201.6782069867
 21
163.2578621667
 31
0.0
  0
ARC
  5
119
  8
0
  6
CONTINUOUS
 62
     7
 10
207.5782068198
 20
182.8578604978
 30
0.0
 40
6.400000000000012
 50
334.4805415091
 51
151.3013359141
  0
ARC
  5
11A
  8
0
  6
CONTINUOUS
 62
     7
 10
222.3782068198
 20
175.7924518047
 30
0.0
 40
10.00000000000003
 50
154.4805415091
 51
180.0
  0
LINE
  5
11B
  8
0
  6
CONTINUOUS
 62
     7
 10
212.3782066917
 20
175.7924507421
 30
0.0
 11
212.3782066917
 21
172.2578595441
 31
0.0
  0
LINE
  5
11C
  8
0
  6
CONTINUOUS
 62
     7
 10
212.4782068943
 20
172.2578595441
 30
0.0
 11
212.3782066917
 21
172.2578595441
 31
0.0
  0
ARC
  5
11D
  8
0
  6
CONTINUOUS
 62
     7
 10
212.4782068198
 20
171.2578604978
 30
0.0
 40
1.0
 50
0.0
 51
90.0
  0
LINE
  5
11E
  8
0
  6
CONTINUOUS
 62
     7
 10
213.4782066857
 20
163.2578621667
 30
0.0
 11
213.4782066857
 21
171.2578604978
 31
0.0
  0
LINE
  5
11F
  8
0
  6
CONTINUOUS
 62
     7
 10
201.6782069867
 20
168.2578633588
 30
0.0
 11
199.7303048437
 21
168.2578633588
 31
0.0
  0
ARC
  5
120
  8
0
  6
CONTINUOUS
 62
     7
 10
223.2872977289
 20
174.2578604978
 30
0.0
 40
24.30909090909088
 50
151.3013359141
 51
194.2894890274
  0
LINE
  5
121
  8
0
  6
CONTINUOUS
 62
     7
 10
202.4782067453
 20
162.4578605455
 30
0.0
 11
202.4782067453
 21
161.2578581136
 31
0.0
  0
LINE
  5
122
  8
0
  6
CONTINUOUS
 62
     7
 10
202.4782067453
 20
161.2578581136
 30
0.0
 11
201.6782069867
 21
161.2578581136
 31
0.0
  0
LINE
  5
123
  8
0
  6
CONTINUOUS
 62
     7
 10
201.6782069867
 20
161.2578581136
 30
0.0
 11
201.6782069867
 21
163.2578621667
 31
0.0
  0
LINE
  5
124
  8
0
  6
CONTINUOUS
 62
     7
 10
213.4782066857
 20
163.2578621667
 30
0.0
 11
213.4782066857
 21
161.2578581136
 31
0.0
  0
LINE
  5
125
  8
0
  6
CONTINUOUS
 62
     7
 10
213.4782066857
 20
161.2578581136
 30
0.0
 11
212.6782069271
 21
161.2578581136
 31
0.0
  0
LINE
  5
126
  8
0
  6
CONTINUOUS
 62
     7
 10
212.6782069271
 20
161.2578581136
 30
0.0
 11
212.6782069271
 21
163.2578621667
 31
0.0
  0
LINE
  5
127
  8
0
  6
CONTINUOUS
 62
     7
 10
202.4782067453
 20
162.4578605455
 30
0.0
 11
202.4782067453
 21
170.4578588766
 31
0.0
  0
ARC
  5
128
  8
0
  6
CONTINUOUS
 62
     7
 10
203.4782068198
 20
170.4578604978
 30
0.0
 40
1.0
 50
90.0
 51
180.0
  0
LINE
  5
129
  8
0
  6
CONTINUOUS
 62
     7
 10
203.4782069092
 20
171.4578579229
 30
0.0
 11
211.4782067304
 21
171.4578579229
 31
0.0
  0
ARC
  5
12A
  8
0
  6
CONTINUOUS
 62
     7
 10
203.4782068198
 20
162.4578604978
 30
0.0
 40
1.0
 50
180.0
 51
270.0
  0
LINE
  5
12B
  8
0
  6
CONTINUOUS
 62
     7
 10
211.4782067304
 20
161.4578614992
 30
0.0
 11
203.4782069092
 21
161.4578614992
 31
0.0
  0
LINE
  5
12C
  8
0
  6
CONTINUOUS
 62
     7
 10
212.4782068943
 20
170.4578588766
 30
0.0
 11
212.4782068943
 21
162.4578605455
 31
0.0
  0
ARC
  5
12D
  8
0
  6
CONTINUOUS
 62
     7
 10
211.4782068198
 20
170.4578604978
 30
0.0
 40
1.0
 50
0.0
 51
90.0
  0
ARC
  5
12E
  8
0
  6
CONTINUOUS
 62
     7
 10
211.4782068198
 20
162.4578604978
 30
0.0
 40
1.0
 50
270.0
 51
0.0
  0
LINE
  5
12F
  8
0
  6
CONTINUOUS
 62
     7
 10
195.478207088
 20
96.2578604978
 30
0.0
 11
195.478207088
 21
97.4578605082
 31
0.0
  0
LINE
  5
130
  8
0
  6
CONTINUOUS
 62
     7
 10
195.478207088
 20
97.4578605082
 30
0.0
 11
199.4782069986
 21
97.4578605082
 31
0.0
  0
LINE
  5
131
  8
0
  6
CONTINUOUS
 62
     7
 10
199.4782069986
 20
96.2578604978
 30
0.0
 11
195.478207088
 21
96.2578604978
 31
0.0
  0
LINE
  5
132
  8
0
  6
CONTINUOUS
 62
     7
 10
199.4782069986
 20
97.4578605082
 30
0.0
 11
201.4782069539
 21
97.4578605082
 31
0.0
  0
LINE
  5
133
  8
0
  6
CONTINUOUS
 62
     7
 10
199.4782069986
 20
96.2578604978
 30
0.0
 11
201.4782069539
 21
96.2578604978
 31
0.0
  0
LINE
  5
134
  8
0
  6
CONTINUOUS
 62
     7
 10
228.846628434
 20
97.4578605082
 30
0.0
 11
201.4782069539
 21
97.4578605082
 31
0.0
  0
LINE
  5
135
  8
0
  6
CONTINUOUS
 62
     7
 10
201.4782069539
 20
96.2578604978
 30
0.0
 11
228.846628434
 21
96.2578604978
 31
0.0
  0
LINE
  5
136
  8
0
  6
CONTINUOUS
 62
     7
 10
231.4782062834
 20
97.4578605082
 30
0.0
 11
231.4782062834
 21
96.2578604978
 31
0.0
  0
LINE
  5
137
  8
0
  6
CONTINUOUS
 62
     7
 10
228.846628434
 20
97.4578605082
 30
0.0
 11
231.4782062834
 21
97.4578605082
 31
0.0
  0
LINE
  5
138
  8
0
  6
CONTINUOUS
 62
     7
 10
231.4782062834
 20
96.2578604978
 30
0.0
 11
228.846628434
 21
96.2578604978
 31
0.0
  0
LINE
  5
139
  8
0
  6
CONTINUOUS
 62
     7
 10
202.4782067453
 20
97.4578605082
 30
0.0
 11
202.4782067453
 21
161.2578581136
 31
0.0
  0
LINE
  5
13A
  8
0
  6
CONTINUOUS
 62
     7
 10
212.4782068943
 20
162.4578605455
 30
0.0
 11
212.4782068943
 21
97.4578605082
 31
0.0
  0
POLYLINE
  5
13B
  8
0
  6
CONTINUOUS
 62
     7
 66
     1
 10
0.0
 20
0.0
 30
0.0
  0
VERTEX
  5
39D
  8
0
  6
CONTINUOUS
 62
     7
 10
312.4052078855
 20
267.6763366025
 30
0.0
  0
VERTEX
  5
39E
  8
0
  6
CONTINUOUS
 62
     7
 10
312.3111070525
 20
268.4162925046
 30
0.0
  0
VERTEX
  5
39F
  8
0
  6
CONTINUOUS
 62
     7
 10
312.1822969448
 20
269.3248818677
 30
0.0
  0
VERTEX
  5
3A0
  8
0
  6
CONTINUOUS
 62
     7
 10
312.0410726797
 20
270.2261637014
 30
0.0
  0
VERTEX
  5
3A1
  8
0
  6
CONTINUOUS
 62
     7
 10
311.8882538211
 20
271.1143086713
 30
0.0
  0
VERTEX
  5
3A2
  8
0
  6
CONTINUOUS
 62
     7
 10
311.7267073524
 20
271.9751308721
 30
0.0
  0
VERTEX
  5
3A3
  8
0
  6
CONTINUOUS
 62
     7
 10
311.5556107294
 20
272.8160332006
 30
0.0
  0
VERTEX
  5
3A4
  8
0
  6
CONTINUOUS
 62
     7
 10
311.375473572
 20
273.6355970663
 30
0.0
  0
VERTEX
  5
3A5
  8
0
  6
CONTINUOUS
 62
     7
 10
311.1872599852
 20
274.4300077718
 30
0.0
  0
VERTEX
  5
3A6
  8
0
  6
CONTINUOUS
 62
     7
 10
310.9918923509
 20
275.1956532758
 30
0.0
  0
VERTEX
  5
3A7
  8
0
  6
CONTINUOUS
 62
     7
 10
310.790164901
 20
275.9293030065
 30
0.0
  0
VERTEX
  5
3A8
  8
0
  6
CONTINUOUS
 62
     7
 10
310.5826051366
 20
276.6283820432
 30
0.0
  0
VERTEX
  5
3A9
  8
0
  6
CONTINUOUS
 62
     7
 10
310.3694633972
 20
277.290708856
 30
0.0
  0
VERTEX
  5
3AA
  8
0
  6
CONTINUOUS
 62
     7
 10
310.1536424291
 20
277.9070924085
 30
0.0
  0
VERTEX
  5
3AB
  8
0
  6
CONTINUOUS
 62
     7
 10
309.9301250112
 20
278.4903834623
 30
0.0
  0
VERTEX
  5
3AC
  8
0
  6
CONTINUOUS
 62
     7
 10
309.6931056511
 20
279.0492008489
 30
0.0
  0
VERTEX
  5
3AD
  8
0
  6
CONTINUOUS
 62
     7
 10
309.4333500993
 20
279.5917938512
 30
0.0
  0
VERTEX
  5
3AE
  8
0
  6
CONTINUOUS
 62
     7
 10
309.1262282264
 20
280.1402042669
 30
0.0
  0
VERTEX
  5
3AF
  8
0
  6
CONTINUOUS
 62
     7
 10
308.8744656575
 20
280.517215566
 30
0.0
  0
VERTEX
  5
3B0
  8
0
  6
CONTINUOUS
 62
     7
 10
308.6209566724
 20
280.8363030714
 30
0.0
  0
VERTEX
  5
3B1
  8
0
  6
CONTINUOUS
 62
     7
 10
308.3723442089
 20
281.097621755
 30
0.0
  0
VERTEX
  5
3B2
  8
0
  6
CONTINUOUS
 62
     7
 10
308.1036315691
 20
281.3312838834
 30
0.0
  0
VERTEX
  5
3B3
  8
0
  6
CONTINUOUS
 62
     7
 10
307.8091056478
 20
281.5380881589
 30
0.0
  0
VERTEX
  5
3B4
  8
0
  6
CONTINUOUS
 62
     7
 10
307.4843452704
 20
281.7154119771
 30
0.0
  0
VERTEX
  5
3B5
  8
0
  6
CONTINUOUS
 62
     7
 10
307.1296007764
 20
281.8566749853
 30
0.0
  0
VERTEX
  5
3B6
  8
0
  6
CONTINUOUS
 62
     7
 10
306.749685241
 20
281.9540689748
 30
0.0
  0
VERTEX
  5
3B7
  8
0
  6
CONTINUOUS
 62
     7
 10
306.3526452911
 20
282.0009659093
 30
0.0
  0
VERTEX
  5
3B8
  8
0
  6
CONTINUOUS
 62
     7
 10
305.9041710031
 20
281.9888542455
 30
0.0
  0
VERTEX
  5
3B9
  8
0
  6
CONTINUOUS
 62
     7
 10
305.8512122762
 20
281.9792817396
 30
0.0
  0
SEQEND
  5
66B
  8
0
  6
CONTINUOUS
 62
     7
  0
POLYLINE
  5
13C
  8
0
  6
CONTINUOUS
 62
     7
 66
     1
 10
0.0
 20
0.0
 30
0.0
  0
VERTEX
  5
3BA
  8
0
  6
CONTINUOUS
 62
     7
 10
314.3824571204
 20
212.5129292768
 30
0.0
  0
VERTEX
  5
3BB
  8
0
  6
CONTINUOUS
 62
     7
 10
314.6491439473
 20
212.5510643285
 30
0.0
  0
VERTEX
  5
3BC
  8
0
  6
CONTINUOUS
 62
     7
 10
315.0448256564
 20
212.6673529905
 30
0.0
  0
VERTEX
  5
3BD
  8
0
  6
CONTINUOUS
 62
     7
 10
315.406482054
 20
212.8302167219
 30
0.0
  0
VERTEX
  5
3BE
  8
0
  6
CONTINUOUS
 62
     7
 10
315.7305107844
 20
213.0303095144
 30
0.0
  0
VERTEX
  5
3BF
  8
0
  6
CONTINUOUS
 62
     7
 10
316.0154530239
 20
213.2584880155
 30
0.0
  0
VERTEX
  5
3C0
  8
0
  6
CONTINUOUS
 62
     7
 10
316.2623548341
 20
213.5068963331
 30
0.0
  0
VERTEX
  5
3C1
  8
0
  6
CONTINUOUS
 62
     7
 10
316.474951936
 20
213.770682649
 30
0.0
  0
VERTEX
  5
3C2
  8
0
  6
CONTINUOUS
 62
     7
 10
316.6592047942
 20
214.0497873586
 30
0.0
  0
VERTEX
  5
3C3
  8
0
  6
CONTINUOUS
 62
     7
 10
316.8225721848
 20
214.351088838
 30
0.0
  0
VERTEX
  5
3C4
  8
0
  6
CONTINUOUS
 62
     7
 10
316.9742265177
 20
214.694053964
 30
0.0
  0
VERTEX
  5
3C5
  8
0
  6
CONTINUOUS
 62
     7
 10
317.1183162761
 20
215.1000688833
 30
0.0
  0
VERTEX
  5
3C6
  8
0
  6
CONTINUOUS
 62
     7
 10
317.2657446396
 20
215.6336615842
 30
0.0
  0
VERTEX
  5
3C7
  8
0
  6
CONTINUOUS
 62
     7
 10
317.3908264768
 20
216.2278245252
 30
0.0
  0
VERTEX
  5
3C8
  8
0
  6
CONTINUOUS
 62
     7
 10
317.4864494634
 20
216.8188403409
 30
0.0
  0
VERTEX
  5
3C9
  8
0
  6
CONTINUOUS
 62
     7
 10
317.5694005024
 20
217.4894760412
 30
0.0
  0
VERTEX
  5
3CA
  8
0
  6
CONTINUOUS
 62
     7
 10
317.6326261294
 20
218.1764672559
 30
0.0
  0
VERTEX
  5
3CB
  8
0
  6
CONTINUOUS
 62
     7
 10
317.6794485581
 20
218.8877652448
 30
0.0
  0
VERTEX
  5
3CC
  8
0
  6
CONTINUOUS
 62
     7
 10
317.7104139161
 20
219.609255628
 30
0.0
  0
VERTEX
  5
3CD
  8
0
  6
CONTINUOUS
 62
     7
 10
317.7278579604
 20
220.3805635732
 30
0.0
  0
VERTEX
  5
3CE
  8
0
  6
CONTINUOUS
 62
     7
 10
317.7311481368
 20
221.1835811895
 30
0.0
  0
VERTEX
  5
3CF
  8
0
  6
CONTINUOUS
 62
     7
 10
317.7202986014
 20
222.0146845144
 30
0.0
  0
VERTEX
  5
3D0
  8
0
  6
CONTINUOUS
 62
     7
 10
317.6952616703
 20
222.8689263624
 30
0.0
  0
VERTEX
  5
3D1
  8
0
  6
CONTINUOUS
 62
     7
 10
317.6560261679
 20
223.7405608457
 30
0.0
  0
VERTEX
  5
3D2
  8
0
  6
CONTINUOUS
 62
     7
 10
317.6026621294
 20
224.6233652395
 30
0.0
  0
VERTEX
  5
3D3
  8
0
  6
CONTINUOUS
 62
     7
 10
317.535402013
 20
225.5107115072
 30
0.0
  0
VERTEX
  5
3D4
  8
0
  6
CONTINUOUS
 62
     7
 10
317.454324795
 20
226.4040659231
 30
0.0
  0
VERTEX
  5
3D5
  8
0
  6
CONTINUOUS
 62
     7
 10
317.3584320974
 20
227.3144315046
 30
0.0
  0
VERTEX
  5
3D6
  8
0
  6
CONTINUOUS
 62
     7
 10
317.279403789
 20
227.9742310804
 30
0.0
  0
SEQEND
  5
66A
  8
0
  6
CONTINUOUS
 62
     7
  0
LINE
  5
13D
  8
0
  6
CONTINUOUS
 62
     7
 10
317.2815190089
 20
227.9745648664
 30
0.0
 11
312.4067456853
 21
267.676420049
 31
0.0
  0
POLYLINE
  5
13E
  8
0
  6
CONTINUOUS
 62
     7
 66
     1
 10
0.0
 20
0.0
 30
0.0
  0
VERTEX
  5
3D7
  8
0
  6
CONTINUOUS
 62
     7
 10
311.9400666487
 20
227.3188541692
 30
0.0
  0
VERTEX
  5
3D8
  8
0
  6
CONTINUOUS
 62
     7
 10
312.0252178442
 20
226.5959213537
 30
0.0
  0
VERTEX
  5
3D9
  8
0
  6
CONTINUOUS
 62
     7
 10
312.1115939152
 20
225.7595489782
 30
0.0
  0
VERTEX
  5
3DA
  8
0
  6
CONTINUOUS
 62
     7
 10
312.1847422254
 20
224.9330113691
 30
0.0
  0
VERTEX
  5
3DB
  8
0
  6
CONTINUOUS
 62
     7
 10
312.2441531551
 20
224.1222928327
 30
0.0
  0
VERTEX
  5
3DC
  8
0
  6
CONTINUOUS
 62
     7
 10
312.2898967397
 20
223.3329485219
 30
0.0
  0
VERTEX
  5
3DD
  8
0
  6
CONTINUOUS
 62
     7
 10
312.3229847681
 20
222.5579570097
 30
0.0
  0
VERTEX
  5
3DE
  8
0
  6
CONTINUOUS
 62
     7
 10
312.3434902561
 20
221.8025158208
 30
0.0
  0
VERTEX
  5
3DF
  8
0
  6
CONTINUOUS
 62
     7
 10
312.3515070808
 20
221.0756371778
 30
0.0
  0
VERTEX
  5
3E0
  8
0
  6
CONTINUOUS
 62
     7
 10
312.3474301231
 20
220.3875969213
 30
0.0
  0
VERTEX
  5
3E1
  8
0
  6
CONTINUOUS
 62
     7
 10
312.3320253026
 20
219.7469661993
 30
0.0
  0
VERTEX
  5
3E2
  8
0
  6
CONTINUOUS
 62
     7
 10
312.306402756
 20
219.1617797178
 30
0.0
  0
VERTEX
  5
3E3
  8
0
  6
CONTINUOUS
 62
     7
 10
312.2720287573
 20
218.6350057882
 30
0.0
  0
VERTEX
  5
3E4
  8
0
  6
CONTINUOUS
 62
     7
 10
312.2289778125
 20
218.1487272542
 30
0.0
  0
VERTEX
  5
3E5
  8
0
  6
CONTINUOUS
 62
     7
 10
312.1801958811
 20
217.7246402067
 30
0.0
  0
VERTEX
  5
3E6
  8
0
  6
CONTINUOUS
 62
     7
 10
312.1280716193
 20
217.3661182683
 30
0.0
  0
VERTEX
  5
3E7
  8
0
  6
CONTINUOUS
 62
     7
 10
312.0761425626
 20
217.0790146154
 30
0.0
  0
VERTEX
  5
3E8
  8
0
  6
CONTINUOUS
 62
     7
 10
312.0341093671
 20
216.8884466451
 30
0.0
  0
VERTEX
  5
3E9
  8
0
  6
CONTINUOUS
 62
     7
 10
312.0006950033
 20
216.7618821424
 30
0.0
  0
VERTEX
  5
3EA
  8
0
  6
CONTINUOUS
 62
     7
 10
311.9799734485
 20
216.6957805913
 30
0.0
  0
VERTEX
  5
3EB
  8
0
  6
CONTINUOUS
 62
     7
 10
311.9770528209
 20
216.6875193876
 30
0.0
  0
SEQEND
  5
669
  8
0
  6
CONTINUOUS
 62
     7
  0
POLYLINE
  5
13F
  8
0
  6
CONTINUOUS
 62
     7
 66
     1
 10
0.0
 20
0.0
 30
0.0
  0
VERTEX
  5
3EC
  8
0
  6
CONTINUOUS
 62
     7
 10
304.5272873175
 20
277.3475597662
 30
0.0
  0
VERTEX
  5
3ED
  8
0
  6
CONTINUOUS
 62
     7
 10
304.5260117781
 20
277.3491571706
 30
0.0
  0
VERTEX
  5
3EE
  8
0
  6
CONTINUOUS
 62
     7
 10
304.5513586533
 20
277.308995561
 30
0.0
  0
VERTEX
  5
3EF
  8
0
  6
CONTINUOUS
 62
     7
 10
304.6033026111
 20
277.2179315847
 30
0.0
  0
VERTEX
  5
3F0
  8
0
  6
CONTINUOUS
 62
     7
 10
304.6802566778
 20
277.0690034193
 30
0.0
  0
VERTEX
  5
3F1
  8
0
  6
CONTINUOUS
 62
     7
 10
304.7800393236
 20
276.8568585676
 30
0.0
  0
VERTEX
  5
3F2
  8
0
  6
CONTINUOUS
 62
     7
 10
304.8997001183
 20
276.5786598485
 30
0.0
  0
VERTEX
  5
3F3
  8
0
  6
CONTINUOUS
 62
     7
 10
305.0356791746
 20
276.234443025
 30
0.0
  0
VERTEX
  5
3F4
  8
0
  6
CONTINUOUS
 62
     7
 10
305.1841051709
 20
275.8268068594
 30
0.0
  0
VERTEX
  5
3F5
  8
0
  6
CONTINUOUS
 62
     7
 10
305.3410963547
 20
275.3603885931
 30
0.0
  0
VERTEX
  5
3F6
  8
0
  6
CONTINUOUS
 62
     7
 10
305.5031032693
 20
274.8407910627
 30
0.0
  0
VERTEX
  5
3F7
  8
0
  6
CONTINUOUS
 62
     7
 10
305.6670383942
 20
274.274761514
 30
0.0
  0
VERTEX
  5
3F8
  8
0
  6
CONTINUOUS
 62
     7
 10
305.8334933054
 20
273.657114343
 30
0.0
  0
VERTEX
  5
3F9
  8
0
  6
CONTINUOUS
 62
     7
 10
306.0000108015
 20
272.9931424421
 30
0.0
  0
VERTEX
  5
3FA
  8
0
  6
CONTINUOUS
 62
     7
 10
306.1643780601
 20
272.2882340711
 30
0.0
  0
VERTEX
  5
3FB
  8
0
  6
CONTINUOUS
 62
     7
 10
306.32452829
 20
271.5480397504
 30
0.0
  0
VERTEX
  5
3FC
  8
0
  6
CONTINUOUS
 62
     7
 10
306.4785466921
 20
270.7784126562
 30
0.0
  0
VERTEX
  5
3FD
  8
0
  6
CONTINUOUS
 62
     7
 10
306.624657048
 20
269.9854920667
 30
0.0
  0
VERTEX
  5
3FE
  8
0
  6
CONTINUOUS
 62
     7
 10
306.7611263525
 20
269.1763828558
 30
0.0
  0
VERTEX
  5
3FF
  8
0
  6
CONTINUOUS
 62
     7
 10
306.8866582048
 20
268.3584998411
 30
0.0
  0
VERTEX
  5
400
  8
0
  6
CONTINUOUS
 62
     7
 10
307.0017726552
 20
267.5287435812
 30
0.0
  0
VERTEX
  5
401
  8
0
  6
CONTINUOUS
 62
     7
 10
307.064905895
 20
267.0204828542
 30
0.0
  0
SEQEND
  5
668
  8
0
  6
CONTINUOUS
 62
     7
  0
LINE
  5
140
  8
0
  6
CONTINUOUS
 62
     7
 10
307.0668475163
 20
267.0207570356
 30
0.0
 11
311.9416208398
 21
227.3189137739
 31
0.0
  0
LINE
  5
141
  8
0
  6
CONTINUOUS
 62
     7
 10
306.549444927
 20
270.3936646741
 30
0.0
 11
312.2560383212
 21
223.9171813291
 31
0.0
  0
ARC
  5
142
  8
0
  6
CONTINUOUS
 62
     7
 10
304.4723614257
 20
279.1046421499
 30
0.0
 40
2.690000000000038
 50
97.0
 51
165.4352045702
  0
ARC
  5
143
  8
0
  6
CONTINUOUS
 62
     7
 10
304.4723614257
 20
279.1046421499
 30
0.0
 40
2.690000000000005
 50
208.5742842993
 51
277.0
  0
ARC
  5
144
  8
0
  6
CONTINUOUS
 62
     7
 10
312.3475583965
 20
214.9663098309
 30
0.0
 40
2.689999999999995
 50
97.0
 51
165.4352045702
  0
ARC
  5
145
  8
0
  6
CONTINUOUS
 62
     7
 10
312.3475583965
 20
214.9663098309
 30
0.0
 40
2.690000000000055
 50
208.5742842993
 51
277.0
  0
LINE
  5
146
  8
0
  6
CONTINUOUS
 62
     7
 10
301.5689389241
 20
277.7406404775
 30
0.0
 11
302.1115080845
 21
277.8072546285
 31
0.0
  0
LINE
  5
147
  8
0
  6
CONTINUOUS
 62
     7
 10
301.8677697909
 20
279.79235156
 30
0.0
 11
301.3252006304
 21
279.725725488
 31
0.0
  0
LINE
  5
148
  8
0
  6
CONTINUOUS
 62
     7
 10
309.4441355598
 20
213.6022995275
 30
0.0
 11
309.9867062104
 21
213.6689255994
 31
0.0
  0
LINE
  5
149
  8
0
  6
CONTINUOUS
 62
     7
 10
309.7429664266
 20
215.65401061
 30
0.0
 11
309.2003972661
 21
215.587396459
 31
0.0
  0
POLYLINE
  5
14A
  8
0
  6
CONTINUOUS
 62
     7
 66
     1
 10
0.0
 20
0.0
 30
0.0
  0
VERTEX
  5
402
  8
0
  6
CONTINUOUS
 62
     7
 10
405.8621497285
 20
184.6266101163
 30
0.0
  0
VERTEX
  5
403
  8
0
  6
CONTINUOUS
 62
     7
 10
405.856791271
 20
184.8959575456
 30
0.0
  0
VERTEX
  5
404
  8
0
  6
CONTINUOUS
 62
     7
 10
405.7895929944
 20
185.3028605741
 30
0.0
  0
VERTEX
  5
405
  8
0
  6
CONTINUOUS
 62
     7
 10
405.6720168722
 20
185.6816719335
 30
0.0
  0
VERTEX
  5
406
  8
0
  6
CONTINUOUS
 62
     7
 10
405.5129141939
 20
186.027670936
 30
0.0
  0
VERTEX
  5
407
  8
0
  6
CONTINUOUS
 62
     7
 10
405.3211600911
 20
186.3382945817
 30
0.0
  0
VERTEX
  5
408
  8
0
  6
CONTINUOUS
 62
     7
 10
405.1046879422
 20
186.6136322778
 30
0.0
  0
VERTEX
  5
409
  8
0
  6
CONTINUOUS
 62
     7
 10
404.8687787187
 20
186.8567894262
 30
0.0
  0
VERTEX
  5
40A
  8
0
  6
CONTINUOUS
 62
     7
 10
404.6142132413
 20
187.0736847681
 30
0.0
  0
VERTEX
  5
40B
  8
0
  6
CONTINUOUS
 62
     7
 10
404.3350727689
 20
187.2725497049
 30
0.0
  0
VERTEX
  5
40C
  8
0
  6
CONTINUOUS
 62
     7
 10
404.013142122
 20
187.4648760122
 30
0.0
  0
VERTEX
  5
40D
  8
0
  6
CONTINUOUS
 62
     7
 10
403.6277086866
 20
187.6573692125
 30
0.0
  0
VERTEX
  5
40E
  8
0
  6
CONTINUOUS
 62
     7
 10
403.1160624158
 20
187.8687272829
 30
0.0
  0
VERTEX
  5
40F
  8
0
  6
CONTINUOUS
 62
     7
 10
402.5415749681
 20
188.0652855199
 30
0.0
  0
VERTEX
  5
410
  8
0
  6
CONTINUOUS
 62
     7
 10
401.9666166437
 20
188.232226209
 30
0.0
  0
VERTEX
  5
411
  8
0
  6
CONTINUOUS
 62
     7
 10
401.3110847604
 20
188.3962879938
 30
0.0
  0
VERTEX
  5
412
  8
0
  6
CONTINUOUS
 62
     7
 10
400.6369264257
 20
188.5427664083
 30
0.0
  0
VERTEX
  5
413
  8
0
  6
CONTINUOUS
 62
     7
 10
399.9366314542
 20
188.6759231847
 30
0.0
  0
VERTEX
  5
414
  8
0
  6
CONTINUOUS
 62
     7
 10
399.224290384
 20
188.7945841115
 30
0.0
  0
VERTEX
  5
415
  8
0
  6
CONTINUOUS
 62
     7
 10
398.4608562124
 20
188.9059017461
 30
0.0
  0
VERTEX
  5
416
  8
0
  6
CONTINUOUS
 62
     7
 10
397.6642341745
 20
189.0070269865
 30
0.0
  0
VERTEX
  5
417
  8
0
  6
CONTINUOUS
 62
     7
 10
396.8380005491
 20
189.0975426
 30
0.0
  0
VERTEX
  5
418
  8
0
  6
CONTINUOUS
 62
     7
 10
395.9870667589
 20
189.1767988962
 30
0.0
  0
VERTEX
  5
419
  8
0
  6
CONTINUOUS
 62
     7
 10
395.1171608102
 20
189.2440806192
 30
0.0
  0
VERTEX
  5
41A
  8
0
  6
CONTINUOUS
 62
     7
 10
394.2344219816
 20
189.2987023157
 30
0.0
  0
VERTEX
  5
41B
  8
0
  6
CONTINUOUS
 62
     7
 10
393.3455021512
 20
189.3400858205
 30
0.0
  0
VERTEX
  5
41C
  8
0
  6
CONTINUOUS
 62
     7
 10
392.4489231241
 20
189.3684874338
 30
0.0
  0
VERTEX
  5
41D
  8
0
  6
CONTINUOUS
 62
     7
 10
391.5336520803
 20
189.3842528623
 30
0.0
  0
VERTEX
  5
41E
  8
0
  6
CONTINUOUS
 62
     7
 10
390.8691377771
 20
189.3862257761
 30
0.0
  0
SEQEND
  5
667
  8
0
  6
CONTINUOUS
 62
     7
  0
ARC
  5
14B
  8
0
  6
CONTINUOUS
 62
     7
 10
350.4657743206
 20
136.086361308
 30
0.0
 40
53.30199134572563
 50
89.5666054273
 51
98.8213361357
  0
LINE
  5
14C
  8
0
  6
CONTINUOUS
 62
     7
 10
390.8690662515
 20
189.3883655828
 30
0.0
 11
350.8690626752
 21
189.3883655828
 31
0.0
  0
POLYLINE
  5
14D
  8
0
  6
CONTINUOUS
 62
     7
 66
     1
 10
0.0
 20
0.0
 30
0.0
  0
VERTEX
  5
41F
  8
0
  6
CONTINUOUS
 62
     7
 10
390.8689351213
 20
184.0068112176
 30
0.0
  0
VERTEX
  5
420
  8
0
  6
CONTINUOUS
 62
     7
 10
391.5968568456
 20
184.0032289785
 30
0.0
  0
VERTEX
  5
421
  8
0
  6
CONTINUOUS
 62
     7
 10
392.437526716
 20
183.987028436
 30
0.0
  0
VERTEX
  5
422
  8
0
  6
CONTINUOUS
 62
     7
 10
393.2668120992
 20
183.9589069646
 30
0.0
  0
VERTEX
  5
423
  8
0
  6
CONTINUOUS
 62
     7
 10
394.0787286889
 20
183.9190672201
 30
0.0
  0
VERTEX
  5
424
  8
0
  6
CONTINUOUS
 62
     7
 10
394.8677570951
 20
183.8682781023
 30
0.0
  0
VERTEX
  5
425
  8
0
  6
CONTINUOUS
 62
     7
 10
395.6410021913
 20
183.8066707414
 30
0.0
  0
VERTEX
  5
426
  8
0
  6
CONTINUOUS
 62
     7
 10
396.3933200967
 20
183.7349603933
 30
0.0
  0
VERTEX
  5
427
  8
0
  6
CONTINUOUS
 62
     7
 10
397.1157581937
 20
183.6543331903
 30
0.0
  0
VERTEX
  5
428
  8
0
  6
CONTINUOUS
 62
     7
 10
397.7981777322
 20
183.5664342206
 30
0.0
  0
VERTEX
  5
429
  8
0
  6
CONTINUOUS
 62
     7
 10
398.432144655
 20
183.4730695051
 30
0.0
  0
VERTEX
  5
42A
  8
0
  6
CONTINUOUS
 62
     7
 10
399.0098507535
 20
183.3763252061
 30
0.0
  0
VERTEX
  5
42B
  8
0
  6
CONTINUOUS
 62
     7
 10
399.528512491
 20
183.2780073446
 30
0.0
  0
VERTEX
  5
42C
  8
0
  6
CONTINUOUS
 62
     7
 10
400.0059099328
 20
183.1760178369
 30
0.0
  0
VERTEX
  5
42D
  8
0
  6
CONTINUOUS
 62
     7
 10
400.4208953512
 20
183.075911836
 30
0.0
  0
VERTEX
  5
42E
  8
0
  6
CONTINUOUS
 62
     7
 10
400.7703931463
 20
182.9804847997
 30
0.0
  0
VERTEX
  5
42F
  8
0
  6
CONTINUOUS
 62
     7
 10
401.0490329397
 20
182.8939507764
 30
0.0
  0
VERTEX
  5
430
  8
0
  6
CONTINUOUS
 62
     7
 10
401.2330563199
 20
182.829011516
 30
0.0
  0
VERTEX
  5
431
  8
0
  6
CONTINUOUS
 62
     7
 10
401.3546021116
 20
182.7804218095
 30
0.0
  0
VERTEX
  5
432
  8
0
  6
CONTINUOUS
 62
     7
 10
401.4176817071
 20
182.7517936986
 30
0.0
  0
VERTEX
  5
433
  8
0
  6
CONTINUOUS
 62
     7
 10
401.4255316388
 20
182.7478895944
 30
0.0
  0
SEQEND
  5
666
  8
0
  6
CONTINUOUS
 62
     7
  0
LINE
  5
14E
  8
0
  6
CONTINUOUS
 62
     7
 10
361.8690641057
 20
184.0083609384
 30
0.0
 11
390.8690662515
 21
184.0083609384
 31
0.0
  0
LINE
  5
14F
  8
0
  6
CONTINUOUS
 62
     7
 10
361.8690641057
 20
183.9058707517
 30
0.0
 11
394.2837507856
 21
183.9058707517
 31
0.0
  0
ARC
  5
150
  8
0
  6
CONTINUOUS
 62
     7
 10
403.1790639627
 20
182.9058717724
 30
0.0
 40
2.690000000000111
 50
180.0
 51
270.0
  0
ARC
  5
151
  8
0
  6
CONTINUOUS
 62
     7
 10
403.1790639627
 20
182.9058717724
 30
0.0
 40
2.690000000000055
 50
270.0
 51
0.0
  0
POLYLINE
  5
152
  8
0
  6
CONTINUOUS
 62
     7
 66
     1
 10
0.0
 20
0.0
 30
0.0
  0
VERTEX
  5
434
  8
0
  6
CONTINUOUS
 62
     7
 10
305.8495612275
 20
281.9839428228
 30
0.0
  0
VERTEX
  5
435
  8
0
  6
CONTINUOUS
 62
     7
 10
305.3977192771
 20
281.9284628194
 30
0.0
  0
VERTEX
  5
436
  8
0
  6
CONTINUOUS
 62
     7
 10
305.0151021612
 20
281.8814824384
 30
0.0
  0
VERTEX
  5
437
  8
0
  6
CONTINUOUS
 62
     7
 10
304.701855911
 20
281.8430255216
 30
0.0
  0
VERTEX
  5
438
  8
0
  6
CONTINUOUS
 62
     7
 10
304.4580952656
 20
281.813092069
 30
0.0
  0
VERTEX
  5
439
  8
0
  6
CONTINUOUS
 62
     7
 10
304.2839155924
 20
281.7917059225
 30
0.0
  0
VERTEX
  5
43A
  8
0
  6
CONTINUOUS
 62
     7
 10
304.1793824565
 20
281.778867082
 30
0.0
  0
VERTEX
  5
43B
  8
0
  6
CONTINUOUS
 62
     7
 10
304.1445331108
 20
281.7745874685
 30
0.0
  0
SEQEND
  5
665
  8
0
  6
CONTINUOUS
 62
     7
  0
ARC
  5
153
  8
0
  6
CONTINUOUS
 62
     7
 10
304.4964169451
 20
279.109980136
 30
0.0
 40
2.711877846173607
 50
165.6589414935
 51
187.0498969927
  0
POLYLINE
  5
154
  8
0
  6
CONTINUOUS
 62
     7
 66
     1
 10
0.0
 20
0.0
 30
0.0
  0
VERTEX
  5
43C
  8
0
  6
CONTINUOUS
 62
     7
 10
304.8001901638
 20
276.4346907896
 30
0.0
  0
VERTEX
  5
43D
  8
0
  6
CONTINUOUS
 62
     7
 10
304.8350395095
 20
276.4389704031
 30
0.0
  0
VERTEX
  5
43E
  8
0
  6
CONTINUOUS
 62
     7
 10
304.915583266
 20
276.4488647741
 30
0.0
  0
SEQEND
  5
664
  8
0
  6
CONTINUOUS
 62
     7
  0
POLYLINE
  5
155
  8
0
  6
CONTINUOUS
 62
     7
 66
     1
 10
0.0
 20
0.0
 30
0.0
  0
VERTEX
  5
43F
  8
0
  6
CONTINUOUS
 62
     7
 10
302.1101729405
 20
277.8178880971
 30
0.0
  0
VERTEX
  5
440
  8
0
  6
CONTINUOUS
 62
     7
 10
302.113720907
 20
277.8112719816
 30
0.0
  0
VERTEX
  5
441
  8
0
  6
CONTINUOUS
 62
     7
 10
302.0763309133
 20
277.8827141088
 30
0.0
  0
VERTEX
  5
442
  8
0
  6
CONTINUOUS
 62
     7
 10
302.002167834
 20
278.042418794
 30
0.0
  0
VERTEX
  5
443
  8
0
  6
CONTINUOUS
 62
     7
 10
301.9098163974
 20
278.292937116
 30
0.0
  0
VERTEX
  5
444
  8
0
  6
CONTINUOUS
 62
     7
 10
301.8310399186
 20
278.6089490217
 30
0.0
  0
VERTEX
  5
445
  8
0
  6
CONTINUOUS
 62
     7
 10
301.8050418627
 20
278.7771414083
 30
0.0
  0
SEQEND
  5
663
  8
0
  6
CONTINUOUS
 62
     7
  0
POLYLINE
  5
156
  8
0
  6
CONTINUOUS
 62
     7
 66
     1
 10
0.0
 20
0.0
 30
0.0
  0
VERTEX
  5
446
  8
0
  6
CONTINUOUS
 62
     7
 10
312.1364177596
 20
217.650587396
 30
0.0
  0
VERTEX
  5
447
  8
0
  6
CONTINUOUS
 62
     7
 10
312.0545790922
 20
217.6405380529
 30
0.0
  0
VERTEX
  5
448
  8
0
  6
CONTINUOUS
 62
     7
 10
312.0197297466
 20
217.6362584394
 30
0.0
  0
SEQEND
  5
662
  8
0
  6
CONTINUOUS
 62
     7
  0
ARC
  5
157
  8
0
  6
CONTINUOUS
 62
     7
 10
312.37267864
 20
214.9715832932
 30
0.0
 40
2.712926520730316
 50
165.6631254354
 51
187.0459686315
  0
POLYLINE
  5
158
  8
0
  6
CONTINUOUS
 62
     7
 66
     1
 10
0.0
 20
0.0
 30
0.0
  0
VERTEX
  5
449
  8
0
  6
CONTINUOUS
 62
     7
 10
312.6753867996
 20
212.2963617605
 30
0.0
  0
VERTEX
  5
44A
  8
0
  6
CONTINUOUS
 62
     7
 10
312.7102361452
 20
212.300641374
 30
0.0
  0
VERTEX
  5
44B
  8
0
  6
CONTINUOUS
 62
     7
 10
312.8147707712
 20
212.3134802145
 30
0.0
  0
VERTEX
  5
44C
  8
0
  6
CONTINUOUS
 62
     7
 10
312.9889504444
 20
212.334866361
 30
0.0
  0
VERTEX
  5
44D
  8
0
  6
CONTINUOUS
 62
     7
 10
313.2327095997
 20
212.3647878927
 30
0.0
  0
VERTEX
  5
44E
  8
0
  6
CONTINUOUS
 62
     7
 10
313.5459565949
 20
212.4032567304
 30
0.0
  0
VERTEX
  5
44F
  8
0
  6
CONTINUOUS
 62
     7
 10
313.9285729658
 20
212.4502371114
 30
0.0
  0
VERTEX
  5
450
  8
0
  6
CONTINUOUS
 62
     7
 10
314.3804149163
 20
212.5057171148
 30
0.0
  0
SEQEND
  5
661
  8
0
  6
CONTINUOUS
 62
     7
  0
POLYLINE
  5
159
  8
0
  6
CONTINUOUS
 62
     7
 66
     1
 10
0.0
 20
0.0
 30
0.0
  0
VERTEX
  5
451
  8
0
  6
CONTINUOUS
 62
     7
 10
309.9853710663
 20
213.6795590681
 30
0.0
  0
VERTEX
  5
452
  8
0
  6
CONTINUOUS
 62
     7
 10
309.9889175427
 20
213.6729310316
 30
0.0
  0
VERTEX
  5
453
  8
0
  6
CONTINUOUS
 62
     7
 10
309.951527549
 20
213.7443850797
 30
0.0
  0
VERTEX
  5
454
  8
0
  6
CONTINUOUS
 62
     7
 10
309.8773659599
 20
213.9040897649
 30
0.0
  0
VERTEX
  5
455
  8
0
  6
CONTINUOUS
 62
     7
 10
309.7850130331
 20
214.1546080869
 30
0.0
  0
VERTEX
  5
456
  8
0
  6
CONTINUOUS
 62
     7
 10
309.7062365544
 20
214.4706199926
 30
0.0
  0
VERTEX
  5
457
  8
0
  6
CONTINUOUS
 62
     7
 10
309.6802399885
 20
214.6388004583
 30
0.0
  0
SEQEND
  5
660
  8
0
  6
CONTINUOUS
 62
     7
  0
LINE
  5
15A
  8
0
  6
CONTINUOUS
 62
     7
 10
314.3804149163
 20
212.5057171148
 30
0.0
 11
314.4282595646
 21
212.5120352071
 31
0.0
  0
LINE
  5
15B
  8
0
  6
CONTINUOUS
 62
     7
 10
303.6095098984
 20
211.8884633344
 30
0.0
 11
295.2492715251
 21
279.9771378797
 31
0.0
  0
POLYLINE
  5
15C
  8
0
  6
CONTINUOUS
 62
     7
 66
     1
 10
0.0
 20
0.0
 30
0.0
  0
VERTEX
  5
458
  8
0
  6
CONTINUOUS
 62
     7
 10
304.6020553839
 20
212.0103429121
 30
0.0
  0
VERTEX
  5
459
  8
0
  6
CONTINUOUS
 62
     7
 10
304.4084192645
 20
211.9865606588
 30
0.0
  0
VERTEX
  5
45A
  8
0
  6
CONTINUOUS
 62
     7
 10
304.2222247851
 20
211.9636963171
 30
0.0
  0
VERTEX
  5
45B
  8
0
  6
CONTINUOUS
 62
     7
 10
304.050625993
 20
211.9426320356
 30
0.0
  0
VERTEX
  5
45C
  8
0
  6
CONTINUOUS
 62
     7
 10
303.9002196324
 20
211.9241665166
 30
0.0
  0
VERTEX
  5
45D
  8
0
  6
CONTINUOUS
 62
     7
 10
303.7767843735
 20
211.909003095
 30
0.0
  0
VERTEX
  5
45E
  8
0
  6
CONTINUOUS
 62
     7
 10
303.685063256
 20
211.8977497381
 30
0.0
  0
VERTEX
  5
45F
  8
0
  6
CONTINUOUS
 62
     7
 10
303.6285804045
 20
211.8908117574
 30
0.0
  0
VERTEX
  5
460
  8
0
  6
CONTINUOUS
 62
     7
 10
303.6095098984
 20
211.8884633344
 30
0.0
  0
SEQEND
  5
65F
  8
0
  6
CONTINUOUS
 62
     7
  0
POLYLINE
  5
15D
  8
0
  6
CONTINUOUS
 62
     7
 66
     1
 10
0.0
 20
0.0
 30
0.0
  0
VERTEX
  5
461
  8
0
  6
CONTINUOUS
 62
     7
 10
295.2492715251
 20
279.9771378797
 30
0.0
  0
VERTEX
  5
462
  8
0
  6
CONTINUOUS
 62
     7
 10
295.2683450115
 20
279.9794743818
 30
0.0
  0
VERTEX
  5
463
  8
0
  6
CONTINUOUS
 62
     7
 10
295.3248263728
 20
279.9864123624
 30
0.0
  0
VERTEX
  5
464
  8
0
  6
CONTINUOUS
 62
     7
 10
295.4165460002
 20
279.9976776403
 30
0.0
  0
VERTEX
  5
465
  8
0
  6
CONTINUOUS
 62
     7
 10
295.5399812591
 20
280.012829141
 30
0.0
  0
VERTEX
  5
466
  8
0
  6
CONTINUOUS
 62
     7
 10
295.6903905999
 20
280.0312946599
 30
0.0
  0
VERTEX
  5
467
  8
0
  6
CONTINUOUS
 62
     7
 10
295.8619864118
 20
280.0523708623
 30
0.0
  0
VERTEX
  5
468
  8
0
  6
CONTINUOUS
 62
     7
 10
296.0481823814
 20
280.0752232831
 30
0.0
  0
VERTEX
  5
469
  8
0
  6
CONTINUOUS
 62
     7
 10
296.2418199909
 20
280.0990055364
 30
0.0
  0
SEQEND
  5
65E
  8
0
  6
CONTINUOUS
 62
     7
  0
LINE
  5
15E
  8
0
  6
CONTINUOUS
 62
     7
 10
308.5722403061
 20
212.4978135389
 30
0.0
 11
304.6020553839
 21
212.0103429121
 31
0.0
  0
LINE
  5
15F
  8
0
  6
CONTINUOUS
 62
     7
 10
300.2120019328
 20
280.5864761632
 30
0.0
 11
296.2418199909
 21
280.0990055364
 31
0.0
  0
LINE
  5
160
  8
0
  6
CONTINUOUS
 62
     7
 10
301.2045489085
 20
280.7083557409
 30
0.0
 11
309.5647857916
 21
212.6196811956
 31
0.0
  0
POLYLINE
  5
161
  8
0
  6
CONTINUOUS
 62
     7
 66
     1
 10
0.0
 20
0.0
 30
0.0
  0
VERTEX
  5
46A
  8
0
  6
CONTINUOUS
 62
     7
 10
309.5647857916
 20
212.6196811956
 30
0.0
  0
VERTEX
  5
46B
  8
0
  6
CONTINUOUS
 62
     7
 10
309.5457152855
 20
212.6173446935
 30
0.0
  0
VERTEX
  5
46C
  8
0
  6
CONTINUOUS
 62
     7
 10
309.4892339241
 20
212.6104067129
 30
0.0
  0
VERTEX
  5
46D
  8
0
  6
CONTINUOUS
 62
     7
 10
309.3975128066
 20
212.599141435
 30
0.0
  0
VERTEX
  5
46E
  8
0
  6
CONTINUOUS
 62
     7
 10
309.2740760577
 20
212.5839899343
 30
0.0
  0
VERTEX
  5
46F
  8
0
  6
CONTINUOUS
 62
     7
 10
309.123669697
 20
212.5655244154
 30
0.0
  0
VERTEX
  5
470
  8
0
  6
CONTINUOUS
 62
     7
 10
308.952070905
 20
212.544448213
 30
0.0
  0
VERTEX
  5
471
  8
0
  6
CONTINUOUS
 62
     7
 10
308.7658764255
 20
212.5215957922
 30
0.0
  0
VERTEX
  5
472
  8
0
  6
CONTINUOUS
 62
     7
 10
308.5722403061
 20
212.4978135389
 30
0.0
  0
SEQEND
  5
65D
  8
0
  6
CONTINUOUS
 62
     7
  0
POLYLINE
  5
162
  8
0
  6
CONTINUOUS
 62
     7
 66
     1
 10
0.0
 20
0.0
 30
0.0
  0
VERTEX
  5
473
  8
0
  6
CONTINUOUS
 62
     7
 10
300.2120019328
 20
280.5864761632
 30
0.0
  0
VERTEX
  5
474
  8
0
  6
CONTINUOUS
 62
     7
 10
300.4056395423
 20
280.6102584165
 30
0.0
  0
VERTEX
  5
475
  8
0
  6
CONTINUOUS
 62
     7
 10
300.5918355119
 20
280.6331227582
 30
0.0
  0
VERTEX
  5
476
  8
0
  6
CONTINUOUS
 62
     7
 10
300.7634313237
 20
280.6541870397
 30
0.0
  0
VERTEX
  5
477
  8
0
  6
CONTINUOUS
 62
     7
 10
300.9138391745
 20
280.6726525587
 30
0.0
  0
VERTEX
  5
478
  8
0
  6
CONTINUOUS
 62
     7
 10
301.0372759235
 20
280.6878159803
 30
0.0
  0
VERTEX
  5
479
  8
0
  6
CONTINUOUS
 62
     7
 10
301.128997041
 20
280.6990693372
 30
0.0
  0
VERTEX
  5
47A
  8
0
  6
CONTINUOUS
 62
     7
 10
301.1854784024
 20
280.7060073179
 30
0.0
  0
VERTEX
  5
47B
  8
0
  6
CONTINUOUS
 62
     7
 10
301.2045489085
 20
280.7083557409
 30
0.0
  0
SEQEND
  5
65C
  8
0
  6
CONTINUOUS
 62
     7
  0
LINE
  5
163
  8
0
  6
CONTINUOUS
 62
     7
 10
304.3835447562
 20
205.5844615263
 30
0.0
 11
303.6095098984
 21
211.8884633344
 31
0.0
  0
POLYLINE
  5
164
  8
0
  6
CONTINUOUS
 62
     7
 66
     1
 10
0.0
 20
0.0
 30
0.0
  0
VERTEX
  5
47C
  8
0
  6
CONTINUOUS
 62
     7
 10
304.6020553839
 20
212.0103429121
 30
0.0
  0
VERTEX
  5
47D
  8
0
  6
CONTINUOUS
 62
     7
 10
304.4084192645
 20
211.9865606588
 30
0.0
  0
VERTEX
  5
47E
  8
0
  6
CONTINUOUS
 62
     7
 10
304.2222247851
 20
211.9636963171
 30
0.0
  0
VERTEX
  5
47F
  8
0
  6
CONTINUOUS
 62
     7
 10
304.050625993
 20
211.9426320356
 30
0.0
  0
VERTEX
  5
480
  8
0
  6
CONTINUOUS
 62
     7
 10
303.9002196324
 20
211.9241665166
 30
0.0
  0
VERTEX
  5
481
  8
0
  6
CONTINUOUS
 62
     7
 10
303.7767843735
 20
211.909003095
 30
0.0
  0
VERTEX
  5
482
  8
0
  6
CONTINUOUS
 62
     7
 10
303.685063256
 20
211.8977497381
 30
0.0
  0
VERTEX
  5
483
  8
0
  6
CONTINUOUS
 62
     7
 10
303.6285804045
 20
211.8908117574
 30
0.0
  0
VERTEX
  5
484
  8
0
  6
CONTINUOUS
 62
     7
 10
303.6095098984
 20
211.8884633344
 30
0.0
  0
SEQEND
  5
65B
  8
0
  6
CONTINUOUS
 62
     7
  0
ARC
  5
165
  8
0
  6
CONTINUOUS
 62
     7
 10
323.2419209459
 20
207.8999806506
 30
0.0
 40
19.00000000000005
 50
187.0
 51
203.0
  0
LINE
  5
166
  8
0
  6
CONTINUOUS
 62
     7
 10
319.1690639984
 20
161.2578581136
 30
0.0
 11
315.1690640879
 21
161.2578581136
 31
0.0
  0
LINE
  5
167
  8
0
  6
CONTINUOUS
 62
     7
 10
305.7523281705
 20
200.4760931295
 30
0.0
 11
313.1356270444
 21
183.0821286005
 31
0.0
  0
LINE
  5
168
  8
0
  6
CONTINUOUS
 62
     7
 10
310.3388206494
 20
206.3156793874
 30
0.0
 11
309.5647857916
 21
212.6196811956
 31
0.0
  0
POLYLINE
  5
169
  8
0
  6
CONTINUOUS
 62
     7
 66
     1
 10
0.0
 20
0.0
 30
0.0
  0
VERTEX
  5
485
  8
0
  6
CONTINUOUS
 62
     7
 10
309.5647857916
 20
212.6196811956
 30
0.0
  0
VERTEX
  5
486
  8
0
  6
CONTINUOUS
 62
     7
 10
309.5457152855
 20
212.6173446935
 30
0.0
  0
VERTEX
  5
487
  8
0
  6
CONTINUOUS
 62
     7
 10
309.4892339241
 20
212.6104067129
 30
0.0
  0
VERTEX
  5
488
  8
0
  6
CONTINUOUS
 62
     7
 10
309.3975128066
 20
212.599141435
 30
0.0
  0
VERTEX
  5
489
  8
0
  6
CONTINUOUS
 62
     7
 10
309.2740760577
 20
212.5839899343
 30
0.0
  0
VERTEX
  5
48A
  8
0
  6
CONTINUOUS
 62
     7
 10
309.123669697
 20
212.5655244154
 30
0.0
  0
VERTEX
  5
48B
  8
0
  6
CONTINUOUS
 62
     7
 10
308.952070905
 20
212.544448213
 30
0.0
  0
VERTEX
  5
48C
  8
0
  6
CONTINUOUS
 62
     7
 10
308.7658764255
 20
212.5215957922
 30
0.0
  0
VERTEX
  5
48D
  8
0
  6
CONTINUOUS
 62
     7
 10
308.5722403061
 20
212.4978135389
 30
0.0
  0
SEQEND
  5
65A
  8
0
  6
CONTINUOUS
 62
     7
  0
ARC
  5
16A
  8
0
  6
CONTINUOUS
 62
     7
 10
323.2419209459
 20
207.8999806506
 30
0.0
 40
13.00000000000003
 50
187.0
 51
203.0
  0
LINE
  5
16B
  8
0
  6
CONTINUOUS
 62
     7
 10
311.2753571403
 20
202.8204749387
 30
0.0
 11
318.6586560142
 21
185.4265163702
 31
0.0
  0
LINE
  5
16C
  8
0
  6
CONTINUOUS
 62
     7
 10
314.1690642965
 20
178.0026207727
 30
0.0
 11
314.1690642965
 21
161.2578581136
 31
0.0
  0
LINE
  5
16D
  8
0
  6
CONTINUOUS
 62
     7
 10
315.1690640879
 20
161.2578581136
 30
0.0
 11
314.1690642965
 21
161.2578581136
 31
0.0
  0
ARC
  5
16E
  8
0
  6
CONTINUOUS
 62
     7
 10
301.1690639627
 20
178.002623707
 30
0.0
 40
13.00000000000007
 50
0.0
 51
23.0
  0
LINE
  5
16F
  8
0
  6
CONTINUOUS
 62
     7
 10
319.9690641296
 20
161.2578581136
 30
0.0
 11
319.1690639984
 21
161.2578581136
 31
0.0
  0
POLYLINE
  5
170
  8
0
  6
CONTINUOUS
 62
     7
 66
     1
 10
0.0
 20
0.0
 30
0.0
  0
VERTEX
  5
48E
  8
0
  6
CONTINUOUS
 62
     7
 10
318.6586560142
 20
185.4265163702
 30
0.0
  0
VERTEX
  5
48F
  8
0
  6
CONTINUOUS
 62
     7
 10
319.0090039205
 20
184.5399449628
 30
0.0
  0
VERTEX
  5
490
  8
0
  6
CONTINUOUS
 62
     7
 10
319.2446128857
 20
183.8570664686
 30
0.0
  0
SEQEND
  5
659
  8
0
  6
CONTINUOUS
 62
     7
  0
POLYLINE
  5
171
  8
0
  6
CONTINUOUS
 62
     7
 66
     1
 10
0.0
 20
0.0
 30
0.0
  0
VERTEX
  5
491
  8
0
  6
CONTINUOUS
 62
     7
 10
342.8199694884
 20
186.8099520963
 30
0.0
  0
VERTEX
  5
492
  8
0
  6
CONTINUOUS
 62
     7
 10
342.9899366033
 20
187.1744225782
 30
0.0
  0
VERTEX
  5
493
  8
0
  6
CONTINUOUS
 62
     7
 10
343.237461282
 20
187.5126670164
 30
0.0
  0
VERTEX
  5
494
  8
0
  6
CONTINUOUS
 62
     7
 10
343.6294735801
 20
187.8856848043
 30
0.0
  0
VERTEX
  5
495
  8
0
  6
CONTINUOUS
 62
     7
 10
344.0870882404
 20
188.2014761728
 30
0.0
  0
VERTEX
  5
496
  8
0
  6
CONTINUOUS
 62
     7
 10
344.7019414437
 20
188.5138104719
 30
0.0
  0
VERTEX
  5
497
  8
0
  6
CONTINUOUS
 62
     7
 10
345.357538892
 20
188.7578616899
 30
0.0
  0
SEQEND
  5
658
  8
0
  6
CONTINUOUS
 62
     7
  0
POLYLINE
  5
172
  8
0
  6
CONTINUOUS
 62
     7
 66
     1
 10
0.0
 20
0.0
 30
0.0
  0
VERTEX
  5
498
  8
0
  6
CONTINUOUS
 62
     7
 10
348.6025230419
 20
184.020430879
 30
0.0
  0
VERTEX
  5
499
  8
0
  6
CONTINUOUS
 62
     7
 10
346.5711311829
 20
184.0771983427
 30
0.0
  0
VERTEX
  5
49A
  8
0
  6
CONTINUOUS
 62
     7
 10
345.4802752864
 20
184.2053304475
 30
0.0
  0
VERTEX
  5
49B
  8
0
  6
CONTINUOUS
 62
     7
 10
344.420308007
 20
184.4785760206
 30
0.0
  0
VERTEX
  5
49C
  8
0
  6
CONTINUOUS
 62
     7
 10
343.7290356886
 20
184.8022530836
 30
0.0
  0
VERTEX
  5
49D
  8
0
  6
CONTINUOUS
 62
     7
 10
343.4133292568
 20
185.0236783784
 30
0.0
  0
VERTEX
  5
49E
  8
0
  6
CONTINUOUS
 62
     7
 10
343.1364925039
 20
185.2910886568
 30
0.0
  0
VERTEX
  5
49F
  8
0
  6
CONTINUOUS
 62
     7
 10
342.8474859726
 20
185.7535014909
 30
0.0
  0
VERTEX
  5
4A0
  8
0
  6
CONTINUOUS
 62
     7
 10
342.7358271015
 20
186.2905274194
 30
0.0
  0
VERTEX
  5
4A1
  8
0
  6
CONTINUOUS
 62
     7
 10
342.8199694884
 20
186.8099520963
 30
0.0
  0
SEQEND
  5
657
  8
0
  6
CONTINUOUS
 62
     7
  0
LINE
  5
173
  8
0
  6
CONTINUOUS
 62
     7
 10
350.8690626752
 20
184.0288351339
 30
0.0
 11
348.6025230419
 21
184.020430879
 31
0.0
  0
LINE
  5
174
  8
0
  6
CONTINUOUS
 62
     7
 10
361.8690641057
 20
184.0288351339
 30
0.0
 11
350.8690626752
 21
184.0288351339
 31
0.0
  0
ARC
  5
175
  8
0
  6
CONTINUOUS
 62
     7
 10
322.4750457204
 20
296.9073700986
 30
0.0
 40
120.0000000000006
 50
273.9626587205
 51
289.1646231125
  0
LINE
  5
176
  8
0
  6
CONTINUOUS
 62
     7
 10
328.3489833978
 20
188.7578616899
 30
0.0
 11
345.357538892
 21
188.7578616899
 31
0.0
  0
LINE
  5
177
  8
0
  6
CONTINUOUS
 62
     7
 10
361.8690641057
 20
184.0288351339
 30
0.0
 11
361.8690641057
 21
183.5578630727
 31
0.0
  0
LINE
  5
178
  8
0
  6
CONTINUOUS
 62
     7
 10
400.4890651834
 20
183.0225239557
 30
0.0
 11
400.4890651834
 21
182.9058717054
 31
0.0
  0
LINE
  5
179
  8
0
  6
CONTINUOUS
 62
     7
 10
405.8690638673
 20
182.9058717054
 30
0.0
 11
405.8690638673
 21
184.6237073701
 31
0.0
  0
LINE
  5
17A
  8
0
  6
CONTINUOUS
 62
     7
 10
405.8690638673
 20
184.6237073701
 30
0.0
 11
405.8686227929
 21
184.6719632905
 31
0.0
  0
LINE
  5
17B
  8
0
  6
CONTINUOUS
 62
     7
 10
330.96906407
 20
163.2578621667
 30
0.0
 11
330.96906407
 21
171.0578630727
 31
0.0
  0
ARC
  5
17C
  8
0
  6
CONTINUOUS
 62
     7
 10
330.5690639627
 20
171.0578604978
 30
0.0
 40
0.4000000000000341
 50
0.0
 51
90.0
  0
LINE
  5
17D
  8
0
  6
CONTINUOUS
 62
     7
 10
330.5690640044
 20
171.4578579229
 30
0.0
 11
329.7690638733
 21
171.4578579229
 31
0.0
  0
LINE
  5
17E
  8
0
  6
CONTINUOUS
 62
     7
 10
321.7690640521
 20
171.4578579229
 30
0.0
 11
321.1690639537
 21
171.4578579229
 31
0.0
  0
ARC
  5
17F
  8
0
  6
CONTINUOUS
 62
     7
 10
321.1690639627
 20
171.0578604978
 30
0.0
 40
0.4000000000000341
 50
90.0
 51
180.0
  0
LINE
  5
180
  8
0
  6
CONTINUOUS
 62
     7
 10
320.7690638882
 20
171.0578630727
 30
0.0
 11
320.7690638882
 21
170.4578588766
 31
0.0
  0
LINE
  5
181
  8
0
  6
CONTINUOUS
 62
     7
 10
319.9690641296
 20
168.2578633588
 30
0.0
 11
319.9690641296
 21
163.2578621667
 31
0.0
  0
ARC
  5
182
  8
0
  6
CONTINUOUS
 62
     7
 10
325.8690639627
 20
182.8578604978
 30
0.0
 40
6.400000000000012
 50
334.4805415091
 51
151.3013359141
  0
ARC
  5
183
  8
0
  6
CONTINUOUS
 62
     7
 10
340.6690639627
 20
175.7924518047
 30
0.0
 40
10.00000000000002
 50
154.4805415091
 51
180.0
  0
LINE
  5
184
  8
0
  6
CONTINUOUS
 62
     7
 10
330.6690638345
 20
175.7924507421
 30
0.0
 11
330.6690638345
 21
172.2578595441
 31
0.0
  0
LINE
  5
185
  8
0
  6
CONTINUOUS
 62
     7
 10
330.7690640372
 20
172.2578595441
 30
0.0
 11
330.6690638345
 21
172.2578595441
 31
0.0
  0
ARC
  5
186
  8
0
  6
CONTINUOUS
 62
     7
 10
330.7690639627
 20
171.2578604978
 30
0.0
 40
1.0
 50
0.0
 51
90.0
  0
LINE
  5
187
  8
0
  6
CONTINUOUS
 62
     7
 10
331.7690638286
 20
163.2578621667
 30
0.0
 11
331.7690638286
 21
171.2578604978
 31
0.0
  0
LINE
  5
188
  8
0
  6
CONTINUOUS
 62
     7
 10
319.9690641296
 20
168.2578633588
 30
0.0
 11
318.0211619866
 21
168.2578633588
 31
0.0
  0
ARC
  5
189
  8
0
  6
CONTINUOUS
 62
     7
 10
341.5781548718
 20
174.2578604978
 30
0.0
 40
24.3090909090909
 50
151.3013359141
 51
194.2894890274
  0
LINE
  5
18A
  8
0
  6
CONTINUOUS
 62
     7
 10
320.7690638882
 20
162.4578605455
 30
0.0
 11
320.7690638882
 21
161.2578581136
 31
0.0
  0
LINE
  5
18B
  8
0
  6
CONTINUOUS
 62
     7
 10
320.7690638882
 20
161.2578581136
 30
0.0
 11
319.9690641296
 21
161.2578581136
 31
0.0
  0
LINE
  5
18C
  8
0
  6
CONTINUOUS
 62
     7
 10
319.9690641296
 20
161.2578581136
 30
0.0
 11
319.9690641296
 21
163.2578621667
 31
0.0
  0
LINE
  5
18D
  8
0
  6
CONTINUOUS
 62
     7
 10
331.7690638286
 20
163.2578621667
 30
0.0
 11
331.7690638286
 21
161.2578581136
 31
0.0
  0
LINE
  5
18E
  8
0
  6
CONTINUOUS
 62
     7
 10
331.7690638286
 20
161.2578581136
 30
0.0
 11
330.96906407
 21
161.2578581136
 31
0.0
  0
LINE
  5
18F
  8
0
  6
CONTINUOUS
 62
     7
 10
330.96906407
 20
161.2578581136
 30
0.0
 11
330.96906407
 21
163.2578621667
 31
0.0
  0
LINE
  5
190
  8
0
  6
CONTINUOUS
 62
     7
 10
320.7690638882
 20
162.4578605455
 30
0.0
 11
320.7690638882
 21
170.4578588766
 31
0.0
  0
ARC
  5
191
  8
0
  6
CONTINUOUS
 62
     7
 10
321.7690639627
 20
170.4578604978
 30
0.0
 40
1.0
 50
90.0
 51
180.0
  0
LINE
  5
192
  8
0
  6
CONTINUOUS
 62
     7
 10
321.7690640521
 20
171.4578579229
 30
0.0
 11
329.7690638733
 21
171.4578579229
 31
0.0
  0
ARC
  5
193
  8
0
  6
CONTINUOUS
 62
     7
 10
321.7690639627
 20
162.4578604978
 30
0.0
 40
1.0
 50
180.0
 51
270.0
  0
LINE
  5
194
  8
0
  6
CONTINUOUS
 62
     7
 10
329.7690638733
 20
161.4578614992
 30
0.0
 11
321.7690640521
 21
161.4578614992
 31
0.0
  0
LINE
  5
195
  8
0
  6
CONTINUOUS
 62
     7
 10
330.7690640372
 20
170.4578588766
 30
0.0
 11
330.7690640372
 21
162.4578605455
 31
0.0
  0
ARC
  5
196
  8
0
  6
CONTINUOUS
 62
     7
 10
329.7690639627
 20
170.4578604978
 30
0.0
 40
1.0
 50
0.0
 51
90.0
  0
ARC
  5
197
  8
0
  6
CONTINUOUS
 62
     7
 10
329.7690639627
 20
162.4578604978
 30
0.0
 40
1.0
 50
270.0
 51
0.0
  0
LINE
  5
198
  8
0
  6
CONTINUOUS
 62
     7
 10
313.7690642309
 20
96.2578604978
 30
0.0
 11
313.7690642309
 21
97.4578605082
 31
0.0
  0
LINE
  5
199
  8
0
  6
CONTINUOUS
 62
     7
 10
313.7690642309
 20
97.4578605082
 30
0.0
 11
317.7690641415
 21
97.4578605082
 31
0.0
  0
LINE
  5
19A
  8
0
  6
CONTINUOUS
 62
     7
 10
317.7690641415
 20
96.2578604978
 30
0.0
 11
313.7690642309
 21
96.2578604978
 31
0.0
  0
LINE
  5
19B
  8
0
  6
CONTINUOUS
 62
     7
 10
317.7690641415
 20
97.4578605082
 30
0.0
 11
319.7690640968
 21
97.4578605082
 31
0.0
  0
LINE
  5
19C
  8
0
  6
CONTINUOUS
 62
     7
 10
317.7690641415
 20
96.2578604978
 30
0.0
 11
319.7690640968
 21
96.2578604978
 31
0.0
  0
LINE
  5
19D
  8
0
  6
CONTINUOUS
 62
     7
 10
347.1374855769
 20
97.4578605082
 30
0.0
 11
319.7690640968
 21
97.4578605082
 31
0.0
  0
LINE
  5
19E
  8
0
  6
CONTINUOUS
 62
     7
 10
319.7690640968
 20
96.2578604978
 30
0.0
 11
347.1374855769
 21
96.2578604978
 31
0.0
  0
LINE
  5
19F
  8
0
  6
CONTINUOUS
 62
     7
 10
349.7690634262
 20
97.4578605082
 30
0.0
 11
349.7690634262
 21
96.2578604978
 31
0.0
  0
LINE
  5
1A0
  8
0
  6
CONTINUOUS
 62
     7
 10
347.1374855769
 20
97.4578605082
 30
0.0
 11
349.7690634262
 21
97.4578605082
 31
0.0
  0
LINE
  5
1A1
  8
0
  6
CONTINUOUS
 62
     7
 10
349.7690634262
 20
96.2578604978
 30
0.0
 11
347.1374855769
 21
96.2578604978
 31
0.0
  0
LINE
  5
1A2
  8
0
  6
CONTINUOUS
 62
     7
 10
320.7690638882
 20
97.4578605082
 30
0.0
 11
320.7690638882
 21
161.2578581136
 31
0.0
  0
LINE
  5
1A3
  8
0
  6
CONTINUOUS
 62
     7
 10
330.7690640372
 20
162.4578605455
 30
0.0
 11
330.7690640372
 21
97.4578605082
 31
0.0
  0
POLYLINE
  5
1A4
  8
0
  6
CONTINUOUS
 62
     7
 66
     1
 10
0.0
 20
0.0
 30
0.0
  0
VERTEX
  5
4A2
  8
0
  6
CONTINUOUS
 62
     7
 10
42.1729490958
 20
56.4944800436
 30
0.0
  0
VERTEX
  5
4A3
  8
0
  6
CONTINUOUS
 62
     7
 10
41.3768485986
 20
56.3825052678
 30
0.0
  0
VERTEX
  5
4A4
  8
0
  6
CONTINUOUS
 62
     7
 10
40.4701636039
 20
56.2427085339
 30
0.0
  0
VERTEX
  5
4A5
  8
0
  6
CONTINUOUS
 62
     7
 10
39.5729199849
 20
56.0919251739
 30
0.0
  0
VERTEX
  5
4A6
  8
0
  6
CONTINUOUS
 62
     7
 10
38.6897460423
 20
55.9308093487
 30
0.0
  0
VERTEX
  5
4A7
  8
0
  6
CONTINUOUS
 62
     7
 10
37.8352329932
 20
55.762551397
 30
0.0
  0
VERTEX
  5
4A8
  8
0
  6
CONTINUOUS
 62
     7
 10
36.9962886773
 20
55.5852693021
 30
0.0
  0
VERTEX
  5
4A9
  8
0
  6
CONTINUOUS
 62
     7
 10
36.1742154561
 20
55.3994220196
 30
0.0
  0
VERTEX
  5
4AA
  8
0
  6
CONTINUOUS
 62
     7
 10
35.375113865
 20
55.2064668833
 30
0.0
  0
VERTEX
  5
4AB
  8
0
  6
CONTINUOUS
 62
     7
 10
34.6048281394
 20
55.0078612267
 30
0.0
  0
VERTEX
  5
4AC
  8
0
  6
CONTINUOUS
 62
     7
 10
33.8686094485
 20
54.8049491345
 30
0.0
  0
VERTEX
  5
4AD
  8
0
  6
CONTINUOUS
 62
     7
 10
33.1706629
 20
54.5987572967
 30
0.0
  0
VERTEX
  5
4AE
  8
0
  6
CONTINUOUS
 62
     7
 10
32.5164631806
 20
54.391115576
 30
0.0
  0
VERTEX
  5
4AF
  8
0
  6
CONTINUOUS
 62
     7
 10
31.9172815285
 20
54.1865420043
 30
0.0
  0
VERTEX
  5
4B0
  8
0
  6
CONTINUOUS
 62
     7
 10
31.3330785237
 20
53.9706018268
 30
0.0
  0
VERTEX
  5
4B1
  8
0
  6
CONTINUOUS
 62
     7
 10
30.7796434365
 20
53.7465509474
 30
0.0
  0
VERTEX
  5
4B2
  8
0
  6
CONTINUOUS
 62
     7
 10
30.2493230305
 20
53.507423073
 30
0.0
  0
VERTEX
  5
4B3
  8
0
  6
CONTINUOUS
 62
     7
 10
29.723371645
 20
53.2353159487
 30
0.0
  0
VERTEX
  5
4B4
  8
0
  6
CONTINUOUS
 62
     7
 10
29.2816654645
 20
52.9645082056
 30
0.0
  0
VERTEX
  5
4B5
  8
0
  6
CONTINUOUS
 62
     7
 10
28.977038046
 20
52.7424883544
 30
0.0
  0
VERTEX
  5
4B6
  8
0
  6
CONTINUOUS
 62
     7
 10
28.7175104819
 20
52.5194567143
 30
0.0
  0
VERTEX
  5
4B7
  8
0
  6
CONTINUOUS
 62
     7
 10
28.4831986628
 20
52.2793423831
 30
0.0
  0
VERTEX
  5
4B8
  8
0
  6
CONTINUOUS
 62
     7
 10
28.2707617484
 20
52.0145949423
 30
0.0
  0
VERTEX
  5
4B9
  8
0
  6
CONTINUOUS
 62
     7
 10
28.0811534129
 20
51.7185595333
 30
0.0
  0
VERTEX
  5
4BA
  8
0
  6
CONTINUOUS
 62
     7
 10
27.9205308162
 20
51.3890054523
 30
0.0
  0
VERTEX
  5
4BB
  8
0
  6
CONTINUOUS
 62
     7
 10
27.7976796828
 20
51.0289203822
 30
0.0
  0
VERTEX
  5
4BC
  8
0
  6
CONTINUOUS
 62
     7
 10
27.7210370503
 20
50.6455194651
 30
0.0
  0
VERTEX
  5
4BD
  8
0
  6
CONTINUOUS
 62
     7
 10
27.6986614667
 20
50.2795558869
 30
0.0
  0
SEQEND
  5
656
  8
0
  6
CONTINUOUS
 62
     7
  0
POLYLINE
  5
1A5
  8
0
  6
CONTINUOUS
 62
     7
 66
     1
 10
0.0
 20
0.0
 30
0.0
  0
VERTEX
  5
4BE
  8
0
  6
CONTINUOUS
 62
     7
 10
107.8088925086
 20
50.2667677104
 30
0.0
  0
VERTEX
  5
4BF
  8
0
  6
CONTINUOUS
 62
     7
 10
107.8124866687
 20
50.3400277793
 30
0.0
  0
VERTEX
  5
4C0
  8
0
  6
CONTINUOUS
 62
     7
 10
107.7752963506
 20
50.7388856708
 30
0.0
  0
VERTEX
  5
4C1
  8
0
  6
CONTINUOUS
 62
     7
 10
107.6883659564
 20
51.1132967173
 30
0.0
  0
VERTEX
  5
4C2
  8
0
  6
CONTINUOUS
 62
     7
 10
107.5602636538
 20
51.4580216705
 30
0.0
  0
VERTEX
  5
4C3
  8
0
  6
CONTINUOUS
 62
     7
 10
107.3998407326
 20
51.7699044644
 30
0.0
  0
VERTEX
  5
4C4
  8
0
  6
CONTINUOUS
 62
     7
 10
107.2151408396
 20
52.0486664473
 30
0.0
  0
VERTEX
  5
4C5
  8
0
  6
CONTINUOUS
 62
     7
 10
107.011582037
 20
52.2975173294
 30
0.0
  0
VERTEX
  5
4C6
  8
0
  6
CONTINUOUS
 62
     7
 10
106.7899958096
 20
52.5229629575
 30
0.0
  0
VERTEX
  5
4C7
  8
0
  6
CONTINUOUS
 62
     7
 10
106.5448687278
 20
52.7341541349
 30
0.0
  0
VERTEX
  5
4C8
  8
0
  6
CONTINUOUS
 62
     7
 10
106.258653184
 20
52.944853574
 30
0.0
  0
VERTEX
  5
4C9
  8
0
  6
CONTINUOUS
 62
     7
 10
105.8856562577
 20
53.1790968477
 30
0.0
  0
VERTEX
  5
4CA
  8
0
  6
CONTINUOUS
 62
     7
 10
105.405835887
 20
53.4363445341
 30
0.0
  0
VERTEX
  5
4CB
  8
0
  6
CONTINUOUS
 62
     7
 10
104.8745081626
 20
53.6839392482
 30
0.0
  0
VERTEX
  5
4CC
  8
0
  6
CONTINUOUS
 62
     7
 10
104.3373719655
 20
53.907583326
 30
0.0
  0
VERTEX
  5
4CD
  8
0
  6
CONTINUOUS
 62
     7
 10
103.7192092143
 20
54.14131698
 30
0.0
  0
VERTEX
  5
4CE
  8
0
  6
CONTINUOUS
 62
     7
 10
103.0810401641
 20
54.362474054
 30
0.0
  0
VERTEX
  5
4CF
  8
0
  6
CONTINUOUS
 62
     7
 10
102.4181769095
 20
54.5749452411
 30
0.0
  0
VERTEX
  5
4D0
  8
0
  6
CONTINUOUS
 62
     7
 10
101.7310396634
 20
54.7798108756
 30
0.0
  0
VERTEX
  5
4D1
  8
0
  6
CONTINUOUS
 62
     7
 10
100.9979561768
 20
54.9838345944
 30
0.0
  0
VERTEX
  5
4D2
  8
0
  6
CONTINUOUS
 62
     7
 10
100.2317533694
 20
55.1832136213
 30
0.0
  0
VERTEX
  5
4D3
  8
0
  6
CONTINUOUS
 62
     7
 10
99.4349107943
 20
55.3772341906
 30
0.0
  0
VERTEX
  5
4D4
  8
0
  6
CONTINUOUS
 62
     7
 10
98.6105964385
 20
55.5649456083
 30
0.0
  0
VERTEX
  5
4D5
  8
0
  6
CONTINUOUS
 62
     7
 10
97.7624789677
 20
55.7452630698
 30
0.0
  0
VERTEX
  5
4D6
  8
0
  6
CONTINUOUS
 62
     7
 10
96.8944982491
 20
55.9170630275
 30
0.0
  0
VERTEX
  5
4D7
  8
0
  6
CONTINUOUS
 62
     7
 10
96.0108176671
 20
56.0792189538
 30
0.0
  0
VERTEX
  5
4D8
  8
0
  6
CONTINUOUS
 62
     7
 10
95.1210186682
 20
56.2298980056
 30
0.0
  0
VERTEX
  5
4D9
  8
0
  6
CONTINUOUS
 62
     7
 10
94.2194745742
 20
56.3701566755
 30
0.0
  0
VERTEX
  5
4DA
  8
0
  6
CONTINUOUS
 62
     7
 10
93.3385626279
 20
56.4952906667
 30
0.0
  0
SEQEND
  5
655
  8
0
  6
CONTINUOUS
 62
     7
  0
ARC
  5
1A6
  8
0
  6
CONTINUOUS
 62
     7
 10
67.6332744555
 20
-130.5970479351
 30
0.0
 40
188.8174305777972
 50
90.2489000752
 51
97.7494231048
  0
ARC
  5
1A7
  8
0
  6
CONTINUOUS
 62
     7
 10
67.9625562131
 20
-129.688558028
 30
0.0
 40
187.9058612011201
 50
82.2387238284
 51
89.7798291344
  0
POLYLINE
  5
1A8
  8
0
  6
CONTINUOUS
 62
     7
 66
     1
 10
0.0
 20
0.0
 30
0.0
  0
VERTEX
  5
4DB
  8
0
  6
CONTINUOUS
 62
     7
 10
32.291768571
 20
48.5054802596
 30
0.0
  0
VERTEX
  5
4DC
  8
0
  6
CONTINUOUS
 62
     7
 10
32.290293356
 20
48.5043507516
 30
0.0
  0
VERTEX
  5
4DD
  8
0
  6
CONTINUOUS
 62
     7
 10
32.3307053052
 20
48.5289540588
 30
0.0
  0
VERTEX
  5
4DE
  8
0
  6
CONTINUOUS
 62
     7
 10
32.422147771
 20
48.5794287621
 30
0.0
  0
VERTEX
  5
4DF
  8
0
  6
CONTINUOUS
 62
     7
 10
32.5713650189
 20
48.6543249785
 30
0.0
  0
VERTEX
  5
4E0
  8
0
  6
CONTINUOUS
 62
     7
 10
32.7834204636
 20
48.751628071
 30
0.0
  0
VERTEX
  5
4E1
  8
0
  6
CONTINUOUS
 62
     7
 10
33.0609575711
 20
48.8686930835
 30
0.0
  0
VERTEX
  5
4E2
  8
0
  6
CONTINUOUS
 62
     7
 10
33.4041342936
 20
49.0024235546
 30
0.0
  0
VERTEX
  5
4E3
  8
0
  6
CONTINUOUS
 62
     7
 10
33.8109955989
 20
49.1495531499
 30
0.0
  0
VERTEX
  5
4E4
  8
0
  6
CONTINUOUS
 62
     7
 10
34.2780873976
 20
49.3068676888
 30
0.0
  0
VERTEX
  5
4E5
  8
0
  6
CONTINUOUS
 62
     7
 10
34.8007188044
 20
49.4712677299
 30
0.0
  0
VERTEX
  5
4E6
  8
0
  6
CONTINUOUS
 62
     7
 10
35.3760019742
 20
49.6403169333
 30
0.0
  0
VERTEX
  5
4E7
  8
0
  6
CONTINUOUS
 62
     7
 10
35.9849170647
 20
49.8078819811
 30
0.0
  0
VERTEX
  5
4E8
  8
0
  6
CONTINUOUS
 62
     7
 10
36.645557066
 20
49.9785047471
 30
0.0
  0
VERTEX
  5
4E9
  8
0
  6
CONTINUOUS
 62
     7
 10
37.3510316811
 20
50.1494583189
 30
0.0
  0
VERTEX
  5
4EA
  8
0
  6
CONTINUOUS
 62
     7
 10
38.0940065585
 20
50.318157345
 30
0.0
  0
VERTEX
  5
4EB
  8
0
  6
CONTINUOUS
 62
     7
 10
38.8664589129
 20
50.48209396
 30
0.0
  0
VERTEX
  5
4EC
  8
0
  6
CONTINUOUS
 62
     7
 10
39.6585748397
 20
50.6386366188
 30
0.0
  0
VERTEX
  5
4ED
  8
0
  6
CONTINUOUS
 62
     7
 10
40.4618219338
 20
50.7857036292
 30
0.0
  0
VERTEX
  5
4EE
  8
0
  6
CONTINUOUS
 62
     7
 10
41.2724689446
 20
50.9225722849
 30
0.0
  0
VERTEX
  5
4EF
  8
0
  6
CONTINUOUS
 62
     7
 10
42.1015457116
 20
51.0511678158
 30
0.0
  0
VERTEX
  5
4F0
  8
0
  6
CONTINUOUS
 62
     7
 10
42.8974077903
 20
51.1638801991
 30
0.0
  0
SEQEND
  5
654
  8
0
  6
CONTINUOUS
 62
     7
  0
POLYLINE
  5
1A9
  8
0
  6
CONTINUOUS
 62
     7
 66
     1
 10
0.0
 20
0.0
 30
0.0
  0
VERTEX
  5
4F1
  8
0
  6
CONTINUOUS
 62
     7
 10
92.6140741311
 20
51.16350618
 30
0.0
  0
VERTEX
  5
4F2
  8
0
  6
CONTINUOUS
 62
     7
 10
93.2740346394
 20
51.0714110433
 30
0.0
  0
VERTEX
  5
4F3
  8
0
  6
CONTINUOUS
 62
     7
 10
94.1114649974
 20
50.9431910216
 30
0.0
  0
VERTEX
  5
4F4
  8
0
  6
CONTINUOUS
 62
     7
 10
94.9406430922
 20
50.8047666847
 30
0.0
  0
VERTEX
  5
4F5
  8
0
  6
CONTINUOUS
 62
     7
 10
95.7550988398
 20
50.6572407185
 30
0.0
  0
VERTEX
  5
4F6
  8
0
  6
CONTINUOUS
 62
     7
 10
96.5439156495
 20
50.5030435025
 30
0.0
  0
VERTEX
  5
4F7
  8
0
  6
CONTINUOUS
 62
     7
 10
97.3120585881
 20
50.3417831361
 30
0.0
  0
VERTEX
  5
4F8
  8
0
  6
CONTINUOUS
 62
     7
 10
98.0557010375
 20
50.1746383011
 30
0.0
  0
VERTEX
  5
4F9
  8
0
  6
CONTINUOUS
 62
     7
 10
98.7688348494
 20
50.0033658444
 30
0.0
  0
VERTEX
  5
4FA
  8
0
  6
CONTINUOUS
 62
     7
 10
99.4454399548
 20
49.8298969566
 30
0.0
  0
VERTEX
  5
4FB
  8
0
  6
CONTINUOUS
 62
     7
 10
100.0797317229
 20
49.6562984287
 30
0.0
  0
VERTEX
  5
4FC
  8
0
  6
CONTINUOUS
 62
     7
 10
100.6660894356
 20
49.4848113953
 30
0.0
  0
VERTEX
  5
4FD
  8
0
  6
CONTINUOUS
 62
     7
 10
101.199482461
 20
49.3177798092
 30
0.0
  0
VERTEX
  5
4FE
  8
0
  6
CONTINUOUS
 62
     7
 10
101.6788081132
 20
49.1567384898
 30
0.0
  0
VERTEX
  5
4FF
  8
0
  6
CONTINUOUS
 62
     7
 10
102.1049753628
 20
49.0026351511
 30
0.0
  0
VERTEX
  5
500
  8
0
  6
CONTINUOUS
 62
     7
 10
102.4707541667
 20
48.8595497309
 30
0.0
  0
VERTEX
  5
501
  8
0
  6
CONTINUOUS
 62
     7
 10
102.7693644963
 20
48.7323176562
 30
0.0
  0
VERTEX
  5
502
  8
0
  6
CONTINUOUS
 62
     7
 10
102.9735759698
 20
48.6372095048
 30
0.0
  0
VERTEX
  5
503
  8
0
  6
CONTINUOUS
 62
     7
 10
103.1149492465
 20
48.5650968253
 30
0.0
  0
VERTEX
  5
504
  8
0
  6
CONTINUOUS
 62
     7
 10
103.1971380912
 20
48.5188987552
 30
0.0
  0
VERTEX
  5
505
  8
0
  6
CONTINUOUS
 62
     7
 10
103.2265559636
 20
48.5006642043
 30
0.0
  0
VERTEX
  5
506
  8
0
  6
CONTINUOUS
 62
     7
 10
103.2243565522
 20
48.5022660791
 30
0.0
  0
SEQEND
  5
653
  8
0
  6
CONTINUOUS
 62
     7
  0
LINE
  5
1AA
  8
0
  6
CONTINUOUS
 62
     7
 10
66.755715651
 20
58.5607614814
 30
0.0
 11
66.755715651
 21
58.202789396
 31
0.0
  0
LINE
  5
1AB
  8
0
  6
CONTINUOUS
 62
     7
 10
68.7557156063
 20
58.202789396
 30
0.0
 11
68.7557156063
 21
58.5607614814
 31
0.0
  0
ARC
  5
1AC
  8
0
  6
CONTINUOUS
 62
     7
 10
67.7557156287
 20
-131.8459740596
 30
0.0
 40
184.6914670168484
 50
82.2647823914
 51
97.7352176086
  0
LINE
  5
1AD
  8
0
  6
CONTINUOUS
 62
     7
 10
107.8144715033
 20
45.3962613343
 30
0.0
 11
107.8144715033
 21
50.2710354029
 31
0.0
  0
LINE
  5
1AE
  8
0
  6
CONTINUOUS
 62
     7
 10
27.6969597541
 20
50.2710354029
 30
0.0
 11
27.6969597541
 21
45.3962613343
 31
0.0
  0
POLYLINE
  5
1AF
  8
0
  6
CONTINUOUS
 62
     7
 66
     1
 10
0.0
 20
0.0
 30
0.0
  0
VERTEX
  5
507
  8
0
  6
CONTINUOUS
 62
     7
 10
92.614252945
 20
43.2894397973
 30
0.0
  0
VERTEX
  5
508
  8
0
  6
CONTINUOUS
 62
     7
 10
93.3909014664
 20
43.185234487
 30
0.0
  0
VERTEX
  5
509
  8
0
  6
CONTINUOUS
 62
     7
 10
94.2733303509
 20
43.0704620182
 30
0.0
  0
VERTEX
  5
50A
  8
0
  6
CONTINUOUS
 62
     7
 10
95.1452658377
 20
42.9606613218
 30
0.0
  0
VERTEX
  5
50B
  8
0
  6
CONTINUOUS
 62
     7
 10
96.0027561389
 20
42.8564046025
 30
0.0
  0
VERTEX
  5
50C
  8
0
  6
CONTINUOUS
 62
     7
 10
96.8386397563
 20
42.7588846981
 30
0.0
  0
VERTEX
  5
50D
  8
0
  6
CONTINUOUS
 62
     7
 10
97.6600752078
 20
42.6675688922
 30
0.0
  0
VERTEX
  5
50E
  8
0
  6
CONTINUOUS
 62
     7
 10
98.4662608109
 20
42.5830033123
 30
0.0
  0
VERTEX
  5
50F
  8
0
  6
CONTINUOUS
 62
     7
 10
99.2507801257
 20
42.5063986778
 30
0.0
  0
VERTEX
  5
510
  8
0
  6
CONTINUOUS
 62
     7
 10
100.0075653992
 20
42.4389254748
 30
0.0
  0
VERTEX
  5
511
  8
0
  6
CONTINUOUS
 62
     7
 10
100.7312879763
 20
42.3816953301
 30
0.0
  0
VERTEX
  5
512
  8
0
  6
CONTINUOUS
 62
     7
 10
101.4178738795
 20
42.3357684612
 30
0.0
  0
VERTEX
  5
513
  8
0
  6
CONTINUOUS
 62
     7
 10
102.0660624705
 20
42.3021335601
 30
0.0
  0
VERTEX
  5
514
  8
0
  6
CONTINUOUS
 62
     7
 10
102.6841060124
 20
42.2815036475
 30
0.0
  0
VERTEX
  5
515
  8
0
  6
CONTINUOUS
 62
     7
 10
103.2770917617
 20
42.2756601571
 30
0.0
  0
VERTEX
  5
516
  8
0
  6
CONTINUOUS
 62
     7
 10
103.8535580836
 20
42.2880698442
 30
0.0
  0
VERTEX
  5
517
  8
0
  6
CONTINUOUS
 62
     7
 10
104.4355050526
 20
42.3268575668
 30
0.0
  0
VERTEX
  5
518
  8
0
  6
CONTINUOUS
 62
     7
 10
104.9982444249
 20
42.4024541377
 30
0.0
  0
VERTEX
  5
519
  8
0
  6
CONTINUOUS
 62
     7
 10
105.3641752206
 20
42.4810436069
 30
0.0
  0
VERTEX
  5
51A
  8
0
  6
CONTINUOUS
 62
     7
 10
105.7018236123
 20
42.5816704034
 30
0.0
  0
VERTEX
  5
51B
  8
0
  6
CONTINUOUS
 62
     7
 10
106.0147211753
 20
42.705473721
 30
0.0
  0
VERTEX
  5
51C
  8
0
  6
CONTINUOUS
 62
     7
 10
106.3164786301
 20
42.8595979213
 30
0.0
  0
VERTEX
  5
51D
  8
0
  6
CONTINUOUS
 62
     7
 10
106.6094354592
 20
43.0503573715
 30
0.0
  0
VERTEX
  5
51E
  8
0
  6
CONTINUOUS
 62
     7
 10
106.8899527989
 20
43.2827022373
 30
0.0
  0
VERTEX
  5
51F
  8
0
  6
CONTINUOUS
 62
     7
 10
107.1494475804
 20
43.5580749511
 30
0.0
  0
VERTEX
  5
520
  8
0
  6
CONTINUOUS
 62
     7
 10
107.3774204455
 20
43.873846203
 30
0.0
  0
VERTEX
  5
521
  8
0
  6
CONTINUOUS
 62
     7
 10
107.5641856395
 20
44.2241523861
 30
0.0
  0
VERTEX
  5
522
  8
0
  6
CONTINUOUS
 62
     7
 10
107.7139572106
 20
44.6428504287
 30
0.0
  0
VERTEX
  5
523
  8
0
  6
CONTINUOUS
 62
     7
 10
107.7397779427
 20
44.7767097949
 30
0.0
  0
SEQEND
  5
652
  8
0
  6
CONTINUOUS
 62
     7
  0
POLYLINE
  5
1B0
  8
0
  6
CONTINUOUS
 62
     7
 66
     1
 10
0.0
 20
0.0
 30
0.0
  0
VERTEX
  5
524
  8
0
  6
CONTINUOUS
 62
     7
 10
27.7665124141
 20
44.7760362624
 30
0.0
  0
VERTEX
  5
525
  8
0
  6
CONTINUOUS
 62
     7
 10
27.7674571477
 20
44.7695259451
 30
0.0
  0
VERTEX
  5
526
  8
0
  6
CONTINUOUS
 62
     7
 10
27.8902903996
 20
44.3641093075
 30
0.0
  0
VERTEX
  5
527
  8
0
  6
CONTINUOUS
 62
     7
 10
28.0634567939
 20
43.9951982795
 30
0.0
  0
VERTEX
  5
528
  8
0
  6
CONTINUOUS
 62
     7
 10
28.2769874535
 20
43.66713804
 30
0.0
  0
VERTEX
  5
529
  8
0
  6
CONTINUOUS
 62
     7
 10
28.5209373437
 20
43.3821503519
 30
0.0
  0
VERTEX
  5
52A
  8
0
  6
CONTINUOUS
 62
     7
 10
28.7856296502
 20
43.14055112
 30
0.0
  0
VERTEX
  5
52B
  8
0
  6
CONTINUOUS
 62
     7
 10
29.0626183949
 20
42.9404426812
 30
0.0
  0
VERTEX
  5
52C
  8
0
  6
CONTINUOUS
 62
     7
 10
29.3464110099
 20
42.7776162028
 30
0.0
  0
VERTEX
  5
52D
  8
0
  6
CONTINUOUS
 62
     7
 10
29.6363548241
 20
42.6461723148
 30
0.0
  0
VERTEX
  5
52E
  8
0
  6
CONTINUOUS
 62
     7
 10
29.9396351777
 20
42.5392885207
 30
0.0
  0
VERTEX
  5
52F
  8
0
  6
CONTINUOUS
 62
     7
 10
30.2731619082
 20
42.4510445892
 30
0.0
  0
VERTEX
  5
530
  8
0
  6
CONTINUOUS
 62
     7
 10
30.6303367816
 20
42.3832770883
 30
0.0
  0
VERTEX
  5
531
  8
0
  6
CONTINUOUS
 62
     7
 10
31.0959056817
 20
42.325795859
 30
0.0
  0
VERTEX
  5
532
  8
0
  6
CONTINUOUS
 62
     7
 10
31.7623839579
 20
42.2850933372
 30
0.0
  0
VERTEX
  5
533
  8
0
  6
CONTINUOUS
 62
     7
 10
32.3357359372
 20
42.2761816978
 30
0.0
  0
VERTEX
  5
534
  8
0
  6
CONTINUOUS
 62
     7
 10
32.9163775645
 20
42.284038335
 30
0.0
  0
VERTEX
  5
535
  8
0
  6
CONTINUOUS
 62
     7
 10
33.5741833649
 20
42.3080262243
 30
0.0
  0
VERTEX
  5
536
  8
0
  6
CONTINUOUS
 62
     7
 10
34.2481122218
 20
42.3452768921
 30
0.0
  0
VERTEX
  5
537
  8
0
  6
CONTINUOUS
 62
     7
 10
34.9514649115
 20
42.3944037854
 30
0.0
  0
VERTEX
  5
538
  8
0
  6
CONTINUOUS
 62
     7
 10
35.6865391932
 20
42.4543384909
 30
0.0
  0
VERTEX
  5
539
  8
0
  6
CONTINUOUS
 62
     7
 10
36.4518151484
 20
42.5242018401
 30
0.0
  0
VERTEX
  5
53A
  8
0
  6
CONTINUOUS
 62
     7
 10
37.2448460065
 20
42.6031608581
 30
0.0
  0
VERTEX
  5
53B
  8
0
  6
CONTINUOUS
 62
     7
 10
38.0623237096
 20
42.6903587281
 30
0.0
  0
VERTEX
  5
53C
  8
0
  6
CONTINUOUS
 62
     7
 10
38.9004126988
 20
42.7849140465
 30
0.0
  0
VERTEX
  5
53D
  8
0
  6
CONTINUOUS
 62
     7
 10
39.7549883328
 20
42.885926783
 30
0.0
  0
VERTEX
  5
53E
  8
0
  6
CONTINUOUS
 62
     7
 10
40.6203732692
 20
42.9922875463
 30
0.0
  0
VERTEX
  5
53F
  8
0
  6
CONTINUOUS
 62
     7
 10
41.4918498002
 20
43.1030463874
 30
0.0
  0
VERTEX
  5
540
  8
0
  6
CONTINUOUS
 62
     7
 10
42.3714266024
 20
43.2184424698
 30
0.0
  0
VERTEX
  5
541
  8
0
  6
CONTINUOUS
 62
     7
 10
42.897237917
 20
43.2895858287
 30
0.0
  0
SEQEND
  5
651
  8
0
  6
CONTINUOUS
 62
     7
  0
POLYLINE
  5
1B1
  8
0
  6
CONTINUOUS
 62
     7
 66
     1
 10
0.0
 20
0.0
 30
0.0
  0
VERTEX
  5
542
  8
0
  6
CONTINUOUS
 62
     7
 10
107.7532694541
 20
44.8466431796
 30
0.0
  0
VERTEX
  5
543
  8
0
  6
CONTINUOUS
 62
     7
 10
107.7957645856
 20
45.0669419467
 30
0.0
  0
VERTEX
  5
544
  8
0
  6
CONTINUOUS
 62
     7
 10
107.8097806178
 20
45.3954074978
 30
0.0
  0
SEQEND
  5
650
  8
0
  6
CONTINUOUS
 62
     7
  0
POLYLINE
  5
1B2
  8
0
  6
CONTINUOUS
 62
     7
 66
     1
 10
0.0
 20
0.0
 30
0.0
  0
VERTEX
  5
545
  8
0
  6
CONTINUOUS
 62
     7
 10
27.7051106892
 20
45.4026271104
 30
0.0
  0
VERTEX
  5
546
  8
0
  6
CONTINUOUS
 62
     7
 10
27.7046904765
 20
45.2027786969
 30
0.0
  0
VERTEX
  5
547
  8
0
  6
CONTINUOUS
 62
     7
 10
27.7665124141
 20
44.7760362624
 30
0.0
  0
SEQEND
  5
64F
  8
0
  6
CONTINUOUS
 62
     7
  0
ARC
  5
1B3
  8
0
  6
CONTINUOUS
 62
     7
 10
67.7557156287
 20
-139.7211036297
 30
0.0
 40
184.6913998231535
 50
82.26477956
 51
97.73522044
  0
POLYLINE
  5
1B4
  8
0
  6
CONTINUOUS
 62
     7
 66
     1
 10
0.0
 20
0.0
 30
0.0
  0
VERTEX
  5
548
  8
0
  6
CONTINUOUS
 62
     7
 10
93.3398113452
 20
26.4958519935
 30
0.0
  0
VERTEX
  5
549
  8
0
  6
CONTINUOUS
 62
     7
 10
94.1307679616
 20
26.6067754924
 30
0.0
  0
VERTEX
  5
54A
  8
0
  6
CONTINUOUS
 62
     7
 10
95.0312451325
 20
26.7430004179
 30
0.0
  0
VERTEX
  5
54B
  8
0
  6
CONTINUOUS
 62
     7
 10
95.922143837
 20
26.8878665268
 30
0.0
  0
VERTEX
  5
54C
  8
0
  6
CONTINUOUS
 62
     7
 10
96.7986152373
 20
27.040667504
 30
0.0
  0
VERTEX
  5
54D
  8
0
  6
CONTINUOUS
 62
     7
 10
97.6463571988
 20
27.1984082162
 30
0.0
  0
VERTEX
  5
54E
  8
0
  6
CONTINUOUS
 62
     7
 10
98.4783396922
 20
27.3628671169
 30
0.0
  0
VERTEX
  5
54F
  8
0
  6
CONTINUOUS
 62
     7
 10
99.2928312026
 20
27.5334638058
 30
0.0
  0
VERTEX
  5
550
  8
0
  6
CONTINUOUS
 62
     7
 10
100.0834868155
 20
27.7087036967
 30
0.0
  0
VERTEX
  5
551
  8
0
  6
CONTINUOUS
 62
     7
 10
100.8441612921
 20
27.8870653807
 30
0.0
  0
VERTEX
  5
552
  8
0
  6
CONTINUOUS
 62
     7
 10
101.5691921912
 20
28.0670851915
 30
0.0
  0
VERTEX
  5
553
  8
0
  6
CONTINUOUS
 62
     7
 10
102.2537574969
 20
28.2474846094
 30
0.0
  0
VERTEX
  5
554
  8
0
  6
CONTINUOUS
 62
     7
 10
102.8928086959
 20
28.4265336096
 30
0.0
  0
VERTEX
  5
555
  8
0
  6
CONTINUOUS
 62
     7
 10
103.4775302611
 20
28.6008615493
 30
0.0
  0
VERTEX
  5
556
  8
0
  6
CONTINUOUS
 62
     7
 10
104.041971346
 20
28.780898869
 30
0.0
  0
VERTEX
  5
557
  8
0
  6
CONTINUOUS
 62
     7
 10
104.5710817776
 20
28.9631892442
 30
0.0
  0
VERTEX
  5
558
  8
0
  6
CONTINUOUS
 62
     7
 10
105.0701812707
 20
29.1515093743
 30
0.0
  0
VERTEX
  5
559
  8
0
  6
CONTINUOUS
 62
     7
 10
105.5540249549
 20
29.3563332855
 30
0.0
  0
VERTEX
  5
55A
  8
0
  6
CONTINUOUS
 62
     7
 10
106.0687855683
 20
29.6135630905
 30
0.0
  0
VERTEX
  5
55B
  8
0
  6
CONTINUOUS
 62
     7
 10
106.3564256631
 20
29.7860872447
 30
0.0
  0
VERTEX
  5
55C
  8
0
  6
CONTINUOUS
 62
     7
 10
106.5924362145
 20
29.9510892927
 30
0.0
  0
VERTEX
  5
55D
  8
0
  6
CONTINUOUS
 62
     7
 10
106.814716836
 20
30.1332042068
 30
0.0
  0
VERTEX
  5
55E
  8
0
  6
CONTINUOUS
 62
     7
 10
107.0269302331
 20
30.3401217311
 30
0.0
  0
VERTEX
  5
55F
  8
0
  6
CONTINUOUS
 62
     7
 10
107.2300420008
 20
30.5808924585
 30
0.0
  0
VERTEX
  5
560
  8
0
  6
CONTINUOUS
 62
     7
 10
107.4185476504
 20
30.8613062351
 30
0.0
  0
VERTEX
  5
561
  8
0
  6
CONTINUOUS
 62
     7
 10
107.5815395318
 20
31.1805146261
 30
0.0
  0
VERTEX
  5
562
  8
0
  6
CONTINUOUS
 62
     7
 10
107.7077881299
 20
31.5334845781
 30
0.0
  0
VERTEX
  5
563
  8
0
  6
CONTINUOUS
 62
     7
 10
107.7876494132
 20
31.9111111089
 30
0.0
  0
VERTEX
  5
564
  8
0
  6
CONTINUOUS
 62
     7
 10
107.8136102162
 20
32.2858322858
 30
0.0
  0
SEQEND
  5
64E
  8
0
  6
CONTINUOUS
 62
     7
  0
POLYLINE
  5
1B5
  8
0
  6
CONTINUOUS
 62
     7
 66
     1
 10
0.0
 20
0.0
 30
0.0
  0
VERTEX
  5
565
  8
0
  6
CONTINUOUS
 62
     7
 10
27.7054712973
 20
32.3023848682
 30
0.0
  0
VERTEX
  5
566
  8
0
  6
CONTINUOUS
 62
     7
 10
27.705864688
 20
32.0911355763
 30
0.0
  0
VERTEX
  5
567
  8
0
  6
CONTINUOUS
 62
     7
 10
27.7613446913
 20
31.7078307717
 30
0.0
  0
VERTEX
  5
568
  8
0
  6
CONTINUOUS
 62
     7
 10
27.8633073769
 20
31.3516378849
 30
0.0
  0
VERTEX
  5
569
  8
0
  6
CONTINUOUS
 62
     7
 10
28.0026600562
 20
31.027865082
 30
0.0
  0
VERTEX
  5
56A
  8
0
  6
CONTINUOUS
 62
     7
 10
28.1694696151
 20
30.7402719259
 30
0.0
  0
VERTEX
  5
56B
  8
0
  6
CONTINUOUS
 62
     7
 10
28.3541873894
 20
30.4896232187
 30
0.0
  0
VERTEX
  5
56C
  8
0
  6
CONTINUOUS
 62
     7
 10
28.5490260325
 20
30.2736886292
 30
0.0
  0
VERTEX
  5
56D
  8
0
  6
CONTINUOUS
 62
     7
 10
28.7505135737
 20
30.0866067856
 30
0.0
  0
VERTEX
  5
56E
  8
0
  6
CONTINUOUS
 62
     7
 10
28.9610759221
 20
29.9199063777
 30
0.0
  0
VERTEX
  5
56F
  8
0
  6
CONTINUOUS
 62
     7
 10
29.1899488173
 20
29.7636643498
 30
0.0
  0
VERTEX
  5
570
  8
0
  6
CONTINUOUS
 62
     7
 10
29.4594512187
 20
29.6042900979
 30
0.0
  0
VERTEX
  5
571
  8
0
  6
CONTINUOUS
 62
     7
 10
29.8326508008
 20
29.4144161492
 30
0.0
  0
VERTEX
  5
572
  8
0
  6
CONTINUOUS
 62
     7
 10
30.3741232358
 20
29.1790396421
 30
0.0
  0
VERTEX
  5
573
  8
0
  6
CONTINUOUS
 62
     7
 10
30.8677599631
 20
28.990154758
 30
0.0
  0
VERTEX
  5
574
  8
0
  6
CONTINUOUS
 62
     7
 10
31.3795820676
 20
28.8114112317
 30
0.0
  0
VERTEX
  5
575
  8
0
  6
CONTINUOUS
 62
     7
 10
31.9706694089
 20
28.6207411885
 30
0.0
  0
VERTEX
  5
576
  8
0
  6
CONTINUOUS
 62
     7
 10
32.5890854798
 20
28.4351859688
 30
0.0
  0
VERTEX
  5
577
  8
0
  6
CONTINUOUS
 62
     7
 10
33.2366959058
 20
28.2531936168
 30
0.0
  0
VERTEX
  5
578
  8
0
  6
CONTINUOUS
 62
     7
 10
33.9103177987
 20
28.0751381516
 30
0.0
  0
VERTEX
  5
579
  8
0
  6
CONTINUOUS
 62
     7
 10
34.6329287492
 20
27.8950106799
 30
0.0
  0
VERTEX
  5
57A
  8
0
  6
CONTINUOUS
 62
     7
 10
35.3902147017
 20
27.7167845964
 30
0.0
  0
VERTEX
  5
57B
  8
0
  6
CONTINUOUS
 62
     7
 10
36.179296752
 20
27.541357696
 30
0.0
  0
VERTEX
  5
57C
  8
0
  6
CONTINUOUS
 62
     7
 10
36.996670147
 20
27.3697946667
 30
0.0
  0
VERTEX
  5
57D
  8
0
  6
CONTINUOUS
 62
     7
 10
37.8383950196
 20
27.2032369374
 30
0.0
  0
VERTEX
  5
57E
  8
0
  6
CONTINUOUS
 62
     7
 10
38.7003258668
 20
27.0428393482
 30
0.0
  0
VERTEX
  5
57F
  8
0
  6
CONTINUOUS
 62
     7
 10
39.5779983006
 20
26.8897664248
 30
0.0
  0
VERTEX
  5
580
  8
0
  6
CONTINUOUS
 62
     7
 10
40.4615596734
 20
26.74585101
 30
0.0
  0
VERTEX
  5
581
  8
0
  6
CONTINUOUS
 62
     7
 10
41.3573399983
 20
26.6099956333
 30
0.0
  0
VERTEX
  5
582
  8
0
  6
CONTINUOUS
 62
     7
 10
42.1715811692
 20
26.4954839348
 30
0.0
  0
SEQEND
  5
64D
  8
0
  6
CONTINUOUS
 62
     7
  0
ARC
  5
1B6
  8
0
  6
CONTINUOUS
 62
     7
 10
67.7557156287
 20
214.1512098563
 30
0.0
 40
189.3926361360347
 50
262.2364757419
 51
277.7635242581
  0
POLYLINE
  5
1B7
  8
0
  6
CONTINUOUS
 62
     7
 66
     1
 10
0.0
 20
0.0
 30
0.0
  0
VERTEX
  5
583
  8
0
  6
CONTINUOUS
 62
     7
 10
103.4503654443
 20
34.3132685152
 30
0.0
  0
VERTEX
  5
584
  8
0
  6
CONTINUOUS
 62
     7
 10
103.4526483022
 20
34.3146537993
 30
0.0
  0
VERTEX
  5
585
  8
0
  6
CONTINUOUS
 62
     7
 10
103.4156427584
 20
34.2955328621
 30
0.0
  0
VERTEX
  5
586
  8
0
  6
CONTINUOUS
 62
     7
 10
103.3280835353
 20
34.2542547466
 30
0.0
  0
VERTEX
  5
587
  8
0
  6
CONTINUOUS
 62
     7
 10
103.1816587649
 20
34.1910749713
 30
0.0
  0
VERTEX
  5
588
  8
0
  6
CONTINUOUS
 62
     7
 10
102.9711560212
 20
34.1074885083
 30
0.0
  0
VERTEX
  5
589
  8
0
  6
CONTINUOUS
 62
     7
 10
102.6939735614
 20
34.0056007476
 30
0.0
  0
VERTEX
  5
58A
  8
0
  6
CONTINUOUS
 62
     7
 10
102.3503170214
 20
33.8880216218
 30
0.0
  0
VERTEX
  5
58B
  8
0
  6
CONTINUOUS
 62
     7
 10
101.942567607
 20
33.7575444467
 30
0.0
  0
VERTEX
  5
58C
  8
0
  6
CONTINUOUS
 62
     7
 10
101.4745072327
 20
33.6169076133
 30
0.0
  0
VERTEX
  5
58D
  8
0
  6
CONTINUOUS
 62
     7
 10
100.9506926738
 20
33.4686692319
 30
0.0
  0
VERTEX
  5
58E
  8
0
  6
CONTINUOUS
 62
     7
 10
100.377000948
 20
33.3155780546
 30
0.0
  0
VERTEX
  5
58F
  8
0
  6
CONTINUOUS
 62
     7
 10
99.7616962395
 20
33.1606000177
 30
0.0
  0
VERTEX
  5
590
  8
0
  6
CONTINUOUS
 62
     7
 10
99.1024599276
 20
33.003507506
 30
0.0
  0
VERTEX
  5
591
  8
0
  6
CONTINUOUS
 62
     7
 10
98.3977333508
 20
32.8445438742
 30
0.0
  0
VERTEX
  5
592
  8
0
  6
CONTINUOUS
 62
     7
 10
97.6546094619
 20
32.6859958916
 30
0.0
  0
VERTEX
  5
593
  8
0
  6
CONTINUOUS
 62
     7
 10
96.8807742797
 20
32.5301114916
 30
0.0
  0
VERTEX
  5
594
  8
0
  6
CONTINUOUS
 62
     7
 10
96.0855738126
 20
32.3792782127
 30
0.0
  0
VERTEX
  5
595
  8
0
  6
CONTINUOUS
 62
     7
 10
95.2776566945
 20
32.2355345338
 30
0.0
  0
VERTEX
  5
596
  8
0
  6
CONTINUOUS
 62
     7
 10
94.4634006224
 20
32.1002038642
 30
0.0
  0
VERTEX
  5
597
  8
0
  6
CONTINUOUS
 62
     7
 10
93.6340377532
 20
31.9717247485
 30
0.0
  0
VERTEX
  5
598
  8
0
  6
CONTINUOUS
 62
     7
 10
92.7907333575
 20
31.8503862693
 30
0.0
  0
VERTEX
  5
599
  8
0
  6
CONTINUOUS
 62
     7
 10
92.6130235992
 20
31.8267543315
 30
0.0
  0
SEQEND
  5
64C
  8
0
  6
CONTINUOUS
 62
     7
  0
POLYLINE
  5
1B8
  8
0
  6
CONTINUOUS
 62
     7
 66
     1
 10
0.0
 20
0.0
 30
0.0
  0
VERTEX
  5
59A
  8
0
  6
CONTINUOUS
 62
     7
 10
42.8986669384
 20
31.8264823853
 30
0.0
  0
VERTEX
  5
59B
  8
0
  6
CONTINUOUS
 62
     7
 10
42.2332183324
 20
31.9192054196
 30
0.0
  0
VERTEX
  5
59C
  8
0
  6
CONTINUOUS
 62
     7
 10
41.3895533286
 20
32.0460927188
 30
0.0
  0
VERTEX
  5
59D
  8
0
  6
CONTINUOUS
 62
     7
 10
40.5540660821
 20
32.1811786368
 30
0.0
  0
VERTEX
  5
59E
  8
0
  6
CONTINUOUS
 62
     7
 10
39.7330776654
 20
32.3234290331
 30
0.0
  0
VERTEX
  5
59F
  8
0
  6
CONTINUOUS
 62
     7
 10
38.9373616181
 20
32.4705571382
 30
0.0
  0
VERTEX
  5
5A0
  8
0
  6
CONTINUOUS
 62
     7
 10
38.162089964
 20
32.6229315697
 30
0.0
  0
VERTEX
  5
5A1
  8
0
  6
CONTINUOUS
 62
     7
 10
37.4107495747
 20
32.779508315
 30
0.0
  0
VERTEX
  5
5A2
  8
0
  6
CONTINUOUS
 62
     7
 10
36.6889969311
 20
32.9387411921
 30
0.0
  0
VERTEX
  5
5A3
  8
0
  6
CONTINUOUS
 62
     7
 10
36.0028163396
 20
33.0988848097
 30
0.0
  0
VERTEX
  5
5A4
  8
0
  6
CONTINUOUS
 62
     7
 10
35.3578046761
 20
33.2581436708
 30
0.0
  0
VERTEX
  5
5A5
  8
0
  6
CONTINUOUS
 62
     7
 10
34.7593949042
 20
33.414611265
 30
0.0
  0
VERTEX
  5
5A6
  8
0
  6
CONTINUOUS
 62
     7
 10
34.2122630082
 20
33.5663719549
 30
0.0
  0
VERTEX
  5
5A7
  8
0
  6
CONTINUOUS
 62
     7
 10
33.7181911669
 20
33.7119851708
 30
0.0
  0
VERTEX
  5
5A8
  8
0
  6
CONTINUOUS
 62
     7
 10
33.2759008609
 20
33.8509029689
 30
0.0
  0
VERTEX
  5
5A9
  8
0
  6
CONTINUOUS
 62
     7
 10
32.8921572171
 20
33.9799826014
 30
0.0
  0
VERTEX
  5
5AA
  8
0
  6
CONTINUOUS
 62
     7
 10
32.5740531884
 20
34.0953440386
 30
0.0
  0
VERTEX
  5
5AB
  8
0
  6
CONTINUOUS
 62
     7
 10
32.3512063227
 20
34.1828513289
 30
0.0
  0
VERTEX
  5
5AC
  8
0
  6
CONTINUOUS
 62
     7
 10
32.1932122908
 20
34.250243768
 30
0.0
  0
VERTEX
  5
5AD
  8
0
  6
CONTINUOUS
 62
     7
 10
32.0975140534
 20
34.2948910295
 30
0.0
  0
VERTEX
  5
5AE
  8
0
  6
CONTINUOUS
 62
     7
 10
32.0580140553
 20
34.3151186341
 30
0.0
  0
VERTEX
  5
5AF
  8
0
  6
CONTINUOUS
 62
     7
 10
32.0608035527
 20
34.3134255769
 30
0.0
  0
SEQEND
  5
64B
  8
0
  6
CONTINUOUS
 62
     7
  0
ARC
  5
1B9
  8
0
  6
CONTINUOUS
 62
     7
 10
67.7557156287
 20
214.1512164743
 30
0.0
 40
184.0126429371268
 50
262.2364821677
 51
277.7635178323
  0
LINE
  5
1BA
  8
0
  6
CONTINUOUS
 62
     7
 10
27.6969597541
 20
35.7857625446
 30
0.0
 11
27.6969597541
 21
32.2995327859
 31
0.0
  0
LINE
  5
1BB
  8
0
  6
CONTINUOUS
 62
     7
 10
107.8144715033
 20
32.2995327859
 30
0.0
 11
107.8144715033
 21
35.7857625446
 31
0.0
  0
LINE
  5
1BC
  8
0
  6
CONTINUOUS
 62
     7
 10
104.4557169877
 20
28.0500922798
 30
0.0
 11
105.455716034
 21
28.0500922798
 31
0.0
  0
LINE
  5
1BD
  8
0
  6
CONTINUOUS
 62
     7
 10
30.0557152234
 20
28.0500922798
 30
0.0
 11
31.0557142697
 21
28.0500922798
 31
0.0
  0
POLYLINE
  5
1BE
  8
0
  6
CONTINUOUS
 62
     7
 66
     1
 10
0.0
 20
0.0
 30
0.0
  0
VERTEX
  5
5B0
  8
0
  6
CONTINUOUS
 62
     7
 10
42.8984672628
 20
37.4576844721
 30
0.0
  0
VERTEX
  5
5B1
  8
0
  6
CONTINUOUS
 62
     7
 10
42.1277866565
 20
37.5621904134
 30
0.0
  0
VERTEX
  5
5B2
  8
0
  6
CONTINUOUS
 62
     7
 10
41.2520781956
 20
37.6795571744
 30
0.0
  0
VERTEX
  5
5B3
  8
0
  6
CONTINUOUS
 62
     7
 10
40.3871820174
 20
37.7941310852
 30
0.0
  0
VERTEX
  5
5B4
  8
0
  6
CONTINUOUS
 62
     7
 10
39.5373032294
 20
37.9053060412
 30
0.0
  0
VERTEX
  5
5B5
  8
0
  6
CONTINUOUS
 62
     7
 10
38.7091920577
 20
38.0118679702
 30
0.0
  0
VERTEX
  5
5B6
  8
0
  6
CONTINUOUS
 62
     7
 10
37.8958747588
 20
38.1143827438
 30
0.0
  0
VERTEX
  5
5B7
  8
0
  6
CONTINUOUS
 62
     7
 10
37.0987520419
 20
38.2122699618
 30
0.0
  0
VERTEX
  5
5B8
  8
0
  6
CONTINUOUS
 62
     7
 10
36.3245830737
 20
38.3042503595
 30
0.0
  0
VERTEX
  5
5B9
  8
0
  6
CONTINUOUS
 62
     7
 10
35.5798796616
 20
38.3890822976
 30
0.0
  0
VERTEX
  5
5BA
  8
0
  6
CONTINUOUS
 62
     7
 10
34.8705307446
 20
38.4656001329
 30
0.0
  0
VERTEX
  5
5BB
  8
0
  6
CONTINUOUS
 62
     7
 10
34.2015788756
 20
38.5327328443
 30
0.0
  0
VERTEX
  5
5BC
  8
0
  6
CONTINUOUS
 62
     7
 10
33.5743442975
 20
38.5896854549
 30
0.0
  0
VERTEX
  5
5BD
  8
0
  6
CONTINUOUS
 62
     7
 10
32.9803661309
 20
38.6364318877
 30
0.0
  0
VERTEX
  5
5BE
  8
0
  6
CONTINUOUS
 62
     7
 10
32.4183777772
 20
38.671930924
 30
0.0
  0
VERTEX
  5
5BF
  8
0
  6
CONTINUOUS
 62
     7
 10
31.8841264449
 20
38.6946049034
 30
0.0
  0
VERTEX
  5
5C0
  8
0
  6
CONTINUOUS
 62
     7
 10
31.3651488028
 20
38.7013845592
 30
0.0
  0
VERTEX
  5
5C1
  8
0
  6
CONTINUOUS
 62
     7
 10
30.8239565097
 20
38.6832546889
 30
0.0
  0
VERTEX
  5
5C2
  8
0
  6
CONTINUOUS
 62
     7
 10
30.4698840581
 20
38.6498421877
 30
0.0
  0
VERTEX
  5
5C3
  8
0
  6
CONTINUOUS
 62
     7
 10
30.1708803378
 20
38.6025693714
 30
0.0
  0
VERTEX
  5
5C4
  8
0
  6
CONTINUOUS
 62
     7
 10
29.8884198867
 20
38.5373000502
 30
0.0
  0
VERTEX
  5
5C5
  8
0
  6
CONTINUOUS
 62
     7
 10
29.6121434174
 20
38.4498276263
 30
0.0
  0
VERTEX
  5
5C6
  8
0
  6
CONTINUOUS
 62
     7
 10
29.3338672124
 20
38.3334368914
 30
0.0
  0
VERTEX
  5
5C7
  8
0
  6
CONTINUOUS
 62
     7
 10
29.0510372124
 20
38.1801005899
 30
0.0
  0
VERTEX
  5
5C8
  8
0
  6
CONTINUOUS
 62
     7
 10
28.7685141764
 20
37.9830718487
 30
0.0
  0
VERTEX
  5
5C9
  8
0
  6
CONTINUOUS
 62
     7
 10
28.4978763066
 20
37.7401456683
 30
0.0
  0
VERTEX
  5
5CA
  8
0
  6
CONTINUOUS
 62
     7
 10
28.2514856063
 20
37.4527078568
 30
0.0
  0
VERTEX
  5
5CB
  8
0
  6
CONTINUOUS
 62
     7
 10
28.0412957869
 20
37.1263755932
 30
0.0
  0
VERTEX
  5
5CC
  8
0
  6
CONTINUOUS
 62
     7
 10
27.8763995372
 20
36.7688982262
 30
0.0
  0
VERTEX
  5
5CD
  8
0
  6
CONTINUOUS
 62
     7
 10
27.7650699816
 20
36.3862513079
 30
0.0
  0
SEQEND
  5
64A
  8
0
  6
CONTINUOUS
 62
     7
  0
POLYLINE
  5
1BF
  8
0
  6
CONTINUOUS
 62
     7
 66
     1
 10
0.0
 20
0.0
 30
0.0
  0
VERTEX
  5
5CE
  8
0
  6
CONTINUOUS
 62
     7
 10
107.7426598273
 20
36.3854509293
 30
0.0
  0
VERTEX
  5
5CF
  8
0
  6
CONTINUOUS
 62
     7
 10
107.654367467
 20
36.7121143713
 30
0.0
  0
VERTEX
  5
5D0
  8
0
  6
CONTINUOUS
 62
     7
 10
107.4928329192
 20
37.0816326215
 30
0.0
  0
VERTEX
  5
5D1
  8
0
  6
CONTINUOUS
 62
     7
 10
107.2895900212
 20
37.4104317724
 30
0.0
  0
VERTEX
  5
5D2
  8
0
  6
CONTINUOUS
 62
     7
 10
107.0546791754
 20
37.6960069387
 30
0.0
  0
VERTEX
  5
5D3
  8
0
  6
CONTINUOUS
 62
     7
 10
106.7985311948
 20
37.9371148049
 30
0.0
  0
VERTEX
  5
5D4
  8
0
  6
CONTINUOUS
 62
     7
 10
106.5316871606
 20
38.1343048512
 30
0.0
  0
VERTEX
  5
5D5
  8
0
  6
CONTINUOUS
 62
     7
 10
106.2630192242
 20
38.2907461821
 30
0.0
  0
VERTEX
  5
5D6
  8
0
  6
CONTINUOUS
 62
     7
 10
105.9986577235
 20
38.4115618169
 30
0.0
  0
VERTEX
  5
5D7
  8
0
  6
CONTINUOUS
 62
     7
 10
105.7390526734
 20
38.5035649388
 30
0.0
  0
VERTEX
  5
5D8
  8
0
  6
CONTINUOUS
 62
     7
 10
105.4782674514
 20
38.5735046565
 30
0.0
  0
VERTEX
  5
5D9
  8
0
  6
CONTINUOUS
 62
     7
 10
105.2022800647
 20
38.6269141435
 30
0.0
  0
VERTEX
  5
5DA
  8
0
  6
CONTINUOUS
 62
     7
 10
104.884253522
 20
38.6671245544
 30
0.0
  0
VERTEX
  5
5DB
  8
0
  6
CONTINUOUS
 62
     7
 10
104.5089141331
 20
38.6924740373
 30
0.0
  0
VERTEX
  5
5DC
  8
0
  6
CONTINUOUS
 62
     7
 10
103.909616252
 20
38.699932441
 30
0.0
  0
VERTEX
  5
5DD
  8
0
  6
CONTINUOUS
 62
     7
 10
103.3876673184
 20
38.6854395717
 30
0.0
  0
VERTEX
  5
5DE
  8
0
  6
CONTINUOUS
 62
     7
 10
102.8543428384
 20
38.6576604544
 30
0.0
  0
VERTEX
  5
5DF
  8
0
  6
CONTINUOUS
 62
     7
 10
102.2431657515
 20
38.6146020591
 30
0.0
  0
VERTEX
  5
5E0
  8
0
  6
CONTINUOUS
 62
     7
 10
101.6101703845
 20
38.5608211606
 30
0.0
  0
VERTEX
  5
5E1
  8
0
  6
CONTINUOUS
 62
     7
 10
100.9540007315
 20
38.4977326243
 30
0.0
  0
VERTEX
  5
5E2
  8
0
  6
CONTINUOUS
 62
     7
 10
100.2555088006
 20
38.4246942102
 30
0.0
  0
VERTEX
  5
5E3
  8
0
  6
CONTINUOUS
 62
     7
 10
99.5270029507
 20
38.3436296581
 30
0.0
  0
VERTEX
  5
5E4
  8
0
  6
CONTINUOUS
 62
     7
 10
98.7664506636
 20
38.2548708915
 30
0.0
  0
VERTEX
  5
5E5
  8
0
  6
CONTINUOUS
 62
     7
 10
97.9771987401
 20
38.1592695116
 30
0.0
  0
VERTEX
  5
5E6
  8
0
  6
CONTINUOUS
 62
     7
 10
97.1631781064
 20
38.057730019
 30
0.0
  0
VERTEX
  5
5E7
  8
0
  6
CONTINUOUS
 62
     7
 10
96.3286743365
 20
37.9511945396
 30
0.0
  0
VERTEX
  5
5E8
  8
0
  6
CONTINUOUS
 62
     7
 10
95.478122016
 20
37.8406163751
 30
0.0
  0
VERTEX
  5
5E9
  8
0
  6
CONTINUOUS
 62
     7
 10
94.6191088162
 20
37.727386549
 30
0.0
  0
VERTEX
  5
5EA
  8
0
  6
CONTINUOUS
 62
     7
 10
93.7515393697
 20
37.6116902082
 30
0.0
  0
VERTEX
  5
5EB
  8
0
  6
CONTINUOUS
 62
     7
 10
92.8770170413
 20
37.4937016963
 30
0.0
  0
VERTEX
  5
5EC
  8
0
  6
CONTINUOUS
 62
     7
 10
92.6128447853
 20
37.457637906
 30
0.0
  0
SEQEND
  5
649
  8
0
  6
CONTINUOUS
 62
     7
  0
LINE
  5
1C0
  8
0
  6
CONTINUOUS
 62
     7
 10
107.7542886935
 20
36.3229398131
 30
0.0
 11
107.744388362
 21
36.3852857127
 31
0.0
  0
POLYLINE
  5
1C1
  8
0
  6
CONTINUOUS
 62
     7
 66
     1
 10
0.0
 20
0.0
 30
0.0
  0
VERTEX
  5
5ED
  8
0
  6
CONTINUOUS
 62
     7
 10
27.7693883382
 20
36.384445846
 30
0.0
  0
VERTEX
  5
5EE
  8
0
  6
CONTINUOUS
 62
     7
 10
27.7152047358
 20
36.1059604659
 30
0.0
  0
VERTEX
  5
5EF
  8
0
  6
CONTINUOUS
 62
     7
 10
27.7018145524
 20
35.786895778
 30
0.0
  0
SEQEND
  5
648
  8
0
  6
CONTINUOUS
 62
     7
  0
ARC
  5
1C2
  8
0
  6
CONTINUOUS
 62
     7
 10
67.7557156287
 20
219.7832238192
 30
0.0
 40
184.0126462953948
 50
262.2364823103
 51
277.7635176897
  0
LINE
  5
1C3
  8
0
  6
CONTINUOUS
 62
     7
 10
105.7557151519
 20
27.7387675344
 30
0.0
 11
109.1557160817
 21
27.7387675344
 31
0.0
  0
LINE
  5
1C4
  8
0
  6
CONTINUOUS
 62
     7
 10
105.7557151519
 20
40.1387673318
 30
0.0
 11
88.3557156525
 21
40.1387673318
 31
0.0
  0
LINE
  5
1C5
  8
0
  6
CONTINUOUS
 62
     7
 10
101.8412069283
 20
28.1387672275
 30
0.0
 11
104.4557169877
 21
28.1387672275
 31
0.0
  0
LINE
  5
1C6
  8
0
  6
CONTINUOUS
 62
     7
 10
105.455716034
 20
28.1387672275
 30
0.0
 11
105.7557151519
 21
28.1387672275
 31
0.0
  0
LINE
  5
1C7
  8
0
  6
CONTINUOUS
 62
     7
 10
109.1557160817
 20
42.7387673854
 30
0.0
 11
106.079907795
 21
42.7387673854
 31
0.0
  0
LINE
  5
1C8
  8
0
  6
CONTINUOUS
 62
     7
 10
26.3557151757
 20
27.7387675344
 30
0.0
 11
29.7557161055
 21
27.7387675344
 31
0.0
  0
LINE
  5
1C9
  8
0
  6
CONTINUOUS
 62
     7
 10
29.7557161055
 20
28.1387672275
 30
0.0
 11
30.0557152234
 21
28.1387672275
 31
0.0
  0
LINE
  5
1CA
  8
0
  6
CONTINUOUS
 62
     7
 10
31.0557142697
 20
28.1387672275
 30
0.0
 11
33.6695955001
 21
28.1387672275
 31
0.0
  0
LINE
  5
1CB
  8
0
  6
CONTINUOUS
 62
     7
 10
47.1557156049
 20
40.1387673318
 30
0.0
 11
29.7557161055
 21
40.1387673318
 31
0.0
  0
LINE
  5
1CC
  8
0
  6
CONTINUOUS
 62
     7
 10
29.4321046077
 20
42.7387673854
 30
0.0
 11
26.3557151757
 21
42.7387673854
 31
0.0
  0
ARC
  5
1CD
  8
0
  6
CONTINUOUS
 62
     7
 10
67.7633331415
 20
64.4366143838
 30
0.0
 40
6.286235465925779
 50
261.304747261
 51
278.4275782342
  0
LINE
  5
1CE
  8
0
  6
CONTINUOUS
 62
     7
 10
69.755715584
 20
58.8032823502
 30
0.0
 11
65.7557156734
 21
58.8032823502
 31
0.0
  0
POLYLINE
  5
1CF
  8
0
  6
CONTINUOUS
 62
     7
 66
     1
 10
0.0
 20
0.0
 30
0.0
  0
VERTEX
  5
5F0
  8
0
  6
CONTINUOUS
 62
     7
 10
67.7557156287
 20
58.6826306283
 30
0.0
  0
VERTEX
  5
5F1
  8
0
  6
CONTINUOUS
 62
     7
 10
67.4859188596
 20
58.6781111061
 30
0.0
  0
VERTEX
  5
5F2
  8
0
  6
CONTINUOUS
 62
     7
 10
67.2361316956
 20
58.6648893058
 30
0.0
  0
VERTEX
  5
5F3
  8
0
  6
CONTINUOUS
 62
     7
 10
67.0248796563
 20
58.6439442336
 30
0.0
  0
VERTEX
  5
5F4
  8
0
  6
CONTINUOUS
 62
     7
 10
66.8678304046
 20
58.6168300807
 30
0.0
  0
VERTEX
  5
5F5
  8
0
  6
CONTINUOUS
 62
     7
 10
66.7766315728
 20
58.5855570137
 30
0.0
  0
VERTEX
  5
5F6
  8
0
  6
CONTINUOUS
 62
     7
 10
66.755715651
 20
58.5607614814
 30
0.0
  0
SEQEND
  5
647
  8
0
  6
CONTINUOUS
 62
     7
  0
POLYLINE
  5
1D0
  8
0
  6
CONTINUOUS
 62
     7
 66
     1
 10
0.0
 20
0.0
 30
0.0
  0
VERTEX
  5
5F7
  8
0
  6
CONTINUOUS
 62
     7
 10
68.7557156063
 20
58.5607614814
 30
0.0
  0
VERTEX
  5
5F8
  8
0
  6
CONTINUOUS
 62
     7
 10
68.7347996846
 20
58.5855570137
 30
0.0
  0
VERTEX
  5
5F9
  8
0
  6
CONTINUOUS
 62
     7
 10
68.6436008528
 20
58.6168300807
 30
0.0
  0
VERTEX
  5
5FA
  8
0
  6
CONTINUOUS
 62
     7
 10
68.486551601
 20
58.6439442336
 30
0.0
  0
VERTEX
  5
5FB
  8
0
  6
CONTINUOUS
 62
     7
 10
68.2752995618
 20
58.6648893058
 30
0.0
  0
VERTEX
  5
5FC
  8
0
  6
CONTINUOUS
 62
     7
 10
68.0255123978
 20
58.6781111061
 30
0.0
  0
VERTEX
  5
5FD
  8
0
  6
CONTINUOUS
 62
     7
 10
67.7557156287
 20
58.6826306283
 30
0.0
  0
SEQEND
  5
646
  8
0
  6
CONTINUOUS
 62
     7
  0
ARC
  5
1D1
  8
0
  6
CONTINUOUS
 62
     7
 10
65.7520003528
 20
59.7995670912
 30
0.0
 40
0.9962916685300074
 50
180.214955812
 51
270.2136650234
  0
LINE
  5
1D2
  8
0
  6
CONTINUOUS
 62
     7
 10
64.7557156958
 20
59.7958293258
 30
0.0
 11
64.7557156958
 21
63.7660112678
 31
0.0
  0
ARC
  5
1D3
  8
0
  6
CONTINUOUS
 62
     7
 10
65.7520039574
 20
63.7622713665
 30
0.0
 40
0.9962952811583179
 50
89.7865430513
 51
179.7849221292
  0
LINE
  5
1D4
  8
0
  6
CONTINUOUS
 62
     7
 10
65.7557156734
 20
64.7585597336
 30
0.0
 11
69.755715584
 21
64.7585597336
 31
0.0
  0
ARC
  5
1D5
  8
0
  6
CONTINUOUS
 62
     7
 10
69.7594272999
 20
63.7622713665
 30
0.0
 40
0.9962952811582896
 50
0.2150778708
 51
90.2134569487
  0
LINE
  5
1D6
  8
0
  6
CONTINUOUS
 62
     7
 10
70.7557155616
 20
63.7660112678
 30
0.0
 11
70.7557155616
 21
59.7958293258
 31
0.0
  0
ARC
  5
1D7
  8
0
  6
CONTINUOUS
 62
     7
 10
69.7594309046
 20
59.7995670912
 30
0.0
 40
0.9962916685299851
 50
269.7863349766
 51
359.785044188
  0
LINE
  5
1D8
  8
0
  6
CONTINUOUS
 62
     7
 10
64.7557156958
 20
58.196258217
 30
0.0
 11
64.7557156958
 21
59.7958293258
 31
0.0
  0
LINE
  5
1D9
  8
0
  6
CONTINUOUS
 62
     7
 10
70.7557155616
 20
59.7958293258
 30
0.0
 11
70.7557155616
 21
58.2007866799
 31
0.0
  0
POLYLINE
  5
1DA
  8
0
  6
CONTINUOUS
 62
     7
 66
     1
 10
0.0
 20
0.0
 30
0.0
  0
VERTEX
  5
5FE
  8
0
  6
CONTINUOUS
 62
     7
 10
94.4562689267
 20
44.4248829483
 30
0.0
  0
VERTEX
  5
5FF
  8
0
  6
CONTINUOUS
 62
     7
 10
95.5374226771
 20
44.2955349087
 30
0.0
  0
VERTEX
  5
600
  8
0
  6
CONTINUOUS
 62
     7
 10
96.5862111054
 20
44.179635167
 30
0.0
  0
VERTEX
  5
601
  8
0
  6
CONTINUOUS
 62
     7
 10
97.5830511056
 20
44.0800521969
 30
0.0
  0
VERTEX
  5
602
  8
0
  6
CONTINUOUS
 62
     7
 10
98.5179738007
 20
43.9987566768
 30
0.0
  0
VERTEX
  5
603
  8
0
  6
CONTINUOUS
 62
     7
 10
99.3832872115
 20
43.9372729956
 30
0.0
  0
VERTEX
  5
604
  8
0
  6
CONTINUOUS
 62
     7
 10
100.1633004151
 20
43.897752881
 30
0.0
  0
VERTEX
  5
605
  8
0
  6
CONTINUOUS
 62
     7
 10
100.853590747
 20
43.8819062411
 30
0.0
  0
VERTEX
  5
606
  8
0
  6
CONTINUOUS
 62
     7
 10
101.4447823964
 20
43.8908305465
 30
0.0
  0
VERTEX
  5
607
  8
0
  6
CONTINUOUS
 62
     7
 10
101.9264564715
 20
43.9252812862
 30
0.0
  0
VERTEX
  5
608
  8
0
  6
CONTINUOUS
 62
     7
 10
102.2960052691
 20
43.9868789613
 30
0.0
  0
VERTEX
  5
609
  8
0
  6
CONTINUOUS
 62
     7
 10
102.546791812
 20
44.0750513672
 30
0.0
  0
VERTEX
  5
60A
  8
0
  6
CONTINUOUS
 62
     7
 10
102.6744411193
 20
44.1886205672
 30
0.0
  0
VERTEX
  5
60B
  8
0
  6
CONTINUOUS
 62
     7
 10
102.6913241349
 20
44.2576889395
 30
0.0
  0
SEQEND
  5
645
  8
0
  6
CONTINUOUS
 62
     7
  0
ARC
  5
1DB
  8
0
  6
CONTINUOUS
 62
     7
 10
67.7557156287
 20
-139.413340139
 30
0.0
 40
185.7670902348655
 50
81.7361790473
 51
98.2638209527
  0
POLYLINE
  5
1DC
  8
0
  6
CONTINUOUS
 62
     7
 66
     1
 10
0.0
 20
0.0
 30
0.0
  0
VERTEX
  5
60C
  8
0
  6
CONTINUOUS
 62
     7
 10
32.8201071225
 20
44.2576889395
 30
0.0
  0
VERTEX
  5
60D
  8
0
  6
CONTINUOUS
 62
     7
 10
32.8841940366
 20
44.1301558613
 30
0.0
  0
VERTEX
  5
60E
  8
0
  6
CONTINUOUS
 62
     7
 10
33.0742136441
 20
44.0278578996
 30
0.0
  0
VERTEX
  5
60F
  8
0
  6
CONTINUOUS
 62
     7
 10
33.3867982827
 20
43.9523663818
 30
0.0
  0
VERTEX
  5
610
  8
0
  6
CONTINUOUS
 62
     7
 10
33.820866128
 20
43.9043049216
 30
0.0
  0
VERTEX
  5
611
  8
0
  6
CONTINUOUS
 62
     7
 10
34.3711093865
 20
43.8828822672
 30
0.0
  0
VERTEX
  5
612
  8
0
  6
CONTINUOUS
 62
     7
 10
35.0275472604
 20
43.8875947594
 30
0.0
  0
VERTEX
  5
613
  8
0
  6
CONTINUOUS
 62
     7
 10
35.7809142075
 20
43.9175036251
 30
0.0
  0
VERTEX
  5
614
  8
0
  6
CONTINUOUS
 62
     7
 10
36.6267279588
 20
43.9708259403
 30
0.0
  0
VERTEX
  5
615
  8
0
  6
CONTINUOUS
 62
     7
 10
37.5492022238
 20
44.0454636215
 30
0.0
  0
VERTEX
  5
616
  8
0
  6
CONTINUOUS
 62
     7
 10
38.5310218535
 20
44.1389073133
 30
0.0
  0
VERTEX
  5
617
  8
0
  6
CONTINUOUS
 62
     7
 10
39.5704970561
 20
44.2497384249
 30
0.0
  0
VERTEX
  5
618
  8
0
  6
CONTINUOUS
 62
     7
 10
40.6479731999
 20
44.3750728368
 30
0.0
  0
VERTEX
  5
619
  8
0
  6
CONTINUOUS
 62
     7
 10
41.0551623307
 20
44.4248829483
 30
0.0
  0
SEQEND
  5
644
  8
0
  6
CONTINUOUS
 62
     7
  0
LINE
  5
1DD
  8
0
  6
CONTINUOUS
 62
     7
 10
32.8201071225
 20
48.7671029269
 30
0.0
 11
32.8201071225
 21
44.2576889395
 31
0.0
  0
LINE
  5
1DE
  8
0
  6
CONTINUOUS
 62
     7
 10
102.6913241349
 20
44.2576889395
 30
0.0
 11
102.6913241349
 21
48.7655681073
 31
0.0
  0
POLYLINE
  5
1DF
  8
0
  6
CONTINUOUS
 62
     7
 66
     1
 10
0.0
 20
0.0
 30
0.0
  0
VERTEX
  5
61A
  8
0
  6
CONTINUOUS
 62
     7
 10
107.8144715033
 20
45.3962613343
 30
0.0
  0
VERTEX
  5
61B
  8
0
  6
CONTINUOUS
 62
     7
 10
107.8122542105
 20
45.287872523
 30
0.0
  0
VERTEX
  5
61C
  8
0
  6
CONTINUOUS
 62
     7
 10
107.7515319787
 20
44.8220786154
 30
0.0
  0
SEQEND
  5
643
  8
0
  6
CONTINUOUS
 62
     7
  0
LINE
  5
1E0
  8
0
  6
CONTINUOUS
 62
     7
 10
64.7557156958
 20
44.9436936974
 30
0.0
 11
64.7557156958
 21
42.2696795761
 31
0.0
  0
LINE
  5
1E1
  8
0
  6
CONTINUOUS
 62
     7
 10
70.7557155616
 20
44.9391652345
 30
0.0
 11
70.7557155616
 21
42.2696795761
 31
0.0
  0
ARC
  5
1E2
  8
0
  6
CONTINUOUS
 62
     7
 10
69.7557156287
 20
40.838767296
 30
0.0
 40
1.0
 50
270.0
 51
0.0
  0
LINE
  5
1E3
  8
0
  6
CONTINUOUS
 62
     7
 10
70.7557155616
 20
42.2696795761
 30
0.0
 11
70.7557155616
 21
40.8387672602
 31
0.0
  0
ARC
  5
1E4
  8
0
  6
CONTINUOUS
 62
     7
 10
65.7557156287
 20
40.838767296
 30
0.0
 40
1.0
 50
180.0
 51
270.0
  0
LINE
  5
1E5
  8
0
  6
CONTINUOUS
 62
     7
 10
64.7557156958
 20
42.2696795761
 30
0.0
 11
64.7557156958
 21
40.8387672602
 31
0.0
  0
LINE
  5
1E6
  8
0
  6
CONTINUOUS
 62
     7
 10
69.755715584
 20
39.8387674689
 30
0.0
 11
65.7557156734
 21
39.8387674689
 31
0.0
  0
LINE
  5
1E7
  8
0
  6
CONTINUOUS
 62
     7
 10
85.755716344
 20
38.8387673049
 30
0.0
 11
85.755716344
 21
36.6609616651
 31
0.0
  0
LINE
  5
1E8
  8
0
  6
CONTINUOUS
 62
     7
 10
49.7557149134
 20
38.8387673049
 30
0.0
 11
49.7557149134
 21
36.6559731289
 31
0.0
  0
LINE
  5
1E9
  8
0
  6
CONTINUOUS
 62
     7
 10
65.7557156734
 20
39.8387674689
 30
0.0
 11
49.7557149134
 21
39.8387674689
 31
0.0
  0
LINE
  5
1EA
  8
0
  6
CONTINUOUS
 62
     7
 10
85.755716344
 20
39.8387674689
 30
0.0
 11
69.755715584
 21
39.8387674689
 31
0.0
  0
LINE
  5
1EB
  8
0
  6
CONTINUOUS
 62
     7
 10
85.755716344
 20
39.8387674689
 30
0.0
 11
85.755716344
 21
38.8387673049
 31
0.0
  0
LINE
  5
1EC
  8
0
  6
CONTINUOUS
 62
     7
 10
49.7557149134
 20
39.8387674689
 30
0.0
 11
49.7557149134
 21
38.8387673049
 31
0.0
  0
LINE
  5
1ED
  8
0
  6
CONTINUOUS
 62
     7
 10
32.8201071225
 20
36.9285198375
 30
0.0
 11
32.8201071225
 21
34.0061114849
 31
0.0
  0
POLYLINE
  5
1EE
  8
0
  6
CONTINUOUS
 62
     7
 66
     1
 10
0.0
 20
0.0
 30
0.0
  0
VERTEX
  5
61D
  8
0
  6
CONTINUOUS
 62
     7
 10
41.0551623307
 20
36.4090953469
 30
0.0
  0
VERTEX
  5
61E
  8
0
  6
CONTINUOUS
 62
     7
 10
39.9740085803
 20
36.547866322
 30
0.0
  0
VERTEX
  5
61F
  8
0
  6
CONTINUOUS
 62
     7
 10
38.925220152
 20
36.6774086355
 30
0.0
  0
VERTEX
  5
620
  8
0
  6
CONTINUOUS
 62
     7
 10
37.9283801518
 20
36.7945945337
 30
0.0
  0
VERTEX
  5
621
  8
0
  6
CONTINUOUS
 62
     7
 10
36.9934574567
 20
36.8973352461
 30
0.0
  0
VERTEX
  5
622
  8
0
  6
CONTINUOUS
 62
     7
 10
36.1281440459
 20
36.9838383495
 30
0.0
  0
VERTEX
  5
623
  8
0
  6
CONTINUOUS
 62
     7
 10
35.3481308423
 20
37.0514741614
 30
0.0
  0
VERTEX
  5
624
  8
0
  6
CONTINUOUS
 62
     7
 10
34.6578405104
 20
37.0984835996
 30
0.0
  0
VERTEX
  5
625
  8
0
  6
CONTINUOUS
 62
     7
 10
34.066648861
 20
37.1232748478
 30
0.0
  0
VERTEX
  5
626
  8
0
  6
CONTINUOUS
 62
     7
 10
33.5849747859
 20
37.124460794
 30
0.0
  0
VERTEX
  5
627
  8
0
  6
CONTINUOUS
 62
     7
 10
33.2154259883
 20
37.1004663854
 30
0.0
  0
VERTEX
  5
628
  8
0
  6
CONTINUOUS
 62
     7
 10
32.9646394454
 20
37.0511547177
 30
0.0
  0
VERTEX
  5
629
  8
0
  6
CONTINUOUS
 62
     7
 10
32.8369901381
 20
36.9769825115
 30
0.0
  0
VERTEX
  5
62A
  8
0
  6
CONTINUOUS
 62
     7
 10
32.8201071225
 20
36.9285198375
 30
0.0
  0
SEQEND
  5
642
  8
0
  6
CONTINUOUS
 62
     7
  0
ARC
  5
1EF
  8
0
  6
CONTINUOUS
 62
     7
 10
67.7557156287
 20
219.5685198348
 30
0.0
 40
185.0953654881216
 50
261.7059781721
 51
278.2940218279
  0
POLYLINE
  5
1F0
  8
0
  6
CONTINUOUS
 62
     7
 66
     1
 10
0.0
 20
0.0
 30
0.0
  0
VERTEX
  5
62B
  8
0
  6
CONTINUOUS
 62
     7
 10
102.6913241349
 20
36.9285198375
 30
0.0
  0
VERTEX
  5
62C
  8
0
  6
CONTINUOUS
 62
     7
 10
102.6272372208
 20
37.016176477
 30
0.0
  0
VERTEX
  5
62D
  8
0
  6
CONTINUOUS
 62
     7
 10
102.4372176133
 20
37.078885965
 30
0.0
  0
VERTEX
  5
62E
  8
0
  6
CONTINUOUS
 62
     7
 10
102.1246329747
 20
37.1158246397
 30
0.0
  0
VERTEX
  5
62F
  8
0
  6
CONTINUOUS
 62
     7
 10
101.6905651294
 20
37.126764886
 30
0.0
  0
VERTEX
  5
630
  8
0
  6
CONTINUOUS
 62
     7
 10
101.1403218709
 20
37.1128319278
 30
0.0
  0
VERTEX
  5
631
  8
0
  6
CONTINUOUS
 62
     7
 10
100.483883997
 20
37.0752120837
 30
0.0
  0
VERTEX
  5
632
  8
0
  6
CONTINUOUS
 62
     7
 10
99.7305170499
 20
37.0153841078
 30
0.0
  0
VERTEX
  5
633
  8
0
  6
CONTINUOUS
 62
     7
 10
98.8847032986
 20
36.935186617
 30
0.0
  0
VERTEX
  5
634
  8
0
  6
CONTINUOUS
 62
     7
 10
97.9622290335
 20
36.8372453823
 30
0.0
  0
VERTEX
  5
635
  8
0
  6
CONTINUOUS
 62
     7
 10
96.9804094039
 20
36.72452946
 30
0.0
  0
VERTEX
  5
636
  8
0
  6
CONTINUOUS
 62
     7
 10
95.9409342013
 20
36.5983585342
 30
0.0
  0
VERTEX
  5
637
  8
0
  6
CONTINUOUS
 62
     7
 10
94.8634580575
 20
36.4619147479
 30
0.0
  0
VERTEX
  5
638
  8
0
  6
CONTINUOUS
 62
     7
 10
94.4562689267
 20
36.4090953469
 30
0.0
  0
SEQEND
  5
641
  8
0
  6
CONTINUOUS
 62
     7
  0
LINE
  5
1F1
  8
0
  6
CONTINUOUS
 62
     7
 10
102.6913241349
 20
34.0046945241
 30
0.0
 11
102.6913241349
 21
36.9285198375
 31
0.0
  0
POLYLINE
  5
1F2
  8
0
  6
CONTINUOUS
 62
     7
 66
     1
 10
0.0
 20
0.0
 30
0.0
  0
VERTEX
  5
639
  8
0
  6
CONTINUOUS
 62
     7
 10
27.7598992787
 20
36.36205592
 30
0.0
  0
VERTEX
  5
63A
  8
0
  6
CONTINUOUS
 62
     7
 10
27.6991770468
 20
35.8945496827
 30
0.0
  0
VERTEX
  5
63B
  8
0
  6
CONTINUOUS
 62
     7
 10
27.6969597541
 20
35.7857625446
 30
0.0
  0
SEQEND
  5
640
  8
0
  6
CONTINUOUS
 62
     7
  0
POLYLINE
  5
1F3
  8
0
  6
CONTINUOUS
 62
     7
 66
     1
 10
0.0
 20
0.0
 30
0.0
  0
VERTEX
  5
63C
  8
0
  6
CONTINUOUS
 62
     7
 10
107.8144715033
 20
35.7857625446
 30
0.0
  0
VERTEX
  5
63D
  8
0
  6
CONTINUOUS
 62
     7
 10
107.8122542105
 20
35.8945496827
 30
0.0
  0
VERTEX
  5
63E
  8
0
  6
CONTINUOUS
 62
     7
 10
107.7515319787
 20
36.36205592
 30
0.0
  0
SEQEND
  5
63F
  8
0
  6
CONTINUOUS
 62
     7
  0
LINE
  5
1F4
  8
0
  6
CONTINUOUS
 62
     7
 10
104.4557169877
 20
28.8924262374
 30
0.0
 11
104.4557169877
 21
28.0500922798
 31
0.0
  0
LINE
  5
1F5
  8
0
  6
CONTINUOUS
 62
     7
 10
105.455716034
 20
29.2991992532
 30
0.0
 11
105.455716034
 21
28.0500922798
 31
0.0
  0
LINE
  5
1F6
  8
0
  6
CONTINUOUS
 62
     7
 10
31.0557142697
 20
28.8934320658
 30
0.0
 11
31.0557142697
 21
28.0500922798
 31
0.0
  0
LINE
  5
1F7
  8
0
  6
CONTINUOUS
 62
     7
 10
30.0557152234
 20
29.302320674
 30
0.0
 11
30.0557152234
 21
28.0500922798
 31
0.0
  0
LINE
  5
1F8
  8
0
  6
CONTINUOUS
 62
     7
 10
104.4557169877
 20
39.9212401807
 30
0.0
 11
104.4557169877
 21
38.6931360214
 31
0.0
  0
LINE
  5
1F9
  8
0
  6
CONTINUOUS
 62
     7
 10
105.455716034
 20
39.9212401807
 30
0.0
 11
105.455716034
 21
38.5778692066
 31
0.0
  0
LINE
  5
1FA
  8
0
  6
CONTINUOUS
 62
     7
 10
31.0557142697
 20
39.9212401807
 30
0.0
 11
31.0557142697
 21
38.6910185664
 31
0.0
  0
LINE
  5
1FB
  8
0
  6
CONTINUOUS
 62
     7
 10
30.0557152234
 20
39.9212401807
 30
0.0
 11
30.0557152234
 21
38.5759573876
 31
0.0
  0
LINE
  5
1FC
  8
0
  6
CONTINUOUS
 62
     7
 10
109.1557160817
 20
39.7525743096
 30
0.0
 11
109.1557160817
 21
27.7387675344
 31
0.0
  0
LINE
  5
1FD
  8
0
  6
CONTINUOUS
 62
     7
 10
105.7557151519
 20
39.7525743096
 30
0.0
 11
105.7557151519
 21
38.5216501056
 31
0.0
  0
LINE
  5
1FE
  8
0
  6
CONTINUOUS
 62
     7
 10
105.7557151519
 20
29.453129366
 30
0.0
 11
105.7557151519
 21
27.7387675344
 31
0.0
  0
LINE
  5
1FF
  8
0
  6
CONTINUOUS
 62
     7
 10
88.3557156525
 20
40.1387673318
 30
0.0
 11
88.3557156525
 21
36.9347719922
 31
0.0
  0
LINE
  5
200
  8
0
  6
CONTINUOUS
 62
     7
 10
109.1557160817
 20
42.7387673854
 30
0.0
 11
109.1557160817
 21
39.7525743096
 31
0.0
  0
LINE
  5
201
  8
0
  6
CONTINUOUS
 62
     7
 10
105.7557151519
 20
42.7387673854
 30
0.0
 11
105.7557151519
 21
39.7525743096
 31
0.0
  0
LINE
  5
202
  8
0
  6
CONTINUOUS
 62
     7
 10
29.7557161055
 20
39.7525743096
 30
0.0
 11
29.7557161055
 21
38.5192670374
 31
0.0
  0
LINE
  5
203
  8
0
  6
CONTINUOUS
 62
     7
 10
29.7557161055
 20
29.4491291492
 30
0.0
 11
29.7557161055
 21
27.7387675344
 31
0.0
  0
LINE
  5
204
  8
0
  6
CONTINUOUS
 62
     7
 10
26.3557151757
 20
39.7525743096
 30
0.0
 11
26.3557151757
 21
27.7387675344
 31
0.0
  0
LINE
  5
205
  8
0
  6
CONTINUOUS
 62
     7
 10
47.1557156049
 20
40.1387673318
 30
0.0
 11
47.1557156049
 21
36.9323211237
 31
0.0
  0
LINE
  5
206
  8
0
  6
CONTINUOUS
 62
     7
 10
29.7557161055
 20
42.6275726854
 30
0.0
 11
29.7557161055
 21
39.7525743096
 31
0.0
  0
LINE
  5
207
  8
0
  6
CONTINUOUS
 62
     7
 10
26.3557151757
 20
42.7387673854
 30
0.0
 11
26.3557151757
 21
39.7525743096
 31
0.0
  0
LINE
  5
208
  8
0
  6
CONTINUOUS
 62
     7
 10
24.5557145081
 20
39.2387673705
 30
0.0
 11
26.3557151757
 21
39.2387673705
 31
0.0
  0
LINE
  5
209
  8
0
  6
CONTINUOUS
 62
     7
 10
47.1557156049
 20
39.2387673705
 30
0.0
 11
49.7557149134
 21
39.2387673705
 31
0.0
  0
LINE
  5
20A
  8
0
  6
CONTINUOUS
 62
     7
 10
85.755716344
 20
39.2387673705
 30
0.0
 11
88.3557156525
 21
39.2387673705
 31
0.0
  0
LINE
  5
20B
  8
0
  6
CONTINUOUS
 62
     7
 10
109.1557160817
 20
39.2387673705
 30
0.0
 11
110.9557167493
 21
39.2387673705
 31
0.0
  0
LINE
  5
20C
  8
0
  6
CONTINUOUS
 62
     7
 10
111.3557145797
 20
38.8387673049
 30
0.0
 11
111.3557145797
 21
38.2387672066
 31
0.0
  0
ARC
  5
20D
  8
0
  6
CONTINUOUS
 62
     7
 10
110.9557156287
 20
38.838767296
 30
0.0
 40
0.4000000000000057
 50
0.0
 51
90.0
  0
LINE
  5
20E
  8
0
  6
CONTINUOUS
 62
     7
 10
111.3557145797
 20
38.2387672066
 30
0.0
 11
111.3557145797
 21
30.2387673854
 31
0.0
  0
LINE
  5
20F
  8
0
  6
CONTINUOUS
 62
     7
 10
24.1557166777
 20
30.2387673854
 30
0.0
 11
24.1557166777
 21
38.2387672066
 31
0.0
  0
LINE
  5
210
  8
0
  6
CONTINUOUS
 62
     7
 10
24.1557166777
 20
38.2387672066
 30
0.0
 11
24.1557166777
 21
38.8387673049
 31
0.0
  0
ARC
  5
211
  8
0
  6
CONTINUOUS
 62
     7
 10
24.5557156287
 20
38.838767296
 30
0.0
 40
0.3999999999999986
 50
90.0
 51
180.0
  0
LINE
  5
212
  8
0
  6
CONTINUOUS
 62
     7
 10
24.1557166777
 20
29.6387672871
 30
0.0
 11
24.1557166777
 21
30.2387673854
 31
0.0
  0
ARC
  5
213
  8
0
  6
CONTINUOUS
 62
     7
 10
24.5557156287
 20
29.638767296
 30
0.0
 40
0.3999999999999986
 50
180.0
 51
270.0
  0
LINE
  5
214
  8
0
  6
CONTINUOUS
 62
     7
 10
110.9557167493
 20
29.2387672215
 30
0.0
 11
109.1557160817
 21
29.2387672215
 31
0.0
  0
LINE
  5
215
  8
0
  6
CONTINUOUS
 62
     7
 10
26.3557151757
 20
29.2387672215
 30
0.0
 11
24.5557145081
 21
29.2387672215
 31
0.0
  0
LINE
  5
216
  8
0
  6
CONTINUOUS
 62
     7
 10
111.3557145797
 20
30.2387673854
 30
0.0
 11
111.3557145797
 21
29.6387672871
 31
0.0
  0
ARC
  5
217
  8
0
  6
CONTINUOUS
 62
     7
 10
110.9557156287
 20
29.638767296
 30
0.0
 40
0.4000000000000057
 50
270.0
 51
0.0
  0
CIRCLE
  5
218
  8
0
  6
CONTINUOUS
 62
     7
 10
67.7557156287
 20
14.238767296
 30
0.0
 40
1.500000000000002
  0
CIRCLE
  5
219
  8
0
  6
CONTINUOUS
 62
     7
 10
75.7557156287
 20
42.238767296
 30
0.0
 40
1.499999999999993
  0
CIRCLE
  5
21A
  8
0
  6
CONTINUOUS
 62
     7
 10
59.7557156287
 20
42.238767296
 30
0.0
 40
1.5
  0
ARC
  5
21B
  8
0
  6
CONTINUOUS
 62
     7
 10
64.3414313433
 20
14.238767296
 30
0.0
 40
3.999999999999997
 50
200.0051900882
 51
270.0
  0
ARC
  5
21C
  8
0
  6
CONTINUOUS
 62
     7
 10
135.7557156287
 20
40.238767296
 30
0.0
 40
79.99999999999999
 50
190.9456914391
 51
200.0051900882
  0
LINE
  5
21D
  8
0
  6
CONTINUOUS
 62
     7
 10
55.7567157648
 20
39.8387674689
 30
0.0
 11
55.7557158969
 21
40.2387671619
 31
0.0
  0
LINE
  5
21E
  8
0
  6
CONTINUOUS
 62
     7
 10
55.7557158969
 20
42.2387671172
 30
0.0
 11
55.7557158969
 21
40.2387671619
 31
0.0
  0
ARC
  5
21F
  8
0
  6
CONTINUOUS
 62
     7
 10
59.7557156287
 20
42.238767296
 30
0.0
 40
4.000000000000007
 50
143.0078465574
 51
180.0
  0
ARC
  5
220
  8
0
  6
CONTINUOUS
 62
     7
 10
75.7557156287
 20
42.238767296
 30
0.0
 40
4.000000000000014
 50
0.0
 51
37.0933047126
  0
LINE
  5
221
  8
0
  6
CONTINUOUS
 62
     7
 10
79.7557153605
 20
40.2387671619
 30
0.0
 11
79.7557153605
 21
42.2387671172
 31
0.0
  0
LINE
  5
222
  8
0
  6
CONTINUOUS
 62
     7
 10
79.7557153605
 20
40.2387671619
 30
0.0
 11
79.7547154926
 21
39.8387674689
 31
0.0
  0
ARC
  5
223
  8
0
  6
CONTINUOUS
 62
     7
 10
-0.2442843713
 20
40.238767296
 30
0.0
 40
80.0
 50
339.9948099118
 51
349.0535794239
  0
ARC
  5
224
  8
0
  6
CONTINUOUS
 62
     7
 10
71.1699999141
 20
14.238767296
 30
0.0
 40
3.999999999999997
 50
270.0
 51
339.9948099118
  0
LINE
  5
225
  8
0
  6
CONTINUOUS
 62
     7
 10
64.3414311908
 20
10.2387678324
 30
0.0
 11
71.1700000666
 21
10.2387678324
 31
0.0
  0
ENDSEC
  0
EOF
