  0
SECTION
  2
HEADER
  9
$ACADVER
  1
AC1009
  9
$DWGCODEPAGE
  3
ansi_1252
  9
$INSBASE
 10
0.0
 20
0.0
 30
0.0
  9
$EXTMIN
 10
0.0
 20
0.0
 30
0.0
  9
$EXTMAX
 10
420.0
 20
297.0
 30
0.0
  9
$LIMMIN
 10
0.0
 20
0.0
  9
$LIMMAX
 10
420.0
 20
297.0
  9
$ORTHOMODE
 70
     0
  9
$REGENMODE
 70
     1
  9
$FILLMODE
 70
     1
  9
$QTEXTMODE
 70
     0
  9
$MIRRTEXT
 70
     1
  9
$DRAGMODE
 70
     2
  9
$LTSCALE
 40
1.0
  9
$OSMODE
 70
    37
  9
$ATTMODE
 70
     1
  9
$TEXTSIZE
 40
3.5
  9
$TRACEWID
 40
1.0
  9
$TEXTSTYLE
  7
STANDARD
  9
$CLAYER
  8
0
  9
$CELTYPE
  6
BYLAYER
  9
$CECOLOR
 62
   256
  9
$DIMSCALE
 40
1.0
  9
$DIMASZ
 40
4.0
  9
$DIMEXO
 40
0.0
  9
$DIMDLI
 40
3.75
  9
$DIMRND
 40
0.0
  9
$DIMDLE
 40
0.0
  9
$DIMEXE
 40
2.0
  9
$DIMTP
 40
0.0
  9
$DIMTM
 40
0.0
  9
$DIMTXT
 40
3.5
  9
$DIMCEN
 40
2.5
  9
$DIMTSZ
 40
0.0
  9
$DIMTOL
 70
     0
  9
$DIMLIM
 70
     0
  9
$DIMTIH
 70
     1
  9
$DIMTOH
 70
     1
  9
$DIMSE1
 70
     0
  9
$DIMSE2
 70
     0
  9
$DIMTAD
 70
     1
  9
$DIMZIN
 70
     0
  9
$DIMBLK
  1

  9
$DIMASO
 70
     1
  9
$DIMSHO
 70
     1
  9
$DIMPOST
  1

  9
$DIMAPOST
  1

  9
$DIMALT
 70
     0
  9
$DIMALTD
 70
     3
  9
$DIMALTF
 40
0.0393700787
  9
$DIMLFAC
 40
5.0
  9
$DIMTOFL
 70
     1
  9
$DIMTVP
 40
0.0
  9
$DIMTIX
 70
     0
  9
$DIMSOXD
 70
     0
  9
$DIMSAH
 70
     0
  9
$DIMBLK1
  1

  9
$DIMBLK2
  1

  9
$DIMSTYLE
  2
ISO-25
  9
$DIMCLRD
 70
     0
  9
$DIMCLRE
 70
     0
  9
$DIMCLRT
 70
     0
  9
$DIMTFAC
 40
1.0
  9
$DIMGAP
 40
1.524
  9
$LUNITS
 70
     2
  9
$LUPREC
 70
     2
  9
$SKETCHINC
 40
1.0
  9
$FILLETRAD
 40
10.0
  9
$AUNITS
 70
     0
  9
$AUPREC
 70
     2
  9
$MENU
  1
.
  9
$ELEVATION
 40
0.0
  9
$PELEVATION
 40
0.0
  9
$THICKNESS
 40
0.0
  9
$LIMCHECK
 70
     0
  9
$CHAMFERA
 40
10.0
  9
$CHAMFERB
 40
10.0
  9
$SKPOLY
 70
     0
  9
$TDCREATE
 40
2457801.66364088
  9
$TDUPDATE
 40
2457801.663641123
  9
$TDINDWG
 40
0.0000000116
  9
$TDUSRTIMER
 40
0.0000000116
  9
$USRTIMER
 70
     1
  9
$ANGBASE
 50
0.0
  9
$ANGDIR
 70
     0
  9
$PDMODE
 70
     0
  9
$PDSIZE
 40
-1.0
  9
$PLINEWID
 40
0.0
  9
$COORDS
 70
     1
  9
$SPLFRAME
 70
     0
  9
$SPLINETYPE
 70
     6
  9
$SPLINESEGS
 70
     8
  9
$ATTDIA
 70
     0
  9
$ATTREQ
 70
     1
  9
$HANDLING
 70
     1
  9
$HANDSEED
  5
728
  9
$SURFTAB1
 70
     6
  9
$SURFTAB2
 70
     6
  9
$SURFTYPE
 70
     6
  9
$SURFU
 70
     6
  9
$SURFV
 70
     6
  9
$UCSNAME
  2

  9
$UCSORG
 10
0.0
 20
0.0
 30
0.0
  9
$UCSXDIR
 10
1.0
 20
0.0
 30
0.0
  9
$UCSYDIR
 10
0.0
 20
1.0
 30
0.0
  9
$PUCSNAME
  2

  9
$PUCSORG
 10
0.0
 20
0.0
 30
0.0
  9
$PUCSXDIR
 10
1.0
 20
0.0
 30
0.0
  9
$PUCSYDIR
 10
0.0
 20
1.0
 30
0.0
  9
$USERI1
 70
     0
  9
$USERI2
 70
     0
  9
$USERI3
 70
     0
  9
$USERI4
 70
     0
  9
$USERI5
 70
     0
  9
$USERR1
 40
0.0
  9
$USERR2
 40
0.0
  9
$USERR3
 40
0.0
  9
$USERR4
 40
0.0
  9
$USERR5
 40
0.0
  9
$WORLDVIEW
 70
     1
  9
$SHADEDGE
 70
     3
  9
$SHADEDIF
 70
    70
  9
$TILEMODE
 70
     1
  9
$MAXACTVP
 70
    64
  9
$PLIMCHECK
 70
     0
  9
$PEXTMIN
 10
1.0000000000E+20
 20
1.0000000000E+20
 30
1.0000000000E+20
  9
$PEXTMAX
 10
-1.0000000000E+20
 20
-1.0000000000E+20
 30
-1.0000000000E+20
  9
$PLIMMIN
 10
0.0
 20
0.0
  9
$PLIMMAX
 10
420.0
 20
297.0
  9
$UNITMODE
 70
     0
  9
$VISRETAIN
 70
     1
  9
$PLINEGEN
 70
     0
  9
$PSLTSCALE
 70
     1
  0
ENDSEC
  0
SECTION
  2
TABLES
  0
TABLE
  2
VPORT
 70
     1
  0
VPORT
  2
*ACTIVE
 70
     0
 10
0.0
 20
0.0
 11
1.0
 21
1.0
 12
210.0
 22
148.5
 13
0.0
 23
0.0
 14
10.0
 24
10.0
 15
10.0
 25
10.0
 16
0.0
 26
0.0
 36
1.0
 17
0.0
 27
0.0
 37
0.0
 40
297.0
 41
1.4141414141
 42
50.0
 43
0.0
 44
0.0
 50
0.0
 51
0.0
 71
     0
 72
  2000
 73
     1
 74
     3
 75
     0
 76
     0
 77
     0
 78
     0
  0
ENDTAB
  0
TABLE
  2
LTYPE
 70
     6
  0
LTYPE
  2
CONTINUOUS
 70
     0
  3
Solid line
 72
    65
 73
     0
 40
0.0
  0
LTYPE
  2
HIDDEN
 70
     0
  3
Hidden __ __ __ __ __ __ __ __ __ __ __ __ __ __
 72
    65
 73
     2
 40
1.905
 49
1.27
 49
-0.635
  0
LTYPE
  2
PHANTOM
 70
     0
  3
Phantom ______  __  __  ______  __  __  ______
 72
    65
 73
     6
 40
12.7
 49
6.35
 49
-1.27
 49
1.27
 49
-1.27
 49
1.27
 49
-1.27
  0
LTYPE
  2
CENTER
 70
     0
  3
Center ____ _ ____ _ ____ _ ____ _ ____ _ ____
 72
    65
 73
     4
 40
10.16
 49
6.35
 49
-1.27
 49
1.27
 49
-1.27
  0
LTYPE
  2
CENTERX2
 70
     0
  3
Center (2x) ________  __  ________  __  _____
 72
    65
 73
     4
 40
20.32
 49
12.7
 49
-2.54
 49
2.54
 49
-2.54
  0
LTYPE
  2
DOT2
 70
     0
  3
Dot (.5x) ........................................
 72
    65
 73
     2
 40
0.635
 49
0.0
 49
-0.635
  0
ENDTAB
  0
TABLE
  2
LAYER
 70
     2
  0
LAYER
  2
0
 70
     0
 62
     7
  6
CONTINUOUS
  0
LAYER
  2
FORMAT
 70
     0
 62
     7
  6
CONTINUOUS
  0
ENDTAB
  0
TABLE
  2
STYLE
 70
     1
  0
STYLE
  2
STANDARD
 70
     0
 40
0.0
 41
1.0
 50
0.0
 71
     0
 42
3.5
  3
txt
  4

  0
ENDTAB
  0
TABLE
  2
VIEW
 70
     0
  0
ENDTAB
  0
TABLE
  2
UCS
 70
     0
  0
ENDTAB
  0
TABLE
  2
APPID
 70
     1
  0
APPID
  2
ACAD
 70
     0
  0
ENDTAB
  0
TABLE
  2
DIMSTYLE
 70
     1
  0
DIMSTYLE
  2
ISO-25
 70
     0
  3

  4

  5

  6

  7

 40
1.0
 41
2.5
 42
0.625
 43
3.75
 44
1.25
 45
0.0
 46
0.0
 47
0.0
 48
0.0
140
2.5
141
2.5
142
0.0
143
0.0393700787
144
1.0
145
0.0
146
1.0
147
0.625
 71
     0
 72
     0
 73
     0
 74
     0
 75
     0
 76
     0
 77
     1
 78
     8
170
     0
171
     3
172
     1
173
     0
174
     0
175
     0
176
     0
177
     0
178
     0
  0
ENDTAB
  0
ENDSEC
  0
SECTION
  2
BLOCKS
  0
BLOCK
  8
0
  2
$MODEL_SPACE
 70
     0
 10
0.0
 20
0.0
 30
0.0
  3
$MODEL_SPACE
  1

  0
ENDBLK
  5
21
  8
0
  0
BLOCK
 67
     1
  8
0
  2
$PAPER_SPACE
 70
     0
 10
0.0
 20
0.0
 30
0.0
  3
$PAPER_SPACE
  1

  0
ENDBLK
  5
1D
 67
     1
  8
0
  0
ENDSEC
  0
SECTION
  2
ENTITIES
  0
POLYLINE
  5
45
  8
0
  6
CONTINUOUS
 62
     7
 66
     1
 10
0.0
 20
0.0
 30
0.0
  0
VERTEX
  5
2FE
  8
0
  6
CONTINUOUS
 62
     7
 10
124.7674918708
 20
219.4156930476
 30
0.0
  0
VERTEX
  5
2FF
  8
0
  6
CONTINUOUS
 62
     7
 10
126.5583789882
 20
219.3951056033
 30
0.0
  0
VERTEX
  5
300
  8
0
  6
CONTINUOUS
 62
     7
 10
129.9672103462
 20
219.3601534396
 30
0.0
  0
VERTEX
  5
301
  8
0
  6
CONTINUOUS
 62
     7
 10
133.3828485546
 20
219.3306849032
 30
0.0
  0
VERTEX
  5
302
  8
0
  6
CONTINUOUS
 62
     7
 10
136.80409556
 20
219.3066999942
 30
0.0
  0
VERTEX
  5
303
  8
0
  6
CONTINUOUS
 62
     7
 10
140.2298009929
 20
219.2882225543
 30
0.0
  0
VERTEX
  5
304
  8
0
  6
CONTINUOUS
 62
     7
 10
143.6588085231
 20
219.2752525836
 30
0.0
  0
VERTEX
  5
305
  8
0
  6
CONTINUOUS
 62
     7
 10
147.0899618206
 20
219.2677900821
 30
0.0
  0
VERTEX
  5
306
  8
0
  6
CONTINUOUS
 62
     7
 10
150.5221045551
 20
219.2658469707
 30
0.0
  0
VERTEX
  5
307
  8
0
  6
CONTINUOUS
 62
     7
 10
153.9540744361
 20
219.2693994075
 30
0.0
  0
VERTEX
  5
308
  8
0
  6
CONTINUOUS
 62
     7
 10
157.3847151336
 20
219.2784831554
 30
0.0
  0
VERTEX
  5
309
  8
0
  6
CONTINUOUS
 62
     7
 10
160.8128613767
 20
219.2930624515
 30
0.0
  0
VERTEX
  5
30A
  8
0
  6
CONTINUOUS
 62
     7
 10
164.237365776
 20
219.3131492168
 30
0.0
  0
VERTEX
  5
30B
  8
0
  6
CONTINUOUS
 62
     7
 10
167.6570660409
 20
219.3387315303
 30
0.0
  0
VERTEX
  5
30C
  8
0
  6
CONTINUOUS
 62
     7
 10
171.0708088216
 20
219.3698093921
 30
0.0
  0
VERTEX
  5
30D
  8
0
  6
CONTINUOUS
 62
     7
 10
174.2983854351
 20
219.4042966395
 30
0.0
  0
VERTEX
  5
30E
  8
0
  6
CONTINUOUS
 62
     7
 10
175.2730256853
 20
219.4156930476
 30
0.0
  0
SEQEND
  5
727
  8
0
  6
CONTINUOUS
 62
     7
  0
ARC
  5
46
  8
0
  6
CONTINUOUS
 62
     7
 10
124.6547957266
 20
210.1154782748
 30
0.0
 40
14.68923007999097
 50
117.9336506563
 51
180.3581033939
  0
ARC
  5
47
  8
0
  6
CONTINUOUS
 62
     7
 10
175.414925619
 20
210.1338653023
 30
0.0
 40
14.65732973625556
 50
359.5662112364
 51
61.8683221342
  0
ARC
  5
48
  8
0
  6
CONTINUOUS
 62
     7
 10
124.4862482009
 20
210.8995811959
 30
0.0
 40
8.514522880037683
 50
88.1096439163
 51
112.7582453401
  0
ARC
  5
49
  8
0
  6
CONTINUOUS
 62
     7
 10
175.5573380163
 20
211.0095235704
 30
0.0
 40
8.406762840993032
 50
67.8894201542
 51
91.9317420925
  0
POLYLINE
  5
4A
  8
0
  6
CONTINUOUS
 62
     7
 66
     1
 10
0.0
 20
0.0
 30
0.0
  0
VERTEX
  5
30F
  8
0
  6
CONTINUOUS
 62
     7
 10
175.2088583049
 20
224.7953102618
 30
0.0
  0
VERTEX
  5
310
  8
0
  6
CONTINUOUS
 62
     7
 10
173.422596508
 20
224.7747705012
 30
0.0
  0
VERTEX
  5
311
  8
0
  6
CONTINUOUS
 62
     7
 10
170.0226402816
 20
224.739913705
 30
0.0
  0
VERTEX
  5
312
  8
0
  6
CONTINUOUS
 62
     7
 10
166.61581462
 20
224.7105166942
 30
0.0
  0
VERTEX
  5
313
  8
0
  6
CONTINUOUS
 62
     7
 10
163.2033145961
 20
224.6866033107
 30
0.0
  0
VERTEX
  5
314
  8
0
  6
CONTINUOUS
 62
     7
 10
159.7863054809
 20
224.6681735545
 30
0.0
  0
VERTEX
  5
315
  8
0
  6
CONTINUOUS
 62
     7
 10
156.3659525451
 20
224.6552274257
 30
0.0
  0
VERTEX
  5
316
  8
0
  6
CONTINUOUS
 62
     7
 10
152.9434300003
 20
224.647788766
 30
0.0
  0
VERTEX
  5
317
  8
0
  6
CONTINUOUS
 62
     7
 10
149.5199060974
 20
224.6458456546
 30
0.0
  0
VERTEX
  5
318
  8
0
  6
CONTINUOUS
 62
     7
 10
146.096543127
 20
224.6493980914
 30
0.0
  0
VERTEX
  5
319
  8
0
  6
CONTINUOUS
 62
     7
 10
142.6745272216
 20
224.6584460765
 30
0.0
  0
VERTEX
  5
31A
  8
0
  6
CONTINUOUS
 62
     7
 10
139.2550147113
 20
224.6729896098
 30
0.0
  0
VERTEX
  5
31B
  8
0
  6
CONTINUOUS
 62
     7
 10
135.8391798076
 20
224.6930286914
 30
0.0
  0
VERTEX
  5
31C
  8
0
  6
CONTINUOUS
 62
     7
 10
132.4281848011
 20
224.7185514003
 30
0.0
  0
VERTEX
  5
31D
  8
0
  6
CONTINUOUS
 62
     7
 10
129.0232098636
 20
224.7495338946
 30
0.0
  0
VERTEX
  5
31E
  8
0
  6
CONTINUOUS
 62
     7
 10
125.8040345249
 20
224.7839376956
 30
0.0
  0
VERTEX
  5
31F
  8
0
  6
CONTINUOUS
 62
     7
 10
124.8316622314
 20
224.7953102618
 30
0.0
  0
SEQEND
  5
726
  8
0
  6
CONTINUOUS
 62
     7
  0
ARC
  5
4B
  8
0
  6
CONTINUOUS
 62
     7
 10
175.5237660059
 20
211.0902040065
 30
0.0
 40
13.70364881378431
 50
74.2381917225
 51
91.3149816118
  0
ARC
  5
4C
  8
0
  6
CONTINUOUS
 62
     7
 10
124.5072986586
 20
210.9648627045
 30
0.0
 40
13.8273916898063
 50
88.6548415501
 51
105.7866305454
  0
ARC
  5
4D
  8
0
  6
CONTINUOUS
 62
     7
 10
175.4212088125
 20
210.1327757446
 30
0.0
 40
9.272514087222739
 50
359.3257353738
 51
69.1493512626
  0
ARC
  5
4E
  8
0
  6
CONTINUOUS
 62
     7
 10
124.6369710263
 20
210.1208994008
 30
0.0
 40
9.292303244859717
 50
111.757833863
 51
180.5967284882
  0
LINE
  5
4F
  8
0
  6
CONTINUOUS
 62
     7
 10
190.0790161428
 20
170.1753780871
 30
0.0
 11
190.0790161428
 21
210.0231573611
 31
0.0
  0
LINE
  5
50
  8
0
  6
CONTINUOUS
 62
     7
 10
109.9615014133
 20
210.0231573611
 30
0.0
 11
109.9615014133
 21
170.1753780871
 31
0.0
  0
POLYLINE
  5
51
  8
0
  6
CONTINUOUS
 62
     7
 66
     1
 10
0.0
 20
0.0
 30
0.0
  0
VERTEX
  5
320
  8
0
  6
CONTINUOUS
 62
     7
 10
124.7674918708
 20
155.0415918857
 30
0.0
  0
VERTEX
  5
321
  8
0
  6
CONTINUOUS
 62
     7
 10
126.5583789882
 20
155.0209984809
 30
0.0
  0
VERTEX
  5
322
  8
0
  6
CONTINUOUS
 62
     7
 10
129.9672103462
 20
154.9860522777
 30
0.0
  0
VERTEX
  5
323
  8
0
  6
CONTINUOUS
 62
     7
 10
133.3828485546
 20
154.9565837413
 30
0.0
  0
VERTEX
  5
324
  8
0
  6
CONTINUOUS
 62
     7
 10
136.80409556
 20
154.9326047927
 30
0.0
  0
VERTEX
  5
325
  8
0
  6
CONTINUOUS
 62
     7
 10
140.2298009929
 20
154.9141273528
 30
0.0
  0
VERTEX
  5
326
  8
0
  6
CONTINUOUS
 62
     7
 10
143.6588085231
 20
154.9011514216
 30
0.0
  0
VERTEX
  5
327
  8
0
  6
CONTINUOUS
 62
     7
 10
147.0899618206
 20
154.8936889201
 30
0.0
  0
VERTEX
  5
328
  8
0
  6
CONTINUOUS
 62
     7
 10
150.5221045551
 20
154.8917398482
 30
0.0
  0
VERTEX
  5
329
  8
0
  6
CONTINUOUS
 62
     7
 10
153.9540744361
 20
154.895304206
 30
0.0
  0
VERTEX
  5
32A
  8
0
  6
CONTINUOUS
 62
     7
 10
157.3847151336
 20
154.9043760329
 30
0.0
  0
VERTEX
  5
32B
  8
0
  6
CONTINUOUS
 62
     7
 10
160.8128613767
 20
154.9189612895
 30
0.0
  0
VERTEX
  5
32C
  8
0
  6
CONTINUOUS
 62
     7
 10
164.237365776
 20
154.9390480548
 30
0.0
  0
VERTEX
  5
32D
  8
0
  6
CONTINUOUS
 62
     7
 10
167.6570660409
 20
154.9646303683
 30
0.0
  0
VERTEX
  5
32E
  8
0
  6
CONTINUOUS
 62
     7
 10
171.0708088216
 20
154.9957022697
 30
0.0
  0
VERTEX
  5
32F
  8
0
  6
CONTINUOUS
 62
     7
 10
174.2983854351
 20
155.0301954776
 30
0.0
  0
VERTEX
  5
330
  8
0
  6
CONTINUOUS
 62
     7
 10
175.2730256853
 20
155.0415918857
 30
0.0
  0
SEQEND
  5
725
  8
0
  6
CONTINUOUS
 62
     7
  0
ARC
  5
52
  8
0
  6
CONTINUOUS
 62
     7
 10
124.9272705669
 20
169.8805483408
 30
0.0
 40
14.83229554515651
 50
218.4766896881
 51
269.3847119939
  0
ARC
  5
53
  8
0
  6
CONTINUOUS
 62
     7
 10
175.1148196108
 20
169.8761398018
 30
0.0
 40
14.82858103793302
 50
270.609849047
 51
321.4778706181
  0
LINE
  5
54
  8
0
  6
CONTINUOUS
 62
     7
 10
184.6990174589
 20
210.0231573611
 30
0.0
 11
184.6990174589
 21
170.1753780871
 31
0.0
  0
LINE
  5
55
  8
0
  6
CONTINUOUS
 62
     7
 10
115.3415000972
 20
170.1753780871
 30
0.0
 11
115.3415000972
 21
210.0231573611
 31
0.0
  0
ARC
  5
56
  8
0
  6
CONTINUOUS
 62
     7
 10
174.9436774729
 20
170.145738044
 30
0.0
 40
15.12949867679648
 50
327.6393595204
 51
0.1103966939
  0
ARC
  5
57
  8
0
  6
CONTINUOUS
 62
     7
 10
124.9243626807
 20
170.1012907896
 30
0.0
 40
14.95596373968459
 50
179.7161729663
 51
212.5693122512
  0
POLYLINE
  5
58
  8
0
  6
CONTINUOUS
 62
     7
 66
     1
 10
0.0
 20
0.0
 30
0.0
  0
VERTEX
  5
331
  8
0
  6
CONTINUOUS
 62
     7
 10
175.2088583049
 20
160.4212090999
 30
0.0
  0
VERTEX
  5
332
  8
0
  6
CONTINUOUS
 62
     7
 10
173.422596508
 20
160.4006693393
 30
0.0
  0
VERTEX
  5
333
  8
0
  6
CONTINUOUS
 62
     7
 10
170.0226402816
 20
160.365812543
 30
0.0
  0
VERTEX
  5
334
  8
0
  6
CONTINUOUS
 62
     7
 10
166.61581462
 20
160.3364155322
 30
0.0
  0
VERTEX
  5
335
  8
0
  6
CONTINUOUS
 62
     7
 10
163.2033145961
 20
160.3125021487
 30
0.0
  0
VERTEX
  5
336
  8
0
  6
CONTINUOUS
 62
     7
 10
159.7863054809
 20
160.2940723926
 30
0.0
  0
VERTEX
  5
337
  8
0
  6
CONTINUOUS
 62
     7
 10
156.3659525451
 20
160.2811262637
 30
0.0
  0
VERTEX
  5
338
  8
0
  6
CONTINUOUS
 62
     7
 10
152.9434300003
 20
160.2736876041
 30
0.0
  0
VERTEX
  5
339
  8
0
  6
CONTINUOUS
 62
     7
 10
149.5199060974
 20
160.2717444926
 30
0.0
  0
VERTEX
  5
33A
  8
0
  6
CONTINUOUS
 62
     7
 10
146.096543127
 20
160.2752969295
 30
0.0
  0
VERTEX
  5
33B
  8
0
  6
CONTINUOUS
 62
     7
 10
142.6745272216
 20
160.2843449145
 30
0.0
  0
VERTEX
  5
33C
  8
0
  6
CONTINUOUS
 62
     7
 10
139.2550147113
 20
160.2988884479
 30
0.0
  0
VERTEX
  5
33D
  8
0
  6
CONTINUOUS
 62
     7
 10
135.8391798076
 20
160.3189275294
 30
0.0
  0
VERTEX
  5
33E
  8
0
  6
CONTINUOUS
 62
     7
 10
132.4281848011
 20
160.3444383174
 30
0.0
  0
VERTEX
  5
33F
  8
0
  6
CONTINUOUS
 62
     7
 10
129.0232098636
 20
160.3754327327
 30
0.0
  0
VERTEX
  5
340
  8
0
  6
CONTINUOUS
 62
     7
 10
125.8040345249
 20
160.4098365336
 30
0.0
  0
VERTEX
  5
341
  8
0
  6
CONTINUOUS
 62
     7
 10
124.8316622314
 20
160.4212090999
 30
0.0
  0
SEQEND
  5
724
  8
0
  6
CONTINUOUS
 62
     7
  0
ARC
  5
59
  8
0
  6
CONTINUOUS
 62
     7
 10
125.0187990822
 20
170.0950194928
 30
0.0
 40
9.67090392501473
 50
179.5278609987
 51
268.8865311481
  0
ARC
  5
5A
  8
0
  6
CONTINUOUS
 62
     7
 10
175.0249338675
 20
170.0972665317
 30
0.0
 40
9.670570784271014
 50
271.0898262389
 51
0.454956971
  0
POLYLINE
  5
5B
  8
0
  6
CONTINUOUS
 62
     7
 66
     1
 10
0.0
 20
0.0
 30
0.0
  0
VERTEX
  5
342
  8
0
  6
CONTINUOUS
 62
     7
 10
426.9200838146
 20
151.4244899779
 30
0.0
  0
VERTEX
  5
343
  8
0
  6
CONTINUOUS
 62
     7
 10
426.9145286617
 20
151.4235303432
 30
0.0
  0
VERTEX
  5
344
  8
0
  6
CONTINUOUS
 62
     7
 10
426.9134319362
 20
151.4233276874
 30
0.0
  0
SEQEND
  5
723
  8
0
  6
CONTINUOUS
 62
     7
  0
POLYLINE
  5
5C
  8
0
  6
CONTINUOUS
 62
     7
 66
     1
 10
0.0
 20
0.0
 30
0.0
  0
VERTEX
  5
345
  8
0
  6
CONTINUOUS
 62
     7
 10
353.1273758945
 20
151.4232502013
 30
0.0
  0
VERTEX
  5
346
  8
0
  6
CONTINUOUS
 62
     7
 10
353.1263864574
 20
151.4234290153
 30
0.0
  0
VERTEX
  5
347
  8
0
  6
CONTINUOUS
 62
     7
 10
353.1154668865
 20
151.4253184825
 30
0.0
  0
SEQEND
  5
722
  8
0
  6
CONTINUOUS
 62
     7
  0
LINE
  5
5D
  8
0
  6
CONTINUOUS
 62
     7
 10
353.1271613178
 20
151.423297885
 30
0.0
 11
353.1197465
 21
151.4246151477
 31
0.0
  0
ARC
  5
5E
  8
0
  6
CONTINUOUS
 62
     7
 10
335.5706451162
 20
63.7590170376
 30
0.0
 40
84.02563422217624
 50
78.5016982497
 51
78.6270520412
  0
LINE
  5
5F
  8
0
  6
CONTINUOUS
 62
     7
 10
352.1345651683
 20
146.1358532935
 30
0.0
 11
352.1390355167
 21
146.1349592238
 31
0.0
  0
LINE
  5
60
  8
0
  6
CONTINUOUS
 62
     7
 10
427.8377807674
 20
146.1221203834
 30
0.0
 11
427.8944290218
 21
146.1335465938
 31
0.0
  0
POLYLINE
  5
61
  8
0
  6
CONTINUOUS
 62
     7
 66
     1
 10
0.0
 20
0.0
 30
0.0
  0
VERTEX
  5
348
  8
0
  6
CONTINUOUS
 62
     7
 10
4.7674930629
 20
219.4156930476
 30
0.0
  0
VERTEX
  5
349
  8
0
  6
CONTINUOUS
 62
     7
 10
6.5583742198
 20
219.3951056033
 30
0.0
  0
VERTEX
  5
34A
  8
0
  6
CONTINUOUS
 62
     7
 10
9.9672115383
 20
219.3601534396
 30
0.0
  0
VERTEX
  5
34B
  8
0
  6
CONTINUOUS
 62
     7
 10
13.3828437862
 20
219.3306849032
 30
0.0
  0
VERTEX
  5
34C
  8
0
  6
CONTINUOUS
 62
     7
 10
16.8040907917
 20
219.3066999942
 30
0.0
  0
VERTEX
  5
34D
  8
0
  6
CONTINUOUS
 62
     7
 10
20.2297962245
 20
219.2882225543
 30
0.0
  0
VERTEX
  5
34E
  8
0
  6
CONTINUOUS
 62
     7
 10
23.6588156757
 20
219.2752525836
 30
0.0
  0
VERTEX
  5
34F
  8
0
  6
CONTINUOUS
 62
     7
 10
27.0899689731
 20
219.2677900821
 30
0.0
  0
VERTEX
  5
350
  8
0
  6
CONTINUOUS
 62
     7
 10
30.5220997867
 20
219.2658469707
 30
0.0
  0
VERTEX
  5
351
  8
0
  6
CONTINUOUS
 62
     7
 10
33.9540756282
 20
219.2693994075
 30
0.0
  0
VERTEX
  5
352
  8
0
  6
CONTINUOUS
 62
     7
 10
37.3847163257
 20
219.2784831554
 30
0.0
  0
VERTEX
  5
353
  8
0
  6
CONTINUOUS
 62
     7
 10
40.812865549
 20
219.2930624515
 30
0.0
  0
VERTEX
  5
354
  8
0
  6
CONTINUOUS
 62
     7
 10
44.2373669681
 20
219.3131492168
 30
0.0
  0
VERTEX
  5
355
  8
0
  6
CONTINUOUS
 62
     7
 10
47.6570642528
 20
219.3387315303
 30
0.0
  0
VERTEX
  5
356
  8
0
  6
CONTINUOUS
 62
     7
 10
51.070812994
 20
219.3698093921
 30
0.0
  0
VERTEX
  5
357
  8
0
  6
CONTINUOUS
 62
     7
 10
54.2983806667
 20
219.4042966395
 30
0.0
  0
VERTEX
  5
358
  8
0
  6
CONTINUOUS
 62
     7
 10
55.2730238971
 20
219.4156930476
 30
0.0
  0
SEQEND
  5
721
  8
0
  6
CONTINUOUS
 62
     7
  0
ARC
  5
62
  8
0
  6
CONTINUOUS
 62
     7
 10
4.6548529313
 20
210.1154349756
 30
0.0
 40
14.68929178125299
 50
117.9337440234
 51
180.3579329975
  0
ARC
  5
63
  8
0
  6
CONTINUOUS
 62
     7
 10
55.4149148857
 20
210.1338632425
 30
0.0
 40
14.65733717554205
 50
359.5662195085
 51
61.8682848209
  0
ARC
  5
64
  8
0
  6
CONTINUOUS
 62
     7
 10
4.4862692049
 20
210.8994412406
 30
0.0
 40
8.514661909086756
 50
88.1098483118
 51
112.7580409445
  0
ARC
  5
65
  8
0
  6
CONTINUOUS
 62
     7
 10
55.5573257396
 20
211.0094492528
 30
0.0
 40
8.406836762795235
 50
67.8895257552
 51
91.9316535761
  0
POLYLINE
  5
66
  8
0
  6
CONTINUOUS
 62
     7
 66
     1
 10
0.0
 20
0.0
 30
0.0
  0
VERTEX
  5
359
  8
0
  6
CONTINUOUS
 62
     7
 10
55.2088535366
 20
224.7953102618
 30
0.0
  0
VERTEX
  5
35A
  8
0
  6
CONTINUOUS
 62
     7
 10
53.4225977001
 20
224.7747705012
 30
0.0
  0
VERTEX
  5
35B
  8
0
  6
CONTINUOUS
 62
     7
 10
50.0226414737
 20
224.739913705
 30
0.0
  0
VERTEX
  5
35C
  8
0
  6
CONTINUOUS
 62
     7
 10
46.6158187923
 20
224.7105166942
 30
0.0
  0
VERTEX
  5
35D
  8
0
  6
CONTINUOUS
 62
     7
 10
43.2033098278
 20
224.6866033107
 30
0.0
  0
VERTEX
  5
35E
  8
0
  6
CONTINUOUS
 62
     7
 10
39.786306673
 20
224.6681735545
 30
0.0
  0
VERTEX
  5
35F
  8
0
  6
CONTINUOUS
 62
     7
 10
36.3659537372
 20
224.6552274257
 30
0.0
  0
VERTEX
  5
360
  8
0
  6
CONTINUOUS
 62
     7
 10
32.9434311924
 20
224.647788766
 30
0.0
  0
VERTEX
  5
361
  8
0
  6
CONTINUOUS
 62
     7
 10
29.5199072895
 20
224.6458456546
 30
0.0
  0
VERTEX
  5
362
  8
0
  6
CONTINUOUS
 62
     7
 10
26.0965502796
 20
224.6493980914
 30
0.0
  0
VERTEX
  5
363
  8
0
  6
CONTINUOUS
 62
     7
 10
22.6745284137
 20
224.6584460765
 30
0.0
  0
VERTEX
  5
364
  8
0
  6
CONTINUOUS
 62
     7
 10
19.255009943
 20
224.6729896098
 30
0.0
  0
VERTEX
  5
365
  8
0
  6
CONTINUOUS
 62
     7
 10
15.8391750392
 20
224.6930286914
 30
0.0
  0
VERTEX
  5
366
  8
0
  6
CONTINUOUS
 62
     7
 10
12.4281919536
 20
224.7185514003
 30
0.0
  0
VERTEX
  5
367
  8
0
  6
CONTINUOUS
 62
     7
 10
9.0232170162
 20
224.7495338946
 30
0.0
  0
VERTEX
  5
368
  8
0
  6
CONTINUOUS
 62
     7
 10
5.8040416774
 20
224.7839376956
 30
0.0
  0
VERTEX
  5
369
  8
0
  6
CONTINUOUS
 62
     7
 10
4.8316515026
 20
224.7953102618
 30
0.0
  0
SEQEND
  5
720
  8
0
  6
CONTINUOUS
 62
     7
  0
ARC
  5
67
  8
0
  6
CONTINUOUS
 62
     7
 10
55.5237716989
 20
211.0902413501
 30
0.0
 40
13.70361165173665
 50
74.2381674209
 51
91.3150164659
  0
ARC
  5
68
  8
0
  6
CONTINUOUS
 62
     7
 10
4.5073160696
 20
210.9646406017
 30
0.0
 40
13.82761307088738
 50
88.6549797216
 51
105.7864923739
  0
ARC
  5
69
  8
0
  6
CONTINUOUS
 62
     7
 10
55.4211856704
 20
210.1327560346
 30
0.0
 40
9.272541167830985
 50
359.3258591414
 51
69.1492540958
  0
ARC
  5
6A
  8
0
  6
CONTINUOUS
 62
     7
 10
4.6369681914
 20
210.1208981054
 30
0.0
 40
9.292305164737774
 50
111.7578419745
 51
180.5967203768
  0
LINE
  5
6B
  8
0
  6
CONTINUOUS
 62
     7
 10
-10.0384914341
 20
210.0231573611
 30
0.0
 11
-10.0384914341
 21
170.1753780871
 31
0.0
  0
LINE
  5
6C
  8
0
  6
CONTINUOUS
 62
     7
 10
70.0790203151
 20
170.1753780871
 30
0.0
 11
70.0790203151
 21
210.0231573611
 31
0.0
  0
POLYLINE
  5
6D
  8
0
  6
CONTINUOUS
 62
     7
 66
     1
 10
0.0
 20
0.0
 30
0.0
  0
VERTEX
  5
36A
  8
0
  6
CONTINUOUS
 62
     7
 10
4.7674930629
 20
155.0415918857
 30
0.0
  0
VERTEX
  5
36B
  8
0
  6
CONTINUOUS
 62
     7
 10
6.5583742198
 20
155.0209984809
 30
0.0
  0
VERTEX
  5
36C
  8
0
  6
CONTINUOUS
 62
     7
 10
9.9672115383
 20
154.9860522777
 30
0.0
  0
VERTEX
  5
36D
  8
0
  6
CONTINUOUS
 62
     7
 10
13.3828437862
 20
154.9565837413
 30
0.0
  0
VERTEX
  5
36E
  8
0
  6
CONTINUOUS
 62
     7
 10
16.8040907917
 20
154.9326047927
 30
0.0
  0
VERTEX
  5
36F
  8
0
  6
CONTINUOUS
 62
     7
 10
20.2297962245
 20
154.9141273528
 30
0.0
  0
VERTEX
  5
370
  8
0
  6
CONTINUOUS
 62
     7
 10
23.6588156757
 20
154.9011514216
 30
0.0
  0
VERTEX
  5
371
  8
0
  6
CONTINUOUS
 62
     7
 10
27.0899689731
 20
154.8936889201
 30
0.0
  0
VERTEX
  5
372
  8
0
  6
CONTINUOUS
 62
     7
 10
30.5220997867
 20
154.8917398482
 30
0.0
  0
VERTEX
  5
373
  8
0
  6
CONTINUOUS
 62
     7
 10
33.9540756282
 20
154.895304206
 30
0.0
  0
VERTEX
  5
374
  8
0
  6
CONTINUOUS
 62
     7
 10
37.3847163257
 20
154.9043760329
 30
0.0
  0
VERTEX
  5
375
  8
0
  6
CONTINUOUS
 62
     7
 10
40.812865549
 20
154.9189612895
 30
0.0
  0
VERTEX
  5
376
  8
0
  6
CONTINUOUS
 62
     7
 10
44.2373669681
 20
154.9390480548
 30
0.0
  0
VERTEX
  5
377
  8
0
  6
CONTINUOUS
 62
     7
 10
47.6570642528
 20
154.9646303683
 30
0.0
  0
VERTEX
  5
378
  8
0
  6
CONTINUOUS
 62
     7
 10
51.070812994
 20
154.9957022697
 30
0.0
  0
VERTEX
  5
379
  8
0
  6
CONTINUOUS
 62
     7
 10
54.2983806667
 20
155.0301954776
 30
0.0
  0
VERTEX
  5
37A
  8
0
  6
CONTINUOUS
 62
     7
 10
55.2730238971
 20
155.0415918857
 30
0.0
  0
SEQEND
  5
71F
  8
0
  6
CONTINUOUS
 62
     7
  0
ARC
  5
6E
  8
0
  6
CONTINUOUS
 62
     7
 10
4.9272843322
 20
169.8805987463
 30
0.0
 40
14.83234608278389
 50
218.4767832489
 51
269.3846655188
  0
ARC
  5
6F
  8
0
  6
CONTINUOUS
 62
     7
 10
55.1148313865
 20
169.8761149689
 30
0.0
 40
14.82855612550482
 50
270.6098206915
 51
321.4779166321
  0
LINE
  5
70
  8
0
  6
CONTINUOUS
 62
     7
 10
-4.6585046711
 20
170.1753780871
 30
0.0
 11
-4.6585046711
 21
210.0231573611
 31
0.0
  0
LINE
  5
71
  8
0
  6
CONTINUOUS
 62
     7
 10
64.6990216312
 20
210.0231573611
 30
0.0
 11
64.6990216312
 21
170.1753780871
 31
0.0
  0
ARC
  5
72
  8
0
  6
CONTINUOUS
 62
     7
 10
54.9438186626
 20
170.1456841302
 30
0.0
 40
15.12935282292933
 50
327.6392512295
 51
0.1106019332
  0
ARC
  5
73
  8
0
  6
CONTINUOUS
 62
     7
 10
4.9242353289
 20
170.1012241204
 30
0.0
 40
14.95582956744762
 50
179.715915007
 51
212.5693375185
  0
POLYLINE
  5
74
  8
0
  6
CONTINUOUS
 62
     7
 66
     1
 10
0.0
 20
0.0
 30
0.0
  0
VERTEX
  5
37B
  8
0
  6
CONTINUOUS
 62
     7
 10
55.2088535366
 20
160.4212090999
 30
0.0
  0
VERTEX
  5
37C
  8
0
  6
CONTINUOUS
 62
     7
 10
53.4225977001
 20
160.4006693393
 30
0.0
  0
VERTEX
  5
37D
  8
0
  6
CONTINUOUS
 62
     7
 10
50.0226414737
 20
160.365812543
 30
0.0
  0
VERTEX
  5
37E
  8
0
  6
CONTINUOUS
 62
     7
 10
46.6158187923
 20
160.3364155322
 30
0.0
  0
VERTEX
  5
37F
  8
0
  6
CONTINUOUS
 62
     7
 10
43.2033098278
 20
160.3125021487
 30
0.0
  0
VERTEX
  5
380
  8
0
  6
CONTINUOUS
 62
     7
 10
39.786306673
 20
160.2940723926
 30
0.0
  0
VERTEX
  5
381
  8
0
  6
CONTINUOUS
 62
     7
 10
36.3659537372
 20
160.2811262637
 30
0.0
  0
VERTEX
  5
382
  8
0
  6
CONTINUOUS
 62
     7
 10
32.9434311924
 20
160.2736876041
 30
0.0
  0
VERTEX
  5
383
  8
0
  6
CONTINUOUS
 62
     7
 10
29.5199072895
 20
160.2717444926
 30
0.0
  0
VERTEX
  5
384
  8
0
  6
CONTINUOUS
 62
     7
 10
26.0965502796
 20
160.2752969295
 30
0.0
  0
VERTEX
  5
385
  8
0
  6
CONTINUOUS
 62
     7
 10
22.6745284137
 20
160.2843449145
 30
0.0
  0
VERTEX
  5
386
  8
0
  6
CONTINUOUS
 62
     7
 10
19.255009943
 20
160.2988884479
 30
0.0
  0
VERTEX
  5
387
  8
0
  6
CONTINUOUS
 62
     7
 10
15.8391750392
 20
160.3189275294
 30
0.0
  0
VERTEX
  5
388
  8
0
  6
CONTINUOUS
 62
     7
 10
12.4281919536
 20
160.3444383174
 30
0.0
  0
VERTEX
  5
389
  8
0
  6
CONTINUOUS
 62
     7
 10
9.0232170162
 20
160.3754327327
 30
0.0
  0
VERTEX
  5
38A
  8
0
  6
CONTINUOUS
 62
     7
 10
5.8040416774
 20
160.4098365336
 30
0.0
  0
VERTEX
  5
38B
  8
0
  6
CONTINUOUS
 62
     7
 10
4.8316515026
 20
160.4212090999
 30
0.0
  0
SEQEND
  5
71E
  8
0
  6
CONTINUOUS
 62
     7
  0
ARC
  5
75
  8
0
  6
CONTINUOUS
 62
     7
 10
5.01881097
 20
170.0950356943
 30
0.0
 40
9.670920447167159
 50
179.5279577953
 51
268.8864343516
  0
ARC
  5
76
  8
0
  6
CONTINUOUS
 62
     7
 10
55.0249392354
 20
170.0972566088
 30
0.0
 40
9.670560727062384
 50
271.0897849666
 51
0.4550162368
  0
POLYLINE
  5
77
  8
0
  6
CONTINUOUS
 62
     7
 66
     1
 10
0.0
 20
0.0
 30
0.0
  0
VERTEX
  5
38C
  8
0
  6
CONTINUOUS
 62
     7
 10
244.767493659
 20
219.4156930476
 30
0.0
  0
VERTEX
  5
38D
  8
0
  6
CONTINUOUS
 62
     7
 10
246.5583807764
 20
219.3951056033
 30
0.0
  0
VERTEX
  5
38E
  8
0
  6
CONTINUOUS
 62
     7
 10
249.9672121343
 20
219.3601534396
 30
0.0
  0
VERTEX
  5
38F
  8
0
  6
CONTINUOUS
 62
     7
 10
253.3828473625
 20
219.3306849032
 30
0.0
  0
VERTEX
  5
390
  8
0
  6
CONTINUOUS
 62
     7
 10
256.8040943679
 20
219.3066999942
 30
0.0
  0
VERTEX
  5
391
  8
0
  6
CONTINUOUS
 62
     7
 10
260.2297998008
 20
219.2882225543
 30
0.0
  0
VERTEX
  5
392
  8
0
  6
CONTINUOUS
 62
     7
 10
263.6588132915
 20
219.2752525836
 30
0.0
  0
VERTEX
  5
393
  8
0
  6
CONTINUOUS
 62
     7
 10
267.0899665889
 20
219.2677900821
 30
0.0
  0
VERTEX
  5
394
  8
0
  6
CONTINUOUS
 62
     7
 10
270.522103363
 20
219.2658469707
 30
0.0
  0
VERTEX
  5
395
  8
0
  6
CONTINUOUS
 62
     7
 10
273.954073244
 20
219.2693994075
 30
0.0
  0
VERTEX
  5
396
  8
0
  6
CONTINUOUS
 62
     7
 10
277.3847139415
 20
219.2784831554
 30
0.0
  0
VERTEX
  5
397
  8
0
  6
CONTINUOUS
 62
     7
 10
280.8128631649
 20
219.2930624515
 30
0.0
  0
VERTEX
  5
398
  8
0
  6
CONTINUOUS
 62
     7
 10
284.2373645839
 20
219.3131492168
 30
0.0
  0
VERTEX
  5
399
  8
0
  6
CONTINUOUS
 62
     7
 10
287.6570678291
 20
219.3387315303
 30
0.0
  0
VERTEX
  5
39A
  8
0
  6
CONTINUOUS
 62
     7
 10
291.0708106098
 20
219.3698093921
 30
0.0
  0
VERTEX
  5
39B
  8
0
  6
CONTINUOUS
 62
     7
 10
294.298384243
 20
219.4042966395
 30
0.0
  0
VERTEX
  5
39C
  8
0
  6
CONTINUOUS
 62
     7
 10
295.2730274734
 20
219.4156930476
 30
0.0
  0
SEQEND
  5
71D
  8
0
  6
CONTINUOUS
 62
     7
  0
ARC
  5
78
  8
0
  6
CONTINUOUS
 62
     7
 10
244.6548077946
 20
210.1154703532
 30
0.0
 40
14.6892432903281
 50
117.9336818774
 51
180.3580721729
  0
ARC
  5
79
  8
0
  6
CONTINUOUS
 62
     7
 10
295.4149427389
 20
210.1338812085
 30
0.0
 40
14.65730707496997
 50
359.5661483861
 51
61.8683559433
  0
ARC
  5
7A
  8
0
  6
CONTINUOUS
 62
     7
 10
244.4862381748
 20
210.8996440806
 30
0.0
 40
8.514460320933356
 50
88.1095705439
 51
112.7583357282
  0
ARC
  5
7B
  8
0
  6
CONTINUOUS
 62
     7
 10
295.5573445799
 20
211.0095657807
 30
0.0
 40
8.40672081568752
 50
67.8893608433
 51
91.9317843187
  0
POLYLINE
  5
7C
  8
0
  6
CONTINUOUS
 62
     7
 66
     1
 10
0.0
 20
0.0
 30
0.0
  0
VERTEX
  5
39D
  8
0
  6
CONTINUOUS
 62
     7
 10
295.2088571128
 20
224.7953102618
 30
0.0
  0
VERTEX
  5
39E
  8
0
  6
CONTINUOUS
 62
     7
 10
293.4225953159
 20
224.7747705012
 30
0.0
  0
VERTEX
  5
39F
  8
0
  6
CONTINUOUS
 62
     7
 10
290.0226390895
 20
224.739913705
 30
0.0
  0
VERTEX
  5
3A0
  8
0
  6
CONTINUOUS
 62
     7
 10
286.6158164081
 20
224.7105166942
 30
0.0
  0
VERTEX
  5
3A1
  8
0
  6
CONTINUOUS
 62
     7
 10
283.203313404
 20
224.6866033107
 30
0.0
  0
VERTEX
  5
3A2
  8
0
  6
CONTINUOUS
 62
     7
 10
279.7863042888
 20
224.6681735545
 30
0.0
  0
VERTEX
  5
3A3
  8
0
  6
CONTINUOUS
 62
     7
 10
276.365951353
 20
224.6552274257
 30
0.0
  0
VERTEX
  5
3A4
  8
0
  6
CONTINUOUS
 62
     7
 10
272.9434288082
 20
224.647788766
 30
0.0
  0
VERTEX
  5
3A5
  8
0
  6
CONTINUOUS
 62
     7
 10
269.5199049053
 20
224.6458456546
 30
0.0
  0
VERTEX
  5
3A6
  8
0
  6
CONTINUOUS
 62
     7
 10
266.0965478954
 20
224.6493980914
 30
0.0
  0
VERTEX
  5
3A7
  8
0
  6
CONTINUOUS
 62
     7
 10
262.6745260295
 20
224.6584460765
 30
0.0
  0
VERTEX
  5
3A8
  8
0
  6
CONTINUOUS
 62
     7
 10
259.2550135192
 20
224.6729896098
 30
0.0
  0
VERTEX
  5
3A9
  8
0
  6
CONTINUOUS
 62
     7
 10
255.8391786155
 20
224.6930286914
 30
0.0
  0
VERTEX
  5
3AA
  8
0
  6
CONTINUOUS
 62
     7
 10
252.4281865892
 20
224.7185514003
 30
0.0
  0
VERTEX
  5
3AB
  8
0
  6
CONTINUOUS
 62
     7
 10
249.0232086715
 20
224.7495338946
 30
0.0
  0
VERTEX
  5
3AC
  8
0
  6
CONTINUOUS
 62
     7
 10
245.8040333328
 20
224.7839376956
 30
0.0
  0
VERTEX
  5
3AD
  8
0
  6
CONTINUOUS
 62
     7
 10
244.8316610393
 20
224.7953102618
 30
0.0
  0
SEQEND
  5
71C
  8
0
  6
CONTINUOUS
 62
     7
  0
ARC
  5
7D
  8
0
  6
CONTINUOUS
 62
     7
 10
295.5237719281
 20
211.0902583056
 30
0.0
 40
13.70359462384425
 50
74.2381586796
 51
91.3150041021
  0
ARC
  5
7E
  8
0
  6
CONTINUOUS
 62
     7
 10
244.5072988314
 20
210.9648538002
 30
0.0
 40
13.82740062961853
 50
88.6548357247
 51
105.7866259498
  0
ARC
  5
7F
  8
0
  6
CONTINUOUS
 62
     7
 10
295.4212038683
 20
210.1327700419
 30
0.0
 40
9.272520752052976
 50
359.3257710989
 51
69.1493421383
  0
ARC
  5
80
  8
0
  6
CONTINUOUS
 62
     7
 10
244.6369660965
 20
210.1209007289
 30
0.0
 40
9.292299521187584
 50
111.757798427
 51
180.5967369165
  0
LINE
  5
81
  8
0
  6
CONTINUOUS
 62
     7
 10
229.9615032014
 20
210.0231573611
 30
0.0
 11
229.9615032014
 21
170.1753780871
 31
0.0
  0
LINE
  5
82
  8
0
  6
CONTINUOUS
 62
     7
 10
310.0790179309
 20
170.1753780871
 30
0.0
 11
310.0790179309
 21
210.0231573611
 31
0.0
  0
POLYLINE
  5
83
  8
0
  6
CONTINUOUS
 62
     7
 66
     1
 10
0.0
 20
0.0
 30
0.0
  0
VERTEX
  5
3AE
  8
0
  6
CONTINUOUS
 62
     7
 10
244.767493659
 20
155.0415918857
 30
0.0
  0
VERTEX
  5
3AF
  8
0
  6
CONTINUOUS
 62
     7
 10
246.5583807764
 20
155.0209984809
 30
0.0
  0
VERTEX
  5
3B0
  8
0
  6
CONTINUOUS
 62
     7
 10
249.9672121343
 20
154.9860522777
 30
0.0
  0
VERTEX
  5
3B1
  8
0
  6
CONTINUOUS
 62
     7
 10
253.3828473625
 20
154.9565837413
 30
0.0
  0
VERTEX
  5
3B2
  8
0
  6
CONTINUOUS
 62
     7
 10
256.8040943679
 20
154.9326047927
 30
0.0
  0
VERTEX
  5
3B3
  8
0
  6
CONTINUOUS
 62
     7
 10
260.2297998008
 20
154.9141273528
 30
0.0
  0
VERTEX
  5
3B4
  8
0
  6
CONTINUOUS
 62
     7
 10
263.6588132915
 20
154.9011514216
 30
0.0
  0
VERTEX
  5
3B5
  8
0
  6
CONTINUOUS
 62
     7
 10
267.0899665889
 20
154.8936889201
 30
0.0
  0
VERTEX
  5
3B6
  8
0
  6
CONTINUOUS
 62
     7
 10
270.522103363
 20
154.8917398482
 30
0.0
  0
VERTEX
  5
3B7
  8
0
  6
CONTINUOUS
 62
     7
 10
273.954073244
 20
154.895304206
 30
0.0
  0
VERTEX
  5
3B8
  8
0
  6
CONTINUOUS
 62
     7
 10
277.3847139415
 20
154.9043760329
 30
0.0
  0
VERTEX
  5
3B9
  8
0
  6
CONTINUOUS
 62
     7
 10
280.8128631649
 20
154.9189612895
 30
0.0
  0
VERTEX
  5
3BA
  8
0
  6
CONTINUOUS
 62
     7
 10
284.2373645839
 20
154.9390480548
 30
0.0
  0
VERTEX
  5
3BB
  8
0
  6
CONTINUOUS
 62
     7
 10
287.6570678291
 20
154.9646303683
 30
0.0
  0
VERTEX
  5
3BC
  8
0
  6
CONTINUOUS
 62
     7
 10
291.0708106098
 20
154.9957022697
 30
0.0
  0
VERTEX
  5
3BD
  8
0
  6
CONTINUOUS
 62
     7
 10
294.298384243
 20
155.0301954776
 30
0.0
  0
VERTEX
  5
3BE
  8
0
  6
CONTINUOUS
 62
     7
 10
295.2730274734
 20
155.0415918857
 30
0.0
  0
SEQEND
  5
71B
  8
0
  6
CONTINUOUS
 62
     7
  0
ARC
  5
84
  8
0
  6
CONTINUOUS
 62
     7
 10
244.927274943
 20
169.8805598071
 30
0.0
 40
14.83230703860255
 50
218.4767109805
 51
269.384702473
  0
ARC
  5
85
  8
0
  6
CONTINUOUS
 62
     7
 10
295.1148332852
 20
169.8761062048
 30
0.0
 40
14.82854731633996
 50
270.6098045045
 51
321.4779328191
  0
LINE
  5
86
  8
0
  6
CONTINUOUS
 62
     7
 10
235.3415018854
 20
170.1753780871
 30
0.0
 11
235.3415018854
 21
210.0231573611
 31
0.0
  0
LINE
  5
87
  8
0
  6
CONTINUOUS
 62
     7
 10
304.699019247
 20
210.0231573611
 30
0.0
 11
304.699019247
 21
170.1753780871
 31
0.0
  0
ARC
  5
88
  8
0
  6
CONTINUOUS
 62
     7
 10
294.943619754
 20
170.1457631393
 30
0.0
 40
15.12956111561081
 50
327.6393968431
 51
0.1103012021
  0
ARC
  5
89
  8
0
  6
CONTINUOUS
 62
     7
 10
244.9244372996
 20
170.1013076783
 30
0.0
 40
14.95603797602377
 50
179.7162390754
 51
212.56920736
  0
POLYLINE
  5
8A
  8
0
  6
CONTINUOUS
 62
     7
 66
     1
 10
0.0
 20
0.0
 30
0.0
  0
VERTEX
  5
3BF
  8
0
  6
CONTINUOUS
 62
     7
 10
295.2088571128
 20
160.4212090999
 30
0.0
  0
VERTEX
  5
3C0
  8
0
  6
CONTINUOUS
 62
     7
 10
293.4225953159
 20
160.4006693393
 30
0.0
  0
VERTEX
  5
3C1
  8
0
  6
CONTINUOUS
 62
     7
 10
290.0226390895
 20
160.365812543
 30
0.0
  0
VERTEX
  5
3C2
  8
0
  6
CONTINUOUS
 62
     7
 10
286.6158164081
 20
160.3364155322
 30
0.0
  0
VERTEX
  5
3C3
  8
0
  6
CONTINUOUS
 62
     7
 10
283.203313404
 20
160.3125021487
 30
0.0
  0
VERTEX
  5
3C4
  8
0
  6
CONTINUOUS
 62
     7
 10
279.7863042888
 20
160.2940723926
 30
0.0
  0
VERTEX
  5
3C5
  8
0
  6
CONTINUOUS
 62
     7
 10
276.365951353
 20
160.2811262637
 30
0.0
  0
VERTEX
  5
3C6
  8
0
  6
CONTINUOUS
 62
     7
 10
272.9434288082
 20
160.2736876041
 30
0.0
  0
VERTEX
  5
3C7
  8
0
  6
CONTINUOUS
 62
     7
 10
269.5199049053
 20
160.2717444926
 30
0.0
  0
VERTEX
  5
3C8
  8
0
  6
CONTINUOUS
 62
     7
 10
266.0965478954
 20
160.2752969295
 30
0.0
  0
VERTEX
  5
3C9
  8
0
  6
CONTINUOUS
 62
     7
 10
262.6745260295
 20
160.2843449145
 30
0.0
  0
VERTEX
  5
3CA
  8
0
  6
CONTINUOUS
 62
     7
 10
259.2550135192
 20
160.2988884479
 30
0.0
  0
VERTEX
  5
3CB
  8
0
  6
CONTINUOUS
 62
     7
 10
255.8391786155
 20
160.3189275294
 30
0.0
  0
VERTEX
  5
3CC
  8
0
  6
CONTINUOUS
 62
     7
 10
252.4281865892
 20
160.3444383174
 30
0.0
  0
VERTEX
  5
3CD
  8
0
  6
CONTINUOUS
 62
     7
 10
249.0232086715
 20
160.3754327327
 30
0.0
  0
VERTEX
  5
3CE
  8
0
  6
CONTINUOUS
 62
     7
 10
245.8040333328
 20
160.4098365336
 30
0.0
  0
VERTEX
  5
3CF
  8
0
  6
CONTINUOUS
 62
     7
 10
244.8316610393
 20
160.4212090999
 30
0.0
  0
SEQEND
  5
71A
  8
0
  6
CONTINUOUS
 62
     7
  0
ARC
  5
8B
  8
0
  6
CONTINUOUS
 62
     7
 10
245.0188009698
 20
170.0950224884
 30
0.0
 40
9.670906979931777
 50
179.5278788963
 51
268.8865132506
  0
ARC
  5
8C
  8
0
  6
CONTINUOUS
 62
     7
 10
295.0249355517
 20
170.0972636757
 30
0.0
 40
9.670567930718827
 50
271.0898271763
 51
0.4549740272
  0
LINE
  5
8D
  8
0
  6
CONTINUOUS
 62
     7
 10
431.420258337
 20
151.3357863456
 30
0.0
 11
428.2166994152
 21
151.3357863456
 31
0.0
  0
LINE
  5
8E
  8
0
  6
CONTINUOUS
 62
     7
 10
424.4463241634
 20
150.935785535
 30
0.0
 11
410.6202638683
 21
150.935785535
 31
0.0
  0
LINE
  5
8F
  8
0
  6
CONTINUOUS
 62
     7
 10
410.6202638683
 20
138.9357850581
 30
0.0
 11
428.0202663478
 21
138.9357850581
 31
0.0
  0
LINE
  5
90
  8
0
  6
CONTINUOUS
 62
     7
 10
311.4202654895
 20
151.3357863456
 30
0.0
 11
308.0202615795
 21
151.3357863456
 31
0.0
  0
LINE
  5
91
  8
0
  6
CONTINUOUS
 62
     7
 10
308.0202615795
 20
150.935785535
 30
0.0
 11
307.7202594814
 21
150.935785535
 31
0.0
  0
LINE
  5
92
  8
0
  6
CONTINUOUS
 62
     7
 10
306.7202604351
 20
150.935785535
 30
0.0
 11
290.6202590999
 21
150.935785535
 31
0.0
  0
LINE
  5
93
  8
0
  6
CONTINUOUS
 62
     7
 10
290.6202590999
 20
138.9357850581
 30
0.0
 11
308.0202615795
 21
138.9357850581
 31
0.0
  0
LINE
  5
94
  8
0
  6
CONTINUOUS
 62
     7
 10
71.4202559528
 20
151.3357863456
 30
0.0
 11
68.0202639637
 21
151.3357863456
 31
0.0
  0
LINE
  5
95
  8
0
  6
CONTINUOUS
 62
     7
 10
68.0202639637
 20
150.935785535
 30
0.0
 11
67.7202618656
 21
150.935785535
 31
0.0
  0
LINE
  5
96
  8
0
  6
CONTINUOUS
 62
     7
 10
66.7202628192
 20
150.935785535
 30
0.0
 11
50.6202614841
 21
150.935785535
 31
0.0
  0
LINE
  5
97
  8
0
  6
CONTINUOUS
 62
     7
 10
50.6202614841
 20
138.9357850581
 30
0.0
 11
68.0202639637
 21
138.9357850581
 31
0.0
  0
LINE
  5
98
  8
0
  6
CONTINUOUS
 62
     7
 10
191.420259231
 20
151.3357863456
 30
0.0
 11
188.0202597913
 21
151.3357863456
 31
0.0
  0
LINE
  5
99
  8
0
  6
CONTINUOUS
 62
     7
 10
188.0202597913
 20
150.935785535
 30
0.0
 11
187.7202591834
 21
150.935785535
 31
0.0
  0
LINE
  5
9A
  8
0
  6
CONTINUOUS
 62
     7
 10
186.720260137
 20
150.935785535
 30
0.0
 11
170.620260292
 21
150.935785535
 31
0.0
  0
LINE
  5
9B
  8
0
  6
CONTINUOUS
 62
     7
 10
170.620260292
 20
138.9357850581
 30
0.0
 11
188.0202597913
 21
138.9357850581
 31
0.0
  0
LINE
  5
9C
  8
0
  6
CONTINUOUS
 62
     7
 10
351.8238103923
 20
151.3357863456
 30
0.0
 11
348.6202633914
 21
151.3357863456
 31
0.0
  0
LINE
  5
9D
  8
0
  6
CONTINUOUS
 62
     7
 10
352.0202553806
 20
138.9357850581
 30
0.0
 11
369.4202578601
 21
138.9357850581
 31
0.0
  0
LINE
  5
9E
  8
0
  6
CONTINUOUS
 62
     7
 10
369.4202578601
 20
150.935785535
 30
0.0
 11
355.594197565
 21
150.935785535
 31
0.0
  0
LINE
  5
9F
  8
0
  6
CONTINUOUS
 62
     7
 10
112.0202577648
 20
151.3357863456
 30
0.0
 11
108.6202538547
 21
151.3357863456
 31
0.0
  0
LINE
  5
A0
  8
0
  6
CONTINUOUS
 62
     7
 10
112.0202577648
 20
138.9357850581
 30
0.0
 11
129.4202602443
 21
138.9357850581
 31
0.0
  0
LINE
  5
A1
  8
0
  6
CONTINUOUS
 62
     7
 10
129.4202602443
 20
150.935785535
 30
0.0
 11
113.3202589092
 21
150.935785535
 31
0.0
  0
LINE
  5
A2
  8
0
  6
CONTINUOUS
 62
     7
 10
112.3202598629
 20
150.935785535
 30
0.0
 11
112.0202577648
 21
150.935785535
 31
0.0
  0
LINE
  5
A3
  8
0
  6
CONTINUOUS
 62
     7
 10
-7.9797470036
 20
151.3357863456
 30
0.0
 11
-11.3797389927
 21
151.3357863456
 31
0.0
  0
LINE
  5
A4
  8
0
  6
CONTINUOUS
 62
     7
 10
-7.9797470036
 20
138.9357850581
 30
0.0
 11
9.420255476
 21
138.9357850581
 31
0.0
  0
LINE
  5
A5
  8
0
  6
CONTINUOUS
 62
     7
 10
9.420255476
 20
150.935785535
 30
0.0
 11
-6.6797458592
 21
150.935785535
 31
0.0
  0
LINE
  5
A6
  8
0
  6
CONTINUOUS
 62
     7
 10
-7.6797449055
 20
150.935785535
 30
0.0
 11
-7.9797470036
 21
150.935785535
 31
0.0
  0
LINE
  5
A7
  8
0
  6
CONTINUOUS
 62
     7
 10
232.0202595529
 20
151.3357863456
 30
0.0
 11
228.6202601132
 21
151.3357863456
 31
0.0
  0
LINE
  5
A8
  8
0
  6
CONTINUOUS
 62
     7
 10
232.0202595529
 20
138.9357850581
 30
0.0
 11
249.4202590522
 21
138.9357850581
 31
0.0
  0
LINE
  5
A9
  8
0
  6
CONTINUOUS
 62
     7
 10
249.4202590522
 20
150.935785535
 30
0.0
 11
233.3202592072
 21
150.935785535
 31
0.0
  0
LINE
  5
AA
  8
0
  6
CONTINUOUS
 62
     7
 10
232.3202601609
 20
150.935785535
 30
0.0
 11
232.0202595529
 21
150.935785535
 31
0.0
  0
LINE
  5
AB
  8
0
  6
CONTINUOUS
 62
     7
 10
26.6059792575
 20
58.3357856303
 30
0.0
 11
22.8473341999
 21
58.3357856303
 31
0.0
  0
LINE
  5
AC
  8
0
  6
CONTINUOUS
 62
     7
 10
22.8473341999
 20
59.5357856408
 30
0.0
 11
26.6059792575
 21
59.5357856408
 31
0.0
  0
LINE
  5
AD
  8
0
  6
CONTINUOUS
 62
     7
 10
26.6059792575
 20
58.3357856303
 30
0.0
 11
33.4345496234
 21
58.3357856303
 31
0.0
  0
LINE
  5
AE
  8
0
  6
CONTINUOUS
 62
     7
 10
26.6059792575
 20
59.5357856408
 30
0.0
 11
33.4345496234
 21
59.5357856408
 31
0.0
  0
LINE
  5
AF
  8
0
  6
CONTINUOUS
 62
     7
 10
37.1931946811
 20
58.3357856303
 30
0.0
 11
33.4345496234
 21
58.3357856303
 31
0.0
  0
LINE
  5
B0
  8
0
  6
CONTINUOUS
 62
     7
 10
33.4345496234
 20
59.5357856408
 30
0.0
 11
37.1931946811
 21
59.5357856408
 31
0.0
  0
LINE
  5
B1
  8
0
  6
CONTINUOUS
 62
     7
 10
382.8473246631
 20
59.5357856408
 30
0.0
 11
386.6059697208
 21
59.5357856408
 31
0.0
  0
LINE
  5
B2
  8
0
  6
CONTINUOUS
 62
     7
 10
386.6059697208
 20
58.3357856303
 30
0.0
 11
382.8473246631
 21
58.3357856303
 31
0.0
  0
LINE
  5
B3
  8
0
  6
CONTINUOUS
 62
     7
 10
393.4345400867
 20
59.5357856408
 30
0.0
 11
397.1931851444
 21
59.5357856408
 31
0.0
  0
LINE
  5
B4
  8
0
  6
CONTINUOUS
 62
     7
 10
397.1931851444
 20
58.3357856303
 30
0.0
 11
393.4345400867
 21
58.3357856303
 31
0.0
  0
LINE
  5
B5
  8
0
  6
CONTINUOUS
 62
     7
 10
386.6059697208
 20
59.5357856408
 30
0.0
 11
393.4345400867
 21
59.5357856408
 31
0.0
  0
LINE
  5
B6
  8
0
  6
CONTINUOUS
 62
     7
 10
386.6059697208
 20
58.3357856303
 30
0.0
 11
393.4345400867
 21
58.3357856303
 31
0.0
  0
LINE
  5
B7
  8
0
  6
CONTINUOUS
 62
     7
 10
18.0202639637
 20
58.3357856303
 30
0.0
 11
18.0202639637
 21
59.5357856408
 31
0.0
  0
LINE
  5
B8
  8
0
  6
CONTINUOUS
 62
     7
 10
18.0202639637
 20
58.3357856303
 30
0.0
 11
22.8473341999
 21
58.3357856303
 31
0.0
  0
LINE
  5
B9
  8
0
  6
CONTINUOUS
 62
     7
 10
22.8473341999
 20
59.5357856408
 30
0.0
 11
18.0202639637
 21
59.5357856408
 31
0.0
  0
LINE
  5
BA
  8
0
  6
CONTINUOUS
 62
     7
 10
42.0202649173
 20
58.3357856303
 30
0.0
 11
42.0202649173
 21
59.5357856408
 31
0.0
  0
LINE
  5
BB
  8
0
  6
CONTINUOUS
 62
     7
 10
37.1931946811
 20
58.3357856303
 30
0.0
 11
42.0202649173
 21
58.3357856303
 31
0.0
  0
LINE
  5
BC
  8
0
  6
CONTINUOUS
 62
     7
 10
42.0202649173
 20
59.5357856408
 30
0.0
 11
37.1931946811
 21
59.5357856408
 31
0.0
  0
LINE
  5
BD
  8
0
  6
CONTINUOUS
 62
     7
 10
378.0202544269
 20
58.3357856303
 30
0.0
 11
378.0202544269
 21
59.5357856408
 31
0.0
  0
LINE
  5
BE
  8
0
  6
CONTINUOUS
 62
     7
 10
382.8473246631
 20
59.5357856408
 30
0.0
 11
378.0202544269
 21
59.5357856408
 31
0.0
  0
LINE
  5
BF
  8
0
  6
CONTINUOUS
 62
     7
 10
378.0202544269
 20
58.3357856303
 30
0.0
 11
382.8473246631
 21
58.3357856303
 31
0.0
  0
LINE
  5
C0
  8
0
  6
CONTINUOUS
 62
     7
 10
402.0202553806
 20
58.3357856303
 30
0.0
 11
402.0202553806
 21
59.5357856408
 31
0.0
  0
LINE
  5
C1
  8
0
  6
CONTINUOUS
 62
     7
 10
402.0202553806
 20
59.5357856408
 30
0.0
 11
397.1931851444
 21
59.5357856408
 31
0.0
  0
LINE
  5
C2
  8
0
  6
CONTINUOUS
 62
     7
 10
397.1931851444
 20
58.3357856303
 30
0.0
 11
402.0202553806
 21
58.3357856303
 31
0.0
  0
POLYLINE
  5
C3
  8
0
  6
CONTINUOUS
 62
     7
 66
     1
 10
0.0
 20
0.0
 30
0.0
  0
VERTEX
  5
3D0
  8
0
  6
CONTINUOUS
 62
     7
 10
395.0202620563
 20
123.5357866317
 30
0.0
  0
VERTEX
  5
3D1
  8
0
  6
CONTINUOUS
 62
     7
 10
395.0010455188
 20
123.5550031692
 30
0.0
  0
VERTEX
  5
3D2
  8
0
  6
CONTINUOUS
 62
     7
 10
394.944135004
 20
123.6119077235
 30
0.0
  0
VERTEX
  5
3D3
  8
0
  6
CONTINUOUS
 62
     7
 10
394.8517239627
 20
123.7043187648
 30
0.0
  0
VERTEX
  5
3D4
  8
0
  6
CONTINUOUS
 62
     7
 10
394.7273648319
 20
123.8286778956
 30
0.0
  0
VERTEX
  5
3D5
  8
0
  6
CONTINUOUS
 62
     7
 10
394.575825983
 20
123.9802167445
 30
0.0
  0
VERTEX
  5
3D6
  8
0
  6
CONTINUOUS
 62
     7
 10
394.4029486713
 20
124.1531000167
 30
0.0
  0
VERTEX
  5
3D7
  8
0
  6
CONTINUOUS
 62
     7
 10
394.2153490123
 20
124.3406937152
 30
0.0
  0
VERTEX
  5
3D8
  8
0
  6
CONTINUOUS
 62
     7
 10
394.02026301
 20
124.535785678
 30
0.0
  0
SEQEND
  5
719
  8
0
  6
CONTINUOUS
 62
     7
  0
LINE
  5
C4
  8
0
  6
CONTINUOUS
 62
     7
 10
395.0202620563
 20
123.5357866317
 30
0.0
 11
395.0202620563
 21
59.5357856408
 31
0.0
  0
ARC
  5
C5
  8
0
  6
CONTINUOUS
 62
     7
 10
433.2202596721
 20
133.1357856303
 30
0.0
 40
0.4000000000000341
 50
0.0
 51
90.0
  0
LINE
  5
C6
  8
0
  6
CONTINUOUS
 62
     7
 10
433.6202657756
 20
133.1357882052
 30
0.0
 11
433.6202657756
 21
132.5357840091
 31
0.0
  0
LINE
  5
C7
  8
0
  6
CONTINUOUS
 62
     7
 10
-13.1797515812
 20
133.5357830554
 30
0.0
 11
-11.3797389927
 21
133.5357830554
 31
0.0
  0
LINE
  5
C8
  8
0
  6
CONTINUOUS
 62
     7
 10
-1.5797340336
 20
133.5357830554
 30
0.0
 11
61.6202629146
 21
133.5357830554
 31
0.0
  0
LINE
  5
C9
  8
0
  6
CONTINUOUS
 62
     7
 10
71.4202559528
 20
133.5357830554
 30
0.0
 11
108.6202538547
 21
133.5357830554
 31
0.0
  0
LINE
  5
CA
  8
0
  6
CONTINUOUS
 62
     7
 10
118.4202588138
 20
133.5357830554
 30
0.0
 11
181.6202587423
 21
133.5357830554
 31
0.0
  0
LINE
  5
CB
  8
0
  6
CONTINUOUS
 62
     7
 10
191.420259231
 20
133.5357830554
 30
0.0
 11
228.6202601132
 21
133.5357830554
 31
0.0
  0
LINE
  5
CC
  8
0
  6
CONTINUOUS
 62
     7
 10
238.420260602
 20
133.5357830554
 30
0.0
 11
301.6202605304
 21
133.5357830554
 31
0.0
  0
LINE
  5
CD
  8
0
  6
CONTINUOUS
 62
     7
 10
311.4202654895
 20
133.5357830554
 30
0.0
 11
348.6202633914
 21
133.5357830554
 31
0.0
  0
LINE
  5
CE
  8
0
  6
CONTINUOUS
 62
     7
 10
358.4202564296
 20
133.5357830554
 30
0.0
 11
421.6202533779
 21
133.5357830554
 31
0.0
  0
LINE
  5
CF
  8
0
  6
CONTINUOUS
 62
     7
 10
431.420258337
 20
133.5357830554
 30
0.0
 11
433.2202709255
 21
133.5357830554
 31
0.0
  0
LINE
  5
D0
  8
0
  6
CONTINUOUS
 62
     7
 10
433.2202709255
 20
123.5357866317
 30
0.0
 11
430.2920377788
 21
123.5357866317
 31
0.0
  0
LINE
  5
D1
  8
0
  6
CONTINUOUS
 62
     7
 10
422.748473936
 20
123.5357866317
 30
0.0
 11
395.0202620563
 21
123.5357866317
 31
0.0
  0
LINE
  5
D2
  8
0
  6
CONTINUOUS
 62
     7
 10
433.6202657756
 20
132.5357840091
 30
0.0
 11
433.6202657756
 21
124.535785678
 31
0.0
  0
LINE
  5
D3
  8
0
  6
CONTINUOUS
 62
     7
 10
25.0202572879
 20
59.5357856408
 30
0.0
 11
25.0202572879
 21
123.5357866317
 31
0.0
  0
POLYLINE
  5
D4
  8
0
  6
CONTINUOUS
 62
     7
 66
     1
 10
0.0
 20
0.0
 30
0.0
  0
VERTEX
  5
3D9
  8
0
  6
CONTINUOUS
 62
     7
 10
25.0202572879
 20
123.5357866317
 30
0.0
  0
VERTEX
  5
3DA
  8
0
  6
CONTINUOUS
 62
     7
 10
25.0394738254
 20
123.5550031692
 30
0.0
  0
VERTEX
  5
3DB
  8
0
  6
CONTINUOUS
 62
     7
 10
25.0963843402
 20
123.6119077235
 30
0.0
  0
VERTEX
  5
3DC
  8
0
  6
CONTINUOUS
 62
     7
 10
25.1887953815
 20
123.7043187648
 30
0.0
  0
VERTEX
  5
3DD
  8
0
  6
CONTINUOUS
 62
     7
 10
25.3131545124
 20
123.8286778956
 30
0.0
  0
VERTEX
  5
3DE
  8
0
  6
CONTINUOUS
 62
     7
 10
25.4646933612
 20
123.9802167445
 30
0.0
  0
VERTEX
  5
3DF
  8
0
  6
CONTINUOUS
 62
     7
 10
25.6375706729
 20
124.1531000167
 30
0.0
  0
VERTEX
  5
3E0
  8
0
  6
CONTINUOUS
 62
     7
 10
25.8251703319
 20
124.3406937152
 30
0.0
  0
VERTEX
  5
3E1
  8
0
  6
CONTINUOUS
 62
     7
 10
26.0202563343
 20
124.535785678
 30
0.0
  0
SEQEND
  5
718
  8
0
  6
CONTINUOUS
 62
     7
  0
LINE
  5
D5
  8
0
  6
CONTINUOUS
 62
     7
 10
25.0202572879
 20
123.5357866317
 30
0.0
 11
-2.7079545918
 21
123.5357866317
 31
0.0
  0
LINE
  5
D6
  8
0
  6
CONTINUOUS
 62
     7
 10
-10.2515184346
 20
123.5357866317
 30
0.0
 11
-13.1797515812
 21
123.5357866317
 31
0.0
  0
CIRCLE
  5
D7
  8
0
  6
CONTINUOUS
 62
     7
 10
307.5202596721
 20
127.7357856303
 30
0.0
 40
1.049999999999955
  0
CIRCLE
  5
D8
  8
0
  6
CONTINUOUS
 62
     7
 10
112.5202596721
 20
127.7357856303
 30
0.0
 40
1.049999999999997
  0
CIRCLE
  5
D9
  8
0
  6
CONTINUOUS
 62
     7
 10
232.5202596721
 20
127.7357856303
 30
0.0
 40
1.050000000000011
  0
CIRCLE
  5
DA
  8
0
  6
CONTINUOUS
 62
     7
 10
67.5202596721
 20
127.7357856303
 30
0.0
 40
1.049999999999997
  0
CIRCLE
  5
DB
  8
0
  6
CONTINUOUS
 62
     7
 10
427.5202596721
 20
127.7357856303
 30
0.0
 40
1.049999999999955
  0
CIRCLE
  5
DC
  8
0
  6
CONTINUOUS
 62
     7
 10
-7.4797403279
 20
127.7357856303
 30
0.0
 40
1.049999999999995
  0
CIRCLE
  5
DD
  8
0
  6
CONTINUOUS
 62
     7
 10
187.5202596721
 20
127.7357856303
 30
0.0
 40
1.050000000000011
  0
CIRCLE
  5
DE
  8
0
  6
CONTINUOUS
 62
     7
 10
352.5202596721
 20
127.7357856303
 30
0.0
 40
1.049999999999955
  0
LINE
  5
DF
  8
0
  6
CONTINUOUS
 62
     7
 10
385.0202596721
 20
59.5357856408
 30
0.0
 11
385.0202596721
 21
123.5357866317
 31
0.0
  0
POLYLINE
  5
E0
  8
0
  6
CONTINUOUS
 62
     7
 66
     1
 10
0.0
 20
0.0
 30
0.0
  0
VERTEX
  5
3E2
  8
0
  6
CONTINUOUS
 62
     7
 10
386.0202587184
 20
124.535785678
 30
0.0
  0
VERTEX
  5
3E3
  8
0
  6
CONTINUOUS
 62
     7
 10
385.8251727161
 20
124.3406937152
 30
0.0
  0
VERTEX
  5
3E4
  8
0
  6
CONTINUOUS
 62
     7
 10
385.6375730571
 20
124.1531000167
 30
0.0
  0
VERTEX
  5
3E5
  8
0
  6
CONTINUOUS
 62
     7
 10
385.4646838245
 20
123.9802167445
 30
0.0
  0
VERTEX
  5
3E6
  8
0
  6
CONTINUOUS
 62
     7
 10
385.3131568965
 20
123.8286778956
 30
0.0
  0
VERTEX
  5
3E7
  8
0
  6
CONTINUOUS
 62
     7
 10
385.1887858448
 20
123.7043187648
 30
0.0
  0
VERTEX
  5
3E8
  8
0
  6
CONTINUOUS
 62
     7
 10
385.0963748035
 20
123.6119077235
 30
0.0
  0
VERTEX
  5
3E9
  8
0
  6
CONTINUOUS
 62
     7
 10
385.0394762096
 20
123.5550031692
 30
0.0
  0
VERTEX
  5
3EA
  8
0
  6
CONTINUOUS
 62
     7
 10
385.0202596721
 20
123.5357866317
 30
0.0
  0
SEQEND
  5
717
  8
0
  6
CONTINUOUS
 62
     7
  0
LINE
  5
E1
  8
0
  6
CONTINUOUS
 62
     7
 10
385.0202596721
 20
123.5357866317
 30
0.0
 11
357.2920358715
 21
123.5357866317
 31
0.0
  0
LINE
  5
E2
  8
0
  6
CONTINUOUS
 62
     7
 10
349.7484839496
 20
123.5357866317
 30
0.0
 11
310.2920449314
 21
123.5357866317
 31
0.0
  0
LINE
  5
E3
  8
0
  6
CONTINUOUS
 62
     7
 10
302.7484810886
 20
123.5357866317
 30
0.0
 11
237.2920400438
 21
123.5357866317
 31
0.0
  0
LINE
  5
E4
  8
0
  6
CONTINUOUS
 62
     7
 10
229.7484791812
 20
123.5357866317
 30
0.0
 11
190.292040163
 21
123.5357866317
 31
0.0
  0
LINE
  5
E5
  8
0
  6
CONTINUOUS
 62
     7
 10
182.7484793005
 20
123.5357866317
 30
0.0
 11
117.2920382556
 21
123.5357866317
 31
0.0
  0
LINE
  5
E6
  8
0
  6
CONTINUOUS
 62
     7
 10
109.7484744129
 20
123.5357866317
 30
0.0
 11
70.2920353946
 21
123.5357866317
 31
0.0
  0
LINE
  5
E7
  8
0
  6
CONTINUOUS
 62
     7
 10
62.7484834728
 20
123.5357866317
 30
0.0
 11
35.0202596721
 21
123.5357866317
 31
0.0
  0
POLYLINE
  5
E8
  8
0
  6
CONTINUOUS
 62
     7
 66
     1
 10
0.0
 20
0.0
 30
0.0
  0
VERTEX
  5
3EB
  8
0
  6
CONTINUOUS
 62
     7
 10
34.0202606258
 20
124.535785678
 30
0.0
  0
VERTEX
  5
3EC
  8
0
  6
CONTINUOUS
 62
     7
 10
34.2153466281
 20
124.3406937152
 30
0.0
  0
VERTEX
  5
3ED
  8
0
  6
CONTINUOUS
 62
     7
 10
34.4029462871
 20
124.1531000167
 30
0.0
  0
VERTEX
  5
3EE
  8
0
  6
CONTINUOUS
 62
     7
 10
34.5758355197
 20
123.9802167445
 30
0.0
  0
VERTEX
  5
3EF
  8
0
  6
CONTINUOUS
 62
     7
 10
34.7273624477
 20
123.8286778956
 30
0.0
  0
VERTEX
  5
3F0
  8
0
  6
CONTINUOUS
 62
     7
 10
34.8517334995
 20
123.7043187648
 30
0.0
  0
VERTEX
  5
3F1
  8
0
  6
CONTINUOUS
 62
     7
 10
34.9441445407
 20
123.6119077235
 30
0.0
  0
VERTEX
  5
3F2
  8
0
  6
CONTINUOUS
 62
     7
 10
35.0010431346
 20
123.5550031692
 30
0.0
  0
VERTEX
  5
3F3
  8
0
  6
CONTINUOUS
 62
     7
 10
35.0202596721
 20
123.5357866317
 30
0.0
  0
SEQEND
  5
716
  8
0
  6
CONTINUOUS
 62
     7
  0
LINE
  5
E9
  8
0
  6
CONTINUOUS
 62
     7
 10
-13.5797464314
 20
123.9357874423
 30
0.0
 11
-13.5797464314
 21
124.535785678
 31
0.0
  0
ARC
  5
EA
  8
0
  6
CONTINUOUS
 62
     7
 10
-13.1797403279
 20
123.9357856303
 30
0.0
 40
0.4000000000000057
 50
180.0
 51
270.0
  0
LINE
  5
EB
  8
0
  6
CONTINUOUS
 62
     7
 10
433.6202657756
 20
124.535785678
 30
0.0
 11
433.6202657756
 21
123.9357874423
 31
0.0
  0
ARC
  5
EC
  8
0
  6
CONTINUOUS
 62
     7
 10
433.2202596721
 20
123.9357856303
 30
0.0
 40
0.4000000000000341
 50
270.0
 51
0.0
  0
LINE
  5
ED
  8
0
  6
CONTINUOUS
 62
     7
 10
-13.5797464314
 20
124.535785678
 30
0.0
 11
-13.5797464314
 21
132.5357840091
 31
0.0
  0
LINE
  5
EE
  8
0
  6
CONTINUOUS
 62
     7
 10
-13.5797464314
 20
132.5357840091
 30
0.0
 11
-13.5797464314
 21
133.1357882052
 31
0.0
  0
ARC
  5
EF
  8
0
  6
CONTINUOUS
 62
     7
 10
-13.1797403279
 20
133.1357856303
 30
0.0
 40
0.4000000000000057
 50
90.0
 51
180.0
  0
LINE
  5
F0
  8
0
  6
CONTINUOUS
 62
     7
 10
35.0202596721
 20
123.5357866317
 30
0.0
 11
35.0202596721
 21
59.5357856408
 31
0.0
  0
LINE
  5
F1
  8
0
  6
CONTINUOUS
 62
     7
 10
113.3202589092
 20
180.8598086864
 30
0.0
 11
112.3202598629
 21
180.8598086864
 31
0.0
  0
LINE
  5
F2
  8
0
  6
CONTINUOUS
 62
     7
 10
113.3202589092
 20
180.8598086864
 30
0.0
 11
113.3202589092
 21
145.7137868434
 31
0.0
  0
LINE
  5
F3
  8
0
  6
CONTINUOUS
 62
     7
 10
112.3202598629
 20
180.8598086864
 30
0.0
 11
112.3202598629
 21
145.7137868434
 31
0.0
  0
LINE
  5
F4
  8
0
  6
CONTINUOUS
 62
     7
 10
186.720260137
 20
180.8598086864
 30
0.0
 11
187.7202591834
 21
180.8598086864
 31
0.0
  0
LINE
  5
F5
  8
0
  6
CONTINUOUS
 62
     7
 10
186.720260137
 20
180.8598086864
 30
0.0
 11
186.720260137
 21
145.7137868434
 31
0.0
  0
LINE
  5
F6
  8
0
  6
CONTINUOUS
 62
     7
 10
187.7202591834
 20
180.8598086864
 30
0.0
 11
187.7202591834
 21
145.7137868434
 31
0.0
  0
ARC
  5
F7
  8
0
  6
CONTINUOUS
 62
     7
 10
123.1363715136
 20
213.8547470402
 30
0.0
 40
10.66457967942409
 50
102.987760879
 51
120.0657527315
  0
ARC
  5
F8
  8
0
  6
CONTINUOUS
 62
     7
 10
175.9877243315
 20
211.4929886661
 30
0.0
 40
13.19185546280232
 50
61.3383227431
 51
75.6468881451
  0
ARC
  5
F9
  8
0
  6
CONTINUOUS
 62
     7
 10
187.3895014711
 20
211.2391516615
 30
0.0
 40
30.34010217569708
 50
268.7360683942
 51
270.6246319225
  0
ARC
  5
FA
  8
0
  6
CONTINUOUS
 62
     7
 10
112.6510179088
 20
211.2390918562
 30
0.0
 40
30.34004237754442
 50
269.3753662162
 51
271.2639334671
  0
LINE
  5
FB
  8
0
  6
CONTINUOUS
 62
     7
 10
186.720260137
 20
180.9064314395
 30
0.0
 11
186.720260137
 21
180.8598086864
 31
0.0
  0
LINE
  5
FC
  8
0
  6
CONTINUOUS
 62
     7
 10
187.7202591834
 20
180.9008524447
 30
0.0
 11
187.7202591834
 21
180.8598086864
 31
0.0
  0
LINE
  5
FD
  8
0
  6
CONTINUOUS
 62
     7
 10
113.3202589092
 20
180.9064314395
 30
0.0
 11
113.3202589092
 21
180.8598086864
 31
0.0
  0
LINE
  5
FE
  8
0
  6
CONTINUOUS
 62
     7
 10
112.3202598629
 20
180.9008524447
 30
0.0
 11
112.3202598629
 21
180.8598086864
 31
0.0
  0
ARC
  5
FF
  8
0
  6
CONTINUOUS
 62
     7
 10
390.0359278663
 20
330.8917190652
 30
0.0
 40
183.2166525530692
 50
277.792084299
 51
281.5897666902
  0
ARC
  5
100
  8
0
  6
CONTINUOUS
 62
     7
 10
427.389016305
 20
148.7762887508
 30
0.0
 40
2.690000000000023
 50
12.4186815058
 51
100.0467259538
  0
ARC
  5
101
  8
0
  6
CONTINUOUS
 62
     7
 10
390.021411142
 20
330.9772596547
 30
0.0
 40
188.6833640402452
 50
277.7929536446
 51
281.5888187493
  0
ARC
  5
102
  8
0
  6
CONTINUOUS
 62
     7
 10
427.389016305
 20
148.7762887508
 30
0.0
 40
2.690000000000026
 50
281.5900201068
 51
12.4186815058
  0
ARC
  5
103
  8
0
  6
CONTINUOUS
 62
     7
 10
352.6515030393
 20
148.7762887508
 30
0.0
 40
2.69000000000003
 50
80.0567778902
 51
167.5813184942
  0
ARC
  5
104
  8
0
  6
CONTINUOUS
 62
     7
 10
390.0363701241
 20
331.0780229976
 30
0.0
 40
183.4055429362316
 50
258.4122929199
 51
262.2059750124
  0
ARC
  5
105
  8
0
  6
CONTINUOUS
 62
     7
 10
390.0190046297
 20
330.9765813067
 30
0.0
 40
188.6826775900334
 50
258.4109200711
 51
262.2070503025
  0
ARC
  5
106
  8
0
  6
CONTINUOUS
 62
     7
 10
352.6515030393
 20
148.7762887508
 30
0.0
 40
2.69000000000003
 50
167.5813184942
 51
258.4099798932
  0
ARC
  5
107
  8
0
  6
CONTINUOUS
 62
     7
 10
390.0202596721
 20
330.9837969049
 30
0.0
 40
183.3100000000006
 50
262.2069690737
 51
277.7930309263
  0
ARC
  5
108
  8
0
  6
CONTINUOUS
 62
     7
 10
390.0202596721
 20
330.9837969049
 30
0.0
 40
188.6900000000006
 50
262.2069690737
 51
277.7930309263
  0
LINE
  5
109
  8
0
  6
CONTINUOUS
 62
     7
 10
426.7202652034
 20
145.6357882052
 30
0.0
 11
427.7202642498
 21
145.6357882052
 31
0.0
  0
LINE
  5
10A
  8
0
  6
CONTINUOUS
 62
     7
 10
426.7202652034
 20
145.8973751098
 30
0.0
 11
426.7202652034
 21
145.6357882052
 31
0.0
  0
LINE
  5
10B
  8
0
  6
CONTINUOUS
 62
     7
 10
427.7202642498
 20
146.1067602664
 30
0.0
 11
427.7202642498
 21
145.6357882052
 31
0.0
  0
LINE
  5
10C
  8
0
  6
CONTINUOUS
 62
     7
 10
353.320256525
 20
145.8973810702
 30
0.0
 11
353.320256525
 21
145.6357882052
 31
0.0
  0
LINE
  5
10D
  8
0
  6
CONTINUOUS
 62
     7
 10
353.320256525
 20
145.6357882052
 30
0.0
 11
352.3202574787
 21
145.6357882052
 31
0.0
  0
LINE
  5
10E
  8
0
  6
CONTINUOUS
 62
     7
 10
352.3202574787
 20
146.1067602664
 30
0.0
 11
352.3202574787
 21
145.6357882052
 31
0.0
  0
LINE
  5
10F
  8
0
  6
CONTINUOUS
 62
     7
 10
426.7202652034
 20
145.6357882052
 30
0.0
 11
426.7202652034
 21
139.0768871337
 31
0.0
  0
LINE
  5
110
  8
0
  6
CONTINUOUS
 62
     7
 10
427.7202642498
 20
145.6357882052
 30
0.0
 11
427.7202642498
 21
139.0768871337
 31
0.0
  0
LINE
  5
111
  8
0
  6
CONTINUOUS
 62
     7
 10
353.320256525
 20
145.6357882052
 30
0.0
 11
353.320256525
 21
139.0768871337
 31
0.0
  0
LINE
  5
112
  8
0
  6
CONTINUOUS
 62
     7
 10
352.3202574787
 20
145.6357882052
 30
0.0
 11
352.3202574787
 21
139.0768871337
 31
0.0
  0
LINE
  5
113
  8
0
  6
CONTINUOUS
 62
     7
 10
353.1919396457
 20
151.4114425212
 30
0.0
 11
353.1958973941
 21
151.4106259376
 31
0.0
  0
LINE
  5
114
  8
0
  6
CONTINUOUS
 62
     7
 10
426.844338232
 20
151.4105722934
 30
0.0
 11
426.8485820827
 21
151.4114425212
 31
0.0
  0
LINE
  5
115
  8
0
  6
CONTINUOUS
 62
     7
 10
66.7202628192
 20
180.8598086864
 30
0.0
 11
66.7202628192
 21
145.7137868434
 31
0.0
  0
LINE
  5
116
  8
0
  6
CONTINUOUS
 62
     7
 10
66.7202628192
 20
180.8598086864
 30
0.0
 11
67.7202618656
 21
180.8598086864
 31
0.0
  0
LINE
  5
117
  8
0
  6
CONTINUOUS
 62
     7
 10
67.7202618656
 20
180.8598086864
 30
0.0
 11
67.7202618656
 21
145.7137868434
 31
0.0
  0
LINE
  5
118
  8
0
  6
CONTINUOUS
 62
     7
 10
-6.6797458592
 20
180.8598086864
 30
0.0
 11
-7.6797449055
 21
180.8598086864
 31
0.0
  0
LINE
  5
119
  8
0
  6
CONTINUOUS
 62
     7
 10
-6.6797458592
 20
180.8598086864
 30
0.0
 11
-6.6797458592
 21
145.7137868434
 31
0.0
  0
LINE
  5
11A
  8
0
  6
CONTINUOUS
 62
     7
 10
-7.6797449055
 20
180.8598086864
 30
0.0
 11
-7.6797449055
 21
145.7137868434
 31
0.0
  0
ARC
  5
11B
  8
0
  6
CONTINUOUS
 62
     7
 10
3.1362395382
 20
213.8550969359
 30
0.0
 40
10.66421014587624
 50
102.9875174075
 51
120.0660753391
  0
ARC
  5
11C
  8
0
  6
CONTINUOUS
 62
     7
 10
55.9875775836
 20
211.4926056777
 30
0.0
 40
13.19226390956774
 50
61.3385454058
 51
75.6466654824
  0
ARC
  5
11D
  8
0
  6
CONTINUOUS
 62
     7
 10
-7.3489859316
 20
211.2389255197
 30
0.0
 40
30.3398760610687
 50
269.3753610394
 51
271.2639386439
  0
ARC
  5
11E
  8
0
  6
CONTINUOUS
 62
     7
 10
67.3895038196
 20
211.2390918562
 30
0.0
 40
30.3400423775438
 50
268.7360665329
 51
270.6246337838
  0
LINE
  5
11F
  8
0
  6
CONTINUOUS
 62
     7
 10
-6.6797458592
 20
180.9064314395
 30
0.0
 11
-6.6797458592
 21
180.8598086864
 31
0.0
  0
LINE
  5
120
  8
0
  6
CONTINUOUS
 62
     7
 10
-7.6797449055
 20
180.9008524447
 30
0.0
 11
-7.6797449055
 21
180.8598086864
 31
0.0
  0
LINE
  5
121
  8
0
  6
CONTINUOUS
 62
     7
 10
66.7202628192
 20
180.9064314395
 30
0.0
 11
66.7202628192
 21
180.8598086864
 31
0.0
  0
LINE
  5
122
  8
0
  6
CONTINUOUS
 62
     7
 10
67.7202618656
 20
180.9008524447
 30
0.0
 11
67.7202618656
 21
180.8598086864
 31
0.0
  0
LINE
  5
123
  8
0
  6
CONTINUOUS
 62
     7
 10
306.7202604351
 20
180.8598086864
 30
0.0
 11
307.7202594814
 21
180.8598086864
 31
0.0
  0
LINE
  5
124
  8
0
  6
CONTINUOUS
 62
     7
 10
306.7202604351
 20
180.8598086864
 30
0.0
 11
306.7202604351
 21
145.7137868434
 31
0.0
  0
LINE
  5
125
  8
0
  6
CONTINUOUS
 62
     7
 10
307.7202594814
 20
180.8598086864
 30
0.0
 11
307.7202594814
 21
145.7137868434
 31
0.0
  0
LINE
  5
126
  8
0
  6
CONTINUOUS
 62
     7
 10
233.3202592072
 20
180.8598086864
 30
0.0
 11
232.3202601609
 21
180.8598086864
 31
0.0
  0
LINE
  5
127
  8
0
  6
CONTINUOUS
 62
     7
 10
233.3202592072
 20
180.8598086864
 30
0.0
 11
233.3202592072
 21
145.7137868434
 31
0.0
  0
LINE
  5
128
  8
0
  6
CONTINUOUS
 62
     7
 10
232.3202601609
 20
180.8598086864
 30
0.0
 11
232.3202601609
 21
145.7137868434
 31
0.0
  0
ARC
  5
129
  8
0
  6
CONTINUOUS
 62
     7
 10
243.1363218631
 20
213.8548774461
 30
0.0
 40
10.66444104904367
 50
102.9876490488
 51
120.0658645618
  0
ARC
  5
12A
  8
0
  6
CONTINUOUS
 62
     7
 10
295.9876935706
 20
211.4929060668
 30
0.0
 40
13.19194355271757
 50
61.338370766
 51
75.6468401221
  0
ARC
  5
12B
  8
0
  6
CONTINUOUS
 62
     7
 10
232.6510178731
 20
211.2391516615
 30
0.0
 40
30.34010217569708
 50
269.3753680775
 51
271.2639316058
  0
ARC
  5
12C
  8
0
  6
CONTINUOUS
 62
     7
 10
307.3895014355
 20
211.2390918562
 30
0.0
 40
30.34004237754505
 50
268.7360665329
 51
270.6246337838
  0
LINE
  5
12D
  8
0
  6
CONTINUOUS
 62
     7
 10
306.7202604351
 20
180.9064314395
 30
0.0
 11
306.7202604351
 21
180.8598086864
 31
0.0
  0
LINE
  5
12E
  8
0
  6
CONTINUOUS
 62
     7
 10
307.7202594814
 20
180.9008524447
 30
0.0
 11
307.7202594814
 21
180.8598086864
 31
0.0
  0
LINE
  5
12F
  8
0
  6
CONTINUOUS
 62
     7
 10
233.3202592072
 20
180.9064314395
 30
0.0
 11
233.3202592072
 21
180.8598086864
 31
0.0
  0
LINE
  5
130
  8
0
  6
CONTINUOUS
 62
     7
 10
232.3202601609
 20
180.9008524447
 30
0.0
 11
232.3202601609
 21
180.8598086864
 31
0.0
  0
LINE
  5
131
  8
0
  6
CONTINUOUS
 62
     7
 10
431.420258337
 20
151.3357863456
 30
0.0
 11
431.420258337
 21
142.1785519153
 31
0.0
  0
LINE
  5
132
  8
0
  6
CONTINUOUS
 62
     7
 10
428.0202663478
 20
146.1613998443
 30
0.0
 11
428.0202663478
 21
142.1785519153
 31
0.0
  0
LINE
  5
133
  8
0
  6
CONTINUOUS
 62
     7
 10
410.6202638683
 20
150.935785535
 30
0.0
 11
410.6202638683
 21
148.8349661857
 31
0.0
  0
LINE
  5
134
  8
0
  6
CONTINUOUS
 62
     7
 10
410.6202638683
 20
143.4216604262
 30
0.0
 11
410.6202638683
 21
138.9357850581
 31
0.0
  0
LINE
  5
135
  8
0
  6
CONTINUOUS
 62
     7
 10
421.6202533779
 20
133.3357856303
 30
0.0
 11
421.6202533779
 21
134.3357846767
 31
0.0
  0
LINE
  5
136
  8
0
  6
CONTINUOUS
 62
     7
 10
421.6202533779
 20
134.3357846767
 30
0.0
 11
431.420258337
 21
134.3357846767
 31
0.0
  0
LINE
  5
137
  8
0
  6
CONTINUOUS
 62
     7
 10
431.420258337
 20
134.3357846767
 30
0.0
 11
431.420258337
 21
133.3357856303
 31
0.0
  0
LINE
  5
138
  8
0
  6
CONTINUOUS
 62
     7
 10
429.4202602443
 20
123.3357832461
 30
0.0
 11
423.6202514705
 21
123.3357832461
 31
0.0
  0
CIRCLE
  5
139
  8
0
  6
CONTINUOUS
 62
     7
 10
427.5202596721
 20
127.7357856303
 30
0.0
 40
1.100000000000023
  0
LINE
  5
13A
  8
0
  6
CONTINUOUS
 62
     7
 10
421.6202533779
 20
125.3357872993
 30
0.0
 11
421.6202533779
 21
133.3357856303
 31
0.0
  0
ARC
  5
13B
  8
0
  6
CONTINUOUS
 62
     7
 10
423.6202596721
 20
125.3357856303
 30
0.0
 40
2.000000000000014
 50
180.0
 51
270.0
  0
ARC
  5
13C
  8
0
  6
CONTINUOUS
 62
     7
 10
429.4202596721
 20
125.3357856303
 30
0.0
 40
2.000000000000014
 50
270.0
 51
0.0
  0
LINE
  5
13D
  8
0
  6
CONTINUOUS
 62
     7
 10
431.420258337
 20
125.3357872993
 30
0.0
 11
431.420258337
 21
133.3357856303
 31
0.0
  0
LINE
  5
13E
  8
0
  6
CONTINUOUS
 62
     7
 10
431.420258337
 20
142.1785519153
 30
0.0
 11
431.420258337
 21
137.8703758746
 31
0.0
  0
LINE
  5
13F
  8
0
  6
CONTINUOUS
 62
     7
 10
428.0202663478
 20
137.8703758746
 30
0.0
 11
428.0202663478
 21
142.1785519153
 31
0.0
  0
LINE
  5
140
  8
0
  6
CONTINUOUS
 62
     7
 10
431.420258337
 20
137.8703758746
 30
0.0
 11
431.420258337
 21
134.3357846767
 31
0.0
  0
LINE
  5
141
  8
0
  6
CONTINUOUS
 62
     7
 10
428.0202663478
 20
137.8703758746
 30
0.0
 11
428.0202663478
 21
134.3357846767
 31
0.0
  0
LINE
  5
142
  8
0
  6
CONTINUOUS
 62
     7
 10
311.4202654895
 20
151.3357863456
 30
0.0
 11
311.4202654895
 21
142.1785519153
 31
0.0
  0
LINE
  5
143
  8
0
  6
CONTINUOUS
 62
     7
 10
308.0202615795
 20
151.3357863456
 30
0.0
 11
308.0202615795
 21
142.1785519153
 31
0.0
  0
LINE
  5
144
  8
0
  6
CONTINUOUS
 62
     7
 10
290.6202590999
 20
150.935785535
 30
0.0
 11
290.6202590999
 21
138.9357850581
 31
0.0
  0
CIRCLE
  5
145
  8
0
  6
CONTINUOUS
 62
     7
 10
307.5202596721
 20
127.7357856303
 30
0.0
 40
1.10000000000008
  0
ARC
  5
146
  8
0
  6
CONTINUOUS
 62
     7
 10
309.4202596721
 20
125.3357856303
 30
0.0
 40
2.000000000000014
 50
270.0
 51
0.0
  0
LINE
  5
147
  8
0
  6
CONTINUOUS
 62
     7
 10
309.4202614364
 20
123.3357832461
 30
0.0
 11
303.6202586231
 21
123.3357832461
 31
0.0
  0
LINE
  5
148
  8
0
  6
CONTINUOUS
 62
     7
 10
301.6202605304
 20
125.3357872993
 30
0.0
 11
301.6202605304
 21
133.3357856303
 31
0.0
  0
ARC
  5
149
  8
0
  6
CONTINUOUS
 62
     7
 10
303.6202596721
 20
125.3357856303
 30
0.0
 40
2.000000000000014
 50
180.0
 51
270.0
  0
LINE
  5
14A
  8
0
  6
CONTINUOUS
 62
     7
 10
311.4202654895
 20
125.3357872993
 30
0.0
 11
311.4202654895
 21
133.3357856303
 31
0.0
  0
LINE
  5
14B
  8
0
  6
CONTINUOUS
 62
     7
 10
301.6202605304
 20
134.3357846767
 30
0.0
 11
311.4202654895
 21
134.3357846767
 31
0.0
  0
LINE
  5
14C
  8
0
  6
CONTINUOUS
 62
     7
 10
301.6202605304
 20
133.3357856303
 30
0.0
 11
301.6202605304
 21
134.3357846767
 31
0.0
  0
LINE
  5
14D
  8
0
  6
CONTINUOUS
 62
     7
 10
311.4202654895
 20
134.3357846767
 30
0.0
 11
311.4202654895
 21
133.3357856303
 31
0.0
  0
LINE
  5
14E
  8
0
  6
CONTINUOUS
 62
     7
 10
308.0202615795
 20
137.8703758746
 30
0.0
 11
308.0202615795
 21
142.1785519153
 31
0.0
  0
LINE
  5
14F
  8
0
  6
CONTINUOUS
 62
     7
 10
311.4202654895
 20
142.1785519153
 30
0.0
 11
311.4202654895
 21
137.8703758746
 31
0.0
  0
LINE
  5
150
  8
0
  6
CONTINUOUS
 62
     7
 10
308.0202615795
 20
137.8703758746
 30
0.0
 11
308.0202615795
 21
134.3357846767
 31
0.0
  0
LINE
  5
151
  8
0
  6
CONTINUOUS
 62
     7
 10
311.4202654895
 20
137.8703758746
 30
0.0
 11
311.4202654895
 21
134.3357846767
 31
0.0
  0
LINE
  5
152
  8
0
  6
CONTINUOUS
 62
     7
 10
71.4202559528
 20
151.3357863456
 30
0.0
 11
71.4202559528
 21
142.1785519153
 31
0.0
  0
LINE
  5
153
  8
0
  6
CONTINUOUS
 62
     7
 10
68.0202639637
 20
151.3357863456
 30
0.0
 11
68.0202639637
 21
142.1785519153
 31
0.0
  0
LINE
  5
154
  8
0
  6
CONTINUOUS
 62
     7
 10
50.6202614841
 20
150.935785535
 30
0.0
 11
50.6202614841
 21
138.9357850581
 31
0.0
  0
LINE
  5
155
  8
0
  6
CONTINUOUS
 62
     7
 10
61.6202629146
 20
133.3357856303
 30
0.0
 11
61.6202629146
 21
134.3357846767
 31
0.0
  0
LINE
  5
156
  8
0
  6
CONTINUOUS
 62
     7
 10
61.6202629146
 20
134.3357846767
 30
0.0
 11
71.4202559528
 21
134.3357846767
 31
0.0
  0
LINE
  5
157
  8
0
  6
CONTINUOUS
 62
     7
 10
71.4202559528
 20
134.3357846767
 30
0.0
 11
71.4202559528
 21
133.3357856303
 31
0.0
  0
CIRCLE
  5
158
  8
0
  6
CONTINUOUS
 62
     7
 10
67.5202596721
 20
127.7357856303
 30
0.0
 40
1.099999999999994
  0
LINE
  5
159
  8
0
  6
CONTINUOUS
 62
     7
 10
61.6202629146
 20
125.3357872993
 30
0.0
 11
61.6202629146
 21
133.3357856303
 31
0.0
  0
ARC
  5
15A
  8
0
  6
CONTINUOUS
 62
     7
 10
69.4202596721
 20
125.3357856303
 30
0.0
 40
2.000000000000014
 50
270.0
 51
0.0
  0
ARC
  5
15B
  8
0
  6
CONTINUOUS
 62
     7
 10
63.6202596721
 20
125.3357856303
 30
0.0
 40
2.000000000000014
 50
180.0
 51
270.0
  0
LINE
  5
15C
  8
0
  6
CONTINUOUS
 62
     7
 10
69.4202578601
 20
123.3357832461
 30
0.0
 11
63.6202610073
 21
123.3357832461
 31
0.0
  0
LINE
  5
15D
  8
0
  6
CONTINUOUS
 62
     7
 10
71.4202559528
 20
125.3357872993
 30
0.0
 11
71.4202559528
 21
133.3357856303
 31
0.0
  0
LINE
  5
15E
  8
0
  6
CONTINUOUS
 62
     7
 10
71.4202559528
 20
142.1785519153
 30
0.0
 11
71.4202559528
 21
137.8703758746
 31
0.0
  0
LINE
  5
15F
  8
0
  6
CONTINUOUS
 62
     7
 10
68.0202639637
 20
137.8703758746
 30
0.0
 11
68.0202639637
 21
142.1785519153
 31
0.0
  0
LINE
  5
160
  8
0
  6
CONTINUOUS
 62
     7
 10
71.4202559528
 20
137.8703758746
 30
0.0
 11
71.4202559528
 21
134.3357846767
 31
0.0
  0
LINE
  5
161
  8
0
  6
CONTINUOUS
 62
     7
 10
68.0202639637
 20
137.8703758746
 30
0.0
 11
68.0202639637
 21
134.3357846767
 31
0.0
  0
LINE
  5
162
  8
0
  6
CONTINUOUS
 62
     7
 10
191.420259231
 20
151.3357863456
 30
0.0
 11
191.420259231
 21
142.1785519153
 31
0.0
  0
LINE
  5
163
  8
0
  6
CONTINUOUS
 62
     7
 10
188.0202597913
 20
151.3357863456
 30
0.0
 11
188.0202597913
 21
142.1785519153
 31
0.0
  0
LINE
  5
164
  8
0
  6
CONTINUOUS
 62
     7
 10
170.620260292
 20
150.935785535
 30
0.0
 11
170.620260292
 21
138.9357850581
 31
0.0
  0
LINE
  5
165
  8
0
  6
CONTINUOUS
 62
     7
 10
181.6202587423
 20
133.3357856303
 30
0.0
 11
181.6202587423
 21
134.3357846767
 31
0.0
  0
LINE
  5
166
  8
0
  6
CONTINUOUS
 62
     7
 10
181.6202587423
 20
134.3357846767
 30
0.0
 11
191.420259231
 21
134.3357846767
 31
0.0
  0
LINE
  5
167
  8
0
  6
CONTINUOUS
 62
     7
 10
191.420259231
 20
134.3357846767
 30
0.0
 11
191.420259231
 21
133.3357856303
 31
0.0
  0
LINE
  5
168
  8
0
  6
CONTINUOUS
 62
     7
 10
189.4202596483
 20
123.3357832461
 30
0.0
 11
183.6202598152
 21
123.3357832461
 31
0.0
  0
LINE
  5
169
  8
0
  6
CONTINUOUS
 62
     7
 10
181.6202587423
 20
125.3357872993
 30
0.0
 11
181.6202587423
 21
133.3357856303
 31
0.0
  0
ARC
  5
16A
  8
0
  6
CONTINUOUS
 62
     7
 10
189.4202596721
 20
125.3357856303
 30
0.0
 40
2.000000000000014
 50
270.0
 51
0.0
  0
CIRCLE
  5
16B
  8
0
  6
CONTINUOUS
 62
     7
 10
187.5202596721
 20
127.7357856303
 30
0.0
 40
1.099999999999994
  0
ARC
  5
16C
  8
0
  6
CONTINUOUS
 62
     7
 10
183.6202596721
 20
125.3357856303
 30
0.0
 40
2.000000000000014
 50
180.0
 51
270.0
  0
LINE
  5
16D
  8
0
  6
CONTINUOUS
 62
     7
 10
191.420259231
 20
125.3357872993
 30
0.0
 11
191.420259231
 21
133.3357856303
 31
0.0
  0
LINE
  5
16E
  8
0
  6
CONTINUOUS
 62
     7
 10
191.420259231
 20
142.1785519153
 30
0.0
 11
191.420259231
 21
137.8703758746
 31
0.0
  0
LINE
  5
16F
  8
0
  6
CONTINUOUS
 62
     7
 10
188.0202597913
 20
137.8703758746
 30
0.0
 11
188.0202597913
 21
142.1785519153
 31
0.0
  0
LINE
  5
170
  8
0
  6
CONTINUOUS
 62
     7
 10
191.420259231
 20
137.8703758746
 30
0.0
 11
191.420259231
 21
134.3357846767
 31
0.0
  0
LINE
  5
171
  8
0
  6
CONTINUOUS
 62
     7
 10
188.0202597913
 20
137.8703758746
 30
0.0
 11
188.0202597913
 21
134.3357846767
 31
0.0
  0
LINE
  5
172
  8
0
  6
CONTINUOUS
 62
     7
 10
352.0202553806
 20
146.1613998443
 30
0.0
 11
352.0202553806
 21
142.1785519153
 31
0.0
  0
LINE
  5
173
  8
0
  6
CONTINUOUS
 62
     7
 10
348.6202633914
 20
151.3357863456
 30
0.0
 11
348.6202633914
 21
142.1785519153
 31
0.0
  0
LINE
  5
174
  8
0
  6
CONTINUOUS
 62
     7
 10
369.4202578601
 20
150.935785535
 30
0.0
 11
369.4202578601
 21
148.8349661857
 31
0.0
  0
LINE
  5
175
  8
0
  6
CONTINUOUS
 62
     7
 10
369.4202578601
 20
143.4216604262
 30
0.0
 11
369.4202578601
 21
138.9357850581
 31
0.0
  0
LINE
  5
176
  8
0
  6
CONTINUOUS
 62
     7
 10
348.6202633914
 20
134.3357846767
 30
0.0
 11
358.4202564296
 21
134.3357846767
 31
0.0
  0
LINE
  5
177
  8
0
  6
CONTINUOUS
 62
     7
 10
358.4202564296
 20
134.3357846767
 30
0.0
 11
358.4202564296
 21
133.3357856303
 31
0.0
  0
LINE
  5
178
  8
0
  6
CONTINUOUS
 62
     7
 10
348.6202633914
 20
133.3357856303
 30
0.0
 11
348.6202633914
 21
134.3357846767
 31
0.0
  0
CIRCLE
  5
179
  8
0
  6
CONTINUOUS
 62
     7
 10
352.5202596721
 20
127.7357856303
 30
0.0
 40
1.100000000000023
  0
ARC
  5
17A
  8
0
  6
CONTINUOUS
 62
     7
 10
356.4202596721
 20
125.3357856303
 30
0.0
 40
2.000000000000014
 50
270.0
 51
0.0
  0
LINE
  5
17B
  8
0
  6
CONTINUOUS
 62
     7
 10
356.420258337
 20
123.3357832461
 30
0.0
 11
350.6202614841
 21
123.3357832461
 31
0.0
  0
ARC
  5
17C
  8
0
  6
CONTINUOUS
 62
     7
 10
350.6202596721
 20
125.3357856303
 30
0.0
 40
2.000000000000014
 50
180.0
 51
270.0
  0
LINE
  5
17D
  8
0
  6
CONTINUOUS
 62
     7
 10
358.4202564296
 20
133.3357856303
 30
0.0
 11
358.4202564296
 21
125.3357872993
 31
0.0
  0
LINE
  5
17E
  8
0
  6
CONTINUOUS
 62
     7
 10
348.6202633914
 20
125.3357872993
 30
0.0
 11
348.6202633914
 21
133.3357856303
 31
0.0
  0
LINE
  5
17F
  8
0
  6
CONTINUOUS
 62
     7
 10
352.0202553806
 20
142.1785519153
 30
0.0
 11
352.0202553806
 21
137.8703758746
 31
0.0
  0
LINE
  5
180
  8
0
  6
CONTINUOUS
 62
     7
 10
348.6202633914
 20
137.8703758746
 30
0.0
 11
348.6202633914
 21
142.1785519153
 31
0.0
  0
LINE
  5
181
  8
0
  6
CONTINUOUS
 62
     7
 10
352.0202553806
 20
137.8703758746
 30
0.0
 11
352.0202553806
 21
134.3357846767
 31
0.0
  0
LINE
  5
182
  8
0
  6
CONTINUOUS
 62
     7
 10
348.6202633914
 20
137.8703758746
 30
0.0
 11
348.6202633914
 21
134.3357846767
 31
0.0
  0
LINE
  5
183
  8
0
  6
CONTINUOUS
 62
     7
 10
108.6202538547
 20
151.3357863456
 30
0.0
 11
108.6202538547
 21
142.1785519153
 31
0.0
  0
LINE
  5
184
  8
0
  6
CONTINUOUS
 62
     7
 10
112.0202577648
 20
151.3357863456
 30
0.0
 11
112.0202577648
 21
142.1785519153
 31
0.0
  0
LINE
  5
185
  8
0
  6
CONTINUOUS
 62
     7
 10
129.4202602443
 20
150.935785535
 30
0.0
 11
129.4202602443
 21
138.9357850581
 31
0.0
  0
ARC
  5
186
  8
0
  6
CONTINUOUS
 62
     7
 10
110.6202596721
 20
125.3357856303
 30
0.0
 40
2.000000000000014
 50
180.0
 51
270.0
  0
ARC
  5
187
  8
0
  6
CONTINUOUS
 62
     7
 10
116.4202596721
 20
125.3357856303
 30
0.0
 40
2.000000000000014
 50
270.0
 51
0.0
  0
CIRCLE
  5
188
  8
0
  6
CONTINUOUS
 62
     7
 10
112.5202596721
 20
127.7357856303
 30
0.0
 40
1.099999999999994
  0
LINE
  5
189
  8
0
  6
CONTINUOUS
 62
     7
 10
118.4202588138
 20
133.3357856303
 30
0.0
 11
118.4202588138
 21
125.3357872993
 31
0.0
  0
LINE
  5
18A
  8
0
  6
CONTINUOUS
 62
     7
 10
116.4202607212
 20
123.3357832461
 30
0.0
 11
110.6202579078
 21
123.3357832461
 31
0.0
  0
LINE
  5
18B
  8
0
  6
CONTINUOUS
 62
     7
 10
108.6202538547
 20
125.3357872993
 30
0.0
 11
108.6202538547
 21
133.3357856303
 31
0.0
  0
LINE
  5
18C
  8
0
  6
CONTINUOUS
 62
     7
 10
108.6202538547
 20
134.3357846767
 30
0.0
 11
118.4202588138
 21
134.3357846767
 31
0.0
  0
LINE
  5
18D
  8
0
  6
CONTINUOUS
 62
     7
 10
118.4202588138
 20
134.3357846767
 30
0.0
 11
118.4202588138
 21
133.3357856303
 31
0.0
  0
LINE
  5
18E
  8
0
  6
CONTINUOUS
 62
     7
 10
108.6202538547
 20
133.3357856303
 30
0.0
 11
108.6202538547
 21
134.3357846767
 31
0.0
  0
LINE
  5
18F
  8
0
  6
CONTINUOUS
 62
     7
 10
108.6202538547
 20
137.8703758746
 30
0.0
 11
108.6202538547
 21
142.1785519153
 31
0.0
  0
LINE
  5
190
  8
0
  6
CONTINUOUS
 62
     7
 10
112.0202577648
 20
142.1785519153
 30
0.0
 11
112.0202577648
 21
137.8703758746
 31
0.0
  0
LINE
  5
191
  8
0
  6
CONTINUOUS
 62
     7
 10
108.6202538547
 20
137.8703758746
 30
0.0
 11
108.6202538547
 21
134.3357846767
 31
0.0
  0
LINE
  5
192
  8
0
  6
CONTINUOUS
 62
     7
 10
112.0202577648
 20
137.8703758746
 30
0.0
 11
112.0202577648
 21
134.3357846767
 31
0.0
  0
LINE
  5
193
  8
0
  6
CONTINUOUS
 62
     7
 10
-7.9797470036
 20
151.3357863456
 30
0.0
 11
-7.9797470036
 21
142.1785519153
 31
0.0
  0
LINE
  5
194
  8
0
  6
CONTINUOUS
 62
     7
 10
-11.3797389927
 20
151.3357863456
 30
0.0
 11
-11.3797389927
 21
142.1785519153
 31
0.0
  0
LINE
  5
195
  8
0
  6
CONTINUOUS
 62
     7
 10
9.420255476
 20
150.935785535
 30
0.0
 11
9.420255476
 21
138.9357850581
 31
0.0
  0
LINE
  5
196
  8
0
  6
CONTINUOUS
 62
     7
 10
-11.3797389927
 20
134.3357846767
 30
0.0
 11
-1.5797340336
 21
134.3357846767
 31
0.0
  0
LINE
  5
197
  8
0
  6
CONTINUOUS
 62
     7
 10
-1.5797340336
 20
134.3357846767
 30
0.0
 11
-1.5797340336
 21
133.3357856303
 31
0.0
  0
LINE
  5
198
  8
0
  6
CONTINUOUS
 62
     7
 10
-11.3797389927
 20
133.3357856303
 30
0.0
 11
-11.3797389927
 21
134.3357846767
 31
0.0
  0
CIRCLE
  5
199
  8
0
  6
CONTINUOUS
 62
     7
 10
-7.4797403279
 20
127.7357856303
 30
0.0
 40
1.099999999999962
  0
LINE
  5
19A
  8
0
  6
CONTINUOUS
 62
     7
 10
-3.5797321263
 20
123.3357832461
 30
0.0
 11
-9.3797409001
 21
123.3357832461
 31
0.0
  0
LINE
  5
19B
  8
0
  6
CONTINUOUS
 62
     7
 10
-1.5797340336
 20
133.3357856303
 30
0.0
 11
-1.5797340336
 21
125.3357872993
 31
0.0
  0
ARC
  5
19C
  8
0
  6
CONTINUOUS
 62
     7
 10
-9.3797403279
 20
125.3357856303
 30
0.0
 40
2.000000000000014
 50
180.0
 51
270.0
  0
ARC
  5
19D
  8
0
  6
CONTINUOUS
 62
     7
 10
-3.5797403279
 20
125.3357856303
 30
0.0
 40
2.000000000000014
 50
270.0
 51
0.0
  0
LINE
  5
19E
  8
0
  6
CONTINUOUS
 62
     7
 10
-11.3797389927
 20
125.3357872993
 30
0.0
 11
-11.3797389927
 21
133.3357856303
 31
0.0
  0
LINE
  5
19F
  8
0
  6
CONTINUOUS
 62
     7
 10
-7.9797470036
 20
142.1785519153
 30
0.0
 11
-7.9797470036
 21
137.8703758746
 31
0.0
  0
LINE
  5
1A0
  8
0
  6
CONTINUOUS
 62
     7
 10
-11.3797389927
 20
137.8703758746
 30
0.0
 11
-11.3797389927
 21
142.1785519153
 31
0.0
  0
LINE
  5
1A1
  8
0
  6
CONTINUOUS
 62
     7
 10
-7.9797470036
 20
137.8703758746
 30
0.0
 11
-7.9797470036
 21
134.3357846767
 31
0.0
  0
LINE
  5
1A2
  8
0
  6
CONTINUOUS
 62
     7
 10
-11.3797389927
 20
137.8703758746
 30
0.0
 11
-11.3797389927
 21
134.3357846767
 31
0.0
  0
LINE
  5
1A3
  8
0
  6
CONTINUOUS
 62
     7
 10
232.0202595529
 20
151.3357863456
 30
0.0
 11
232.0202595529
 21
142.1785519153
 31
0.0
  0
LINE
  5
1A4
  8
0
  6
CONTINUOUS
 62
     7
 10
228.6202601132
 20
151.3357863456
 30
0.0
 11
228.6202601132
 21
142.1785519153
 31
0.0
  0
LINE
  5
1A5
  8
0
  6
CONTINUOUS
 62
     7
 10
249.4202590522
 20
150.935785535
 30
0.0
 11
249.4202590522
 21
138.9357850581
 31
0.0
  0
LINE
  5
1A6
  8
0
  6
CONTINUOUS
 62
     7
 10
236.4202595291
 20
123.3357832461
 30
0.0
 11
230.620259696
 21
123.3357832461
 31
0.0
  0
ARC
  5
1A7
  8
0
  6
CONTINUOUS
 62
     7
 10
230.6202596721
 20
125.3357856303
 30
0.0
 40
2.000000000000014
 50
180.0
 51
270.0
  0
LINE
  5
1A8
  8
0
  6
CONTINUOUS
 62
     7
 10
238.420260602
 20
133.3357856303
 30
0.0
 11
238.420260602
 21
125.3357872993
 31
0.0
  0
CIRCLE
  5
1A9
  8
0
  6
CONTINUOUS
 62
     7
 10
232.5202596721
 20
127.7357856303
 30
0.0
 40
1.099999999999994
  0
ARC
  5
1AA
  8
0
  6
CONTINUOUS
 62
     7
 10
236.4202596721
 20
125.3357856303
 30
0.0
 40
2.000000000000014
 50
270.0
 51
0.0
  0
LINE
  5
1AB
  8
0
  6
CONTINUOUS
 62
     7
 10
228.6202601132
 20
125.3357872993
 30
0.0
 11
228.6202601132
 21
133.3357856303
 31
0.0
  0
LINE
  5
1AC
  8
0
  6
CONTINUOUS
 62
     7
 10
228.6202601132
 20
134.3357846767
 30
0.0
 11
238.420260602
 21
134.3357846767
 31
0.0
  0
LINE
  5
1AD
  8
0
  6
CONTINUOUS
 62
     7
 10
238.420260602
 20
134.3357846767
 30
0.0
 11
238.420260602
 21
133.3357856303
 31
0.0
  0
LINE
  5
1AE
  8
0
  6
CONTINUOUS
 62
     7
 10
228.6202601132
 20
133.3357856303
 30
0.0
 11
228.6202601132
 21
134.3357846767
 31
0.0
  0
LINE
  5
1AF
  8
0
  6
CONTINUOUS
 62
     7
 10
232.0202595529
 20
142.1785519153
 30
0.0
 11
232.0202595529
 21
137.8703758746
 31
0.0
  0
LINE
  5
1B0
  8
0
  6
CONTINUOUS
 62
     7
 10
228.6202601132
 20
137.8703758746
 30
0.0
 11
228.6202601132
 21
142.1785519153
 31
0.0
  0
LINE
  5
1B1
  8
0
  6
CONTINUOUS
 62
     7
 10
232.0202595529
 20
137.8703758746
 30
0.0
 11
232.0202595529
 21
134.3357846767
 31
0.0
  0
LINE
  5
1B2
  8
0
  6
CONTINUOUS
 62
     7
 10
228.6202601132
 20
137.8703758746
 30
0.0
 11
228.6202601132
 21
134.3357846767
 31
0.0
  0
POLYLINE
  5
1B3
  8
0
  6
CONTINUOUS
 62
     7
 66
     1
 10
0.0
 20
0.0
 30
0.0
  0
VERTEX
  5
3F4
  8
0
  6
CONTINUOUS
 62
     7
 10
659.4672204502
 20
146.7045352489
 30
0.0
  0
VERTEX
  5
3F5
  8
0
  6
CONTINUOUS
 62
     7
 10
659.4618619926
 20
146.9738826781
 30
0.0
  0
VERTEX
  5
3F6
  8
0
  6
CONTINUOUS
 62
     7
 10
659.3946637161
 20
147.3807857066
 30
0.0
  0
VERTEX
  5
3F7
  8
0
  6
CONTINUOUS
 62
     7
 10
659.2770875938
 20
147.759597066
 30
0.0
  0
VERTEX
  5
3F8
  8
0
  6
CONTINUOUS
 62
     7
 10
659.1179849155
 20
148.1055960685
 30
0.0
  0
VERTEX
  5
3F9
  8
0
  6
CONTINUOUS
 62
     7
 10
658.9262308128
 20
148.4162197143
 30
0.0
  0
VERTEX
  5
3FA
  8
0
  6
CONTINUOUS
 62
     7
 10
658.7097586639
 20
148.6915574103
 30
0.0
  0
VERTEX
  5
3FB
  8
0
  6
CONTINUOUS
 62
     7
 10
658.4738494404
 20
148.9347145587
 30
0.0
  0
VERTEX
  5
3FC
  8
0
  6
CONTINUOUS
 62
     7
 10
658.219283963
 20
149.1516099006
 30
0.0
  0
VERTEX
  5
3FD
  8
0
  6
CONTINUOUS
 62
     7
 10
657.9401434906
 20
149.3504748374
 30
0.0
  0
VERTEX
  5
3FE
  8
0
  6
CONTINUOUS
 62
     7
 10
657.6182128437
 20
149.5428011447
 30
0.0
  0
VERTEX
  5
3FF
  8
0
  6
CONTINUOUS
 62
     7
 10
657.2327794083
 20
149.735294345
 30
0.0
  0
VERTEX
  5
400
  8
0
  6
CONTINUOUS
 62
     7
 10
656.7211331375
 20
149.9466524154
 30
0.0
  0
VERTEX
  5
401
  8
0
  6
CONTINUOUS
 62
     7
 10
656.1466456898
 20
150.1432106525
 30
0.0
  0
VERTEX
  5
402
  8
0
  6
CONTINUOUS
 62
     7
 10
655.5716873653
 20
150.3101513415
 30
0.0
  0
VERTEX
  5
403
  8
0
  6
CONTINUOUS
 62
     7
 10
654.9161554821
 20
150.4742131263
 30
0.0
  0
VERTEX
  5
404
  8
0
  6
CONTINUOUS
 62
     7
 10
654.2419971474
 20
150.6206915408
 30
0.0
  0
VERTEX
  5
405
  8
0
  6
CONTINUOUS
 62
     7
 10
653.5417021759
 20
150.7538483172
 30
0.0
  0
VERTEX
  5
406
  8
0
  6
CONTINUOUS
 62
     7
 10
652.8293611057
 20
150.8725092441
 30
0.0
  0
VERTEX
  5
407
  8
0
  6
CONTINUOUS
 62
     7
 10
652.065926934
 20
150.9838268786
 30
0.0
  0
VERTEX
  5
408
  8
0
  6
CONTINUOUS
 62
     7
 10
651.2693048962
 20
151.084952119
 30
0.0
  0
VERTEX
  5
409
  8
0
  6
CONTINUOUS
 62
     7
 10
650.4430712707
 20
151.1754677325
 30
0.0
  0
VERTEX
  5
40A
  8
0
  6
CONTINUOUS
 62
     7
 10
649.5921374805
 20
151.2547240287
 30
0.0
  0
VERTEX
  5
40B
  8
0
  6
CONTINUOUS
 62
     7
 10
648.7222315319
 20
151.3220057517
 30
0.0
  0
VERTEX
  5
40C
  8
0
  6
CONTINUOUS
 62
     7
 10
647.8394927032
 20
151.3766274482
 30
0.0
  0
VERTEX
  5
40D
  8
0
  6
CONTINUOUS
 62
     7
 10
646.9505728729
 20
151.418010953
 30
0.0
  0
VERTEX
  5
40E
  8
0
  6
CONTINUOUS
 62
     7
 10
646.0539938457
 20
151.4464125663
 30
0.0
  0
VERTEX
  5
40F
  8
0
  6
CONTINUOUS
 62
     7
 10
645.138722802
 20
151.4621779948
 30
0.0
  0
VERTEX
  5
410
  8
0
  6
CONTINUOUS
 62
     7
 10
644.4742084988
 20
151.4641509086
 30
0.0
  0
SEQEND
  5
715
  8
0
  6
CONTINUOUS
 62
     7
  0
ARC
  5
1B4
  8
0
  6
CONTINUOUS
 62
     7
 10
604.0708450423
 20
98.1642864405
 30
0.0
 40
53.30199134572273
 50
89.5666054273
 51
98.8213361357
  0
LINE
  5
1B5
  8
0
  6
CONTINUOUS
 62
     7
 10
644.4741369732
 20
151.4662907153
 30
0.0
 11
604.4741333969
 21
151.4662907153
 31
0.0
  0
POLYLINE
  5
1B6
  8
0
  6
CONTINUOUS
 62
     7
 66
     1
 10
0.0
 20
0.0
 30
0.0
  0
VERTEX
  5
411
  8
0
  6
CONTINUOUS
 62
     7
 10
644.474005843
 20
146.0847363502
 30
0.0
  0
VERTEX
  5
412
  8
0
  6
CONTINUOUS
 62
     7
 10
645.2019275673
 20
146.081154111
 30
0.0
  0
VERTEX
  5
413
  8
0
  6
CONTINUOUS
 62
     7
 10
646.0425974377
 20
146.0649535686
 30
0.0
  0
VERTEX
  5
414
  8
0
  6
CONTINUOUS
 62
     7
 10
646.8718828209
 20
146.0368320972
 30
0.0
  0
VERTEX
  5
415
  8
0
  6
CONTINUOUS
 62
     7
 10
647.6837994106
 20
145.9969923526
 30
0.0
  0
VERTEX
  5
416
  8
0
  6
CONTINUOUS
 62
     7
 10
648.4728278168
 20
145.9462032348
 30
0.0
  0
VERTEX
  5
417
  8
0
  6
CONTINUOUS
 62
     7
 10
649.246072913
 20
145.8845958739
 30
0.0
  0
VERTEX
  5
418
  8
0
  6
CONTINUOUS
 62
     7
 10
649.9983908184
 20
145.8128855258
 30
0.0
  0
VERTEX
  5
419
  8
0
  6
CONTINUOUS
 62
     7
 10
650.7208289154
 20
145.7322583228
 30
0.0
  0
VERTEX
  5
41A
  8
0
  6
CONTINUOUS
 62
     7
 10
651.4032484539
 20
145.6443593532
 30
0.0
  0
VERTEX
  5
41B
  8
0
  6
CONTINUOUS
 62
     7
 10
652.0372153767
 20
145.5509946376
 30
0.0
  0
VERTEX
  5
41C
  8
0
  6
CONTINUOUS
 62
     7
 10
652.6149214752
 20
145.4542503387
 30
0.0
  0
VERTEX
  5
41D
  8
0
  6
CONTINUOUS
 62
     7
 10
653.1335832127
 20
145.3559324771
 30
0.0
  0
VERTEX
  5
41E
  8
0
  6
CONTINUOUS
 62
     7
 10
653.6109806545
 20
145.2539429694
 30
0.0
  0
VERTEX
  5
41F
  8
0
  6
CONTINUOUS
 62
     7
 10
654.0259660728
 20
145.1538369685
 30
0.0
  0
VERTEX
  5
420
  8
0
  6
CONTINUOUS
 62
     7
 10
654.3754638679
 20
145.0584099322
 30
0.0
  0
VERTEX
  5
421
  8
0
  6
CONTINUOUS
 62
     7
 10
654.6541036613
 20
144.971875909
 30
0.0
  0
VERTEX
  5
422
  8
0
  6
CONTINUOUS
 62
     7
 10
654.8381270416
 20
144.9069366485
 30
0.0
  0
VERTEX
  5
423
  8
0
  6
CONTINUOUS
 62
     7
 10
654.9596728332
 20
144.858346942
 30
0.0
  0
VERTEX
  5
424
  8
0
  6
CONTINUOUS
 62
     7
 10
655.0227524288
 20
144.8297188312
 30
0.0
  0
VERTEX
  5
425
  8
0
  6
CONTINUOUS
 62
     7
 10
655.0306023605
 20
144.8258147269
 30
0.0
  0
SEQEND
  5
714
  8
0
  6
CONTINUOUS
 62
     7
  0
LINE
  5
1B7
  8
0
  6
CONTINUOUS
 62
     7
 10
615.4741348274
 20
146.0862860709
 30
0.0
 11
644.4741369732
 21
146.0862860709
 31
0.0
  0
LINE
  5
1B8
  8
0
  6
CONTINUOUS
 62
     7
 10
615.4741348274
 20
145.9837958842
 30
0.0
 11
647.8888215073
 21
145.9837958842
 31
0.0
  0
ARC
  5
1B9
  8
0
  6
CONTINUOUS
 62
     7
 10
656.7841346844
 20
144.9837969049
 30
0.0
 40
2.690000000000026
 50
270.0
 51
0.0
  0
ARC
  5
1BA
  8
0
  6
CONTINUOUS
 62
     7
 10
656.7841346844
 20
144.9837969049
 30
0.0
 40
2.690000000000168
 50
180.0
 51
270.0
  0
POLYLINE
  5
1BB
  8
0
  6
CONTINUOUS
 62
     7
 66
     1
 10
0.0
 20
0.0
 30
0.0
  0
VERTEX
  5
426
  8
0
  6
CONTINUOUS
 62
     7
 10
584.6839719959
 20
224.7786328822
 30
0.0
  0
VERTEX
  5
427
  8
0
  6
CONTINUOUS
 62
     7
 10
584.4151829876
 20
224.7967646152
 30
0.0
  0
VERTEX
  5
428
  8
0
  6
CONTINUOUS
 62
     7
 10
584.0039705433
 20
224.7652933627
 30
0.0
  0
VERTEX
  5
429
  8
0
  6
CONTINUOUS
 62
     7
 10
583.6163555779
 20
224.681179288
 30
0.0
  0
VERTEX
  5
42A
  8
0
  6
CONTINUOUS
 62
     7
 10
583.2578064449
 20
224.552826646
 30
0.0
  0
VERTEX
  5
42B
  8
0
  6
CONTINUOUS
 62
     7
 10
582.9316505738
 20
224.38887811
 30
0.0
  0
VERTEX
  5
42C
  8
0
  6
CONTINUOUS
 62
     7
 10
582.6384955593
 20
224.1972253352
 30
0.0
  0
VERTEX
  5
42D
  8
0
  6
CONTINUOUS
 62
     7
 10
582.3757014744
 20
223.9834115535
 30
0.0
  0
VERTEX
  5
42E
  8
0
  6
CONTINUOUS
 62
     7
 10
582.1374458768
 20
223.7487123042
 30
0.0
  0
VERTEX
  5
42F
  8
0
  6
CONTINUOUS
 62
     7
 10
581.9150054403
 20
223.4879777461
 30
0.0
  0
VERTEX
  5
430
  8
0
  6
CONTINUOUS
 62
     7
 10
581.6953578539
 20
223.1840298205
 30
0.0
  0
VERTEX
  5
431
  8
0
  6
CONTINUOUS
 62
     7
 10
581.4700005151
 20
222.8168413669
 30
0.0
  0
VERTEX
  5
432
  8
0
  6
CONTINUOUS
 62
     7
 10
581.214854265
 20
222.3255560428
 30
0.0
  0
VERTEX
  5
433
  8
0
  6
CONTINUOUS
 62
     7
 10
580.9689724393
 20
221.7703864604
 30
0.0
  0
VERTEX
  5
434
  8
0
  6
CONTINUOUS
 62
     7
 10
580.7525609195
 20
221.2121770412
 30
0.0
  0
VERTEX
  5
435
  8
0
  6
CONTINUOUS
 62
     7
 10
580.5319883436
 20
220.5734298259
 30
0.0
  0
VERTEX
  5
436
  8
0
  6
CONTINUOUS
 62
     7
 10
580.3273121402
 20
219.9146077663
 30
0.0
  0
VERTEX
  5
437
  8
0
  6
CONTINUOUS
 62
     7
 10
580.1336246584
 20
219.2285821467
 30
0.0
  0
VERTEX
  5
438
  8
0
  6
CONTINUOUS
 62
     7
 10
579.9533290364
 20
218.5293004542
 30
0.0
  0
VERTEX
  5
439
  8
0
  6
CONTINUOUS
 62
     7
 10
579.775902633
 20
217.7784726649
 30
0.0
  0
VERTEX
  5
43A
  8
0
  6
CONTINUOUS
 62
     7
 10
579.6057288809
 20
216.99369407
 30
0.0
  0
VERTEX
  5
43B
  8
0
  6
CONTINUOUS
 62
     7
 10
579.4435454283
 20
216.1784932643
 30
0.0
  0
VERTEX
  5
43C
  8
0
  6
CONTINUOUS
 62
     7
 10
579.2904260202
 20
215.3376982242
 30
0.0
  0
VERTEX
  5
43D
  8
0
  6
CONTINUOUS
 62
     7
 10
579.1475833668
 20
214.4769713908
 30
0.0
  0
VERTEX
  5
43E
  8
0
  6
CONTINUOUS
 62
     7
 10
579.0162342874
 20
213.6023566752
 30
0.0
  0
VERTEX
  5
43F
  8
0
  6
CONTINUOUS
 62
     7
 10
578.8975366898
 20
212.7204225093
 30
0.0
  0
VERTEX
  5
440
  8
0
  6
CONTINUOUS
 62
     7
 10
578.7911016069
 20
211.8297264606
 30
0.0
  0
VERTEX
  5
441
  8
0
  6
CONTINUOUS
 62
     7
 10
578.6956229288
 20
210.9193131953
 30
0.0
  0
VERTEX
  5
442
  8
0
  6
CONTINUOUS
 62
     7
 10
578.6357441027
 20
210.2574989825
 30
0.0
  0
SEQEND
  5
713
  8
0
  6
CONTINUOUS
 62
     7
  0
ARC
  5
1BC
  8
0
  6
CONTINUOUS
 62
     7
 10
628.2112825202
 20
165.3624981453
 30
0.0
 40
53.30187497097947
 50
174.5666044052
 51
183.8213552243
  0
LINE
  5
1BD
  8
0
  6
CONTINUOUS
 62
     7
 10
578.633605367
 20
210.2576062709
 30
0.0
 11
575.1473756082
 21
170.4098269969
 31
0.0
  0
POLYLINE
  5
1BE
  8
0
  6
CONTINUOUS
 62
     7
 66
     1
 10
0.0
 20
0.0
 30
0.0
  0
VERTEX
  5
443
  8
0
  6
CONTINUOUS
 62
     7
 10
583.9946651407
 20
209.7884461909
 30
0.0
  0
VERTEX
  5
444
  8
0
  6
CONTINUOUS
 62
     7
 10
584.061681623
 20
210.5132863551
 30
0.0
  0
VERTEX
  5
445
  8
0
  6
CONTINUOUS
 62
     7
 10
584.1510848649
 20
211.3493487865
 30
0.0
  0
VERTEX
  5
446
  8
0
  6
CONTINUOUS
 62
     7
 10
584.2513816007
 20
212.1730253726
 30
0.0
  0
VERTEX
  5
447
  8
0
  6
CONTINUOUS
 62
     7
 10
584.3618275173
 20
212.978379491
 30
0.0
  0
VERTEX
  5
448
  8
0
  6
CONTINUOUS
 62
     7
 10
584.4811962493
 20
213.7599871188
 30
0.0
  0
VERTEX
  5
449
  8
0
  6
CONTINUOUS
 62
     7
 10
584.6099605359
 20
214.5249173671
 30
0.0
  0
VERTEX
  5
44A
  8
0
  6
CONTINUOUS
 62
     7
 10
584.7469685175
 20
215.2681157619
 30
0.0
  0
VERTEX
  5
44B
  8
0
  6
CONTINUOUS
 62
     7
 10
584.8902539857
 20
215.9807846576
 30
0.0
  0
VERTEX
  5
44C
  8
0
  6
CONTINUOUS
 62
     7
 10
585.0372934289
 20
216.6529462367
 30
0.0
  0
VERTEX
  5
44D
  8
0
  6
CONTINUOUS
 62
     7
 10
585.1855551399
 20
217.2763631373
 30
0.0
  0
VERTEX
  5
44E
  8
0
  6
CONTINUOUS
 62
     7
 10
585.3322853841
 20
217.8434417277
 30
0.0
  0
VERTEX
  5
44F
  8
0
  6
CONTINUOUS
 62
     7
 10
585.4754315265
 20
218.3515594035
 30
0.0
  0
VERTEX
  5
450
  8
0
  6
CONTINUOUS
 62
     7
 10
585.6186424889
 20
218.8182518512
 30
0.0
  0
VERTEX
  5
451
  8
0
  6
CONTINUOUS
 62
     7
 10
585.7545317657
 20
219.2229316264
 30
0.0
  0
VERTEX
  5
452
  8
0
  6
CONTINUOUS
 62
     7
 10
585.8800591476
 20
219.56278539
 30
0.0
  0
VERTEX
  5
453
  8
0
  6
CONTINUOUS
 62
     7
 10
585.9905460425
 20
219.8328182727
 30
0.0
  0
VERTEX
  5
454
  8
0
  6
CONTINUOUS
 62
     7
 10
586.0712812789
 20
220.0104758769
 30
0.0
  0
VERTEX
  5
455
  8
0
  6
CONTINUOUS
 62
     7
 10
586.1302794464
 20
220.1273248225
 30
0.0
  0
VERTEX
  5
456
  8
0
  6
CONTINUOUS
 62
     7
 10
586.1642913468
 20
220.1876804858
 30
0.0
  0
VERTEX
  5
457
  8
0
  6
CONTINUOUS
 62
     7
 10
586.1688674934
 20
220.1951549083
 30
0.0
  0
SEQEND
  5
712
  8
0
  6
CONTINUOUS
 62
     7
  0
LINE
  5
1BF
  8
0
  6
CONTINUOUS
 62
     7
 10
581.4656164073
 20
180.8990643054
 30
0.0
 11
583.9931329288
 21
209.7887084514
 31
0.0
  0
LINE
  5
1C0
  8
0
  6
CONTINUOUS
 62
     7
 10
581.5677182324
 20
180.8901355296
 30
0.0
 11
584.3928446569
 21
213.1814763576
 31
0.0
  0
ARC
  5
1C1
  8
0
  6
CONTINUOUS
 62
     7
 10
586.164316579
 20
221.9557821981
 30
0.0
 40
2.689999999999982
 50
355.0
 51
85.0
  0
ARC
  5
1C2
  8
0
  6
CONTINUOUS
 62
     7
 10
586.164316579
 20
221.9557821981
 30
0.0
 40
2.690000000000178
 50
265.0
 51
355.0
  0
LINE
  5
1C3
  8
0
  6
CONTINUOUS
 62
     7
 10
584.3741347589
 20
132.5357840091
 30
0.0
 11
584.3741347589
 21
124.535785678
 31
0.0
  0
ARC
  5
1C4
  8
0
  6
CONTINUOUS
 62
     7
 10
575.3741346844
 20
132.5357856303
 30
0.0
 40
1.000000000000028
 50
90.0
 51
180.0
  0
LINE
  5
1C5
  8
0
  6
CONTINUOUS
 62
     7
 10
574.3741346099
 20
124.535785678
 30
0.0
 11
574.3741346099
 21
132.5357840091
 31
0.0
  0
LINE
  5
1C6
  8
0
  6
CONTINUOUS
 62
     7
 10
575.3741347738
 20
133.5357830554
 30
0.0
 11
583.374134595
 21
133.5357830554
 31
0.0
  0
ARC
  5
1C7
  8
0
  6
CONTINUOUS
 62
     7
 10
575.3741346844
 20
124.5357856303
 30
0.0
 40
1.0
 50
180.0
 51
270.0
  0
ARC
  5
1C8
  8
0
  6
CONTINUOUS
 62
     7
 10
583.3741346844
 20
132.5357856303
 30
0.0
 40
1.000000000000028
 50
0.0
 51
90.0
  0
LINE
  5
1C9
  8
0
  6
CONTINUOUS
 62
     7
 10
583.374134595
 20
123.5357866317
 30
0.0
 11
575.3741347738
 21
123.5357866317
 31
0.0
  0
ARC
  5
1CA
  8
0
  6
CONTINUOUS
 62
     7
 10
583.3741346844
 20
124.5357856303
 30
0.0
 40
1.0
 50
270.0
 51
0.0
  0
LINE
  5
1CB
  8
0
  6
CONTINUOUS
 62
     7
 10
571.3741348632
 20
58.3357856303
 30
0.0
 11
567.3741349526
 21
58.3357856303
 31
0.0
  0
LINE
  5
1CC
  8
0
  6
CONTINUOUS
 62
     7
 10
567.3741349526
 20
58.3357856303
 30
0.0
 11
567.3741349526
 21
59.5357856408
 31
0.0
  0
LINE
  5
1CD
  8
0
  6
CONTINUOUS
 62
     7
 10
567.3741349526
 20
59.5357856408
 30
0.0
 11
571.3741348632
 21
59.5357856408
 31
0.0
  0
LINE
  5
1CE
  8
0
  6
CONTINUOUS
 62
     7
 10
573.3741348185
 20
58.3357856303
 30
0.0
 11
600.7425562985
 21
58.3357856303
 31
0.0
  0
LINE
  5
1CF
  8
0
  6
CONTINUOUS
 62
     7
 10
600.7425562985
 20
59.5357856408
 30
0.0
 11
573.3741348185
 21
59.5357856408
 31
0.0
  0
LINE
  5
1D0
  8
0
  6
CONTINUOUS
 62
     7
 10
571.3741348632
 20
58.3357856303
 30
0.0
 11
573.3741348185
 21
58.3357856303
 31
0.0
  0
LINE
  5
1D1
  8
0
  6
CONTINUOUS
 62
     7
 10
571.3741348632
 20
59.5357856408
 30
0.0
 11
573.3741348185
 21
59.5357856408
 31
0.0
  0
LINE
  5
1D2
  8
0
  6
CONTINUOUS
 62
     7
 10
603.3741341479
 20
59.5357856408
 30
0.0
 11
603.3741341479
 21
58.3357856303
 31
0.0
  0
LINE
  5
1D3
  8
0
  6
CONTINUOUS
 62
     7
 10
603.3741341479
 20
58.3357856303
 30
0.0
 11
600.7425562985
 21
58.3357856303
 31
0.0
  0
LINE
  5
1D4
  8
0
  6
CONTINUOUS
 62
     7
 10
600.7425562985
 20
59.5357856408
 30
0.0
 11
603.3741341479
 21
59.5357856408
 31
0.0
  0
LINE
  5
1D5
  8
0
  6
CONTINUOUS
 62
     7
 10
574.3741346099
 20
59.5357856408
 30
0.0
 11
574.3741346099
 21
123.3357832461
 31
0.0
  0
LINE
  5
1D6
  8
0
  6
CONTINUOUS
 62
     7
 10
584.3741347589
 20
124.535785678
 30
0.0
 11
584.3741347589
 21
59.5357856408
 31
0.0
  0
POLYLINE
  5
1D7
  8
0
  6
CONTINUOUS
 62
     7
 66
     1
 10
0.0
 20
0.0
 30
0.0
  0
VERTEX
  5
458
  8
0
  6
CONTINUOUS
 62
     7
 10
596.42504021
 20
148.8878772288
 30
0.0
  0
VERTEX
  5
459
  8
0
  6
CONTINUOUS
 62
     7
 10
596.595007325
 20
149.2523477107
 30
0.0
  0
VERTEX
  5
45A
  8
0
  6
CONTINUOUS
 62
     7
 10
596.8425320037
 20
149.5905921489
 30
0.0
  0
VERTEX
  5
45B
  8
0
  6
CONTINUOUS
 62
     7
 10
597.2345443018
 20
149.9636099368
 30
0.0
  0
VERTEX
  5
45C
  8
0
  6
CONTINUOUS
 62
     7
 10
597.692158962
 20
150.2794013053
 30
0.0
  0
VERTEX
  5
45D
  8
0
  6
CONTINUOUS
 62
     7
 10
598.3070121653
 20
150.5917356044
 30
0.0
  0
VERTEX
  5
45E
  8
0
  6
CONTINUOUS
 62
     7
 10
598.9626096137
 20
150.8357868224
 30
0.0
  0
SEQEND
  5
711
  8
0
  6
CONTINUOUS
 62
     7
  0
POLYLINE
  5
1D8
  8
0
  6
CONTINUOUS
 62
     7
 66
     1
 10
0.0
 20
0.0
 30
0.0
  0
VERTEX
  5
45F
  8
0
  6
CONTINUOUS
 62
     7
 10
602.2075937636
 20
146.0983560115
 30
0.0
  0
VERTEX
  5
460
  8
0
  6
CONTINUOUS
 62
     7
 10
600.1762019046
 20
146.1551234752
 30
0.0
  0
VERTEX
  5
461
  8
0
  6
CONTINUOUS
 62
     7
 10
599.0853460081
 20
146.28325558
 30
0.0
  0
VERTEX
  5
462
  8
0
  6
CONTINUOUS
 62
     7
 10
598.0253787287
 20
146.5565011531
 30
0.0
  0
VERTEX
  5
463
  8
0
  6
CONTINUOUS
 62
     7
 10
597.3341064103
 20
146.8801782161
 30
0.0
  0
VERTEX
  5
464
  8
0
  6
CONTINUOUS
 62
     7
 10
597.0183999784
 20
147.101603511
 30
0.0
  0
VERTEX
  5
465
  8
0
  6
CONTINUOUS
 62
     7
 10
596.7415632255
 20
147.3690137893
 30
0.0
  0
VERTEX
  5
466
  8
0
  6
CONTINUOUS
 62
     7
 10
596.4525566943
 20
147.8314266234
 30
0.0
  0
VERTEX
  5
467
  8
0
  6
CONTINUOUS
 62
     7
 10
596.3408978231
 20
148.3684525519
 30
0.0
  0
VERTEX
  5
468
  8
0
  6
CONTINUOUS
 62
     7
 10
596.42504021
 20
148.8878772288
 30
0.0
  0
SEQEND
  5
710
  8
0
  6
CONTINUOUS
 62
     7
  0
LINE
  5
1D9
  8
0
  6
CONTINUOUS
 62
     7
 10
604.4741333969
 20
146.1067602664
 30
0.0
 11
602.2075937636
 21
146.0983560115
 31
0.0
  0
LINE
  5
1DA
  8
0
  6
CONTINUOUS
 62
     7
 10
615.4741348274
 20
146.1067602664
 30
0.0
 11
604.4741333969
 21
146.1067602664
 31
0.0
  0
ARC
  5
1DB
  8
0
  6
CONTINUOUS
 62
     7
 10
576.0801164421
 20
258.9852952311
 30
0.0
 40
120.0000000000006
 50
273.9626587205
 51
289.1646231125
  0
LINE
  5
1DC
  8
0
  6
CONTINUOUS
 62
     7
 10
585.561000327
 20
150.8357868224
 30
0.0
 11
598.9626096137
 21
150.8357868224
 31
0.0
  0
LINE
  5
1DD
  8
0
  6
CONTINUOUS
 62
     7
 10
615.4741348274
 20
146.1067602664
 30
0.0
 11
615.4741348274
 21
145.6357882052
 31
0.0
  0
LINE
  5
1DE
  8
0
  6
CONTINUOUS
 62
     7
 10
659.474134589
 20
144.9837968379
 30
0.0
 11
659.474134589
 21
146.7016325027
 31
0.0
  0
LINE
  5
1DF
  8
0
  6
CONTINUOUS
 62
     7
 10
654.0941359051
 20
145.1013610393
 30
0.0
 11
654.0941359051
 21
144.9837968379
 31
0.0
  0
LINE
  5
1E0
  8
0
  6
CONTINUOUS
 62
     7
 10
659.474134589
 20
146.7016325027
 30
0.0
 11
659.4736935146
 21
146.7498884231
 31
0.0
  0
POLYLINE
  5
1E1
  8
0
  6
CONTINUOUS
 62
     7
 66
     1
 10
0.0
 20
0.0
 30
0.0
  0
VERTEX
  5
469
  8
0
  6
CONTINUOUS
 62
     7
 10
580.2973393858
 20
167.6840589076
 30
0.0
  0
VERTEX
  5
46A
  8
0
  6
CONTINUOUS
 62
     7
 10
580.0637392834
 20
165.6653449565
 30
0.0
  0
VERTEX
  5
46B
  8
0
  6
CONTINUOUS
 62
     7
 10
579.8410215456
 20
164.5898149043
 30
0.0
  0
VERTEX
  5
46C
  8
0
  6
CONTINUOUS
 62
     7
 10
579.4764318428
 20
163.5576889545
 30
0.0
  0
VERTEX
  5
46D
  8
0
  6
CONTINUOUS
 62
     7
 10
579.0937429102
 20
162.8972575694
 30
0.0
  0
VERTEX
  5
46E
  8
0
  6
CONTINUOUS
 62
     7
 10
578.8456392981
 20
162.6020476848
 30
0.0
  0
VERTEX
  5
46F
  8
0
  6
CONTINUOUS
 62
     7
 10
578.5551209509
 20
162.3495743304
 30
0.0
  0
VERTEX
  5
470
  8
0
  6
CONTINUOUS
 62
     7
 10
578.0692765065
 20
162.101976636
 30
0.0
  0
VERTEX
  5
471
  8
0
  6
CONTINUOUS
 62
     7
 10
577.5245640002
 20
162.037544015
 30
0.0
  0
VERTEX
  5
472
  8
0
  6
CONTINUOUS
 62
     7
 10
577.0144478925
 20
162.1666357547
 30
0.0
  0
SEQEND
  5
70F
  8
0
  6
CONTINUOUS
 62
     7
  0
POLYLINE
  5
1E2
  8
0
  6
CONTINUOUS
 62
     7
 66
     1
 10
0.0
 20
0.0
 30
0.0
  0
VERTEX
  5
473
  8
0
  6
CONTINUOUS
 62
     7
 10
577.0144478925
 20
162.1666357547
 30
0.0
  0
VERTEX
  5
474
  8
0
  6
CONTINUOUS
 62
     7
 10
576.6661788844
 20
162.3677179843
 30
0.0
  0
VERTEX
  5
475
  8
0
  6
CONTINUOUS
 62
     7
 10
576.3507984154
 20
162.643782857
 30
0.0
  0
VERTEX
  5
476
  8
0
  6
CONTINUOUS
 62
     7
 10
576.0133632965
 20
163.0668089419
 30
0.0
  0
VERTEX
  5
477
  8
0
  6
CONTINUOUS
 62
     7
 10
575.7386592724
 20
163.550214532
 30
0.0
  0
VERTEX
  5
478
  8
0
  6
CONTINUOUS
 62
     7
 10
575.4811035045
 20
164.1899511844
 30
0.0
  0
VERTEX
  5
479
  8
0
  6
CONTINUOUS
 62
     7
 10
575.2951183863
 20
164.8643181354
 30
0.0
  0
SEQEND
  5
70E
  8
0
  6
CONTINUOUS
 62
     7
  0
LINE
  5
1E3
  8
0
  6
CONTINUOUS
 62
     7
 10
580.4865086958
 20
169.9427053958
 30
0.0
 11
580.2973393858
 21
167.6840589076
 31
0.0
  0
LINE
  5
1E4
  8
0
  6
CONTINUOUS
 62
     7
 10
581.445221933
 20
180.9008524447
 30
0.0
 11
580.4865086958
 21
169.9427053958
 31
0.0
  0
ARC
  5
1E5
  8
0
  6
CONTINUOUS
 62
     7
 10
465.5628097193
 20
151.4947523714
 30
0.0
 40
120.0000000000006
 50
357.9188963395
 51
14.1646231125
  0
LINE
  5
1E6
  8
0
  6
CONTINUOUS
 62
     7
 10
573.8128525712
 20
147.921942237
 30
0.0
 11
575.2951183863
 21
164.8643181354
 31
0.0
  0
LINE
  5
1E7
  8
0
  6
CONTINUOUS
 62
     7
 10
581.445221933
 20
180.9008524447
 30
0.0
 11
581.9144051097
 21
180.8598086864
 31
0.0
  0
POLYLINE
  5
1E8
  8
0
  6
CONTINUOUS
 62
     7
 66
     1
 10
0.0
 20
0.0
 30
0.0
  0
VERTEX
  5
47A
  8
0
  6
CONTINUOUS
 62
     7
 10
586.3987655886
 20
224.635545972
 30
0.0
  0
VERTEX
  5
47B
  8
0
  6
CONTINUOUS
 62
     7
 10
586.3637880929
 20
224.6386096507
 30
0.0
  0
VERTEX
  5
47C
  8
0
  6
CONTINUOUS
 62
     7
 10
586.258869762
 20
224.647788766
 30
0.0
  0
VERTEX
  5
47D
  8
0
  6
CONTINUOUS
 62
     7
 10
586.0840500839
 20
224.6630833179
 30
0.0
  0
VERTEX
  5
47E
  8
0
  6
CONTINUOUS
 62
     7
 10
585.8393946238
 20
224.6844813853
 30
0.0
  0
VERTEX
  5
47F
  8
0
  6
CONTINUOUS
 62
     7
 10
585.5249957688
 20
224.7119948894
 30
0.0
  0
VERTEX
  5
480
  8
0
  6
CONTINUOUS
 62
     7
 10
585.1409723558
 20
224.7455880672
 30
0.0
  0
VERTEX
  5
481
  8
0
  6
CONTINUOUS
 62
     7
 10
584.6874696709
 20
224.7852609187
 30
0.0
  0
SEQEND
  5
70D
  8
0
  6
CONTINUOUS
 62
     7
  0
POLYLINE
  5
1E9
  8
0
  6
CONTINUOUS
 62
     7
 66
     1
 10
0.0
 20
0.0
 30
0.0
  0
VERTEX
  5
482
  8
0
  6
CONTINUOUS
 62
     7
 10
585.8136610635
 20
219.2861840755
 30
0.0
  0
VERTEX
  5
483
  8
0
  6
CONTINUOUS
 62
     7
 10
585.8948902734
 20
219.2790792018
 30
0.0
  0
VERTEX
  5
484
  8
0
  6
CONTINUOUS
 62
     7
 10
585.929867769
 20
219.2760155231
 30
0.0
  0
SEQEND
  5
70C
  8
0
  6
CONTINUOUS
 62
     7
  0
LINE
  5
1EA
  8
0
  6
CONTINUOUS
 62
     7
 10
584.6874696709
 20
224.7852609187
 30
0.0
 11
584.6393571742
 21
224.7890279323
 31
0.0
  0
LINE
  5
1EB
  8
0
  6
CONTINUOUS
 62
     7
 10
584.5741347916
 20
125.3357872993
 30
0.0
 11
584.5741347916
 21
133.1357882052
 31
0.0
  0
ARC
  5
1EC
  8
0
  6
CONTINUOUS
 62
     7
 10
584.1741346844
 20
133.1357856303
 30
0.0
 40
0.4000000000000057
 50
0.0
 51
90.0
  0
LINE
  5
1ED
  8
0
  6
CONTINUOUS
 62
     7
 10
584.1741347261
 20
133.5357830554
 30
0.0
 11
583.374134595
 21
133.5357830554
 31
0.0
  0
LINE
  5
1EE
  8
0
  6
CONTINUOUS
 62
     7
 10
575.3741347738
 20
133.5357830554
 30
0.0
 11
574.7741346754
 21
133.5357830554
 31
0.0
  0
ARC
  5
1EF
  8
0
  6
CONTINUOUS
 62
     7
 10
574.7741346844
 20
133.1357856303
 30
0.0
 40
0.4000000000000057
 50
90.0
 51
180.0
  0
LINE
  5
1F0
  8
0
  6
CONTINUOUS
 62
     7
 10
574.3741346099
 20
133.1357882052
 30
0.0
 11
574.3741346099
 21
132.5357840091
 31
0.0
  0
LINE
  5
1F1
  8
0
  6
CONTINUOUS
 62
     7
 10
573.5741348513
 20
130.3357884913
 30
0.0
 11
573.5741348513
 21
125.3357872993
 31
0.0
  0
ARC
  5
1F2
  8
0
  6
CONTINUOUS
 62
     7
 10
579.4741346844
 20
144.9357856303
 30
0.0
 40
6.399999999999999
 50
334.4805415091
 51
151.3013359141
  0
ARC
  5
1F3
  8
0
  6
CONTINUOUS
 62
     7
 10
594.2741346844
 20
137.8703769373
 30
0.0
 40
10.00000000000008
 50
154.4805415091
 51
180.0
  0
LINE
  5
1F4
  8
0
  6
CONTINUOUS
 62
     7
 10
584.2741345562
 20
137.8703758746
 30
0.0
 11
584.2741345562
 21
134.3357846767
 31
0.0
  0
LINE
  5
1F5
  8
0
  6
CONTINUOUS
 62
     7
 10
584.3741347589
 20
134.3357846767
 30
0.0
 11
584.2741345562
 21
134.3357846767
 31
0.0
  0
ARC
  5
1F6
  8
0
  6
CONTINUOUS
 62
     7
 10
584.3741346844
 20
133.3357856303
 30
0.0
 40
1.0
 50
0.0
 51
90.0
  0
LINE
  5
1F7
  8
0
  6
CONTINUOUS
 62
     7
 10
585.3741345503
 20
125.3357872993
 30
0.0
 11
585.3741345503
 21
133.3357856303
 31
0.0
  0
ARC
  5
1F8
  8
0
  6
CONTINUOUS
 62
     7
 10
595.1832255935
 20
136.3357856303
 30
0.0
 40
24.30909090909084
 50
151.3013359141
 51
194.2894890274
  0
LINE
  5
1F9
  8
0
  6
CONTINUOUS
 62
     7
 10
573.5741348513
 20
130.3357884913
 30
0.0
 11
571.6262327083
 21
130.3357884913
 31
0.0
  0
LINE
  5
1FA
  8
0
  6
CONTINUOUS
 62
     7
 10
585.3741345503
 20
125.3357872993
 30
0.0
 11
585.3741345503
 21
123.3357832461
 31
0.0
  0
LINE
  5
1FB
  8
0
  6
CONTINUOUS
 62
     7
 10
585.3741345503
 20
123.3357832461
 30
0.0
 11
584.5741347916
 21
123.3357832461
 31
0.0
  0
LINE
  5
1FC
  8
0
  6
CONTINUOUS
 62
     7
 10
584.5741347916
 20
123.3357832461
 30
0.0
 11
584.5741347916
 21
125.3357872993
 31
0.0
  0
LINE
  5
1FD
  8
0
  6
CONTINUOUS
 62
     7
 10
574.3741346099
 20
123.3357832461
 30
0.0
 11
573.5741348513
 21
123.3357832461
 31
0.0
  0
LINE
  5
1FE
  8
0
  6
CONTINUOUS
 62
     7
 10
574.3741346099
 20
124.535785678
 30
0.0
 11
574.3741346099
 21
123.3357832461
 31
0.0
  0
LINE
  5
1FF
  8
0
  6
CONTINUOUS
 62
     7
 10
573.5741348513
 20
123.3357832461
 30
0.0
 11
573.5741348513
 21
125.3357872993
 31
0.0
  0
POLYLINE
  5
200
  8
0
  6
CONTINUOUS
 62
     7
 66
     1
 10
0.0
 20
0.0
 30
0.0
  0
VERTEX
  5
485
  8
0
  6
CONTINUOUS
 62
     7
 10
175.6043559846
 20
-76.0396684862
 30
0.0
  0
VERTEX
  5
486
  8
0
  6
CONTINUOUS
 62
     7
 10
176.395312601
 20
-75.9287449873
 30
0.0
  0
VERTEX
  5
487
  8
0
  6
CONTINUOUS
 62
     7
 10
177.295789772
 20
-75.7925200618
 30
0.0
  0
VERTEX
  5
488
  8
0
  6
CONTINUOUS
 62
     7
 10
178.1866884765
 20
-75.6476539529
 30
0.0
  0
VERTEX
  5
489
  8
0
  6
CONTINUOUS
 62
     7
 10
179.0631598768
 20
-75.4948529757
 30
0.0
  0
VERTEX
  5
48A
  8
0
  6
CONTINUOUS
 62
     7
 10
179.910898858
 20
-75.3371122635
 30
0.0
  0
VERTEX
  5
48B
  8
0
  6
CONTINUOUS
 62
     7
 10
180.7428843317
 20
-75.1726533628
 30
0.0
  0
VERTEX
  5
48C
  8
0
  6
CONTINUOUS
 62
     7
 10
181.557375842
 20
-75.0020566738
 30
0.0
  0
VERTEX
  5
48D
  8
0
  6
CONTINUOUS
 62
     7
 10
182.348031455
 20
-74.826816783
 30
0.0
  0
VERTEX
  5
48E
  8
0
  6
CONTINUOUS
 62
     7
 10
183.1087059316
 20
-74.6484550989
 30
0.0
  0
VERTEX
  5
48F
  8
0
  6
CONTINUOUS
 62
     7
 10
183.8337368307
 20
-74.4684352881
 30
0.0
  0
VERTEX
  5
490
  8
0
  6
CONTINUOUS
 62
     7
 10
184.5183021364
 20
-74.2880358703
 30
0.0
  0
VERTEX
  5
491
  8
0
  6
CONTINUOUS
 62
     7
 10
185.1573533353
 20
-74.1089868701
 30
0.0
  0
VERTEX
  5
492
  8
0
  6
CONTINUOUS
 62
     7
 10
185.7420749006
 20
-73.9346589304
 30
0.0
  0
VERTEX
  5
493
  8
0
  6
CONTINUOUS
 62
     7
 10
186.3065159854
 20
-73.7546216107
 30
0.0
  0
VERTEX
  5
494
  8
0
  6
CONTINUOUS
 62
     7
 10
186.8356264171
 20
-73.5723312355
 30
0.0
  0
VERTEX
  5
495
  8
0
  6
CONTINUOUS
 62
     7
 10
187.3347259101
 20
-73.3840111054
 30
0.0
  0
VERTEX
  5
496
  8
0
  6
CONTINUOUS
 62
     7
 10
187.8185681042
 20
-73.1791871942
 30
0.0
  0
VERTEX
  5
497
  8
0
  6
CONTINUOUS
 62
     7
 10
188.3333287177
 20
-72.9219573892
 30
0.0
  0
VERTEX
  5
498
  8
0
  6
CONTINUOUS
 62
     7
 10
188.6209703025
 20
-72.749433235
 30
0.0
  0
VERTEX
  5
499
  8
0
  6
CONTINUOUS
 62
     7
 10
188.8569793639
 20
-72.584431187
 30
0.0
  0
VERTEX
  5
49A
  8
0
  6
CONTINUOUS
 62
     7
 10
189.0792599854
 20
-72.4023162729
 30
0.0
  0
VERTEX
  5
49B
  8
0
  6
CONTINUOUS
 62
     7
 10
189.2914733824
 20
-72.1953987486
 30
0.0
  0
VERTEX
  5
49C
  8
0
  6
CONTINUOUS
 62
     7
 10
189.4945866403
 20
-71.9546280212
 30
0.0
  0
VERTEX
  5
49D
  8
0
  6
CONTINUOUS
 62
     7
 10
189.6830922899
 20
-71.6742142446
 30
0.0
  0
VERTEX
  5
49E
  8
0
  6
CONTINUOUS
 62
     7
 10
189.8460841712
 20
-71.3550058535
 30
0.0
  0
VERTEX
  5
49F
  8
0
  6
CONTINUOUS
 62
     7
 10
189.9723327693
 20
-71.0020359016
 30
0.0
  0
VERTEX
  5
4A0
  8
0
  6
CONTINUOUS
 62
     7
 10
190.0521940526
 20
-70.6244093708
 30
0.0
  0
VERTEX
  5
4A1
  8
0
  6
CONTINUOUS
 62
     7
 10
190.0781548557
 20
-70.2496881939
 30
0.0
  0
SEQEND
  5
70B
  8
0
  6
CONTINUOUS
 62
     7
  0
POLYLINE
  5
201
  8
0
  6
CONTINUOUS
 62
     7
 66
     1
 10
0.0
 20
0.0
 30
0.0
  0
VERTEX
  5
4A2
  8
0
  6
CONTINUOUS
 62
     7
 10
109.9700129566
 20
-70.2331356115
 30
0.0
  0
VERTEX
  5
4A3
  8
0
  6
CONTINUOUS
 62
     7
 10
109.9704063472
 20
-70.4443849034
 30
0.0
  0
VERTEX
  5
4A4
  8
0
  6
CONTINUOUS
 62
     7
 10
110.0258863506
 20
-70.8276897079
 30
0.0
  0
VERTEX
  5
4A5
  8
0
  6
CONTINUOUS
 62
     7
 10
110.1278520164
 20
-71.1838825948
 30
0.0
  0
VERTEX
  5
4A6
  8
0
  6
CONTINUOUS
 62
     7
 10
110.2672076759
 20
-71.5076553977
 30
0.0
  0
VERTEX
  5
4A7
  8
0
  6
CONTINUOUS
 62
     7
 10
110.4340112743
 20
-71.7952485538
 30
0.0
  0
VERTEX
  5
4A8
  8
0
  6
CONTINUOUS
 62
     7
 10
110.6187320289
 20
-72.045897261
 30
0.0
  0
VERTEX
  5
4A9
  8
0
  6
CONTINUOUS
 62
     7
 10
110.8135676918
 20
-72.2618318505
 30
0.0
  0
VERTEX
  5
4AA
  8
0
  6
CONTINUOUS
 62
     7
 10
111.015055233
 20
-72.4489136941
 30
0.0
  0
VERTEX
  5
4AB
  8
0
  6
CONTINUOUS
 62
     7
 10
111.2256205616
 20
-72.615614102
 30
0.0
  0
VERTEX
  5
4AC
  8
0
  6
CONTINUOUS
 62
     7
 10
111.454496437
 20
-72.7718561298
 30
0.0
  0
VERTEX
  5
4AD
  8
0
  6
CONTINUOUS
 62
     7
 10
111.7239988384
 20
-72.9312303818
 30
0.0
  0
VERTEX
  5
4AE
  8
0
  6
CONTINUOUS
 62
     7
 10
112.0971954402
 20
-73.1211043305
 30
0.0
  0
VERTEX
  5
4AF
  8
0
  6
CONTINUOUS
 62
     7
 10
112.6386678752
 20
-73.3564808375
 30
0.0
  0
VERTEX
  5
4B0
  8
0
  6
CONTINUOUS
 62
     7
 10
113.1323016223
 20
-73.5453657217
 30
0.0
  0
VERTEX
  5
4B1
  8
0
  6
CONTINUOUS
 62
     7
 10
113.644126707
 20
-73.724109248
 30
0.0
  0
VERTEX
  5
4B2
  8
0
  6
CONTINUOUS
 62
     7
 10
114.2352140483
 20
-73.9147792912
 30
0.0
  0
VERTEX
  5
4B3
  8
0
  6
CONTINUOUS
 62
     7
 10
114.8536301193
 20
-74.1003345109
 30
0.0
  0
VERTEX
  5
4B4
  8
0
  6
CONTINUOUS
 62
     7
 10
115.5012405452
 20
-74.2823268629
 30
0.0
  0
VERTEX
  5
4B5
  8
0
  6
CONTINUOUS
 62
     7
 10
116.1748624382
 20
-74.4603823281
 30
0.0
  0
VERTEX
  5
4B6
  8
0
  6
CONTINUOUS
 62
     7
 10
116.8974733886
 20
-74.6405097998
 30
0.0
  0
VERTEX
  5
4B7
  8
0
  6
CONTINUOUS
 62
     7
 10
117.654756361
 20
-74.8187358833
 30
0.0
  0
VERTEX
  5
4B8
  8
0
  6
CONTINUOUS
 62
     7
 10
118.4438443717
 20
-74.9941627837
 30
0.0
  0
VERTEX
  5
4B9
  8
0
  6
CONTINUOUS
 62
     7
 10
119.2612147865
 20
-75.165725813
 30
0.0
  0
VERTEX
  5
4BA
  8
0
  6
CONTINUOUS
 62
     7
 10
120.1029396591
 20
-75.3322835422
 30
0.0
  0
VERTEX
  5
4BB
  8
0
  6
CONTINUOUS
 62
     7
 10
120.9648705062
 20
-75.4926811314
 30
0.0
  0
VERTEX
  5
4BC
  8
0
  6
CONTINUOUS
 62
     7
 10
121.8425429401
 20
-75.6457540549
 30
0.0
  0
VERTEX
  5
4BD
  8
0
  6
CONTINUOUS
 62
     7
 10
122.7261043128
 20
-75.7896694697
 30
0.0
  0
VERTEX
  5
4BE
  8
0
  6
CONTINUOUS
 62
     7
 10
123.6218846378
 20
-75.9255248464
 30
0.0
  0
VERTEX
  5
4BF
  8
0
  6
CONTINUOUS
 62
     7
 10
124.4361258087
 20
-76.0400365449
 30
0.0
  0
SEQEND
  5
70A
  8
0
  6
CONTINUOUS
 62
     7
  0
ARC
  5
202
  8
0
  6
CONTINUOUS
 62
     7
 10
150.0202602682
 20
111.6156893466
 30
0.0
 40
189.3926361062504
 50
262.2364757407
 51
277.7635242593
  0
POLYLINE
  5
203
  8
0
  6
CONTINUOUS
 62
     7
 66
     1
 10
0.0
 20
0.0
 30
0.0
  0
VERTEX
  5
4C0
  8
0
  6
CONTINUOUS
 62
     7
 10
185.7149085936
 20
-68.2222519645
 30
0.0
  0
VERTEX
  5
4C1
  8
0
  6
CONTINUOUS
 62
     7
 10
185.7171914515
 20
-68.2208666803
 30
0.0
  0
VERTEX
  5
4C2
  8
0
  6
CONTINUOUS
 62
     7
 10
185.680188888
 20
-68.2399876176
 30
0.0
  0
VERTEX
  5
4C3
  8
0
  6
CONTINUOUS
 62
     7
 10
185.5926281747
 20
-68.2812657331
 30
0.0
  0
VERTEX
  5
4C4
  8
0
  6
CONTINUOUS
 62
     7
 10
185.4462019143
 20
-68.3444455084
 30
0.0
  0
VERTEX
  5
4C5
  8
0
  6
CONTINUOUS
 62
     7
 10
185.2357006607
 20
-68.4280319714
 30
0.0
  0
VERTEX
  5
4C6
  8
0
  6
CONTINUOUS
 62
     7
 10
184.9585182008
 20
-68.5299197321
 30
0.0
  0
VERTEX
  5
4C7
  8
0
  6
CONTINUOUS
 62
     7
 10
184.6148616609
 20
-68.6474988579
 30
0.0
  0
VERTEX
  5
4C8
  8
0
  6
CONTINUOUS
 62
     7
 10
184.2071122465
 20
-68.777976033
 30
0.0
  0
VERTEX
  5
4C9
  8
0
  6
CONTINUOUS
 62
     7
 10
183.7390518722
 20
-68.9186128664
 30
0.0
  0
VERTEX
  5
4CA
  8
0
  6
CONTINUOUS
 62
     7
 10
183.215234333
 20
-69.0668512478
 30
0.0
  0
VERTEX
  5
4CB
  8
0
  6
CONTINUOUS
 62
     7
 10
182.6415455875
 20
-69.2199424251
 30
0.0
  0
VERTEX
  5
4CC
  8
0
  6
CONTINUOUS
 62
     7
 10
182.0262378988
 20
-69.374920462
 30
0.0
  0
VERTEX
  5
4CD
  8
0
  6
CONTINUOUS
 62
     7
 10
181.3670045671
 20
-69.5320129736
 30
0.0
  0
VERTEX
  5
4CE
  8
0
  6
CONTINUOUS
 62
     7
 10
180.6622779903
 20
-69.6909766055
 30
0.0
  0
VERTEX
  5
4CF
  8
0
  6
CONTINUOUS
 62
     7
 10
179.9191511211
 20
-69.8495245881
 30
0.0
  0
VERTEX
  5
4D0
  8
0
  6
CONTINUOUS
 62
     7
 10
179.1453189191
 20
-70.0054089881
 30
0.0
  0
VERTEX
  5
4D1
  8
0
  6
CONTINUOUS
 62
     7
 10
178.350118452
 20
-70.156242267
 30
0.0
  0
VERTEX
  5
4D2
  8
0
  6
CONTINUOUS
 62
     7
 10
177.5421983537
 20
-70.2999859459
 30
0.0
  0
VERTEX
  5
4D3
  8
0
  6
CONTINUOUS
 62
     7
 10
176.7279452619
 20
-70.4353166155
 30
0.0
  0
VERTEX
  5
4D4
  8
0
  6
CONTINUOUS
 62
     7
 10
175.8985823926
 20
-70.5637957311
 30
0.0
  0
VERTEX
  5
4D5
  8
0
  6
CONTINUOUS
 62
     7
 10
175.055277997
 20
-70.6851342104
 30
0.0
  0
VERTEX
  5
4D6
  8
0
  6
CONTINUOUS
 62
     7
 10
174.8775667486
 20
-70.7087661482
 30
0.0
  0
SEQEND
  5
709
  8
0
  6
CONTINUOUS
 62
     7
  0
POLYLINE
  5
204
  8
0
  6
CONTINUOUS
 62
     7
 66
     1
 10
0.0
 20
0.0
 30
0.0
  0
VERTEX
  5
4D7
  8
0
  6
CONTINUOUS
 62
     7
 10
125.163213068
 20
-70.7090380944
 30
0.0
  0
VERTEX
  5
4D8
  8
0
  6
CONTINUOUS
 62
     7
 10
124.4977629718
 20
-70.61631506
 30
0.0
  0
VERTEX
  5
4D9
  8
0
  6
CONTINUOUS
 62
     7
 10
123.6540949878
 20
-70.4894277609
 30
0.0
  0
VERTEX
  5
4DA
  8
0
  6
CONTINUOUS
 62
     7
 10
122.8186107215
 20
-70.3543418429
 30
0.0
  0
VERTEX
  5
4DB
  8
0
  6
CONTINUOUS
 62
     7
 10
121.9976223049
 20
-70.2120914466
 30
0.0
  0
VERTEX
  5
4DC
  8
0
  6
CONTINUOUS
 62
     7
 10
121.2019062576
 20
-70.0649633414
 30
0.0
  0
VERTEX
  5
4DD
  8
0
  6
CONTINUOUS
 62
     7
 10
120.4266346035
 20
-69.9125889099
 30
0.0
  0
VERTEX
  5
4DE
  8
0
  6
CONTINUOUS
 62
     7
 10
119.6752942142
 20
-69.7560121647
 30
0.0
  0
VERTEX
  5
4DF
  8
0
  6
CONTINUOUS
 62
     7
 10
118.9535415706
 20
-69.5967792875
 30
0.0
  0
VERTEX
  5
4E0
  8
0
  6
CONTINUOUS
 62
     7
 10
118.267360979
 20
-69.43663567
 30
0.0
  0
VERTEX
  5
4E1
  8
0
  6
CONTINUOUS
 62
     7
 10
117.6223493156
 20
-69.2773768089
 30
0.0
  0
VERTEX
  5
4E2
  8
0
  6
CONTINUOUS
 62
     7
 10
117.0239365634
 20
-69.1209092147
 30
0.0
  0
VERTEX
  5
4E3
  8
0
  6
CONTINUOUS
 62
     7
 10
116.4768076477
 20
-68.9691485248
 30
0.0
  0
VERTEX
  5
4E4
  8
0
  6
CONTINUOUS
 62
     7
 10
115.9827328262
 20
-68.8235353089
 30
0.0
  0
VERTEX
  5
4E5
  8
0
  6
CONTINUOUS
 62
     7
 10
115.5404425201
 20
-68.6846175107
 30
0.0
  0
VERTEX
  5
4E6
  8
0
  6
CONTINUOUS
 62
     7
 10
115.1567018566
 20
-68.5555378783
 30
0.0
  0
VERTEX
  5
4E7
  8
0
  6
CONTINUOUS
 62
     7
 10
114.8385978279
 20
-68.4401764411
 30
0.0
  0
VERTEX
  5
4E8
  8
0
  6
CONTINUOUS
 62
     7
 10
114.615747982
 20
-68.3526691508
 30
0.0
  0
VERTEX
  5
4E9
  8
0
  6
CONTINUOUS
 62
     7
 10
114.4577539501
 20
-68.2852767117
 30
0.0
  0
VERTEX
  5
4EA
  8
0
  6
CONTINUOUS
 62
     7
 10
114.3620586929
 20
-68.2406294502
 30
0.0
  0
VERTEX
  5
4EB
  8
0
  6
CONTINUOUS
 62
     7
 10
114.3225586948
 20
-68.2204018456
 30
0.0
  0
VERTEX
  5
4EC
  8
0
  6
CONTINUOUS
 62
     7
 10
114.3253481922
 20
-68.2220949027
 30
0.0
  0
SEQEND
  5
708
  8
0
  6
CONTINUOUS
 62
     7
  0
ARC
  5
205
  8
0
  6
CONTINUOUS
 62
     7
 10
150.0202617583
 20
111.6157060208
 30
0.0
 40
184.0126528714485
 50
262.2364825894
 51
277.7635174106
  0
LINE
  5
206
  8
0
  6
CONTINUOUS
 62
     7
 10
190.0790161428
 20
-70.2359876937
 30
0.0
 11
190.0790161428
 21
-66.749757935
 31
0.0
  0
LINE
  5
207
  8
0
  6
CONTINUOUS
 62
     7
 10
109.9615014133
 20
-66.749757935
 30
0.0
 11
109.9615014133
 21
-70.2359876937
 31
0.0
  0
LINE
  5
208
  8
0
  6
CONTINUOUS
 62
     7
 10
112.3202598629
 20
-74.4854281998
 30
0.0
 11
113.3202589092
 21
-74.4854281998
 31
0.0
  0
LINE
  5
209
  8
0
  6
CONTINUOUS
 62
     7
 10
186.720260137
 20
-74.4854281998
 30
0.0
 11
187.7202591834
 21
-74.4854281998
 31
0.0
  0
POLYLINE
  5
20A
  8
0
  6
CONTINUOUS
 62
     7
 66
     1
 10
0.0
 20
0.0
 30
0.0
  0
VERTEX
  5
4ED
  8
0
  6
CONTINUOUS
 62
     7
 10
125.1630104122
 20
-65.0778360075
 30
0.0
  0
VERTEX
  5
4EE
  8
0
  6
CONTINUOUS
 62
     7
 10
124.3923283157
 20
-64.9733300663
 30
0.0
  0
VERTEX
  5
4EF
  8
0
  6
CONTINUOUS
 62
     7
 10
123.5166228351
 20
-64.8559633053
 30
0.0
  0
VERTEX
  5
4F0
  8
0
  6
CONTINUOUS
 62
     7
 10
122.6517236766
 20
-64.7413893945
 30
0.0
  0
VERTEX
  5
4F1
  8
0
  6
CONTINUOUS
 62
     7
 10
121.8018448886
 20
-64.6302144385
 30
0.0
  0
VERTEX
  5
4F2
  8
0
  6
CONTINUOUS
 62
     7
 10
120.9737337169
 20
-64.5236525095
 30
0.0
  0
VERTEX
  5
4F3
  8
0
  6
CONTINUOUS
 62
     7
 10
120.1604223785
 20
-64.4211377359
 30
0.0
  0
VERTEX
  5
4F4
  8
0
  6
CONTINUOUS
 62
     7
 10
119.3632937011
 20
-64.3232505179
 30
0.0
  0
VERTEX
  5
4F5
  8
0
  6
CONTINUOUS
 62
     7
 10
118.5891306934
 20
-64.2312701202
 30
0.0
  0
VERTEX
  5
4F6
  8
0
  6
CONTINUOUS
 62
     7
 10
117.8444243011
 20
-64.1464381821
 30
0.0
  0
VERTEX
  5
4F7
  8
0
  6
CONTINUOUS
 62
     7
 10
117.1350753841
 20
-64.0699203468
 30
0.0
  0
VERTEX
  5
4F8
  8
0
  6
CONTINUOUS
 62
     7
 10
116.4661205348
 20
-64.0027876354
 30
0.0
  0
VERTEX
  5
4F9
  8
0
  6
CONTINUOUS
 62
     7
 10
115.8388889369
 20
-63.9458350248
 30
0.0
  0
VERTEX
  5
4FA
  8
0
  6
CONTINUOUS
 62
     7
 10
115.2449107704
 20
-63.899088592
 30
0.0
  0
VERTEX
  5
4FB
  8
0
  6
CONTINUOUS
 62
     7
 10
114.6829224166
 20
-63.8635895557
 30
0.0
  0
VERTEX
  5
4FC
  8
0
  6
CONTINUOUS
 62
     7
 10
114.1486681041
 20
-63.8409155763
 30
0.0
  0
VERTEX
  5
4FD
  8
0
  6
CONTINUOUS
 62
     7
 10
113.6296904621
 20
-63.8341359205
 30
0.0
  0
VERTEX
  5
4FE
  8
0
  6
CONTINUOUS
 62
     7
 10
113.0884981689
 20
-63.8522657908
 30
0.0
  0
VERTEX
  5
4FF
  8
0
  6
CONTINUOUS
 62
     7
 10
112.7344286975
 20
-63.885678292
 30
0.0
  0
VERTEX
  5
500
  8
0
  6
CONTINUOUS
 62
     7
 10
112.4354279575
 20
-63.9329511083
 30
0.0
  0
VERTEX
  5
501
  8
0
  6
CONTINUOUS
 62
     7
 10
112.1529615459
 20
-63.9982204295
 30
0.0
  0
VERTEX
  5
502
  8
0
  6
CONTINUOUS
 62
     7
 10
111.8766880569
 20
-64.0856928534
 30
0.0
  0
VERTEX
  5
503
  8
0
  6
CONTINUOUS
 62
     7
 10
111.5984118518
 20
-64.2020835883
 30
0.0
  0
VERTEX
  5
504
  8
0
  6
CONTINUOUS
 62
     7
 10
111.3155818519
 20
-64.3554198898
 30
0.0
  0
VERTEX
  5
505
  8
0
  6
CONTINUOUS
 62
     7
 10
111.0330617961
 20
-64.552448631
 30
0.0
  0
VERTEX
  5
506
  8
0
  6
CONTINUOUS
 62
     7
 10
110.7624209461
 20
-64.7953748114
 30
0.0
  0
VERTEX
  5
507
  8
0
  6
CONTINUOUS
 62
     7
 10
110.516033226
 20
-65.0828126229
 30
0.0
  0
VERTEX
  5
508
  8
0
  6
CONTINUOUS
 62
     7
 10
110.3058374462
 20
-65.4091448865
 30
0.0
  0
VERTEX
  5
509
  8
0
  6
CONTINUOUS
 62
     7
 10
110.1409411964
 20
-65.7666222534
 30
0.0
  0
VERTEX
  5
50A
  8
0
  6
CONTINUOUS
 62
     7
 10
110.0296176013
 20
-66.1492691717
 30
0.0
  0
SEQEND
  5
707
  8
0
  6
CONTINUOUS
 62
     7
  0
POLYLINE
  5
20B
  8
0
  6
CONTINUOUS
 62
     7
 66
     1
 10
0.0
 20
0.0
 30
0.0
  0
VERTEX
  5
50B
  8
0
  6
CONTINUOUS
 62
     7
 10
190.0072044668
 20
-66.1500695503
 30
0.0
  0
VERTEX
  5
50C
  8
0
  6
CONTINUOUS
 62
     7
 10
189.9189121065
 20
-65.8234061084
 30
0.0
  0
VERTEX
  5
50D
  8
0
  6
CONTINUOUS
 62
     7
 10
189.7573760685
 20
-65.4538878582
 30
0.0
  0
VERTEX
  5
50E
  8
0
  6
CONTINUOUS
 62
     7
 10
189.5541331706
 20
-65.1250887073
 30
0.0
  0
VERTEX
  5
50F
  8
0
  6
CONTINUOUS
 62
     7
 10
189.3192223248
 20
-64.8395135409
 30
0.0
  0
VERTEX
  5
510
  8
0
  6
CONTINUOUS
 62
     7
 10
189.0630758342
 20
-64.5984056748
 30
0.0
  0
VERTEX
  5
511
  8
0
  6
CONTINUOUS
 62
     7
 10
188.7962303099
 20
-64.4012156285
 30
0.0
  0
VERTEX
  5
512
  8
0
  6
CONTINUOUS
 62
     7
 10
188.5275623736
 20
-64.2447742975
 30
0.0
  0
VERTEX
  5
513
  8
0
  6
CONTINUOUS
 62
     7
 10
188.263202363
 20
-64.1239586628
 30
0.0
  0
VERTEX
  5
514
  8
0
  6
CONTINUOUS
 62
     7
 10
188.0035958228
 20
-64.0319555408
 30
0.0
  0
VERTEX
  5
515
  8
0
  6
CONTINUOUS
 62
     7
 10
187.7428135809
 20
-63.9620158232
 30
0.0
  0
VERTEX
  5
516
  8
0
  6
CONTINUOUS
 62
     7
 10
187.466823214
 20
-63.9086063362
 30
0.0
  0
VERTEX
  5
517
  8
0
  6
CONTINUOUS
 62
     7
 10
187.1487966713
 20
-63.8683959252
 30
0.0
  0
VERTEX
  5
518
  8
0
  6
CONTINUOUS
 62
     7
 10
186.7734587726
 20
-63.8430464423
 30
0.0
  0
VERTEX
  5
519
  8
0
  6
CONTINUOUS
 62
     7
 10
186.1741608915
 20
-63.8355880386
 30
0.0
  0
VERTEX
  5
51A
  8
0
  6
CONTINUOUS
 62
     7
 10
185.652213448
 20
-63.850080908
 30
0.0
  0
VERTEX
  5
51B
  8
0
  6
CONTINUOUS
 62
     7
 10
185.1188859877
 20
-63.8778600252
 30
0.0
  0
VERTEX
  5
51C
  8
0
  6
CONTINUOUS
 62
     7
 10
184.507710391
 20
-63.9209184206
 30
0.0
  0
VERTEX
  5
51D
  8
0
  6
CONTINUOUS
 62
     7
 10
183.8747150239
 20
-63.9746993191
 30
0.0
  0
VERTEX
  5
51E
  8
0
  6
CONTINUOUS
 62
     7
 10
183.2185423908
 20
-64.0377878553
 30
0.0
  0
VERTEX
  5
51F
  8
0
  6
CONTINUOUS
 62
     7
 10
182.52005344
 20
-64.1108262695
 30
0.0
  0
VERTEX
  5
520
  8
0
  6
CONTINUOUS
 62
     7
 10
181.7915475902
 20
-64.1918908215
 30
0.0
  0
VERTEX
  5
521
  8
0
  6
CONTINUOUS
 62
     7
 10
181.0309953031
 20
-64.2806495882
 30
0.0
  0
VERTEX
  5
522
  8
0
  6
CONTINUOUS
 62
     7
 10
180.2417403993
 20
-64.376250968
 30
0.0
  0
VERTEX
  5
523
  8
0
  6
CONTINUOUS
 62
     7
 10
179.4277227458
 20
-64.4777904607
 30
0.0
  0
VERTEX
  5
524
  8
0
  6
CONTINUOUS
 62
     7
 10
178.593218976
 20
-64.5843259401
 30
0.0
  0
VERTEX
  5
525
  8
0
  6
CONTINUOUS
 62
     7
 10
177.7426666555
 20
-64.6949041045
 30
0.0
  0
VERTEX
  5
526
  8
0
  6
CONTINUOUS
 62
     7
 10
176.8836534557
 20
-64.8081339306
 30
0.0
  0
VERTEX
  5
527
  8
0
  6
CONTINUOUS
 62
     7
 10
176.0160840091
 20
-64.9238302714
 30
0.0
  0
VERTEX
  5
528
  8
0
  6
CONTINUOUS
 62
     7
 10
175.1415616807
 20
-65.0418187834
 30
0.0
  0
VERTEX
  5
529
  8
0
  6
CONTINUOUS
 62
     7
 10
174.8773879346
 20
-65.0778825737
 30
0.0
  0
SEQEND
  5
706
  8
0
  6
CONTINUOUS
 62
     7
  0
LINE
  5
20C
  8
0
  6
CONTINUOUS
 62
     7
 10
190.0188318429
 20
-66.2125806666
 30
0.0
 11
190.0089315114
 21
-66.150234767
 31
0.0
  0
POLYLINE
  5
20D
  8
0
  6
CONTINUOUS
 62
     7
 66
     1
 10
0.0
 20
0.0
 30
0.0
  0
VERTEX
  5
52A
  8
0
  6
CONTINUOUS
 62
     7
 10
110.0339329776
 20
-66.1510746337
 30
0.0
  0
VERTEX
  5
52B
  8
0
  6
CONTINUOUS
 62
     7
 10
109.9797523555
 20
-66.4295600138
 30
0.0
  0
VERTEX
  5
52C
  8
0
  6
CONTINUOUS
 62
     7
 10
109.9663651523
 20
-66.7486247017
 30
0.0
  0
SEQEND
  5
705
  8
0
  6
CONTINUOUS
 62
     7
  0
ARC
  5
20E
  8
0
  6
CONTINUOUS
 62
     7
 10
150.0202617583
 20
117.2477133657
 30
0.0
 40
184.0126562297151
 50
262.236482732
 51
277.763517268
  0
ARC
  5
20F
  8
0
  6
CONTINUOUS
 62
     7
 10
415.2038945446
 20
-133.5198541354
 30
0.0
 40
14.86828204099596
 50
270.8245781026
 51
0.4741434953
  0
ARC
  5
210
  8
0
  6
CONTINUOUS
 62
     7
 10
364.8358155189
 20
-133.5233471614
 30
0.0
 40
14.86658057570611
 50
179.5129139581
 51
269.3234193541
  0
ARC
  5
211
  8
0
  6
CONTINUOUS
 62
     7
 10
415.1928031864
 20
-93.3083871786
 30
0.0
 40
14.87757678808532
 50
359.6598299493
 51
32.6991526377
  0
ARC
  5
212
  8
0
  6
CONTINUOUS
 62
     7
 10
364.9397056994
 20
-93.340913208
 30
0.0
 40
14.97526155428309
 50
147.388139347
 51
180.2162292904
  0
ARC
  5
213
  8
0
  6
CONTINUOUS
 62
     7
 10
364.7639432554
 20
-93.1037719364
 30
0.0
 40
14.69882056001163
 50
90.699216291
 51
141.1138132025
  0
ARC
  5
214
  8
0
  6
CONTINUOUS
 62
     7
 10
415.2795991971
 20
-93.080475344
 30
0.0
 40
14.67829508248389
 50
38.774285327
 51
89.763119471
  0
LINE
  5
215
  8
0
  6
CONTINUOUS
 62
     7
 10
349.9614990291
 20
-93.3967518962
 30
0.0
 11
349.9614990291
 21
-133.3967554725
 31
0.0
  0
LINE
  5
216
  8
0
  6
CONTINUOUS
 62
     7
 10
430.0790107784
 20
-133.3967554725
 30
0.0
 11
430.0790107784
 21
-93.3967518962
 31
0.0
  0
POLYLINE
  5
217
  8
0
  6
CONTINUOUS
 62
     7
 66
     1
 10
0.0
 20
0.0
 30
0.0
  0
VERTEX
  5
52D
  8
0
  6
CONTINUOUS
 62
     7
 10
55.6043541965
 20
-76.0396684862
 30
0.0
  0
VERTEX
  5
52E
  8
0
  6
CONTINUOUS
 62
     7
 10
56.3953078327
 20
-75.9287449873
 30
0.0
  0
VERTEX
  5
52F
  8
0
  6
CONTINUOUS
 62
     7
 10
57.2957909641
 20
-75.7925200618
 30
0.0
  0
VERTEX
  5
530
  8
0
  6
CONTINUOUS
 62
     7
 10
58.1866896686
 20
-75.6476539529
 30
0.0
  0
VERTEX
  5
531
  8
0
  6
CONTINUOUS
 62
     7
 10
59.0631640491
 20
-75.4948529757
 30
0.0
  0
VERTEX
  5
532
  8
0
  6
CONTINUOUS
 62
     7
 10
59.9108970699
 20
-75.3371122635
 30
0.0
  0
VERTEX
  5
533
  8
0
  6
CONTINUOUS
 62
     7
 10
60.7428825435
 20
-75.1726533628
 30
0.0
  0
VERTEX
  5
534
  8
0
  6
CONTINUOUS
 62
     7
 10
61.5573800144
 20
-75.0020566738
 30
0.0
  0
VERTEX
  5
535
  8
0
  6
CONTINUOUS
 62
     7
 10
62.3480356273
 20
-74.826816783
 30
0.0
  0
VERTEX
  5
536
  8
0
  6
CONTINUOUS
 62
     7
 10
63.1087101039
 20
-74.6484550989
 30
0.0
  0
VERTEX
  5
537
  8
0
  6
CONTINUOUS
 62
     7
 10
63.833741003
 20
-74.4684352881
 30
0.0
  0
VERTEX
  5
538
  8
0
  6
CONTINUOUS
 62
     7
 10
64.5183003482
 20
-74.2880358703
 30
0.0
  0
VERTEX
  5
539
  8
0
  6
CONTINUOUS
 62
     7
 10
65.1573575077
 20
-74.1089868701
 30
0.0
  0
VERTEX
  5
53A
  8
0
  6
CONTINUOUS
 62
     7
 10
65.7420790729
 20
-73.9346589304
 30
0.0
  0
VERTEX
  5
53B
  8
0
  6
CONTINUOUS
 62
     7
 10
66.3065112171
 20
-73.7546216107
 30
0.0
  0
VERTEX
  5
53C
  8
0
  6
CONTINUOUS
 62
     7
 10
66.8356216487
 20
-73.5723312355
 30
0.0
  0
VERTEX
  5
53D
  8
0
  6
CONTINUOUS
 62
     7
 10
67.3347271022
 20
-73.3840111054
 30
0.0
  0
VERTEX
  5
53E
  8
0
  6
CONTINUOUS
 62
     7
 10
67.8185737667
 20
-73.1791871942
 30
0.0
  0
VERTEX
  5
53F
  8
0
  6
CONTINUOUS
 62
     7
 10
68.3333313999
 20
-72.9219573892
 30
0.0
  0
VERTEX
  5
540
  8
0
  6
CONTINUOUS
 62
     7
 10
68.6209714946
 20
-72.749433235
 30
0.0
  0
VERTEX
  5
541
  8
0
  6
CONTINUOUS
 62
     7
 10
68.8569820461
 20
-72.584431187
 30
0.0
  0
VERTEX
  5
542
  8
0
  6
CONTINUOUS
 62
     7
 10
69.0792596874
 20
-72.4023162729
 30
0.0
  0
VERTEX
  5
543
  8
0
  6
CONTINUOUS
 62
     7
 10
69.2914760646
 20
-72.1953987486
 30
0.0
  0
VERTEX
  5
544
  8
0
  6
CONTINUOUS
 62
     7
 10
69.4945848522
 20
-71.9546280212
 30
0.0
  0
VERTEX
  5
545
  8
0
  6
CONTINUOUS
 62
     7
 10
69.6830905017
 20
-71.6742142446
 30
0.0
  0
VERTEX
  5
546
  8
0
  6
CONTINUOUS
 62
     7
 10
69.8460853633
 20
-71.3550058535
 30
0.0
  0
VERTEX
  5
547
  8
0
  6
CONTINUOUS
 62
     7
 10
69.972328001
 20
-71.0020359016
 30
0.0
  0
VERTEX
  5
548
  8
0
  6
CONTINUOUS
 62
     7
 10
70.052198225
 20
-70.6244093708
 30
0.0
  0
VERTEX
  5
549
  8
0
  6
CONTINUOUS
 62
     7
 10
70.0781500873
 20
-70.2496881939
 30
0.0
  0
SEQEND
  5
704
  8
0
  6
CONTINUOUS
 62
     7
  0
POLYLINE
  5
218
  8
0
  6
CONTINUOUS
 62
     7
 66
     1
 10
0.0
 20
0.0
 30
0.0
  0
VERTEX
  5
54A
  8
0
  6
CONTINUOUS
 62
     7
 10
-10.0299798909
 20
-70.2331356115
 30
0.0
  0
VERTEX
  5
54B
  8
0
  6
CONTINUOUS
 62
     7
 10
-10.0295984211
 20
-70.4443849034
 30
0.0
  0
VERTEX
  5
54C
  8
0
  6
CONTINUOUS
 62
     7
 10
-9.9741184178
 20
-70.8276897079
 30
0.0
  0
VERTEX
  5
54D
  8
0
  6
CONTINUOUS
 62
     7
 10
-9.8721467915
 20
-71.1838825948
 30
0.0
  0
VERTEX
  5
54E
  8
0
  6
CONTINUOUS
 62
     7
 10
-9.732791132
 20
-71.5076553977
 30
0.0
  0
VERTEX
  5
54F
  8
0
  6
CONTINUOUS
 62
     7
 10
-9.5659934941
 20
-71.7952485538
 30
0.0
  0
VERTEX
  5
550
  8
0
  6
CONTINUOUS
 62
     7
 10
-9.381266779
 20
-72.045897261
 30
0.0
  0
VERTEX
  5
551
  8
0
  6
CONTINUOUS
 62
     7
 10
-9.1864311162
 20
-72.2618318505
 30
0.0
  0
VERTEX
  5
552
  8
0
  6
CONTINUOUS
 62
     7
 10
-8.984943575
 20
-72.4489136941
 30
0.0
  0
VERTEX
  5
553
  8
0
  6
CONTINUOUS
 62
     7
 10
-8.7743722859
 20
-72.615614102
 30
0.0
  0
VERTEX
  5
554
  8
0
  6
CONTINUOUS
 62
     7
 10
-8.5455142918
 20
-72.7718561298
 30
0.0
  0
VERTEX
  5
555
  8
0
  6
CONTINUOUS
 62
     7
 10
-8.27600593
 20
-72.9312303818
 30
0.0
  0
VERTEX
  5
556
  8
0
  6
CONTINUOUS
 62
     7
 10
-7.9028093281
 20
-73.1211043305
 30
0.0
  0
VERTEX
  5
557
  8
0
  6
CONTINUOUS
 62
     7
 10
-7.3613368931
 20
-73.3564808375
 30
0.0
  0
VERTEX
  5
558
  8
0
  6
CONTINUOUS
 62
     7
 10
-6.8676912251
 20
-73.5453657217
 30
0.0
  0
VERTEX
  5
559
  8
0
  6
CONTINUOUS
 62
     7
 10
-6.3558780613
 20
-73.724109248
 30
0.0
  0
VERTEX
  5
55A
  8
0
  6
CONTINUOUS
 62
     7
 10
-5.76479072
 20
-73.9147792912
 30
0.0
  0
VERTEX
  5
55B
  8
0
  6
CONTINUOUS
 62
     7
 10
-5.1463806096
 20
-74.1003345109
 30
0.0
  0
VERTEX
  5
55C
  8
0
  6
CONTINUOUS
 62
     7
 10
-4.4987642231
 20
-74.2823268629
 30
0.0
  0
VERTEX
  5
55D
  8
0
  6
CONTINUOUS
 62
     7
 10
-3.8251363698
 20
-74.4603823281
 30
0.0
  0
VERTEX
  5
55E
  8
0
  6
CONTINUOUS
 62
     7
 10
-3.1025373402
 20
-74.6405097998
 30
0.0
  0
VERTEX
  5
55F
  8
0
  6
CONTINUOUS
 62
     7
 10
-2.3452484074
 20
-74.8187358833
 30
0.0
  0
VERTEX
  5
560
  8
0
  6
CONTINUOUS
 62
     7
 10
-1.5561544362
 20
-74.9941627837
 30
0.0
  0
VERTEX
  5
561
  8
0
  6
CONTINUOUS
 62
     7
 10
-0.7387840214
 20
-75.165725813
 30
0.0
  0
VERTEX
  5
562
  8
0
  6
CONTINUOUS
 62
     7
 10
0.1029289302
 20
-75.3322835422
 30
0.0
  0
VERTEX
  5
563
  8
0
  6
CONTINUOUS
 62
     7
 10
0.9648597774
 20
-75.4926811314
 30
0.0
  0
VERTEX
  5
564
  8
0
  6
CONTINUOUS
 62
     7
 10
1.8425500927
 20
-75.6457540549
 30
0.0
  0
VERTEX
  5
565
  8
0
  6
CONTINUOUS
 62
     7
 10
2.7261055049
 20
-75.7896694697
 30
0.0
  0
VERTEX
  5
566
  8
0
  6
CONTINUOUS
 62
     7
 10
3.6218917903
 20
-75.9255248464
 30
0.0
  0
VERTEX
  5
567
  8
0
  6
CONTINUOUS
 62
     7
 10
4.4361150798
 20
-76.0400365449
 30
0.0
  0
SEQEND
  5
703
  8
0
  6
CONTINUOUS
 62
     7
  0
ARC
  5
219
  8
0
  6
CONTINUOUS
 62
     7
 10
30.02025848
 20
111.6157560877
 30
0.0
 40
189.3927026382271
 50
262.2364775748
 51
277.7635224252
  0
POLYLINE
  5
21A
  8
0
  6
CONTINUOUS
 62
     7
 66
     1
 10
0.0
 20
0.0
 30
0.0
  0
VERTEX
  5
568
  8
0
  6
CONTINUOUS
 62
     7
 10
65.7149112758
 20
-68.2222519645
 30
0.0
  0
VERTEX
  5
569
  8
0
  6
CONTINUOUS
 62
     7
 10
65.7171881732
 20
-68.2208666803
 30
0.0
  0
VERTEX
  5
56A
  8
0
  6
CONTINUOUS
 62
     7
 10
65.6801856098
 20
-68.2399876176
 30
0.0
  0
VERTEX
  5
56B
  8
0
  6
CONTINUOUS
 62
     7
 10
65.5926263866
 20
-68.2812657331
 30
0.0
  0
VERTEX
  5
56C
  8
0
  6
CONTINUOUS
 62
     7
 10
65.4462016162
 20
-68.3444455084
 30
0.0
  0
VERTEX
  5
56D
  8
0
  6
CONTINUOUS
 62
     7
 10
65.2357018528
 20
-68.4280319714
 30
0.0
  0
VERTEX
  5
56E
  8
0
  6
CONTINUOUS
 62
     7
 10
64.9585164127
 20
-68.5299197321
 30
0.0
  0
VERTEX
  5
56F
  8
0
  6
CONTINUOUS
 62
     7
 10
64.6148598728
 20
-68.6474988579
 30
0.0
  0
VERTEX
  5
570
  8
0
  6
CONTINUOUS
 62
     7
 10
64.2071164188
 20
-68.777976033
 30
0.0
  0
VERTEX
  5
571
  8
0
  6
CONTINUOUS
 62
     7
 10
63.7390530643
 20
-68.9186128664
 30
0.0
  0
VERTEX
  5
572
  8
0
  6
CONTINUOUS
 62
     7
 10
63.2152355251
 20
-69.0668512478
 30
0.0
  0
VERTEX
  5
573
  8
0
  6
CONTINUOUS
 62
     7
 10
62.6415408191
 20
-69.2199424251
 30
0.0
  0
VERTEX
  5
574
  8
0
  6
CONTINUOUS
 62
     7
 10
62.0262420711
 20
-69.374920462
 30
0.0
  0
VERTEX
  5
575
  8
0
  6
CONTINUOUS
 62
     7
 10
61.367002779
 20
-69.5320129736
 30
0.0
  0
VERTEX
  5
576
  8
0
  6
CONTINUOUS
 62
     7
 10
60.6622732219
 20
-69.6909766055
 30
0.0
  0
VERTEX
  5
577
  8
0
  6
CONTINUOUS
 62
     7
 10
59.9191463527
 20
-69.8495245881
 30
0.0
  0
VERTEX
  5
578
  8
0
  6
CONTINUOUS
 62
     7
 10
59.1453230915
 20
-70.0054089881
 30
0.0
  0
VERTEX
  5
579
  8
0
  6
CONTINUOUS
 62
     7
 10
58.3501136837
 20
-70.156242267
 30
0.0
  0
VERTEX
  5
57A
  8
0
  6
CONTINUOUS
 62
     7
 10
57.5421965656
 20
-70.2999859459
 30
0.0
  0
VERTEX
  5
57B
  8
0
  6
CONTINUOUS
 62
     7
 10
56.7279494342
 20
-70.4353166155
 30
0.0
  0
VERTEX
  5
57C
  8
0
  6
CONTINUOUS
 62
     7
 10
55.898586565
 20
-70.5637957311
 30
0.0
  0
VERTEX
  5
57D
  8
0
  6
CONTINUOUS
 62
     7
 10
55.0552762088
 20
-70.6851342104
 30
0.0
  0
VERTEX
  5
57E
  8
0
  6
CONTINUOUS
 62
     7
 10
54.8775709209
 20
-70.7087661482
 30
0.0
  0
SEQEND
  5
702
  8
0
  6
CONTINUOUS
 62
     7
  0
POLYLINE
  5
21B
  8
0
  6
CONTINUOUS
 62
     7
 66
     1
 10
0.0
 20
0.0
 30
0.0
  0
VERTEX
  5
57F
  8
0
  6
CONTINUOUS
 62
     7
 10
5.1632202205
 20
-70.7090380944
 30
0.0
  0
VERTEX
  5
580
  8
0
  6
CONTINUOUS
 62
     7
 10
4.4977701244
 20
-70.61631506
 30
0.0
  0
VERTEX
  5
581
  8
0
  6
CONTINUOUS
 62
     7
 10
3.6541021404
 20
-70.4894277609
 30
0.0
  0
VERTEX
  5
582
  8
0
  6
CONTINUOUS
 62
     7
 10
2.8186119136
 20
-70.3543418429
 30
0.0
  0
VERTEX
  5
583
  8
0
  6
CONTINUOUS
 62
     7
 10
1.9976175365
 20
-70.2120914466
 30
0.0
  0
VERTEX
  5
584
  8
0
  6
CONTINUOUS
 62
     7
 10
1.2018955287
 20
-70.0649633414
 30
0.0
  0
VERTEX
  5
585
  8
0
  6
CONTINUOUS
 62
     7
 10
0.4266298351
 20
-69.9125889099
 30
0.0
  0
VERTEX
  5
586
  8
0
  6
CONTINUOUS
 62
     7
 10
-0.3246986332
 20
-69.7560121647
 30
0.0
  0
VERTEX
  5
587
  8
0
  6
CONTINUOUS
 62
     7
 10
-1.0464631978
 20
-69.5967792875
 30
0.0
  0
VERTEX
  5
588
  8
0
  6
CONTINUOUS
 62
     7
 10
-1.7326318684
 20
-69.43663567
 30
0.0
  0
VERTEX
  5
589
  8
0
  6
CONTINUOUS
 62
     7
 10
-2.3776494923
 20
-69.2773768089
 30
0.0
  0
VERTEX
  5
58A
  8
0
  6
CONTINUOUS
 62
     7
 10
-2.976056284
 20
-69.1209092147
 30
0.0
  0
VERTEX
  5
58B
  8
0
  6
CONTINUOUS
 62
     7
 10
-3.5232030812
 20
-68.9691485248
 30
0.0
  0
VERTEX
  5
58C
  8
0
  6
CONTINUOUS
 62
     7
 10
-4.0172540608
 20
-68.8235353089
 30
0.0
  0
VERTEX
  5
58D
  8
0
  6
CONTINUOUS
 62
     7
 10
-4.4595443669
 20
-68.6846175107
 30
0.0
  0
VERTEX
  5
58E
  8
0
  6
CONTINUOUS
 62
     7
 10
-4.8433029118
 20
-68.5555378783
 30
0.0
  0
VERTEX
  5
58F
  8
0
  6
CONTINUOUS
 62
     7
 10
-5.16140098
 20
-68.4401764411
 30
0.0
  0
VERTEX
  5
590
  8
0
  6
CONTINUOUS
 62
     7
 10
-5.3842508259
 20
-68.3526691508
 30
0.0
  0
VERTEX
  5
591
  8
0
  6
CONTINUOUS
 62
     7
 10
-5.5422508183
 20
-68.2852767117
 30
0.0
  0
VERTEX
  5
592
  8
0
  6
CONTINUOUS
 62
     7
 10
-5.637952036
 20
-68.2406294502
 30
0.0
  0
VERTEX
  5
593
  8
0
  6
CONTINUOUS
 62
     7
 10
-5.6774341527
 20
-68.2204018456
 30
0.0
  0
VERTEX
  5
594
  8
0
  6
CONTINUOUS
 62
     7
 10
-5.6746446553
 20
-68.2220949027
 30
0.0
  0
SEQEND
  5
701
  8
0
  6
CONTINUOUS
 62
     7
  0
ARC
  5
21C
  8
0
  6
CONTINUOUS
 62
     7
 10
30.02025848
 20
111.6158509539
 30
0.0
 40
184.0127974825659
 50
262.2364863869
 51
277.7635136131
  0
LINE
  5
21D
  8
0
  6
CONTINUOUS
 62
     7
 10
70.0790203151
 20
-70.2359876937
 30
0.0
 11
70.0790203151
 21
-66.749757935
 31
0.0
  0
LINE
  5
21E
  8
0
  6
CONTINUOUS
 62
     7
 10
-10.0384914341
 20
-66.749757935
 30
0.0
 11
-10.0384914341
 21
-70.2359876937
 31
0.0
  0
LINE
  5
21F
  8
0
  6
CONTINUOUS
 62
     7
 10
-7.6797449055
 20
-74.4854281998
 30
0.0
 11
-6.6797458592
 21
-74.4854281998
 31
0.0
  0
LINE
  5
220
  8
0
  6
CONTINUOUS
 62
     7
 10
66.7202628192
 20
-74.4854281998
 30
0.0
 11
67.7202618656
 21
-74.4854281998
 31
0.0
  0
POLYLINE
  5
221
  8
0
  6
CONTINUOUS
 62
     7
 66
     1
 10
0.0
 20
0.0
 30
0.0
  0
VERTEX
  5
595
  8
0
  6
CONTINUOUS
 62
     7
 10
5.1630056438
 20
-65.0778360075
 30
0.0
  0
VERTEX
  5
596
  8
0
  6
CONTINUOUS
 62
     7
 10
4.3923414287
 20
-64.9733300663
 30
0.0
  0
VERTEX
  5
597
  8
0
  6
CONTINUOUS
 62
     7
 10
3.5166299877
 20
-64.8559633053
 30
0.0
  0
VERTEX
  5
598
  8
0
  6
CONTINUOUS
 62
     7
 10
2.6517189083
 20
-64.7413893945
 30
0.0
  0
VERTEX
  5
599
  8
0
  6
CONTINUOUS
 62
     7
 10
1.8018520412
 20
-64.6302144385
 30
0.0
  0
VERTEX
  5
59A
  8
0
  6
CONTINUOUS
 62
     7
 10
0.9737289485
 20
-64.5236525095
 30
0.0
  0
VERTEX
  5
59B
  8
0
  6
CONTINUOUS
 62
     7
 10
0.1604116497
 20
-64.4211377359
 30
0.0
  0
VERTEX
  5
59C
  8
0
  6
CONTINUOUS
 62
     7
 10
-0.6366931859
 20
-64.3232505179
 30
0.0
  0
VERTEX
  5
59D
  8
0
  6
CONTINUOUS
 62
     7
 10
-1.4108621541
 20
-64.2312701202
 30
0.0
  0
VERTEX
  5
59E
  8
0
  6
CONTINUOUS
 62
     7
 10
-2.1555864277
 20
-64.1464381821
 30
0.0
  0
VERTEX
  5
59F
  8
0
  6
CONTINUOUS
 62
     7
 10
-2.8649293843
 20
-64.0699203468
 30
0.0
  0
VERTEX
  5
5A0
  8
0
  6
CONTINUOUS
 62
     7
 10
-3.5338842335
 20
-64.0027876354
 30
0.0
  0
VERTEX
  5
5A1
  8
0
  6
CONTINUOUS
 62
     7
 10
-4.1611158314
 20
-63.9458350248
 30
0.0
  0
VERTEX
  5
5A2
  8
0
  6
CONTINUOUS
 62
     7
 10
-4.7550880375
 20
-63.899088592
 30
0.0
  0
VERTEX
  5
5A3
  8
0
  6
CONTINUOUS
 62
     7
 10
-5.3170883122
 20
-63.8635895557
 30
0.0
  0
VERTEX
  5
5A4
  8
0
  6
CONTINUOUS
 62
     7
 10
-5.8513366642
 20
-63.8409155763
 30
0.0
  0
VERTEX
  5
5A5
  8
0
  6
CONTINUOUS
 62
     7
 10
-6.3703023854
 20
-63.8341359205
 30
0.0
  0
VERTEX
  5
5A6
  8
0
  6
CONTINUOUS
 62
     7
 10
-6.9114887181
 20
-63.8522657908
 30
0.0
  0
VERTEX
  5
5A7
  8
0
  6
CONTINUOUS
 62
     7
 10
-7.2655641499
 20
-63.885678292
 30
0.0
  0
VERTEX
  5
5A8
  8
0
  6
CONTINUOUS
 62
     7
 10
-7.56456489
 20
-63.9329511083
 30
0.0
  0
VERTEX
  5
5A9
  8
0
  6
CONTINUOUS
 62
     7
 10
-7.8470432225
 20
-63.9982204295
 30
0.0
  0
VERTEX
  5
5AA
  8
0
  6
CONTINUOUS
 62
     7
 10
-8.1233226719
 20
-64.0856928534
 30
0.0
  0
VERTEX
  5
5AB
  8
0
  6
CONTINUOUS
 62
     7
 10
-8.4015809956
 20
-64.2020835883
 30
0.0
  0
VERTEX
  5
5AC
  8
0
  6
CONTINUOUS
 62
     7
 10
-8.684416956
 20
-64.3554198898
 30
0.0
  0
VERTEX
  5
5AD
  8
0
  6
CONTINUOUS
 62
     7
 10
-8.9669429722
 20
-64.552448631
 30
0.0
  0
VERTEX
  5
5AE
  8
0
  6
CONTINUOUS
 62
     7
 10
-9.2375719014
 20
-64.7953748114
 30
0.0
  0
VERTEX
  5
5AF
  8
0
  6
CONTINUOUS
 62
     7
 10
-9.4839775029
 20
-65.0828126229
 30
0.0
  0
VERTEX
  5
5B0
  8
0
  6
CONTINUOUS
 62
     7
 10
-9.6941673222
 20
-65.4091448865
 30
0.0
  0
VERTEX
  5
5B1
  8
0
  6
CONTINUOUS
 62
     7
 10
-9.8590576115
 20
-65.7666222534
 30
0.0
  0
VERTEX
  5
5B2
  8
0
  6
CONTINUOUS
 62
     7
 10
-9.9703752461
 20
-66.1492691717
 30
0.0
  0
SEQEND
  5
700
  8
0
  6
CONTINUOUS
 62
     7
  0
POLYLINE
  5
222
  8
0
  6
CONTINUOUS
 62
     7
 66
     1
 10
0.0
 20
0.0
 30
0.0
  0
VERTEX
  5
5B3
  8
0
  6
CONTINUOUS
 62
     7
 10
70.0072086391
 20
-66.1500695503
 30
0.0
  0
VERTEX
  5
5B4
  8
0
  6
CONTINUOUS
 62
     7
 10
69.9189103183
 20
-65.8234061084
 30
0.0
  0
VERTEX
  5
5B5
  8
0
  6
CONTINUOUS
 62
     7
 10
69.757381731
 20
-65.4538878582
 30
0.0
  0
VERTEX
  5
5B6
  8
0
  6
CONTINUOUS
 62
     7
 10
69.5541298923
 20
-65.1250887073
 30
0.0
  0
VERTEX
  5
5B7
  8
0
  6
CONTINUOUS
 62
     7
 10
69.3192279872
 20
-64.8395135409
 30
0.0
  0
VERTEX
  5
5B8
  8
0
  6
CONTINUOUS
 62
     7
 10
69.0630710659
 20
-64.5984056748
 30
0.0
  0
VERTEX
  5
5B9
  8
0
  6
CONTINUOUS
 62
     7
 10
68.7962329921
 20
-64.4012156285
 30
0.0
  0
VERTEX
  5
5BA
  8
0
  6
CONTINUOUS
 62
     7
 10
68.5275590953
 20
-64.2447742975
 30
0.0
  0
VERTEX
  5
5BB
  8
0
  6
CONTINUOUS
 62
     7
 10
68.2632005748
 20
-64.1239586628
 30
0.0
  0
VERTEX
  5
5BC
  8
0
  6
CONTINUOUS
 62
     7
 10
68.003598505
 20
-64.0319555408
 30
0.0
  0
VERTEX
  5
5BD
  8
0
  6
CONTINUOUS
 62
     7
 10
67.7428162632
 20
-63.9620158232
 30
0.0
  0
VERTEX
  5
5BE
  8
0
  6
CONTINUOUS
 62
     7
 10
67.466822916
 20
-63.9086063362
 30
0.0
  0
VERTEX
  5
5BF
  8
0
  6
CONTINUOUS
 62
     7
 10
67.1487963733
 20
-63.8683959252
 30
0.0
  0
VERTEX
  5
5C0
  8
0
  6
CONTINUOUS
 62
     7
 10
66.7734540042
 20
-63.8430464423
 30
0.0
  0
VERTEX
  5
5C1
  8
0
  6
CONTINUOUS
 62
     7
 10
66.1741650638
 20
-63.8355880386
 30
0.0
  0
VERTEX
  5
5C2
  8
0
  6
CONTINUOUS
 62
     7
 10
65.6522071895
 20
-63.850080908
 30
0.0
  0
VERTEX
  5
5C3
  8
0
  6
CONTINUOUS
 62
     7
 10
65.1188886699
 20
-63.8778600252
 30
0.0
  0
VERTEX
  5
5C4
  8
0
  6
CONTINUOUS
 62
     7
 10
64.5077145633
 20
-63.9209184206
 30
0.0
  0
VERTEX
  5
5C5
  8
0
  6
CONTINUOUS
 62
     7
 10
63.8747132358
 20
-63.9746993191
 30
0.0
  0
VERTEX
  5
5C6
  8
0
  6
CONTINUOUS
 62
     7
 10
63.2185495433
 20
-64.0377878553
 30
0.0
  0
VERTEX
  5
5C7
  8
0
  6
CONTINUOUS
 62
     7
 10
62.5200546321
 20
-64.1108262695
 30
0.0
  0
VERTEX
  5
5C8
  8
0
  6
CONTINUOUS
 62
     7
 10
61.7915428218
 20
-64.1918908215
 30
0.0
  0
VERTEX
  5
5C9
  8
0
  6
CONTINUOUS
 62
     7
 10
61.0309994754
 20
-64.2806495882
 30
0.0
  0
VERTEX
  5
5CA
  8
0
  6
CONTINUOUS
 62
     7
 10
60.2417386112
 20
-64.376250968
 30
0.0
  0
VERTEX
  5
5CB
  8
0
  6
CONTINUOUS
 62
     7
 10
59.4277179775
 20
-64.4777904607
 30
0.0
  0
VERTEX
  5
5CC
  8
0
  6
CONTINUOUS
 62
     7
 10
58.5932171878
 20
-64.5843259401
 30
0.0
  0
VERTEX
  5
5CD
  8
0
  6
CONTINUOUS
 62
     7
 10
57.7426708278
 20
-64.6949041045
 30
0.0
  0
VERTEX
  5
5CE
  8
0
  6
CONTINUOUS
 62
     7
 10
56.8836486873
 20
-64.8081339306
 30
0.0
  0
VERTEX
  5
5CF
  8
0
  6
CONTINUOUS
 62
     7
 10
56.0160792408
 20
-64.9238302714
 30
0.0
  0
VERTEX
  5
5D0
  8
0
  6
CONTINUOUS
 62
     7
 10
55.1415598926
 20
-65.0418187834
 30
0.0
  0
VERTEX
  5
5D1
  8
0
  6
CONTINUOUS
 62
     7
 10
54.877392107
 20
-65.0778825737
 30
0.0
  0
SEQEND
  5
6FF
  8
0
  6
CONTINUOUS
 62
     7
  0
LINE
  5
223
  8
0
  6
CONTINUOUS
 62
     7
 10
70.0188315448
 20
-66.2125806666
 30
0.0
 11
70.0089371738
 21
-66.150234767
 31
0.0
  0
POLYLINE
  5
224
  8
0
  6
CONTINUOUS
 62
     7
 66
     1
 10
0.0
 20
0.0
 30
0.0
  0
VERTEX
  5
5D2
  8
0
  6
CONTINUOUS
 62
     7
 10
-9.9660598698
 20
-66.1510746337
 30
0.0
  0
VERTEX
  5
5D3
  8
0
  6
CONTINUOUS
 62
     7
 10
-10.0202524128
 20
-66.4295600138
 30
0.0
  0
VERTEX
  5
5D4
  8
0
  6
CONTINUOUS
 62
     7
 10
-10.033651537
 20
-66.7486247017
 30
0.0
  0
SEQEND
  5
6FE
  8
0
  6
CONTINUOUS
 62
     7
  0
ARC
  5
225
  8
0
  6
CONTINUOUS
 62
     7
 10
30.02025848
 20
117.2478582988
 30
0.0
 40
184.0128008408346
 50
262.2364865294
 51
277.7635134706
  0
POLYLINE
  5
226
  8
0
  6
CONTINUOUS
 62
     7
 66
     1
 10
0.0
 20
0.0
 30
0.0
  0
VERTEX
  5
5D5
  8
0
  6
CONTINUOUS
 62
     7
 10
295.6043577728
 20
-76.0396684862
 30
0.0
  0
VERTEX
  5
5D6
  8
0
  6
CONTINUOUS
 62
     7
 10
296.3953114089
 20
-75.9287449873
 30
0.0
  0
VERTEX
  5
5D7
  8
0
  6
CONTINUOUS
 62
     7
 10
297.2957885799
 20
-75.7925200618
 30
0.0
  0
VERTEX
  5
5D8
  8
0
  6
CONTINUOUS
 62
     7
 10
298.1866872844
 20
-75.6476539529
 30
0.0
  0
VERTEX
  5
5D9
  8
0
  6
CONTINUOUS
 62
     7
 10
299.0631616649
 20
-75.4948529757
 30
0.0
  0
VERTEX
  5
5DA
  8
0
  6
CONTINUOUS
 62
     7
 10
299.9109006462
 20
-75.3371122635
 30
0.0
  0
VERTEX
  5
5DB
  8
0
  6
CONTINUOUS
 62
     7
 10
300.7428801593
 20
-75.1726533628
 30
0.0
  0
VERTEX
  5
5DC
  8
0
  6
CONTINUOUS
 62
     7
 10
301.5573776302
 20
-75.0020566738
 30
0.0
  0
VERTEX
  5
5DD
  8
0
  6
CONTINUOUS
 62
     7
 10
302.3480272827
 20
-74.826816783
 30
0.0
  0
VERTEX
  5
5DE
  8
0
  6
CONTINUOUS
 62
     7
 10
303.1087077198
 20
-74.6484550989
 30
0.0
  0
VERTEX
  5
5DF
  8
0
  6
CONTINUOUS
 62
     7
 10
303.8337386188
 20
-74.4684352881
 30
0.0
  0
VERTEX
  5
5E0
  8
0
  6
CONTINUOUS
 62
     7
 10
304.5183039245
 20
-74.2880358703
 30
0.0
  0
VERTEX
  5
5E1
  8
0
  6
CONTINUOUS
 62
     7
 10
305.1573551235
 20
-74.1089868701
 30
0.0
  0
VERTEX
  5
5E2
  8
0
  6
CONTINUOUS
 62
     7
 10
305.7420766887
 20
-73.9346589304
 30
0.0
  0
VERTEX
  5
5E3
  8
0
  6
CONTINUOUS
 62
     7
 10
306.3065147933
 20
-73.7546216107
 30
0.0
  0
VERTEX
  5
5E4
  8
0
  6
CONTINUOUS
 62
     7
 10
306.835625225
 20
-73.5723312355
 30
0.0
  0
VERTEX
  5
5E5
  8
0
  6
CONTINUOUS
 62
     7
 10
307.334724718
 20
-73.3840111054
 30
0.0
  0
VERTEX
  5
5E6
  8
0
  6
CONTINUOUS
 62
     7
 10
307.818565422
 20
-73.1791871942
 30
0.0
  0
VERTEX
  5
5E7
  8
0
  6
CONTINUOUS
 62
     7
 10
308.3333290157
 20
-72.9219573892
 30
0.0
  0
VERTEX
  5
5E8
  8
0
  6
CONTINUOUS
 62
     7
 10
308.6209691104
 20
-72.749433235
 30
0.0
  0
VERTEX
  5
5E9
  8
0
  6
CONTINUOUS
 62
     7
 10
308.8569796619
 20
-72.584431187
 30
0.0
  0
VERTEX
  5
5EA
  8
0
  6
CONTINUOUS
 62
     7
 10
309.0792573032
 20
-72.4023162729
 30
0.0
  0
VERTEX
  5
5EB
  8
0
  6
CONTINUOUS
 62
     7
 10
309.2914736804
 20
-72.1953987486
 30
0.0
  0
VERTEX
  5
5EC
  8
0
  6
CONTINUOUS
 62
     7
 10
309.4945884285
 20
-71.9546280212
 30
0.0
  0
VERTEX
  5
5ED
  8
0
  6
CONTINUOUS
 62
     7
 10
309.683094078
 20
-71.6742142446
 30
0.0
  0
VERTEX
  5
5EE
  8
0
  6
CONTINUOUS
 62
     7
 10
309.8460829792
 20
-71.3550058535
 30
0.0
  0
VERTEX
  5
5EF
  8
0
  6
CONTINUOUS
 62
     7
 10
309.9723315773
 20
-71.0020359016
 30
0.0
  0
VERTEX
  5
5F0
  8
0
  6
CONTINUOUS
 62
     7
 10
310.0521958408
 20
-70.6244093708
 30
0.0
  0
VERTEX
  5
5F1
  8
0
  6
CONTINUOUS
 62
     7
 10
310.0781596241
 20
-70.2496881939
 30
0.0
  0
SEQEND
  5
6FD
  8
0
  6
CONTINUOUS
 62
     7
  0
POLYLINE
  5
227
  8
0
  6
CONTINUOUS
 62
     7
 66
     1
 10
0.0
 20
0.0
 30
0.0
  0
VERTEX
  5
5F2
  8
0
  6
CONTINUOUS
 62
     7
 10
229.9700162348
 20
-70.2331356115
 30
0.0
  0
VERTEX
  5
5F3
  8
0
  6
CONTINUOUS
 62
     7
 10
229.9704096255
 20
-70.4443849034
 30
0.0
  0
VERTEX
  5
5F4
  8
0
  6
CONTINUOUS
 62
     7
 10
230.0258881387
 20
-70.8276897079
 30
0.0
  0
VERTEX
  5
5F5
  8
0
  6
CONTINUOUS
 62
     7
 10
230.1278508243
 20
-71.1838825948
 30
0.0
  0
VERTEX
  5
5F6
  8
0
  6
CONTINUOUS
 62
     7
 10
230.2672049937
 20
-71.5076553977
 30
0.0
  0
VERTEX
  5
5F7
  8
0
  6
CONTINUOUS
 62
     7
 10
230.4340145525
 20
-71.7952485538
 30
0.0
  0
VERTEX
  5
5F8
  8
0
  6
CONTINUOUS
 62
     7
 10
230.6187308368
 20
-72.045897261
 30
0.0
  0
VERTEX
  5
5F9
  8
0
  6
CONTINUOUS
 62
     7
 10
230.8135694799
 20
-72.2618318505
 30
0.0
  0
VERTEX
  5
5FA
  8
0
  6
CONTINUOUS
 62
     7
 10
231.0150570211
 20
-72.4489136941
 30
0.0
  0
VERTEX
  5
5FB
  8
0
  6
CONTINUOUS
 62
     7
 10
231.2256208596
 20
-72.615614102
 30
0.0
  0
VERTEX
  5
5FC
  8
0
  6
CONTINUOUS
 62
     7
 10
231.4544937548
 20
-72.7718561298
 30
0.0
  0
VERTEX
  5
5FD
  8
0
  6
CONTINUOUS
 62
     7
 10
231.7239961562
 20
-72.9312303818
 30
0.0
  0
VERTEX
  5
5FE
  8
0
  6
CONTINUOUS
 62
     7
 10
232.097192758
 20
-73.1211043305
 30
0.0
  0
VERTEX
  5
5FF
  8
0
  6
CONTINUOUS
 62
     7
 10
232.6386681733
 20
-73.3564808375
 30
0.0
  0
VERTEX
  5
600
  8
0
  6
CONTINUOUS
 62
     7
 10
233.1323034105
 20
-73.5453657217
 30
0.0
  0
VERTEX
  5
601
  8
0
  6
CONTINUOUS
 62
     7
 10
233.6441270051
 20
-73.724109248
 30
0.0
  0
VERTEX
  5
602
  8
0
  6
CONTINUOUS
 62
     7
 10
234.2352128562
 20
-73.9147792912
 30
0.0
  0
VERTEX
  5
603
  8
0
  6
CONTINUOUS
 62
     7
 10
234.8536289272
 20
-74.1003345109
 30
0.0
  0
VERTEX
  5
604
  8
0
  6
CONTINUOUS
 62
     7
 10
235.5012393531
 20
-74.2823268629
 30
0.0
  0
VERTEX
  5
605
  8
0
  6
CONTINUOUS
 62
     7
 10
236.1748642263
 20
-74.4603823281
 30
0.0
  0
VERTEX
  5
606
  8
0
  6
CONTINUOUS
 62
     7
 10
236.8974751768
 20
-74.6405097998
 30
0.0
  0
VERTEX
  5
607
  8
0
  6
CONTINUOUS
 62
     7
 10
237.6547581491
 20
-74.8187358833
 30
0.0
  0
VERTEX
  5
608
  8
0
  6
CONTINUOUS
 62
     7
 10
238.4438431797
 20
-74.9941627837
 30
0.0
  0
VERTEX
  5
609
  8
0
  6
CONTINUOUS
 62
     7
 10
239.2612135944
 20
-75.165725813
 30
0.0
  0
VERTEX
  5
60A
  8
0
  6
CONTINUOUS
 62
     7
 10
240.1029414472
 20
-75.3322835422
 30
0.0
  0
VERTEX
  5
60B
  8
0
  6
CONTINUOUS
 62
     7
 10
240.9648693141
 20
-75.4926811314
 30
0.0
  0
VERTEX
  5
60C
  8
0
  6
CONTINUOUS
 62
     7
 10
241.842541748
 20
-75.6457540549
 30
0.0
  0
VERTEX
  5
60D
  8
0
  6
CONTINUOUS
 62
     7
 10
242.726106101
 20
-75.7896694697
 30
0.0
  0
VERTEX
  5
60E
  8
0
  6
CONTINUOUS
 62
     7
 10
243.6218834457
 20
-75.9255248464
 30
0.0
  0
VERTEX
  5
60F
  8
0
  6
CONTINUOUS
 62
     7
 10
244.4361246166
 20
-76.0400365449
 30
0.0
  0
SEQEND
  5
6FC
  8
0
  6
CONTINUOUS
 62
     7
  0
ARC
  5
228
  8
0
  6
CONTINUOUS
 62
     7
 10
270.0202590761
 20
111.615677722
 30
0.0
 40
189.3926245882123
 50
262.2364752656
 51
277.7635247344
  0
POLYLINE
  5
229
  8
0
  6
CONTINUOUS
 62
     7
 66
     1
 10
0.0
 20
0.0
 30
0.0
  0
VERTEX
  5
610
  8
0
  6
CONTINUOUS
 62
     7
 10
305.7149088916
 20
-68.2222519645
 30
0.0
  0
VERTEX
  5
611
  8
0
  6
CONTINUOUS
 62
     7
 10
305.7171917495
 20
-68.2208666803
 30
0.0
  0
VERTEX
  5
612
  8
0
  6
CONTINUOUS
 62
     7
 10
305.680189186
 20
-68.2399876176
 30
0.0
  0
VERTEX
  5
613
  8
0
  6
CONTINUOUS
 62
     7
 10
305.5926299629
 20
-68.2812657331
 30
0.0
  0
VERTEX
  5
614
  8
0
  6
CONTINUOUS
 62
     7
 10
305.4461992321
 20
-68.3444455084
 30
0.0
  0
VERTEX
  5
615
  8
0
  6
CONTINUOUS
 62
     7
 10
305.2356994686
 20
-68.4280319714
 30
0.0
  0
VERTEX
  5
616
  8
0
  6
CONTINUOUS
 62
     7
 10
304.9585140285
 20
-68.5299197321
 30
0.0
  0
VERTEX
  5
617
  8
0
  6
CONTINUOUS
 62
     7
 10
304.6148574886
 20
-68.6474988579
 30
0.0
  0
VERTEX
  5
618
  8
0
  6
CONTINUOUS
 62
     7
 10
304.2071140346
 20
-68.777976033
 30
0.0
  0
VERTEX
  5
619
  8
0
  6
CONTINUOUS
 62
     7
 10
303.7390506801
 20
-68.9186128664
 30
0.0
  0
VERTEX
  5
61A
  8
0
  6
CONTINUOUS
 62
     7
 10
303.2152331409
 20
-69.0668512478
 30
0.0
  0
VERTEX
  5
61B
  8
0
  6
CONTINUOUS
 62
     7
 10
302.6415443954
 20
-69.2199424251
 30
0.0
  0
VERTEX
  5
61C
  8
0
  6
CONTINUOUS
 62
     7
 10
302.0262396869
 20
-69.374920462
 30
0.0
  0
VERTEX
  5
61D
  8
0
  6
CONTINUOUS
 62
     7
 10
301.3670063552
 20
-69.5320129736
 30
0.0
  0
VERTEX
  5
61E
  8
0
  6
CONTINUOUS
 62
     7
 10
300.6622767982
 20
-69.6909766055
 30
0.0
  0
VERTEX
  5
61F
  8
0
  6
CONTINUOUS
 62
     7
 10
299.919149929
 20
-69.8495245881
 30
0.0
  0
VERTEX
  5
620
  8
0
  6
CONTINUOUS
 62
     7
 10
299.1453207073
 20
-70.0054089881
 30
0.0
  0
VERTEX
  5
621
  8
0
  6
CONTINUOUS
 62
     7
 10
298.3501172599
 20
-70.156242267
 30
0.0
  0
VERTEX
  5
622
  8
0
  6
CONTINUOUS
 62
     7
 10
297.5422001419
 20
-70.2999859459
 30
0.0
  0
VERTEX
  5
623
  8
0
  6
CONTINUOUS
 62
     7
 10
296.72794705
 20
-70.4353166155
 30
0.0
  0
VERTEX
  5
624
  8
0
  6
CONTINUOUS
 62
     7
 10
295.8985841808
 20
-70.5637957311
 30
0.0
  0
VERTEX
  5
625
  8
0
  6
CONTINUOUS
 62
     7
 10
295.0552797851
 20
-70.6851342104
 30
0.0
  0
VERTEX
  5
626
  8
0
  6
CONTINUOUS
 62
     7
 10
294.8775685367
 20
-70.7087661482
 30
0.0
  0
SEQEND
  5
6FB
  8
0
  6
CONTINUOUS
 62
     7
  0
POLYLINE
  5
22A
  8
0
  6
CONTINUOUS
 62
     7
 66
     1
 10
0.0
 20
0.0
 30
0.0
  0
VERTEX
  5
627
  8
0
  6
CONTINUOUS
 62
     7
 10
245.1632118759
 20
-70.7090380944
 30
0.0
  0
VERTEX
  5
628
  8
0
  6
CONTINUOUS
 62
     7
 10
244.4977617797
 20
-70.61631506
 30
0.0
  0
VERTEX
  5
629
  8
0
  6
CONTINUOUS
 62
     7
 10
243.654096776
 20
-70.4894277609
 30
0.0
  0
VERTEX
  5
62A
  8
0
  6
CONTINUOUS
 62
     7
 10
242.8186095294
 20
-70.3543418429
 30
0.0
  0
VERTEX
  5
62B
  8
0
  6
CONTINUOUS
 62
     7
 10
241.9976211128
 20
-70.2120914466
 30
0.0
  0
VERTEX
  5
62C
  8
0
  6
CONTINUOUS
 62
     7
 10
241.2019050655
 20
-70.0649633414
 30
0.0
  0
VERTEX
  5
62D
  8
0
  6
CONTINUOUS
 62
     7
 10
240.4266334114
 20
-69.9125889099
 30
0.0
  0
VERTEX
  5
62E
  8
0
  6
CONTINUOUS
 62
     7
 10
239.6752930221
 20
-69.7560121647
 30
0.0
  0
VERTEX
  5
62F
  8
0
  6
CONTINUOUS
 62
     7
 10
238.9535403785
 20
-69.5967792875
 30
0.0
  0
VERTEX
  5
630
  8
0
  6
CONTINUOUS
 62
     7
 10
238.2673597869
 20
-69.43663567
 30
0.0
  0
VERTEX
  5
631
  8
0
  6
CONTINUOUS
 62
     7
 10
237.6223481235
 20
-69.2773768089
 30
0.0
  0
VERTEX
  5
632
  8
0
  6
CONTINUOUS
 62
     7
 10
237.0239383516
 20
-69.1209092147
 30
0.0
  0
VERTEX
  5
633
  8
0
  6
CONTINUOUS
 62
     7
 10
236.4768064556
 20
-68.9691485248
 30
0.0
  0
VERTEX
  5
634
  8
0
  6
CONTINUOUS
 62
     7
 10
235.9827346143
 20
-68.8235353089
 30
0.0
  0
VERTEX
  5
635
  8
0
  6
CONTINUOUS
 62
     7
 10
235.5404443082
 20
-68.6846175107
 30
0.0
  0
VERTEX
  5
636
  8
0
  6
CONTINUOUS
 62
     7
 10
235.1567006645
 20
-68.5555378783
 30
0.0
  0
VERTEX
  5
637
  8
0
  6
CONTINUOUS
 62
     7
 10
234.8385981259
 20
-68.4401764411
 30
0.0
  0
VERTEX
  5
638
  8
0
  6
CONTINUOUS
 62
     7
 10
234.6157497701
 20
-68.3526691508
 30
0.0
  0
VERTEX
  5
639
  8
0
  6
CONTINUOUS
 62
     7
 10
234.4577557382
 20
-68.2852767117
 30
0.0
  0
VERTEX
  5
63A
  8
0
  6
CONTINUOUS
 62
     7
 10
234.3620575008
 20
-68.2406294502
 30
0.0
  0
VERTEX
  5
63B
  8
0
  6
CONTINUOUS
 62
     7
 10
234.3225589928
 20
-68.2204018456
 30
0.0
  0
VERTEX
  5
63C
  8
0
  6
CONTINUOUS
 62
     7
 10
234.3253484902
 20
-68.2220949027
 30
0.0
  0
SEQEND
  5
6FA
  8
0
  6
CONTINUOUS
 62
     7
  0
ARC
  5
22B
  8
0
  6
CONTINUOUS
 62
     7
 10
270.020257586
 20
111.6157084803
 30
0.0
 40
184.012655308321
 50
262.2364826929
 51
277.7635173071
  0
LINE
  5
22C
  8
0
  6
CONTINUOUS
 62
     7
 10
229.9615032014
 20
-66.749757935
 30
0.0
 11
229.9615032014
 21
-70.2359876937
 31
0.0
  0
LINE
  5
22D
  8
0
  6
CONTINUOUS
 62
     7
 10
310.0790179309
 20
-70.2359876937
 30
0.0
 11
310.0790179309
 21
-66.749757935
 31
0.0
  0
LINE
  5
22E
  8
0
  6
CONTINUOUS
 62
     7
 10
306.7202604351
 20
-74.4854281998
 30
0.0
 11
307.7202594814
 21
-74.4854281998
 31
0.0
  0
LINE
  5
22F
  8
0
  6
CONTINUOUS
 62
     7
 10
232.3202601609
 20
-74.4854281998
 30
0.0
 11
233.3202592072
 21
-74.4854281998
 31
0.0
  0
POLYLINE
  5
230
  8
0
  6
CONTINUOUS
 62
     7
 66
     1
 10
0.0
 20
0.0
 30
0.0
  0
VERTEX
  5
63D
  8
0
  6
CONTINUOUS
 62
     7
 10
245.1630122003
 20
-65.0778360075
 30
0.0
  0
VERTEX
  5
63E
  8
0
  6
CONTINUOUS
 62
     7
 10
244.3923301038
 20
-64.9733300663
 30
0.0
  0
VERTEX
  5
63F
  8
0
  6
CONTINUOUS
 62
     7
 10
243.516621643
 20
-64.8559633053
 30
0.0
  0
VERTEX
  5
640
  8
0
  6
CONTINUOUS
 62
     7
 10
242.6517254648
 20
-64.7413893945
 30
0.0
  0
VERTEX
  5
641
  8
0
  6
CONTINUOUS
 62
     7
 10
241.8018466768
 20
-64.6302144385
 30
0.0
  0
VERTEX
  5
642
  8
0
  6
CONTINUOUS
 62
     7
 10
240.9737355051
 20
-64.5236525095
 30
0.0
  0
VERTEX
  5
643
  8
0
  6
CONTINUOUS
 62
     7
 10
240.1604182062
 20
-64.4211377359
 30
0.0
  0
VERTEX
  5
644
  8
0
  6
CONTINUOUS
 62
     7
 10
239.3632954893
 20
-64.3232505179
 30
0.0
  0
VERTEX
  5
645
  8
0
  6
CONTINUOUS
 62
     7
 10
238.5891265211
 20
-64.2312701202
 30
0.0
  0
VERTEX
  5
646
  8
0
  6
CONTINUOUS
 62
     7
 10
237.844423109
 20
-64.1464381821
 30
0.0
  0
VERTEX
  5
647
  8
0
  6
CONTINUOUS
 62
     7
 10
237.135074192
 20
-64.0699203468
 30
0.0
  0
VERTEX
  5
648
  8
0
  6
CONTINUOUS
 62
     7
 10
236.466122323
 20
-64.0027876354
 30
0.0
  0
VERTEX
  5
649
  8
0
  6
CONTINUOUS
 62
     7
 10
235.8388907251
 20
-63.9458350248
 30
0.0
  0
VERTEX
  5
64A
  8
0
  6
CONTINUOUS
 62
     7
 10
235.2449095783
 20
-63.899088592
 30
0.0
  0
VERTEX
  5
64B
  8
0
  6
CONTINUOUS
 62
     7
 10
234.6829212245
 20
-63.8635895557
 30
0.0
  0
VERTEX
  5
64C
  8
0
  6
CONTINUOUS
 62
     7
 10
234.1486698923
 20
-63.8409155763
 30
0.0
  0
VERTEX
  5
64D
  8
0
  6
CONTINUOUS
 62
     7
 10
233.6296922502
 20
-63.8341359205
 30
0.0
  0
VERTEX
  5
64E
  8
0
  6
CONTINUOUS
 62
     7
 10
233.088499957
 20
-63.8522657908
 30
0.0
  0
VERTEX
  5
64F
  8
0
  6
CONTINUOUS
 62
     7
 10
232.7344289956
 20
-63.885678292
 30
0.0
  0
VERTEX
  5
650
  8
0
  6
CONTINUOUS
 62
     7
 10
232.4354252753
 20
-63.9329511083
 30
0.0
  0
VERTEX
  5
651
  8
0
  6
CONTINUOUS
 62
     7
 10
232.152963334
 20
-63.9982204295
 30
0.0
  0
VERTEX
  5
652
  8
0
  6
CONTINUOUS
 62
     7
 10
231.8766853747
 20
-64.0856928534
 30
0.0
  0
VERTEX
  5
653
  8
0
  6
CONTINUOUS
 62
     7
 10
231.5984121499
 20
-64.2020835883
 30
0.0
  0
VERTEX
  5
654
  8
0
  6
CONTINUOUS
 62
     7
 10
231.3155821499
 20
-64.3554198898
 30
0.0
  0
VERTEX
  5
655
  8
0
  6
CONTINUOUS
 62
     7
 10
231.0330591139
 20
-64.552448631
 30
0.0
  0
VERTEX
  5
656
  8
0
  6
CONTINUOUS
 62
     7
 10
230.762419754
 20
-64.7953748114
 30
0.0
  0
VERTEX
  5
657
  8
0
  6
CONTINUOUS
 62
     7
 10
230.5160305438
 20
-65.0828126229
 30
0.0
  0
VERTEX
  5
658
  8
0
  6
CONTINUOUS
 62
     7
 10
230.3058377442
 20
-65.4091448865
 30
0.0
  0
VERTEX
  5
659
  8
0
  6
CONTINUOUS
 62
     7
 10
230.1409444747
 20
-65.7666222534
 30
0.0
  0
VERTEX
  5
65A
  8
0
  6
CONTINUOUS
 62
     7
 10
230.0296149191
 20
-66.1492691717
 30
0.0
  0
SEQEND
  5
6F9
  8
0
  6
CONTINUOUS
 62
     7
  0
POLYLINE
  5
231
  8
0
  6
CONTINUOUS
 62
     7
 66
     1
 10
0.0
 20
0.0
 30
0.0
  0
VERTEX
  5
65B
  8
0
  6
CONTINUOUS
 62
     7
 10
310.0072062549
 20
-66.1500695503
 30
0.0
  0
VERTEX
  5
65C
  8
0
  6
CONTINUOUS
 62
     7
 10
309.9189138946
 20
-65.8234061084
 30
0.0
  0
VERTEX
  5
65D
  8
0
  6
CONTINUOUS
 62
     7
 10
309.7573793468
 20
-65.4538878582
 30
0.0
  0
VERTEX
  5
65E
  8
0
  6
CONTINUOUS
 62
     7
 10
309.5541334686
 20
-65.1250887073
 30
0.0
  0
VERTEX
  5
65F
  8
0
  6
CONTINUOUS
 62
     7
 10
309.3192256031
 20
-64.8395135409
 30
0.0
  0
VERTEX
  5
660
  8
0
  6
CONTINUOUS
 62
     7
 10
309.0630746421
 20
-64.5984056748
 30
0.0
  0
VERTEX
  5
661
  8
0
  6
CONTINUOUS
 62
     7
 10
308.7962306079
 20
-64.4012156285
 30
0.0
  0
VERTEX
  5
662
  8
0
  6
CONTINUOUS
 62
     7
 10
308.5275626716
 20
-64.2447742975
 30
0.0
  0
VERTEX
  5
663
  8
0
  6
CONTINUOUS
 62
     7
 10
308.2632041511
 20
-64.1239586628
 30
0.0
  0
VERTEX
  5
664
  8
0
  6
CONTINUOUS
 62
     7
 10
308.0035961208
 20
-64.0319555408
 30
0.0
  0
VERTEX
  5
665
  8
0
  6
CONTINUOUS
 62
     7
 10
307.742813879
 20
-63.9620158232
 30
0.0
  0
VERTEX
  5
666
  8
0
  6
CONTINUOUS
 62
     7
 10
307.4668205318
 20
-63.9086063362
 30
0.0
  0
VERTEX
  5
667
  8
0
  6
CONTINUOUS
 62
     7
 10
307.1487939891
 20
-63.8683959252
 30
0.0
  0
VERTEX
  5
668
  8
0
  6
CONTINUOUS
 62
     7
 10
306.7734575805
 20
-63.8430464423
 30
0.0
  0
VERTEX
  5
669
  8
0
  6
CONTINUOUS
 62
     7
 10
306.1741626796
 20
-63.8355880386
 30
0.0
  0
VERTEX
  5
66A
  8
0
  6
CONTINUOUS
 62
     7
 10
305.6522107658
 20
-63.850080908
 30
0.0
  0
VERTEX
  5
66B
  8
0
  6
CONTINUOUS
 62
     7
 10
305.1188862857
 20
-63.8778600252
 30
0.0
  0
VERTEX
  5
66C
  8
0
  6
CONTINUOUS
 62
     7
 10
304.5077062187
 20
-63.9209184206
 30
0.0
  0
VERTEX
  5
66D
  8
0
  6
CONTINUOUS
 62
     7
 10
303.8747168121
 20
-63.9746993191
 30
0.0
  0
VERTEX
  5
66E
  8
0
  6
CONTINUOUS
 62
     7
 10
303.2185411987
 20
-64.0377878553
 30
0.0
  0
VERTEX
  5
66F
  8
0
  6
CONTINUOUS
 62
     7
 10
302.520052248
 20
-64.1108262695
 30
0.0
  0
VERTEX
  5
670
  8
0
  6
CONTINUOUS
 62
     7
 10
301.7915463981
 20
-64.1918908215
 30
0.0
  0
VERTEX
  5
671
  8
0
  6
CONTINUOUS
 62
     7
 10
301.0309970912
 20
-64.2806495882
 30
0.0
  0
VERTEX
  5
672
  8
0
  6
CONTINUOUS
 62
     7
 10
300.2417421875
 20
-64.376250968
 30
0.0
  0
VERTEX
  5
673
  8
0
  6
CONTINUOUS
 62
     7
 10
299.4277215538
 20
-64.4777904607
 30
0.0
  0
VERTEX
  5
674
  8
0
  6
CONTINUOUS
 62
     7
 10
298.5932207641
 20
-64.5843259401
 30
0.0
  0
VERTEX
  5
675
  8
0
  6
CONTINUOUS
 62
     7
 10
297.7426684436
 20
-64.6949041045
 30
0.0
  0
VERTEX
  5
676
  8
0
  6
CONTINUOUS
 62
     7
 10
296.8836522636
 20
-64.8081339306
 30
0.0
  0
VERTEX
  5
677
  8
0
  6
CONTINUOUS
 62
     7
 10
296.016082817
 20
-64.9238302714
 30
0.0
  0
VERTEX
  5
678
  8
0
  6
CONTINUOUS
 62
     7
 10
295.1415634689
 20
-65.0418187834
 30
0.0
  0
VERTEX
  5
679
  8
0
  6
CONTINUOUS
 62
     7
 10
294.8773897228
 20
-65.0778825737
 30
0.0
  0
SEQEND
  5
6F8
  8
0
  6
CONTINUOUS
 62
     7
  0
LINE
  5
232
  8
0
  6
CONTINUOUS
 62
     7
 10
310.0188351211
 20
-66.2125806666
 30
0.0
 11
310.0089347896
 21
-66.150234767
 31
0.0
  0
POLYLINE
  5
233
  8
0
  6
CONTINUOUS
 62
     7
 66
     1
 10
0.0
 20
0.0
 30
0.0
  0
VERTEX
  5
67A
  8
0
  6
CONTINUOUS
 62
     7
 10
230.0339332757
 20
-66.1510746337
 30
0.0
  0
VERTEX
  5
67B
  8
0
  6
CONTINUOUS
 62
     7
 10
229.9797481832
 20
-66.4295600138
 30
0.0
  0
VERTEX
  5
67C
  8
0
  6
CONTINUOUS
 62
     7
 10
229.9663594899
 20
-66.7486247017
 30
0.0
  0
SEQEND
  5
6F7
  8
0
  6
CONTINUOUS
 62
     7
  0
ARC
  5
234
  8
0
  6
CONTINUOUS
 62
     7
 10
270.020257586
 20
117.2477158251
 30
0.0
 40
184.0126586665875
 50
262.2364828354
 51
277.7635171646
  0
LINE
  5
235
  8
0
  6
CONTINUOUS
 62
     7
 10
428.0202663478
 20
-74.7967529453
 30
0.0
 11
431.420258337
 21
-74.7967529453
 31
0.0
  0
LINE
  5
236
  8
0
  6
CONTINUOUS
 62
     7
 10
428.0202663478
 20
-62.3967531479
 30
0.0
 11
410.6202638683
 21
-62.3967531479
 31
0.0
  0
LINE
  5
237
  8
0
  6
CONTINUOUS
 62
     7
 10
410.6202638683
 20
-74.3967532522
 30
0.0
 11
426.7202652034
 21
-74.3967532522
 31
0.0
  0
LINE
  5
238
  8
0
  6
CONTINUOUS
 62
     7
 10
427.7202642498
 20
-74.3967532522
 30
0.0
 11
428.0202663478
 21
-74.3967532522
 31
0.0
  0
LINE
  5
239
  8
0
  6
CONTINUOUS
 62
     7
 10
431.420258337
 20
-59.7967530943
 30
0.0
 11
428.0202663478
 21
-59.7967530943
 31
0.0
  0
LINE
  5
23A
  8
0
  6
CONTINUOUS
 62
     7
 10
308.0202615795
 20
-74.7967529453
 30
0.0
 11
311.4202654895
 21
-74.7967529453
 31
0.0
  0
LINE
  5
23B
  8
0
  6
CONTINUOUS
 62
     7
 10
308.0202615795
 20
-62.3967531479
 30
0.0
 11
290.6202590999
 21
-62.3967531479
 31
0.0
  0
LINE
  5
23C
  8
0
  6
CONTINUOUS
 62
     7
 10
304.1057503757
 20
-74.3967532522
 30
0.0
 11
306.7202604351
 21
-74.3967532522
 31
0.0
  0
LINE
  5
23D
  8
0
  6
CONTINUOUS
 62
     7
 10
307.7202594814
 20
-74.3967532522
 30
0.0
 11
308.0202615795
 21
-74.3967532522
 31
0.0
  0
LINE
  5
23E
  8
0
  6
CONTINUOUS
 62
     7
 10
311.4202654895
 20
-59.7967530943
 30
0.0
 11
308.0202615795
 21
-59.7967530943
 31
0.0
  0
LINE
  5
23F
  8
0
  6
CONTINUOUS
 62
     7
 10
68.0202639637
 20
-74.7967529453
 30
0.0
 11
71.4202559528
 21
-74.7967529453
 31
0.0
  0
LINE
  5
240
  8
0
  6
CONTINUOUS
 62
     7
 10
68.0202639637
 20
-62.3967531479
 30
0.0
 11
50.6202614841
 21
-62.3967531479
 31
0.0
  0
LINE
  5
241
  8
0
  6
CONTINUOUS
 62
     7
 10
64.1057527599
 20
-74.3967532522
 30
0.0
 11
66.7202628192
 21
-74.3967532522
 31
0.0
  0
LINE
  5
242
  8
0
  6
CONTINUOUS
 62
     7
 10
67.7202618656
 20
-74.3967532522
 30
0.0
 11
68.0202639637
 21
-74.3967532522
 31
0.0
  0
LINE
  5
243
  8
0
  6
CONTINUOUS
 62
     7
 10
71.4202559528
 20
-59.7967530943
 30
0.0
 11
68.0202639637
 21
-59.7967530943
 31
0.0
  0
LINE
  5
244
  8
0
  6
CONTINUOUS
 62
     7
 10
188.0202597913
 20
-74.7967529453
 30
0.0
 11
191.420259231
 21
-74.7967529453
 31
0.0
  0
LINE
  5
245
  8
0
  6
CONTINUOUS
 62
     7
 10
188.0202597913
 20
-62.3967531479
 30
0.0
 11
170.620260292
 21
-62.3967531479
 31
0.0
  0
LINE
  5
246
  8
0
  6
CONTINUOUS
 62
     7
 10
184.1057485876
 20
-74.3967532522
 30
0.0
 11
186.720260137
 21
-74.3967532522
 31
0.0
  0
LINE
  5
247
  8
0
  6
CONTINUOUS
 62
     7
 10
187.7202591834
 20
-74.3967532522
 30
0.0
 11
188.0202597913
 21
-74.3967532522
 31
0.0
  0
LINE
  5
248
  8
0
  6
CONTINUOUS
 62
     7
 10
191.420259231
 20
-59.7967530943
 30
0.0
 11
188.0202597913
 21
-59.7967530943
 31
0.0
  0
LINE
  5
249
  8
0
  6
CONTINUOUS
 62
     7
 10
348.6202633914
 20
-74.7967529453
 30
0.0
 11
352.0202553806
 21
-74.7967529453
 31
0.0
  0
LINE
  5
24A
  8
0
  6
CONTINUOUS
 62
     7
 10
352.0202553806
 20
-74.3967532522
 30
0.0
 11
352.3202574787
 21
-74.3967532522
 31
0.0
  0
LINE
  5
24B
  8
0
  6
CONTINUOUS
 62
     7
 10
353.320256525
 20
-74.3967532522
 30
0.0
 11
369.4202578601
 21
-74.3967532522
 31
0.0
  0
LINE
  5
24C
  8
0
  6
CONTINUOUS
 62
     7
 10
369.4202578601
 20
-62.3967531479
 30
0.0
 11
352.0202553806
 21
-62.3967531479
 31
0.0
  0
LINE
  5
24D
  8
0
  6
CONTINUOUS
 62
     7
 10
352.0202553806
 20
-59.7967530943
 30
0.0
 11
348.6202633914
 21
-59.7967530943
 31
0.0
  0
LINE
  5
24E
  8
0
  6
CONTINUOUS
 62
     7
 10
108.6202538547
 20
-74.7967529453
 30
0.0
 11
112.0202577648
 21
-74.7967529453
 31
0.0
  0
LINE
  5
24F
  8
0
  6
CONTINUOUS
 62
     7
 10
112.0202577648
 20
-74.3967532522
 30
0.0
 11
112.3202598629
 21
-74.3967532522
 31
0.0
  0
LINE
  5
250
  8
0
  6
CONTINUOUS
 62
     7
 10
113.3202589092
 20
-74.3967532522
 30
0.0
 11
115.9341371593
 21
-74.3967532522
 31
0.0
  0
LINE
  5
251
  8
0
  6
CONTINUOUS
 62
     7
 10
129.4202602443
 20
-62.3967531479
 30
0.0
 11
112.0202577648
 21
-62.3967531479
 31
0.0
  0
LINE
  5
252
  8
0
  6
CONTINUOUS
 62
     7
 10
112.0202577648
 20
-59.7967530943
 30
0.0
 11
108.6202538547
 21
-59.7967530943
 31
0.0
  0
LINE
  5
253
  8
0
  6
CONTINUOUS
 62
     7
 10
-11.3797389927
 20
-74.7967529453
 30
0.0
 11
-7.9797470036
 21
-74.7967529453
 31
0.0
  0
LINE
  5
254
  8
0
  6
CONTINUOUS
 62
     7
 10
-7.9797470036
 20
-74.3967532522
 30
0.0
 11
-7.6797449055
 21
-74.3967532522
 31
0.0
  0
LINE
  5
255
  8
0
  6
CONTINUOUS
 62
     7
 10
-6.6797458592
 20
-74.3967532522
 30
0.0
 11
-4.0658676091
 21
-74.3967532522
 31
0.0
  0
LINE
  5
256
  8
0
  6
CONTINUOUS
 62
     7
 10
9.420255476
 20
-62.3967531479
 30
0.0
 11
-7.9797470036
 21
-62.3967531479
 31
0.0
  0
LINE
  5
257
  8
0
  6
CONTINUOUS
 62
     7
 10
-7.9797470036
 20
-59.7967530943
 30
0.0
 11
-11.3797389927
 21
-59.7967530943
 31
0.0
  0
LINE
  5
258
  8
0
  6
CONTINUOUS
 62
     7
 10
228.6202601132
 20
-74.7967529453
 30
0.0
 11
232.0202595529
 21
-74.7967529453
 31
0.0
  0
LINE
  5
259
  8
0
  6
CONTINUOUS
 62
     7
 10
232.0202595529
 20
-74.3967532522
 30
0.0
 11
232.3202601609
 21
-74.3967532522
 31
0.0
  0
LINE
  5
25A
  8
0
  6
CONTINUOUS
 62
     7
 10
233.3202592072
 20
-74.3967532522
 30
0.0
 11
235.9341389474
 21
-74.3967532522
 31
0.0
  0
LINE
  5
25B
  8
0
  6
CONTINUOUS
 62
     7
 10
249.4202590522
 20
-62.3967531479
 30
0.0
 11
232.0202595529
 21
-62.3967531479
 31
0.0
  0
LINE
  5
25C
  8
0
  6
CONTINUOUS
 62
     7
 10
232.0202595529
 20
-59.7967530943
 30
0.0
 11
228.6202601132
 21
-59.7967530943
 31
0.0
  0
LINE
  5
25D
  8
0
  6
CONTINUOUS
 62
     7
 10
-13.1797515812
 20
-63.2967531092
 30
0.0
 11
-11.3797389927
 21
-63.2967531092
 31
0.0
  0
LINE
  5
25E
  8
0
  6
CONTINUOUS
 62
     7
 10
9.420255476
 20
-63.2967531092
 30
0.0
 11
50.6202614841
 21
-63.2967531092
 31
0.0
  0
LINE
  5
25F
  8
0
  6
CONTINUOUS
 62
     7
 10
71.4202559528
 20
-63.2967531092
 30
0.0
 11
108.6202538547
 21
-63.2967531092
 31
0.0
  0
LINE
  5
260
  8
0
  6
CONTINUOUS
 62
     7
 10
129.4202602443
 20
-63.2967531092
 30
0.0
 11
170.620260292
 21
-63.2967531092
 31
0.0
  0
LINE
  5
261
  8
0
  6
CONTINUOUS
 62
     7
 10
191.420259231
 20
-63.2967531092
 30
0.0
 11
228.6202601132
 21
-63.2967531092
 31
0.0
  0
LINE
  5
262
  8
0
  6
CONTINUOUS
 62
     7
 10
249.4202590522
 20
-63.2967531092
 30
0.0
 11
290.6202590999
 21
-63.2967531092
 31
0.0
  0
LINE
  5
263
  8
0
  6
CONTINUOUS
 62
     7
 10
311.4202654895
 20
-63.2967531092
 30
0.0
 11
348.6202633914
 21
-63.2967531092
 31
0.0
  0
LINE
  5
264
  8
0
  6
CONTINUOUS
 62
     7
 10
369.4202578601
 20
-63.2967531092
 30
0.0
 11
410.6202638683
 21
-63.2967531092
 31
0.0
  0
LINE
  5
265
  8
0
  6
CONTINUOUS
 62
     7
 10
431.420258337
 20
-63.2967531092
 30
0.0
 11
433.2202709255
 21
-63.2967531092
 31
0.0
  0
LINE
  5
266
  8
0
  6
CONTINUOUS
 62
     7
 10
433.6202657756
 20
-63.6967531747
 30
0.0
 11
433.6202657756
 21
-64.2967532731
 31
0.0
  0
ARC
  5
267
  8
0
  6
CONTINUOUS
 62
     7
 10
433.2202596721
 20
-63.6967531837
 30
0.0
 40
0.4000000000000341
 50
0.0
 51
90.0
  0
LINE
  5
268
  8
0
  6
CONTINUOUS
 62
     7
 10
-13.5797464314
 20
-64.2967532731
 30
0.0
 11
-13.5797464314
 21
-63.6967531747
 31
0.0
  0
ARC
  5
269
  8
0
  6
CONTINUOUS
 62
     7
 10
-13.1797403279
 20
-63.6967531837
 30
0.0
 40
0.4000000000000128
 50
90.0
 51
180.0
  0
LINE
  5
26A
  8
0
  6
CONTINUOUS
 62
     7
 10
-13.5797464314
 20
-72.2967530943
 30
0.0
 11
-13.5797464314
 21
-64.2967532731
 31
0.0
  0
LINE
  5
26B
  8
0
  6
CONTINUOUS
 62
     7
 10
433.6202657756
 20
-64.2967532731
 30
0.0
 11
433.6202657756
 21
-72.2967530943
 31
0.0
  0
ARC
  5
26C
  8
0
  6
CONTINUOUS
 62
     7
 10
-13.1797403279
 20
-72.8967531837
 30
0.0
 40
0.4000000000000057
 50
180.0
 51
270.0
  0
LINE
  5
26D
  8
0
  6
CONTINUOUS
 62
     7
 10
-13.5797464314
 20
-72.8967531926
 30
0.0
 11
-13.5797464314
 21
-72.2967530943
 31
0.0
  0
LINE
  5
26E
  8
0
  6
CONTINUOUS
 62
     7
 10
433.2202709255
 20
-73.2967532582
 30
0.0
 11
431.420258337
 21
-73.2967532582
 31
0.0
  0
LINE
  5
26F
  8
0
  6
CONTINUOUS
 62
     7
 10
410.6202638683
 20
-73.2967532582
 30
0.0
 11
369.4202578601
 21
-73.2967532582
 31
0.0
  0
LINE
  5
270
  8
0
  6
CONTINUOUS
 62
     7
 10
348.6202633914
 20
-73.2967532582
 30
0.0
 11
311.4202654895
 21
-73.2967532582
 31
0.0
  0
LINE
  5
271
  8
0
  6
CONTINUOUS
 62
     7
 10
228.6202601132
 20
-73.2967532582
 30
0.0
 11
191.420259231
 21
-73.2967532582
 31
0.0
  0
LINE
  5
272
  8
0
  6
CONTINUOUS
 62
     7
 10
108.6202538547
 20
-73.2967532582
 30
0.0
 11
71.4202559528
 21
-73.2967532582
 31
0.0
  0
LINE
  5
273
  8
0
  6
CONTINUOUS
 62
     7
 10
-11.3797389927
 20
-73.2967532582
 30
0.0
 11
-13.1797515812
 21
-73.2967532582
 31
0.0
  0
LINE
  5
274
  8
0
  6
CONTINUOUS
 62
     7
 10
433.6202657756
 20
-72.2967530943
 30
0.0
 11
433.6202657756
 21
-72.8967531926
 31
0.0
  0
ARC
  5
275
  8
0
  6
CONTINUOUS
 62
     7
 10
433.2202596721
 20
-72.8967531837
 30
0.0
 40
0.4000000000000341
 50
270.0
 51
0.0
  0
ARC
  5
276
  8
0
  6
CONTINUOUS
 62
     7
 10
26.6059753867
 20
-88.2967531837
 30
0.0
 40
4.000000000000028
 50
200.0051900882
 51
270.0
  0
ARC
  5
277
  8
0
  6
CONTINUOUS
 62
     7
 10
98.0202596721
 20
-62.2967531837
 30
0.0
 40
80.00000000000001
 50
190.9456914391
 51
200.0051900882
  0
LINE
  5
278
  8
0
  6
CONTINUOUS
 62
     7
 10
18.0265105304
 20
-63.2967531092
 30
0.0
 11
18.0202639637
 21
-62.2967533178
 31
0.0
  0
LINE
  5
279
  8
0
  6
CONTINUOUS
 62
     7
 10
18.0202639637
 20
-60.2967533625
 30
0.0
 11
18.0202639637
 21
-62.2967533178
 31
0.0
  0
ARC
  5
27A
  8
0
  6
CONTINUOUS
 62
     7
 10
22.0202596721
 20
-60.2967531837
 30
0.0
 40
4.000000000000007
 50
90.0
 51
180.0
  0
LINE
  5
27B
  8
0
  6
CONTINUOUS
 62
     7
 10
38.0202568111
 20
-56.2967534519
 30
0.0
 11
22.020260149
 21
-56.2967534519
 31
0.0
  0
ARC
  5
27C
  8
0
  6
CONTINUOUS
 62
     7
 10
38.0202596721
 20
-60.2967531837
 30
0.0
 40
4.0
 50
0.0
 51
90.0
  0
LINE
  5
27D
  8
0
  6
CONTINUOUS
 62
     7
 10
42.0202649173
 20
-62.2967533178
 30
0.0
 11
42.0202649173
 21
-60.2967533625
 31
0.0
  0
LINE
  5
27E
  8
0
  6
CONTINUOUS
 62
     7
 10
42.0202649173
 20
-62.2967533178
 30
0.0
 11
42.0140064296
 21
-63.2967531092
 31
0.0
  0
ARC
  5
27F
  8
0
  6
CONTINUOUS
 62
     7
 10
-37.9797403279
 20
-62.2967531837
 30
0.0
 40
79.99999999999999
 50
339.9948099118
 51
349.0535794239
  0
ARC
  5
280
  8
0
  6
CONTINUOUS
 62
     7
 10
33.4345439575
 20
-88.2967531837
 30
0.0
 40
4.0
 50
270.0
 51
339.9948099118
  0
LINE
  5
281
  8
0
  6
CONTINUOUS
 62
     7
 10
26.6059792575
 20
-92.2967526472
 30
0.0
 11
33.4345496234
 21
-92.2967526472
 31
0.0
  0
CIRCLE
  5
282
  8
0
  6
CONTINUOUS
 62
     7
 10
22.0202596721
 20
-60.2967531837
 30
0.0
 40
1.500000000000014
  0
CIRCLE
  5
283
  8
0
  6
CONTINUOUS
 62
     7
 10
38.0202596721
 20
-60.2967531837
 30
0.0
 40
1.500000000000014
  0
CIRCLE
  5
284
  8
0
  6
CONTINUOUS
 62
     7
 10
30.0202596721
 20
-88.2967531837
 30
0.0
 40
1.500000000000014
  0
ARC
  5
285
  8
0
  6
CONTINUOUS
 62
     7
 10
398.0202596721
 20
-60.2967531837
 30
0.0
 40
4.0
 50
0.0
 51
90.0
  0
LINE
  5
286
  8
0
  6
CONTINUOUS
 62
     7
 10
402.0202553806
 20
-62.2967533178
 30
0.0
 11
402.0202553806
 21
-60.2967533625
 31
0.0
  0
LINE
  5
287
  8
0
  6
CONTINUOUS
 62
     7
 10
402.0202553806
 20
-62.2967533178
 30
0.0
 11
402.0140088138
 21
-63.2967531092
 31
0.0
  0
ARC
  5
288
  8
0
  6
CONTINUOUS
 62
     7
 10
322.0202596721
 20
-62.2967531837
 30
0.0
 40
80.00000000000006
 50
348.389934852
 51
352.0967922665
  0
ARC
  5
289
  8
0
  6
CONTINUOUS
 62
     7
 10
458.0202596721
 20
-62.2967531837
 30
0.0
 40
80.00000000000006
 50
187.9032077335
 51
191.610065148
  0
LINE
  5
28A
  8
0
  6
CONTINUOUS
 62
     7
 10
378.0265129146
 20
-63.2967531092
 30
0.0
 11
378.0202544269
 21
-62.2967533178
 31
0.0
  0
LINE
  5
28B
  8
0
  6
CONTINUOUS
 62
     7
 10
378.0202544269
 20
-60.2967533625
 30
0.0
 11
378.0202544269
 21
-62.2967533178
 31
0.0
  0
ARC
  5
28C
  8
0
  6
CONTINUOUS
 62
     7
 10
382.0202596721
 20
-60.2967531837
 30
0.0
 40
4.0
 50
90.0
 51
180.0
  0
LINE
  5
28D
  8
0
  6
CONTINUOUS
 62
     7
 10
398.0202591953
 20
-56.2967534519
 30
0.0
 11
382.0202625331
 21
-56.2967534519
 31
0.0
  0
CIRCLE
  5
28E
  8
0
  6
CONTINUOUS
 62
     7
 10
398.0202596721
 20
-60.2967531837
 30
0.0
 40
1.500000000000014
  0
CIRCLE
  5
28F
  8
0
  6
CONTINUOUS
 62
     7
 10
382.0202596721
 20
-60.2967531837
 30
0.0
 40
1.500000000000021
  0
LINE
  5
290
  8
0
  6
CONTINUOUS
 62
     7
 10
115.084651762
 20
-65.6070006422
 30
0.0
 11
115.084651762
 21
-68.5294089948
 31
0.0
  0
POLYLINE
  5
291
  8
0
  6
CONTINUOUS
 62
     7
 66
     1
 10
0.0
 20
0.0
 30
0.0
  0
VERTEX
  5
67D
  8
0
  6
CONTINUOUS
 62
     7
 10
123.3197069702
 20
-66.1264251328
 30
0.0
  0
VERTEX
  5
67E
  8
0
  6
CONTINUOUS
 62
     7
 10
122.2385502395
 20
-65.9876541576
 30
0.0
  0
VERTEX
  5
67F
  8
0
  6
CONTINUOUS
 62
     7
 10
121.1897647914
 20
-65.8581118441
 30
0.0
  0
VERTEX
  5
680
  8
0
  6
CONTINUOUS
 62
     7
 10
120.1929247913
 20
-65.740925946
 30
0.0
  0
VERTEX
  5
681
  8
0
  6
CONTINUOUS
 62
     7
 10
119.2580020961
 20
-65.6381852335
 30
0.0
  0
VERTEX
  5
682
  8
0
  6
CONTINUOUS
 62
     7
 10
118.3926857051
 20
-65.5516821302
 30
0.0
  0
VERTEX
  5
683
  8
0
  6
CONTINUOUS
 62
     7
 10
117.6126754817
 20
-65.4840463183
 30
0.0
  0
VERTEX
  5
684
  8
0
  6
CONTINUOUS
 62
     7
 10
116.9223881301
 20
-65.43703688
 30
0.0
  0
VERTEX
  5
685
  8
0
  6
CONTINUOUS
 62
     7
 10
116.3311935005
 20
-65.4122456319
 30
0.0
  0
VERTEX
  5
686
  8
0
  6
CONTINUOUS
 62
     7
 10
115.8495164451
 20
-65.4110596857
 30
0.0
  0
VERTEX
  5
687
  8
0
  6
CONTINUOUS
 62
     7
 10
115.479973608
 20
-65.4350540943
 30
0.0
  0
VERTEX
  5
688
  8
0
  6
CONTINUOUS
 62
     7
 10
115.2291811046
 20
-65.4843657619
 30
0.0
  0
VERTEX
  5
689
  8
0
  6
CONTINUOUS
 62
     7
 10
115.1015317974
 20
-65.5585379682
 30
0.0
  0
VERTEX
  5
68A
  8
0
  6
CONTINUOUS
 62
     7
 10
115.084651762
 20
-65.6070006422
 30
0.0
  0
SEQEND
  5
6F6
  8
0
  6
CONTINUOUS
 62
     7
  0
ARC
  5
292
  8
0
  6
CONTINUOUS
 62
     7
 10
150.0202602682
 20
117.0329993551
 30
0.0
 40
185.0953654881224
 50
261.7059781721
 51
278.2940218279
  0
POLYLINE
  5
293
  8
0
  6
CONTINUOUS
 62
     7
 66
     1
 10
0.0
 20
0.0
 30
0.0
  0
VERTEX
  5
68B
  8
0
  6
CONTINUOUS
 62
     7
 10
184.9558687744
 20
-65.6070006422
 30
0.0
  0
VERTEX
  5
68C
  8
0
  6
CONTINUOUS
 62
     7
 10
184.8917818603
 20
-65.5193440027
 30
0.0
  0
VERTEX
  5
68D
  8
0
  6
CONTINUOUS
 62
     7
 10
184.7017622528
 20
-65.4566345147
 30
0.0
  0
VERTEX
  5
68E
  8
0
  6
CONTINUOUS
 62
     7
 10
184.3891776142
 20
-65.41969584
 30
0.0
  0
VERTEX
  5
68F
  8
0
  6
CONTINUOUS
 62
     7
 10
183.9551097688
 20
-65.4087555937
 30
0.0
  0
VERTEX
  5
690
  8
0
  6
CONTINUOUS
 62
     7
 10
183.4048635301
 20
-65.4226885519
 30
0.0
  0
VERTEX
  5
691
  8
0
  6
CONTINUOUS
 62
     7
 10
182.7484286365
 20
-65.460308396
 30
0.0
  0
VERTEX
  5
692
  8
0
  6
CONTINUOUS
 62
     7
 10
181.9950616893
 20
-65.5201363719
 30
0.0
  0
VERTEX
  5
693
  8
0
  6
CONTINUOUS
 62
     7
 10
181.1492479381
 20
-65.6003338627
 30
0.0
  0
VERTEX
  5
694
  8
0
  6
CONTINUOUS
 62
     7
 10
180.2267706928
 20
-65.6982750974
 30
0.0
  0
VERTEX
  5
695
  8
0
  6
CONTINUOUS
 62
     7
 10
179.2449540433
 20
-65.8109910197
 30
0.0
  0
VERTEX
  5
696
  8
0
  6
CONTINUOUS
 62
     7
 10
178.2054758605
 20
-65.9371619455
 30
0.0
  0
VERTEX
  5
697
  8
0
  6
CONTINUOUS
 62
     7
 10
177.1279997167
 20
-66.0736057318
 30
0.0
  0
VERTEX
  5
698
  8
0
  6
CONTINUOUS
 62
     7
 10
176.7208135662
 20
-66.1264251328
 30
0.0
  0
SEQEND
  5
6F5
  8
0
  6
CONTINUOUS
 62
     7
  0
LINE
  5
294
  8
0
  6
CONTINUOUS
 62
     7
 10
184.9558687744
 20
-68.5308259555
 30
0.0
 11
184.9558687744
 21
-65.6070006422
 31
0.0
  0
POLYLINE
  5
295
  8
0
  6
CONTINUOUS
 62
     7
 66
     1
 10
0.0
 20
0.0
 30
0.0
  0
VERTEX
  5
699
  8
0
  6
CONTINUOUS
 62
     7
 10
190.0790161428
 20
-66.749757935
 30
0.0
  0
VERTEX
  5
69A
  8
0
  6
CONTINUOUS
 62
     7
 10
190.07679885
 20
-66.640970797
 30
0.0
  0
VERTEX
  5
69B
  8
0
  6
CONTINUOUS
 62
     7
 10
190.0160766181
 20
-66.1734645597
 30
0.0
  0
SEQEND
  5
6F4
  8
0
  6
CONTINUOUS
 62
     7
  0
POLYLINE
  5
296
  8
0
  6
CONTINUOUS
 62
     7
 66
     1
 10
0.0
 20
0.0
 30
0.0
  0
VERTEX
  5
69C
  8
0
  6
CONTINUOUS
 62
     7
 10
110.0244439182
 20
-66.1734645597
 30
0.0
  0
VERTEX
  5
69D
  8
0
  6
CONTINUOUS
 62
     7
 10
109.9637187061
 20
-66.640970797
 30
0.0
  0
VERTEX
  5
69E
  8
0
  6
CONTINUOUS
 62
     7
 10
109.9615014133
 20
-66.749757935
 30
0.0
  0
SEQEND
  5
6F3
  8
0
  6
CONTINUOUS
 62
     7
  0
LINE
  5
297
  8
0
  6
CONTINUOUS
 62
     7
 10
113.3202589092
 20
-73.6420884139
 30
0.0
 11
113.3202589092
 21
-74.4854281998
 31
0.0
  0
LINE
  5
298
  8
0
  6
CONTINUOUS
 62
     7
 10
112.3202598629
 20
-73.2331998057
 30
0.0
 11
112.3202598629
 21
-74.4854281998
 31
0.0
  0
LINE
  5
299
  8
0
  6
CONTINUOUS
 62
     7
 10
186.720260137
 20
-73.6430942423
 30
0.0
 11
186.720260137
 21
-74.4854281998
 31
0.0
  0
LINE
  5
29A
  8
0
  6
CONTINUOUS
 62
     7
 10
187.7202591834
 20
-73.2363212264
 30
0.0
 11
187.7202591834
 21
-74.4854281998
 31
0.0
  0
LINE
  5
29B
  8
0
  6
CONTINUOUS
 62
     7
 10
186.720260137
 20
-62.614280299
 30
0.0
 11
186.720260137
 21
-63.8423844583
 31
0.0
  0
LINE
  5
29C
  8
0
  6
CONTINUOUS
 62
     7
 10
187.7202591834
 20
-62.614280299
 30
0.0
 11
187.7202591834
 21
-63.9576512731
 31
0.0
  0
LINE
  5
29D
  8
0
  6
CONTINUOUS
 62
     7
 10
113.3202589092
 20
-62.614280299
 30
0.0
 11
113.3202589092
 21
-63.8445019133
 31
0.0
  0
LINE
  5
29E
  8
0
  6
CONTINUOUS
 62
     7
 10
112.3202598629
 20
-62.614280299
 30
0.0
 11
112.3202598629
 21
-63.9595630921
 31
0.0
  0
ARC
  5
29F
  8
0
  6
CONTINUOUS
 62
     7
 10
414.8806791712
 20
-133.490582534
 30
0.0
 40
10.07563006077302
 50
280.5231703422
 51
0.5335619013
  0
LINE
  5
2A0
  8
0
  6
CONTINUOUS
 62
     7
 10
415.3521812496
 20
-148.3903694308
 30
0.0
 11
415.2409351406
 21
-148.3967530883
 31
0.0
  0
POLYLINE
  5
2A1
  8
0
  6
CONTINUOUS
 62
     7
 66
     1
 10
0.0
 20
0.0
 30
0.0
  0
VERTEX
  5
69F
  8
0
  6
CONTINUOUS
 62
     7
 10
353.320256525
 20
-86.4329579628
 30
0.0
  0
VERTEX
  5
6A0
  8
0
  6
CONTINUOUS
 62
     7
 10
352.7879632053
 20
-87.1317747391
 30
0.0
  0
VERTEX
  5
6A1
  8
0
  6
CONTINUOUS
 62
     7
 10
352.3202574787
 20
-87.885228113
 30
0.0
  0
SEQEND
  5
6F2
  8
0
  6
CONTINUOUS
 62
     7
  0
LINE
  5
2A2
  8
0
  6
CONTINUOUS
 62
     7
 10
364.6760380802
 20
-78.4020926214
 30
0.0
 11
364.7995746669
 21
-78.3967535353
 31
0.0
  0
ARC
  5
2A3
  8
0
  6
CONTINUOUS
 62
     7
 10
365.1598461249
 20
-93.3029270139
 30
0.0
 40
10.07563360791607
 50
100.5231182808
 51
180.5335493203
  0
POLYLINE
  5
2A4
  8
0
  6
CONTINUOUS
 62
     7
 66
     1
 10
0.0
 20
0.0
 30
0.0
  0
VERTEX
  5
6A2
  8
0
  6
CONTINUOUS
 62
     7
 10
426.7202652034
 20
-86.4329579628
 30
0.0
  0
VERTEX
  5
6A3
  8
0
  6
CONTINUOUS
 62
     7
 10
427.2525585231
 20
-87.1317747391
 30
0.0
  0
VERTEX
  5
6A4
  8
0
  6
CONTINUOUS
 62
     7
 10
427.7202642498
 20
-87.885228113
 30
0.0
  0
SEQEND
  5
6F1
  8
0
  6
CONTINUOUS
 62
     7
  0
ARC
  5
2A5
  8
0
  6
CONTINUOUS
 62
     7
 10
414.8984151445
 20
-93.2883162202
 30
0.0
 40
10.05804174529583
 50
359.3822826446
 51
79.5609683533
  0
LINE
  5
2A6
  8
0
  6
CONTINUOUS
 62
     7
 10
364.7995746669
 20
-148.3967530883
 30
0.0
 11
364.706436449
 21
-148.3914959586
 31
0.0
  0
ARC
  5
2A7
  8
0
  6
CONTINUOUS
 62
     7
 10
365.1421004312
 20
-133.505191095
 30
0.0
 40
10.05803559228829
 50
179.3822825717
 51
259.5610665857
  0
LINE
  5
2A8
  8
0
  6
CONTINUOUS
 62
     7
 10
355.0846493778
 20
-93.3967518962
 30
0.0
 11
355.0846493778
 21
-133.3967554725
 31
0.0
  0
LINE
  5
2A9
  8
0
  6
CONTINUOUS
 62
     7
 10
424.9558723506
 20
-133.3967554725
 30
0.0
 11
424.9558723506
 21
-93.3967518962
 31
0.0
  0
LINE
  5
2AA
  8
0
  6
CONTINUOUS
 62
     7
 10
427.7202642498
 20
-69.4876243702
 30
0.0
 11
427.7202642498
 21
-87.885228113
 31
0.0
  0
LINE
  5
2AB
  8
0
  6
CONTINUOUS
 62
     7
 10
426.7202652034
 20
-69.4876243702
 30
0.0
 11
426.7202652034
 21
-86.4329579628
 31
0.0
  0
LINE
  5
2AC
  8
0
  6
CONTINUOUS
 62
     7
 10
353.320256525
 20
-69.4876243702
 30
0.0
 11
353.320256525
 21
-86.4329579628
 31
0.0
  0
LINE
  5
2AD
  8
0
  6
CONTINUOUS
 62
     7
 10
352.3202574787
 20
-69.4876243702
 30
0.0
 11
352.3202574787
 21
-87.885228113
 31
0.0
  0
LINE
  5
2AE
  8
0
  6
CONTINUOUS
 62
     7
 10
363.3197105464
 20
-143.3967518962
 30
0.0
 11
416.7208231029
 21
-143.3967518962
 31
0.0
  0
LINE
  5
2AF
  8
0
  6
CONTINUOUS
 62
     7
 10
363.3197105464
 20
-83.3967524923
 30
0.0
 11
416.7208231029
 21
-83.3967524923
 31
0.0
  0
LINE
  5
2B0
  8
0
  6
CONTINUOUS
 62
     7
 10
364.7995746669
 20
-78.3967535353
 30
0.0
 11
415.2409351406
 21
-78.3967535353
 31
0.0
  0
LINE
  5
2B1
  8
0
  6
CONTINUOUS
 62
     7
 10
415.2409351406
 20
-148.3967530883
 30
0.0
 11
364.7995746669
 21
-148.3967530883
 31
0.0
  0
LINE
  5
2B2
  8
0
  6
CONTINUOUS
 62
     7
 10
-4.9153530064
 20
-65.6070006422
 30
0.0
 11
-4.9153530064
 21
-68.5294089948
 31
0.0
  0
POLYLINE
  5
2B3
  8
0
  6
CONTINUOUS
 62
     7
 66
     1
 10
0.0
 20
0.0
 30
0.0
  0
VERTEX
  5
6A5
  8
0
  6
CONTINUOUS
 62
     7
 10
3.3196962413
 20
-66.1264251328
 30
0.0
  0
VERTEX
  5
6A6
  8
0
  6
CONTINUOUS
 62
     7
 10
2.2385633525
 20
-65.9876541576
 30
0.0
  0
VERTEX
  5
6A7
  8
0
  6
CONTINUOUS
 62
     7
 10
1.1897600231
 20
-65.8581118441
 30
0.0
  0
VERTEX
  5
6A8
  8
0
  6
CONTINUOUS
 62
     7
 10
0.1929319438
 20
-65.740925946
 30
0.0
  0
VERTEX
  5
6A9
  8
0
  6
CONTINUOUS
 62
     7
 10
-0.7420026722
 20
-65.6381852335
 30
0.0
  0
VERTEX
  5
6AA
  8
0
  6
CONTINUOUS
 62
     7
 10
-1.6073190632
 20
-65.5516821302
 30
0.0
  0
VERTEX
  5
6AB
  8
0
  6
CONTINUOUS
 62
     7
 10
-2.3873292866
 20
-65.4840463183
 30
0.0
  0
VERTEX
  5
6AC
  8
0
  6
CONTINUOUS
 62
     7
 10
-3.0776225987
 20
-65.43703688
 30
0.0
  0
VERTEX
  5
6AD
  8
0
  6
CONTINUOUS
 62
     7
 10
-3.6688053074
 20
-65.4122456319
 30
0.0
  0
VERTEX
  5
6AE
  8
0
  6
CONTINUOUS
 62
     7
 10
-4.1504823628
 20
-65.4110596857
 30
0.0
  0
VERTEX
  5
6AF
  8
0
  6
CONTINUOUS
 62
     7
 10
-4.5200311604
 20
-65.4350540943
 30
0.0
  0
VERTEX
  5
6B0
  8
0
  6
CONTINUOUS
 62
     7
 10
-4.7708236638
 20
-65.4843657619
 30
0.0
  0
VERTEX
  5
6B1
  8
0
  6
CONTINUOUS
 62
     7
 10
-4.898472971
 20
-65.5585379682
 30
0.0
  0
VERTEX
  5
6B2
  8
0
  6
CONTINUOUS
 62
     7
 10
-4.9153530064
 20
-65.6070006422
 30
0.0
  0
SEQEND
  5
6F0
  8
0
  6
CONTINUOUS
 62
     7
  0
ARC
  5
2B4
  8
0
  6
CONTINUOUS
 62
     7
 10
30.0202525196
 20
117.0330304492
 30
0.0
 40
185.0953966868202
 50
261.7059786477
 51
278.2940213523
  0
POLYLINE
  5
2B5
  8
0
  6
CONTINUOUS
 62
     7
 66
     1
 10
0.0
 20
0.0
 30
0.0
  0
VERTEX
  5
6B3
  8
0
  6
CONTINUOUS
 62
     7
 10
64.9558699665
 20
-65.6070006422
 30
0.0
  0
VERTEX
  5
6B4
  8
0
  6
CONTINUOUS
 62
     7
 10
64.8917830524
 20
-65.5193440027
 30
0.0
  0
VERTEX
  5
6B5
  8
0
  6
CONTINUOUS
 62
     7
 10
64.7017634449
 20
-65.4566345147
 30
0.0
  0
VERTEX
  5
6B6
  8
0
  6
CONTINUOUS
 62
     7
 10
64.3891728458
 20
-65.41969584
 30
0.0
  0
VERTEX
  5
6B7
  8
0
  6
CONTINUOUS
 62
     7
 10
63.9551079807
 20
-65.4087555937
 30
0.0
  0
VERTEX
  5
6B8
  8
0
  6
CONTINUOUS
 62
     7
 10
63.404861742
 20
-65.4226885519
 30
0.0
  0
VERTEX
  5
6B9
  8
0
  6
CONTINUOUS
 62
     7
 10
62.7484238681
 20
-65.460308396
 30
0.0
  0
VERTEX
  5
6BA
  8
0
  6
CONTINUOUS
 62
     7
 10
61.995056921
 20
-65.5201363719
 30
0.0
  0
VERTEX
  5
6BB
  8
0
  6
CONTINUOUS
 62
     7
 10
61.1492431697
 20
-65.6003338627
 30
0.0
  0
VERTEX
  5
6BC
  8
0
  6
CONTINUOUS
 62
     7
 10
60.2267778453
 20
-65.6982750974
 30
0.0
  0
VERTEX
  5
6BD
  8
0
  6
CONTINUOUS
 62
     7
 10
59.2449582157
 20
-65.8109910197
 30
0.0
  0
VERTEX
  5
6BE
  8
0
  6
CONTINUOUS
 62
     7
 10
58.2054770526
 20
-65.9371619455
 30
0.0
  0
VERTEX
  5
6BF
  8
0
  6
CONTINUOUS
 62
     7
 10
57.128003889
 20
-66.0736057318
 30
0.0
  0
VERTEX
  5
6C0
  8
0
  6
CONTINUOUS
 62
     7
 10
56.7208087978
 20
-66.1264251328
 30
0.0
  0
SEQEND
  5
6EF
  8
0
  6
CONTINUOUS
 62
     7
  0
LINE
  5
2B6
  8
0
  6
CONTINUOUS
 62
     7
 10
64.9558699665
 20
-68.5308259555
 30
0.0
 11
64.9558699665
 21
-65.6070006422
 31
0.0
  0
POLYLINE
  5
2B7
  8
0
  6
CONTINUOUS
 62
     7
 66
     1
 10
0.0
 20
0.0
 30
0.0
  0
VERTEX
  5
6C1
  8
0
  6
CONTINUOUS
 62
     7
 10
70.0790203151
 20
-66.749757935
 30
0.0
  0
VERTEX
  5
6C2
  8
0
  6
CONTINUOUS
 62
     7
 10
70.0768030223
 20
-66.640970797
 30
0.0
  0
VERTEX
  5
6C3
  8
0
  6
CONTINUOUS
 62
     7
 10
70.0160778102
 20
-66.1734645597
 30
0.0
  0
SEQEND
  5
6EE
  8
0
  6
CONTINUOUS
 62
     7
  0
POLYLINE
  5
2B8
  8
0
  6
CONTINUOUS
 62
     7
 66
     1
 10
0.0
 20
0.0
 30
0.0
  0
VERTEX
  5
6C4
  8
0
  6
CONTINUOUS
 62
     7
 10
-9.9755489293
 20
-66.1734645597
 30
0.0
  0
VERTEX
  5
6C5
  8
0
  6
CONTINUOUS
 62
     7
 10
-10.0362741414
 20
-66.640970797
 30
0.0
  0
VERTEX
  5
6C6
  8
0
  6
CONTINUOUS
 62
     7
 10
-10.0384914341
 20
-66.749757935
 30
0.0
  0
SEQEND
  5
6ED
  8
0
  6
CONTINUOUS
 62
     7
  0
LINE
  5
2B9
  8
0
  6
CONTINUOUS
 62
     7
 10
-6.6797458592
 20
-73.6420884139
 30
0.0
 11
-6.6797458592
 21
-74.4854281998
 31
0.0
  0
LINE
  5
2BA
  8
0
  6
CONTINUOUS
 62
     7
 10
-7.6797449055
 20
-73.2331998057
 30
0.0
 11
-7.6797449055
 21
-74.4854281998
 31
0.0
  0
LINE
  5
2BB
  8
0
  6
CONTINUOUS
 62
     7
 10
66.7202628192
 20
-73.6430942423
 30
0.0
 11
66.7202628192
 21
-74.4854281998
 31
0.0
  0
LINE
  5
2BC
  8
0
  6
CONTINUOUS
 62
     7
 10
67.7202618656
 20
-73.2363212264
 30
0.0
 11
67.7202618656
 21
-74.4854281998
 31
0.0
  0
LINE
  5
2BD
  8
0
  6
CONTINUOUS
 62
     7
 10
66.7202628192
 20
-62.614280299
 30
0.0
 11
66.7202628192
 21
-63.8423844583
 31
0.0
  0
LINE
  5
2BE
  8
0
  6
CONTINUOUS
 62
     7
 10
67.7202618656
 20
-62.614280299
 30
0.0
 11
67.7202618656
 21
-63.9576512731
 31
0.0
  0
LINE
  5
2BF
  8
0
  6
CONTINUOUS
 62
     7
 10
-6.6797458592
 20
-62.614280299
 30
0.0
 11
-6.6797458592
 21
-63.8445019133
 31
0.0
  0
LINE
  5
2C0
  8
0
  6
CONTINUOUS
 62
     7
 10
-7.6797449055
 20
-62.614280299
 30
0.0
 11
-7.6797449055
 21
-63.9595630921
 31
0.0
  0
LINE
  5
2C1
  8
0
  6
CONTINUOUS
 62
     7
 10
235.0846505699
 20
-65.6070006422
 30
0.0
 11
235.0846505699
 21
-68.5294089948
 31
0.0
  0
POLYLINE
  5
2C2
  8
0
  6
CONTINUOUS
 62
     7
 66
     1
 10
0.0
 20
0.0
 30
0.0
  0
VERTEX
  5
6C7
  8
0
  6
CONTINUOUS
 62
     7
 10
243.3197057781
 20
-66.1264251328
 30
0.0
  0
VERTEX
  5
6C8
  8
0
  6
CONTINUOUS
 62
     7
 10
242.2385520277
 20
-65.9876541576
 30
0.0
  0
VERTEX
  5
6C9
  8
0
  6
CONTINUOUS
 62
     7
 10
241.1897635993
 20
-65.8581118441
 30
0.0
  0
VERTEX
  5
6CA
  8
0
  6
CONTINUOUS
 62
     7
 10
240.1929235992
 20
-65.740925946
 30
0.0
  0
VERTEX
  5
6CB
  8
0
  6
CONTINUOUS
 62
     7
 10
239.258000904
 20
-65.6381852335
 30
0.0
  0
VERTEX
  5
6CC
  8
0
  6
CONTINUOUS
 62
     7
 10
238.3926874933
 20
-65.5516821302
 30
0.0
  0
VERTEX
  5
6CD
  8
0
  6
CONTINUOUS
 62
     7
 10
237.6126742897
 20
-65.4840463183
 30
0.0
  0
VERTEX
  5
6CE
  8
0
  6
CONTINUOUS
 62
     7
 10
236.922386938
 20
-65.43703688
 30
0.0
  0
VERTEX
  5
6CF
  8
0
  6
CONTINUOUS
 62
     7
 10
236.3311952886
 20
-65.4122456319
 30
0.0
  0
VERTEX
  5
6D0
  8
0
  6
CONTINUOUS
 62
     7
 10
235.8495182333
 20
-65.4110596857
 30
0.0
  0
VERTEX
  5
6D1
  8
0
  6
CONTINUOUS
 62
     7
 10
235.4799694356
 20
-65.4350540943
 30
0.0
  0
VERTEX
  5
6D2
  8
0
  6
CONTINUOUS
 62
     7
 10
235.2291828928
 20
-65.4843657619
 30
0.0
  0
VERTEX
  5
6D3
  8
0
  6
CONTINUOUS
 62
     7
 10
235.1015335855
 20
-65.5585379682
 30
0.0
  0
VERTEX
  5
6D4
  8
0
  6
CONTINUOUS
 62
     7
 10
235.0846505699
 20
-65.6070006422
 30
0.0
  0
SEQEND
  5
6EC
  8
0
  6
CONTINUOUS
 62
     7
  0
ARC
  5
2C3
  8
0
  6
CONTINUOUS
 62
     7
 10
270.0202590761
 20
117.0329993551
 30
0.0
 40
185.0953654881217
 50
261.7059781721
 51
278.2940218279
  0
POLYLINE
  5
2C4
  8
0
  6
CONTINUOUS
 62
     7
 66
     1
 10
0.0
 20
0.0
 30
0.0
  0
VERTEX
  5
6D5
  8
0
  6
CONTINUOUS
 62
     7
 10
304.9558675823
 20
-65.6070006422
 30
0.0
  0
VERTEX
  5
6D6
  8
0
  6
CONTINUOUS
 62
     7
 10
304.8917806682
 20
-65.5193440027
 30
0.0
  0
VERTEX
  5
6D7
  8
0
  6
CONTINUOUS
 62
     7
 10
304.7017610607
 20
-65.4566345147
 30
0.0
  0
VERTEX
  5
6D8
  8
0
  6
CONTINUOUS
 62
     7
 10
304.3891764221
 20
-65.41969584
 30
0.0
  0
VERTEX
  5
6D9
  8
0
  6
CONTINUOUS
 62
     7
 10
303.955111557
 20
-65.4087555937
 30
0.0
  0
VERTEX
  5
6DA
  8
0
  6
CONTINUOUS
 62
     7
 10
303.4048653183
 20
-65.4226885519
 30
0.0
  0
VERTEX
  5
6DB
  8
0
  6
CONTINUOUS
 62
     7
 10
302.7484274444
 20
-65.460308396
 30
0.0
  0
VERTEX
  5
6DC
  8
0
  6
CONTINUOUS
 62
     7
 10
301.9950604972
 20
-65.5201363719
 30
0.0
  0
VERTEX
  5
6DD
  8
0
  6
CONTINUOUS
 62
     7
 10
301.149246746
 20
-65.6003338627
 30
0.0
  0
VERTEX
  5
6DE
  8
0
  6
CONTINUOUS
 62
     7
 10
300.2267695007
 20
-65.6982750974
 30
0.0
  0
VERTEX
  5
6DF
  8
0
  6
CONTINUOUS
 62
     7
 10
299.2449558315
 20
-65.8109910197
 30
0.0
  0
VERTEX
  5
6E0
  8
0
  6
CONTINUOUS
 62
     7
 10
298.2054746685
 20
-65.9371619455
 30
0.0
  0
VERTEX
  5
6E1
  8
0
  6
CONTINUOUS
 62
     7
 10
297.1280015049
 20
-66.0736057318
 30
0.0
  0
VERTEX
  5
6E2
  8
0
  6
CONTINUOUS
 62
     7
 10
296.7208123741
 20
-66.1264251328
 30
0.0
  0
SEQEND
  5
6EB
  8
0
  6
CONTINUOUS
 62
     7
  0
LINE
  5
2C5
  8
0
  6
CONTINUOUS
 62
     7
 10
304.9558675823
 20
-68.5308259555
 30
0.0
 11
304.9558675823
 21
-65.6070006422
 31
0.0
  0
POLYLINE
  5
2C6
  8
0
  6
CONTINUOUS
 62
     7
 66
     1
 10
0.0
 20
0.0
 30
0.0
  0
VERTEX
  5
6E3
  8
0
  6
CONTINUOUS
 62
     7
 10
230.0244427261
 20
-66.1734645597
 30
0.0
  0
VERTEX
  5
6E4
  8
0
  6
CONTINUOUS
 62
     7
 10
229.9637204942
 20
-66.640970797
 30
0.0
  0
VERTEX
  5
6E5
  8
0
  6
CONTINUOUS
 62
     7
 10
229.9615032014
 20
-66.749757935
 30
0.0
  0
SEQEND
  5
6EA
  8
0
  6
CONTINUOUS
 62
     7
  0
POLYLINE
  5
2C7
  8
0
  6
CONTINUOUS
 62
     7
 66
     1
 10
0.0
 20
0.0
 30
0.0
  0
VERTEX
  5
6E6
  8
0
  6
CONTINUOUS
 62
     7
 10
310.0790179309
 20
-66.749757935
 30
0.0
  0
VERTEX
  5
6E7
  8
0
  6
CONTINUOUS
 62
     7
 10
310.0768006382
 20
-66.640970797
 30
0.0
  0
VERTEX
  5
6E8
  8
0
  6
CONTINUOUS
 62
     7
 10
310.0160754261
 20
-66.1734645597
 30
0.0
  0
SEQEND
  5
6E9
  8
0
  6
CONTINUOUS
 62
     7
  0
LINE
  5
2C8
  8
0
  6
CONTINUOUS
 62
     7
 10
306.7202604351
 20
-73.6430942423
 30
0.0
 11
306.7202604351
 21
-74.4854281998
 31
0.0
  0
LINE
  5
2C9
  8
0
  6
CONTINUOUS
 62
     7
 10
307.7202594814
 20
-73.2363212264
 30
0.0
 11
307.7202594814
 21
-74.4854281998
 31
0.0
  0
LINE
  5
2CA
  8
0
  6
CONTINUOUS
 62
     7
 10
233.3202592072
 20
-73.6420884139
 30
0.0
 11
233.3202592072
 21
-74.4854281998
 31
0.0
  0
LINE
  5
2CB
  8
0
  6
CONTINUOUS
 62
     7
 10
232.3202601609
 20
-73.2331998057
 30
0.0
 11
232.3202601609
 21
-74.4854281998
 31
0.0
  0
LINE
  5
2CC
  8
0
  6
CONTINUOUS
 62
     7
 10
306.7202604351
 20
-62.614280299
 30
0.0
 11
306.7202604351
 21
-63.8423844583
 31
0.0
  0
LINE
  5
2CD
  8
0
  6
CONTINUOUS
 62
     7
 10
307.7202594814
 20
-62.614280299
 30
0.0
 11
307.7202594814
 21
-63.9576512731
 31
0.0
  0
LINE
  5
2CE
  8
0
  6
CONTINUOUS
 62
     7
 10
233.3202592072
 20
-62.614280299
 30
0.0
 11
233.3202592072
 21
-63.8445019133
 31
0.0
  0
LINE
  5
2CF
  8
0
  6
CONTINUOUS
 62
     7
 10
232.3202601609
 20
-62.614280299
 30
0.0
 11
232.3202601609
 21
-63.9595630921
 31
0.0
  0
LINE
  5
2D0
  8
0
  6
CONTINUOUS
 62
     7
 10
428.0202663478
 20
-62.78294617
 30
0.0
 11
428.0202663478
 21
-74.7967529453
 31
0.0
  0
LINE
  5
2D1
  8
0
  6
CONTINUOUS
 62
     7
 10
431.420258337
 20
-62.78294617
 30
0.0
 11
431.420258337
 21
-74.7967529453
 31
0.0
  0
LINE
  5
2D2
  8
0
  6
CONTINUOUS
 62
     7
 10
410.6202638683
 20
-62.3967531479
 30
0.0
 11
410.6202638683
 21
-74.3967532522
 31
0.0
  0
LINE
  5
2D3
  8
0
  6
CONTINUOUS
 62
     7
 10
428.0202663478
 20
-59.7967530943
 30
0.0
 11
428.0202663478
 21
-62.78294617
 31
0.0
  0
LINE
  5
2D4
  8
0
  6
CONTINUOUS
 62
     7
 10
431.420258337
 20
-59.7967530943
 30
0.0
 11
431.420258337
 21
-62.78294617
 31
0.0
  0
LINE
  5
2D5
  8
0
  6
CONTINUOUS
 62
     7
 10
308.0202615795
 20
-62.78294617
 30
0.0
 11
308.0202615795
 21
-64.013870374
 31
0.0
  0
LINE
  5
2D6
  8
0
  6
CONTINUOUS
 62
     7
 10
308.0202615795
 20
-73.0823911137
 30
0.0
 11
308.0202615795
 21
-74.7967529453
 31
0.0
  0
LINE
  5
2D7
  8
0
  6
CONTINUOUS
 62
     7
 10
311.4202654895
 20
-62.78294617
 30
0.0
 11
311.4202654895
 21
-74.7967529453
 31
0.0
  0
LINE
  5
2D8
  8
0
  6
CONTINUOUS
 62
     7
 10
290.6202590999
 20
-62.3967531479
 30
0.0
 11
290.6202590999
 21
-65.6007484875
 31
0.0
  0
LINE
  5
2D9
  8
0
  6
CONTINUOUS
 62
     7
 10
308.0202615795
 20
-59.7967530943
 30
0.0
 11
308.0202615795
 21
-62.78294617
 31
0.0
  0
LINE
  5
2DA
  8
0
  6
CONTINUOUS
 62
     7
 10
311.4202654895
 20
-59.7967530943
 30
0.0
 11
311.4202654895
 21
-62.78294617
 31
0.0
  0
LINE
  5
2DB
  8
0
  6
CONTINUOUS
 62
     7
 10
68.0202639637
 20
-62.78294617
 30
0.0
 11
68.0202639637
 21
-64.013870374
 31
0.0
  0
LINE
  5
2DC
  8
0
  6
CONTINUOUS
 62
     7
 10
68.0202639637
 20
-73.0823911137
 30
0.0
 11
68.0202639637
 21
-74.7967529453
 31
0.0
  0
LINE
  5
2DD
  8
0
  6
CONTINUOUS
 62
     7
 10
71.4202559528
 20
-62.78294617
 30
0.0
 11
71.4202559528
 21
-74.7967529453
 31
0.0
  0
LINE
  5
2DE
  8
0
  6
CONTINUOUS
 62
     7
 10
50.6202614841
 20
-62.3967531479
 30
0.0
 11
50.6202614841
 21
-65.6007484875
 31
0.0
  0
LINE
  5
2DF
  8
0
  6
CONTINUOUS
 62
     7
 10
68.0202639637
 20
-59.7967530943
 30
0.0
 11
68.0202639637
 21
-62.78294617
 31
0.0
  0
LINE
  5
2E0
  8
0
  6
CONTINUOUS
 62
     7
 10
71.4202559528
 20
-59.7967530943
 30
0.0
 11
71.4202559528
 21
-62.78294617
 31
0.0
  0
LINE
  5
2E1
  8
0
  6
CONTINUOUS
 62
     7
 10
191.420259231
 20
-62.78294617
 30
0.0
 11
191.420259231
 21
-74.7967529453
 31
0.0
  0
LINE
  5
2E2
  8
0
  6
CONTINUOUS
 62
     7
 10
188.0202597913
 20
-62.78294617
 30
0.0
 11
188.0202597913
 21
-64.013870374
 31
0.0
  0
LINE
  5
2E3
  8
0
  6
CONTINUOUS
 62
     7
 10
188.0202597913
 20
-73.0823911137
 30
0.0
 11
188.0202597913
 21
-74.7967529453
 31
0.0
  0
LINE
  5
2E4
  8
0
  6
CONTINUOUS
 62
     7
 10
170.620260292
 20
-62.3967531479
 30
0.0
 11
170.620260292
 21
-65.6007484875
 31
0.0
  0
LINE
  5
2E5
  8
0
  6
CONTINUOUS
 62
     7
 10
191.420259231
 20
-59.7967530943
 30
0.0
 11
191.420259231
 21
-62.78294617
 31
0.0
  0
LINE
  5
2E6
  8
0
  6
CONTINUOUS
 62
     7
 10
188.0202597913
 20
-59.7967530943
 30
0.0
 11
188.0202597913
 21
-62.78294617
 31
0.0
  0
LINE
  5
2E7
  8
0
  6
CONTINUOUS
 62
     7
 10
348.6202633914
 20
-62.78294617
 30
0.0
 11
348.6202633914
 21
-74.7967529453
 31
0.0
  0
LINE
  5
2E8
  8
0
  6
CONTINUOUS
 62
     7
 10
352.0202553806
 20
-62.78294617
 30
0.0
 11
352.0202553806
 21
-74.7967529453
 31
0.0
  0
LINE
  5
2E9
  8
0
  6
CONTINUOUS
 62
     7
 10
369.4202578601
 20
-62.3967531479
 30
0.0
 11
369.4202578601
 21
-74.3967532522
 31
0.0
  0
LINE
  5
2EA
  8
0
  6
CONTINUOUS
 62
     7
 10
348.6202633914
 20
-59.7967530943
 30
0.0
 11
348.6202633914
 21
-62.78294617
 31
0.0
  0
LINE
  5
2EB
  8
0
  6
CONTINUOUS
 62
     7
 10
352.0202553806
 20
-59.7967530943
 30
0.0
 11
352.0202553806
 21
-62.78294617
 31
0.0
  0
LINE
  5
2EC
  8
0
  6
CONTINUOUS
 62
     7
 10
112.0202577648
 20
-62.78294617
 30
0.0
 11
112.0202577648
 21
-64.0162534422
 31
0.0
  0
LINE
  5
2ED
  8
0
  6
CONTINUOUS
 62
     7
 10
112.0202577648
 20
-73.0863913304
 30
0.0
 11
112.0202577648
 21
-74.7967529453
 31
0.0
  0
LINE
  5
2EE
  8
0
  6
CONTINUOUS
 62
     7
 10
108.6202538547
 20
-62.78294617
 30
0.0
 11
108.6202538547
 21
-74.7967529453
 31
0.0
  0
LINE
  5
2EF
  8
0
  6
CONTINUOUS
 62
     7
 10
129.4202602443
 20
-62.3967531479
 30
0.0
 11
129.4202602443
 21
-65.603199356
 31
0.0
  0
LINE
  5
2F0
  8
0
  6
CONTINUOUS
 62
     7
 10
112.0202577648
 20
-59.7967530943
 30
0.0
 11
112.0202577648
 21
-62.78294617
 31
0.0
  0
LINE
  5
2F1
  8
0
  6
CONTINUOUS
 62
     7
 10
108.6202538547
 20
-59.7967530943
 30
0.0
 11
108.6202538547
 21
-62.78294617
 31
0.0
  0
LINE
  5
2F2
  8
0
  6
CONTINUOUS
 62
     7
 10
-11.3797389927
 20
-62.78294617
 30
0.0
 11
-11.3797389927
 21
-74.7967529453
 31
0.0
  0
LINE
  5
2F3
  8
0
  6
CONTINUOUS
 62
     7
 10
-7.9797470036
 20
-62.78294617
 30
0.0
 11
-7.9797470036
 21
-64.0162534422
 31
0.0
  0
LINE
  5
2F4
  8
0
  6
CONTINUOUS
 62
     7
 10
-7.9797470036
 20
-73.0863913304
 30
0.0
 11
-7.9797470036
 21
-74.7967529453
 31
0.0
  0
LINE
  5
2F5
  8
0
  6
CONTINUOUS
 62
     7
 10
9.420255476
 20
-62.3967531479
 30
0.0
 11
9.420255476
 21
-65.603199356
 31
0.0
  0
LINE
  5
2F6
  8
0
  6
CONTINUOUS
 62
     7
 10
-11.3797389927
 20
-59.7967530943
 30
0.0
 11
-11.3797389927
 21
-62.78294617
 31
0.0
  0
LINE
  5
2F7
  8
0
  6
CONTINUOUS
 62
     7
 10
-7.9797470036
 20
-59.7967530943
 30
0.0
 11
-7.9797470036
 21
-62.78294617
 31
0.0
  0
LINE
  5
2F8
  8
0
  6
CONTINUOUS
 62
     7
 10
232.0202595529
 20
-62.78294617
 30
0.0
 11
232.0202595529
 21
-64.0162534422
 31
0.0
  0
LINE
  5
2F9
  8
0
  6
CONTINUOUS
 62
     7
 10
232.0202595529
 20
-73.0863913304
 30
0.0
 11
232.0202595529
 21
-74.7967529453
 31
0.0
  0
LINE
  5
2FA
  8
0
  6
CONTINUOUS
 62
     7
 10
228.6202601132
 20
-62.78294617
 30
0.0
 11
228.6202601132
 21
-74.7967529453
 31
0.0
  0
LINE
  5
2FB
  8
0
  6
CONTINUOUS
 62
     7
 10
249.4202590522
 20
-62.3967531479
 30
0.0
 11
249.4202590522
 21
-65.603199356
 31
0.0
  0
LINE
  5
2FC
  8
0
  6
CONTINUOUS
 62
     7
 10
232.0202595529
 20
-59.7967530943
 30
0.0
 11
232.0202595529
 21
-62.78294617
 31
0.0
  0
LINE
  5
2FD
  8
0
  6
CONTINUOUS
 62
     7
 10
228.6202601132
 20
-59.7967530943
 30
0.0
 11
228.6202601132
 21
-62.78294617
 31
0.0
  0
ENDSEC
  0
EOF
