  0
SECTION
  2
HEADER
  9
$ACADVER
  1
AC1009
  9
$DWGCODEPAGE
  3
ansi_1252
  9
$INSBASE
 10
0.0
 20
0.0
 30
0.0
  9
$EXTMIN
 10
0.0
 20
0.0
 30
0.0
  9
$EXTMAX
 10
420.0
 20
297.0
 30
0.0
  9
$LIMMIN
 10
0.0
 20
0.0
  9
$LIMMAX
 10
420.0
 20
297.0
  9
$ORTHOMODE
 70
     0
  9
$REGENMODE
 70
     1
  9
$FILLMODE
 70
     1
  9
$QTEXTMODE
 70
     0
  9
$MIRRTEXT
 70
     1
  9
$DRAGMODE
 70
     2
  9
$LTSCALE
 40
1.0
  9
$OSMODE
 70
    37
  9
$ATTMODE
 70
     1
  9
$TEXTSIZE
 40
3.5
  9
$TRACEWID
 40
1.0
  9
$TEXTSTYLE
  7
STANDARD
  9
$CLAYER
  8
0
  9
$CELTYPE
  6
BYLAYER
  9
$CECOLOR
 62
   256
  9
$DIMSCALE
 40
1.0
  9
$DIMASZ
 40
4.0
  9
$DIMEXO
 40
0.0
  9
$DIMDLI
 40
3.75
  9
$DIMRND
 40
0.0
  9
$DIMDLE
 40
0.0
  9
$DIMEXE
 40
2.0
  9
$DIMTP
 40
0.0
  9
$DIMTM
 40
0.0
  9
$DIMTXT
 40
3.5
  9
$DIMCEN
 40
2.5
  9
$DIMTSZ
 40
0.0
  9
$DIMTOL
 70
     0
  9
$DIMLIM
 70
     0
  9
$DIMTIH
 70
     1
  9
$DIMTOH
 70
     1
  9
$DIMSE1
 70
     0
  9
$DIMSE2
 70
     0
  9
$DIMTAD
 70
     1
  9
$DIMZIN
 70
     0
  9
$DIMBLK
  1

  9
$DIMASO
 70
     1
  9
$DIMSHO
 70
     1
  9
$DIMPOST
  1

  9
$DIMAPOST
  1

  9
$DIMALT
 70
     0
  9
$DIMALTD
 70
     3
  9
$DIMALTF
 40
0.0393700787
  9
$DIMLFAC
 40
5.0
  9
$DIMTOFL
 70
     1
  9
$DIMTVP
 40
0.0
  9
$DIMTIX
 70
     0
  9
$DIMSOXD
 70
     0
  9
$DIMSAH
 70
     0
  9
$DIMBLK1
  1

  9
$DIMBLK2
  1

  9
$DIMSTYLE
  2
ISO-25
  9
$DIMCLRD
 70
     0
  9
$DIMCLRE
 70
     0
  9
$DIMCLRT
 70
     0
  9
$DIMTFAC
 40
1.0
  9
$DIMGAP
 40
1.524
  9
$LUNITS
 70
     2
  9
$LUPREC
 70
     2
  9
$SKETCHINC
 40
1.0
  9
$FILLETRAD
 40
10.0
  9
$AUNITS
 70
     0
  9
$AUPREC
 70
     2
  9
$MENU
  1
.
  9
$ELEVATION
 40
0.0
  9
$PELEVATION
 40
0.0
  9
$THICKNESS
 40
0.0
  9
$LIMCHECK
 70
     0
  9
$CHAMFERA
 40
10.0
  9
$CHAMFERB
 40
10.0
  9
$SKPOLY
 70
     0
  9
$TDCREATE
 40
2457801.643757592
  9
$TDUPDATE
 40
2457801.643757778
  9
$TDINDWG
 40
0.0000000116
  9
$TDUSRTIMER
 40
0.0000000116
  9
$USRTIMER
 70
     1
  9
$ANGBASE
 50
0.0
  9
$ANGDIR
 70
     0
  9
$PDMODE
 70
     0
  9
$PDSIZE
 40
-1.0
  9
$PLINEWID
 40
0.0
  9
$COORDS
 70
     1
  9
$SPLFRAME
 70
     0
  9
$SPLINETYPE
 70
     6
  9
$SPLINESEGS
 70
     8
  9
$ATTDIA
 70
     0
  9
$ATTREQ
 70
     1
  9
$HANDLING
 70
     1
  9
$HANDSEED
  5
3DC
  9
$SURFTAB1
 70
     6
  9
$SURFTAB2
 70
     6
  9
$SURFTYPE
 70
     6
  9
$SURFU
 70
     6
  9
$SURFV
 70
     6
  9
$UCSNAME
  2

  9
$UCSORG
 10
0.0
 20
0.0
 30
0.0
  9
$UCSXDIR
 10
1.0
 20
0.0
 30
0.0
  9
$UCSYDIR
 10
0.0
 20
1.0
 30
0.0
  9
$PUCSNAME
  2

  9
$PUCSORG
 10
0.0
 20
0.0
 30
0.0
  9
$PUCSXDIR
 10
1.0
 20
0.0
 30
0.0
  9
$PUCSYDIR
 10
0.0
 20
1.0
 30
0.0
  9
$USERI1
 70
     0
  9
$USERI2
 70
     0
  9
$USERI3
 70
     0
  9
$USERI4
 70
     0
  9
$USERI5
 70
     0
  9
$USERR1
 40
0.0
  9
$USERR2
 40
0.0
  9
$USERR3
 40
0.0
  9
$USERR4
 40
0.0
  9
$USERR5
 40
0.0
  9
$WORLDVIEW
 70
     1
  9
$SHADEDGE
 70
     3
  9
$SHADEDIF
 70
    70
  9
$TILEMODE
 70
     1
  9
$MAXACTVP
 70
    64
  9
$PLIMCHECK
 70
     0
  9
$PEXTMIN
 10
1.0000000000E+20
 20
1.0000000000E+20
 30
1.0000000000E+20
  9
$PEXTMAX
 10
-1.0000000000E+20
 20
-1.0000000000E+20
 30
-1.0000000000E+20
  9
$PLIMMIN
 10
0.0
 20
0.0
  9
$PLIMMAX
 10
420.0
 20
297.0
  9
$UNITMODE
 70
     0
  9
$VISRETAIN
 70
     1
  9
$PLINEGEN
 70
     0
  9
$PSLTSCALE
 70
     1
  0
ENDSEC
  0
SECTION
  2
TABLES
  0
TABLE
  2
VPORT
 70
     1
  0
VPORT
  2
*ACTIVE
 70
     0
 10
0.0
 20
0.0
 11
1.0
 21
1.0
 12
210.0
 22
148.5
 13
0.0
 23
0.0
 14
10.0
 24
10.0
 15
10.0
 25
10.0
 16
0.0
 26
0.0
 36
1.0
 17
0.0
 27
0.0
 37
0.0
 40
297.0
 41
1.4141414141
 42
50.0
 43
0.0
 44
0.0
 50
0.0
 51
0.0
 71
     0
 72
  2000
 73
     1
 74
     3
 75
     0
 76
     0
 77
     0
 78
     0
  0
ENDTAB
  0
TABLE
  2
LTYPE
 70
     6
  0
LTYPE
  2
CONTINUOUS
 70
     0
  3
Solid line
 72
    65
 73
     0
 40
0.0
  0
LTYPE
  2
HIDDEN
 70
     0
  3
Hidden __ __ __ __ __ __ __ __ __ __ __ __ __ __
 72
    65
 73
     2
 40
1.905
 49
1.27
 49
-0.635
  0
LTYPE
  2
PHANTOM
 70
     0
  3
Phantom ______  __  __  ______  __  __  ______
 72
    65
 73
     6
 40
12.7
 49
6.35
 49
-1.27
 49
1.27
 49
-1.27
 49
1.27
 49
-1.27
  0
LTYPE
  2
CENTER
 70
     0
  3
Center ____ _ ____ _ ____ _ ____ _ ____ _ ____
 72
    65
 73
     4
 40
10.16
 49
6.35
 49
-1.27
 49
1.27
 49
-1.27
  0
LTYPE
  2
CENTERX2
 70
     0
  3
Center (2x) ________  __  ________  __  _____
 72
    65
 73
     4
 40
20.32
 49
12.7
 49
-2.54
 49
2.54
 49
-2.54
  0
LTYPE
  2
DOT2
 70
     0
  3
Dot (.5x) ........................................
 72
    65
 73
     2
 40
0.635
 49
0.0
 49
-0.635
  0
ENDTAB
  0
TABLE
  2
LAYER
 70
     2
  0
LAYER
  2
0
 70
     0
 62
     7
  6
CONTINUOUS
  0
LAYER
  2
FORMAT
 70
     0
 62
     7
  6
CONTINUOUS
  0
ENDTAB
  0
TABLE
  2
STYLE
 70
     1
  0
STYLE
  2
STANDARD
 70
     0
 40
0.0
 41
1.0
 50
0.0
 71
     0
 42
3.5
  3
txt
  4

  0
ENDTAB
  0
TABLE
  2
VIEW
 70
     0
  0
ENDTAB
  0
TABLE
  2
UCS
 70
     0
  0
ENDTAB
  0
TABLE
  2
APPID
 70
     1
  0
APPID
  2
ACAD
 70
     0
  0
ENDTAB
  0
TABLE
  2
DIMSTYLE
 70
     1
  0
DIMSTYLE
  2
ISO-25
 70
     0
  3

  4

  5

  6

  7

 40
1.0
 41
2.5
 42
0.625
 43
3.75
 44
1.25
 45
0.0
 46
0.0
 47
0.0
 48
0.0
140
2.5
141
2.5
142
0.0
143
0.0393700787
144
1.0
145
0.0
146
1.0
147
0.625
 71
     0
 72
     0
 73
     0
 74
     0
 75
     0
 76
     0
 77
     1
 78
     8
170
     0
171
     3
172
     1
173
     0
174
     0
175
     0
176
     0
177
     0
178
     0
  0
ENDTAB
  0
ENDSEC
  0
SECTION
  2
BLOCKS
  0
BLOCK
  8
0
  2
$MODEL_SPACE
 70
     0
 10
0.0
 20
0.0
 30
0.0
  3
$MODEL_SPACE
  1

  0
ENDBLK
  5
21
  8
0
  0
BLOCK
 67
     1
  8
0
  2
$PAPER_SPACE
 70
     0
 10
0.0
 20
0.0
 30
0.0
  3
$PAPER_SPACE
  1

  0
ENDBLK
  5
1D
 67
     1
  8
0
  0
ENDSEC
  0
SECTION
  2
ENTITIES
  0
POLYLINE
  5
45
  8
0
  6
CONTINUOUS
 62
     7
 66
     1
 10
0.0
 20
0.0
 30
0.0
  0
VERTEX
  5
1EC
  8
0
  6
CONTINUOUS
 62
     7
 10
246.865427899
 20
151.3076486166
 30
0.0
  0
VERTEX
  5
1ED
  8
0
  6
CONTINUOUS
 62
     7
 10
246.8598667857
 20
151.3066889818
 30
0.0
  0
VERTEX
  5
1EE
  8
0
  6
CONTINUOUS
 62
     7
 10
246.8588117834
 20
151.3064982469
 30
0.0
  0
SEQEND
  5
3DB
  8
0
  6
CONTINUOUS
 62
     7
  0
POLYLINE
  5
46
  8
0
  6
CONTINUOUS
 62
     7
 66
     1
 10
0.0
 20
0.0
 30
0.0
  0
VERTEX
  5
1EF
  8
0
  6
CONTINUOUS
 62
     7
 10
173.0727184888
 20
151.30640884
 30
0.0
  0
VERTEX
  5
1F0
  8
0
  6
CONTINUOUS
 62
     7
 10
173.0717260715
 20
151.3065876539
 30
0.0
  0
VERTEX
  5
1F1
  8
0
  6
CONTINUOUS
 62
     7
 10
173.0608079907
 20
151.3084771211
 30
0.0
  0
SEQEND
  5
3DA
  8
0
  6
CONTINUOUS
 62
     7
  0
LINE
  5
47
  8
0
  6
CONTINUOUS
 62
     7
 10
173.0724681493
 20
151.3064684446
 30
0.0
 11
173.0650890943
 21
151.3077737863
 31
0.0
  0
ARC
  5
48
  8
0
  6
CONTINUOUS
 62
     7
 10
155.3900326683
 20
63.0208791586
 30
0.0
 40
84.65956914207737
 50
78.5019844027
 51
78.6263975616
  0
LINE
  5
49
  8
0
  6
CONTINUOUS
 62
     7
 10
172.0799137231
 20
146.0190119321
 30
0.0
 11
172.0843796011
 21
146.0181178625
 31
0.0
  0
LINE
  5
4A
  8
0
  6
CONTINUOUS
 62
     7
 10
247.7831308123
 20
146.005279022
 30
0.0
 11
247.8397731062
 21
146.0167052324
 31
0.0
  0
POLYLINE
  5
4B
  8
0
  6
CONTINUOUS
 62
     7
 66
     1
 10
0.0
 20
0.0
 30
0.0
  0
VERTEX
  5
1F2
  8
0
  6
CONTINUOUS
 62
     7
 10
64.7128347632
 20
219.2988516863
 30
0.0
  0
VERTEX
  5
1F3
  8
0
  6
CONTINUOUS
 62
     7
 10
66.5037218806
 20
219.2782642419
 30
0.0
  0
VERTEX
  5
1F4
  8
0
  6
CONTINUOUS
 62
     7
 10
69.9125532385
 20
219.2433120783
 30
0.0
  0
VERTEX
  5
1F5
  8
0
  6
CONTINUOUS
 62
     7
 10
73.3281914469
 20
219.2138435419
 30
0.0
  0
VERTEX
  5
1F6
  8
0
  6
CONTINUOUS
 62
     7
 10
76.7494384524
 20
219.1898586328
 30
0.0
  0
VERTEX
  5
1F7
  8
0
  6
CONTINUOUS
 62
     7
 10
80.1751438853
 20
219.1713811929
 30
0.0
  0
VERTEX
  5
1F8
  8
0
  6
CONTINUOUS
 62
     7
 10
83.6041514155
 20
219.1584112222
 30
0.0
  0
VERTEX
  5
1F9
  8
0
  6
CONTINUOUS
 62
     7
 10
87.0353047129
 20
219.1509487207
 30
0.0
  0
VERTEX
  5
1FA
  8
0
  6
CONTINUOUS
 62
     7
 10
90.4674474474
 20
219.1490056093
 30
0.0
  0
VERTEX
  5
1FB
  8
0
  6
CONTINUOUS
 62
     7
 10
93.8994173285
 20
219.1525580461
 30
0.0
  0
VERTEX
  5
1FC
  8
0
  6
CONTINUOUS
 62
     7
 10
97.330058026
 20
219.161641794
 30
0.0
  0
VERTEX
  5
1FD
  8
0
  6
CONTINUOUS
 62
     7
 10
100.7582042691
 20
219.1762210901
 30
0.0
  0
VERTEX
  5
1FE
  8
0
  6
CONTINUOUS
 62
     7
 10
104.1827086684
 20
219.1963078554
 30
0.0
  0
VERTEX
  5
1FF
  8
0
  6
CONTINUOUS
 62
     7
 10
107.6024089333
 20
219.2218901689
 30
0.0
  0
VERTEX
  5
200
  8
0
  6
CONTINUOUS
 62
     7
 10
111.016151714
 20
219.2529680307
 30
0.0
  0
VERTEX
  5
201
  8
0
  6
CONTINUOUS
 62
     7
 10
114.2437283274
 20
219.2874552782
 30
0.0
  0
VERTEX
  5
202
  8
0
  6
CONTINUOUS
 62
     7
 10
115.2183685776
 20
219.2988516863
 30
0.0
  0
SEQEND
  5
3D9
  8
0
  6
CONTINUOUS
 62
     7
  0
ARC
  5
4C
  8
0
  6
CONTINUOUS
 62
     7
 10
64.600138619
 20
209.9986369134
 30
0.0
 40
14.68923007999089
 50
117.9336506563
 51
180.3581033939
  0
ARC
  5
4D
  8
0
  6
CONTINUOUS
 62
     7
 10
115.3602685114
 20
210.0170239409
 30
0.0
 40
14.65732973625556
 50
359.5662112364
 51
61.8683221342
  0
ARC
  5
4E
  8
0
  6
CONTINUOUS
 62
     7
 10
64.4252384148
 20
210.8268732078
 30
0.0
 40
8.470626676289148
 50
88.0568501488
 51
112.4774140985
  0
ARC
  5
4F
  8
0
  6
CONTINUOUS
 62
     7
 10
115.5026809086
 20
210.8926822091
 30
0.0
 40
8.406762840992661
 50
67.8894201542
 51
91.9317420925
  0
POLYLINE
  5
50
  8
0
  6
CONTINUOUS
 62
     7
 66
     1
 10
0.0
 20
0.0
 30
0.0
  0
VERTEX
  5
203
  8
0
  6
CONTINUOUS
 62
     7
 10
115.1542011973
 20
224.6784689005
 30
0.0
  0
VERTEX
  5
204
  8
0
  6
CONTINUOUS
 62
     7
 10
113.3679394003
 20
224.6579291399
 30
0.0
  0
VERTEX
  5
205
  8
0
  6
CONTINUOUS
 62
     7
 10
109.967983174
 20
224.6230723436
 30
0.0
  0
VERTEX
  5
206
  8
0
  6
CONTINUOUS
 62
     7
 10
106.5611575123
 20
224.5936753328
 30
0.0
  0
VERTEX
  5
207
  8
0
  6
CONTINUOUS
 62
     7
 10
103.1486574885
 20
224.5697619493
 30
0.0
  0
VERTEX
  5
208
  8
0
  6
CONTINUOUS
 62
     7
 10
99.7316483733
 20
224.5513321931
 30
0.0
  0
VERTEX
  5
209
  8
0
  6
CONTINUOUS
 62
     7
 10
96.3112954375
 20
224.5383860643
 30
0.0
  0
VERTEX
  5
20A
  8
0
  6
CONTINUOUS
 62
     7
 10
92.8887728926
 20
224.5309474046
 30
0.0
  0
VERTEX
  5
20B
  8
0
  6
CONTINUOUS
 62
     7
 10
89.4652489897
 20
224.5290042932
 30
0.0
  0
VERTEX
  5
20C
  8
0
  6
CONTINUOUS
 62
     7
 10
86.0418860194
 20
224.53255673
 30
0.0
  0
VERTEX
  5
20D
  8
0
  6
CONTINUOUS
 62
     7
 10
82.619870114
 20
224.5416047151
 30
0.0
  0
VERTEX
  5
20E
  8
0
  6
CONTINUOUS
 62
     7
 10
79.2003576037
 20
224.5561482484
 30
0.0
  0
VERTEX
  5
20F
  8
0
  6
CONTINUOUS
 62
     7
 10
75.7845227
 20
224.57618733
 30
0.0
  0
VERTEX
  5
210
  8
0
  6
CONTINUOUS
 62
     7
 10
72.3735276934
 20
224.6017100389
 30
0.0
  0
VERTEX
  5
211
  8
0
  6
CONTINUOUS
 62
     7
 10
68.968552756
 20
224.6326925333
 30
0.0
  0
VERTEX
  5
212
  8
0
  6
CONTINUOUS
 62
     7
 10
65.7493774172
 20
224.6670963342
 30
0.0
  0
VERTEX
  5
213
  8
0
  6
CONTINUOUS
 62
     7
 10
64.7770051237
 20
224.6784689005
 30
0.0
  0
SEQEND
  5
3D8
  8
0
  6
CONTINUOUS
 62
     7
  0
ARC
  5
51
  8
0
  6
CONTINUOUS
 62
     7
 10
115.4691088982
 20
210.9733626451
 30
0.0
 40
13.7036488137834
 50
74.2381917225
 51
91.3149816118
  0
ARC
  5
52
  8
0
  6
CONTINUOUS
 62
     7
 10
64.452641551
 20
210.8480213431
 30
0.0
 40
13.82739168980627
 50
88.6548415501
 51
105.7866305454
  0
ARC
  5
53
  8
0
  6
CONTINUOUS
 62
     7
 10
115.3665517049
 20
210.0159343833
 30
0.0
 40
9.272514087222747
 50
359.3257353738
 51
69.1493512626
  0
ARC
  5
54
  8
0
  6
CONTINUOUS
 62
     7
 10
64.5833758229
 20
210.0035837907
 30
0.0
 40
9.293360165052896
 50
111.4376783747
 51
180.5937366066
  0
LINE
  5
55
  8
0
  6
CONTINUOUS
 62
     7
 10
130.0243590351
 20
170.0585367258
 30
0.0
 11
130.0243590351
 21
209.9063159998
 31
0.0
  0
LINE
  5
56
  8
0
  6
CONTINUOUS
 62
     7
 10
49.9068443056
 20
209.9063159998
 30
0.0
 11
49.9068443056
 21
170.0585367258
 31
0.0
  0
POLYLINE
  5
57
  8
0
  6
CONTINUOUS
 62
     7
 66
     1
 10
0.0
 20
0.0
 30
0.0
  0
VERTEX
  5
214
  8
0
  6
CONTINUOUS
 62
     7
 10
64.7128347632
 20
154.9247505243
 30
0.0
  0
VERTEX
  5
215
  8
0
  6
CONTINUOUS
 62
     7
 10
66.5037218806
 20
154.9041571195
 30
0.0
  0
VERTEX
  5
216
  8
0
  6
CONTINUOUS
 62
     7
 10
69.9125532385
 20
154.8692109163
 30
0.0
  0
VERTEX
  5
217
  8
0
  6
CONTINUOUS
 62
     7
 10
73.3281914469
 20
154.8397423799
 30
0.0
  0
VERTEX
  5
218
  8
0
  6
CONTINUOUS
 62
     7
 10
76.7494384524
 20
154.8157634313
 30
0.0
  0
VERTEX
  5
219
  8
0
  6
CONTINUOUS
 62
     7
 10
80.1751438853
 20
154.7972859914
 30
0.0
  0
VERTEX
  5
21A
  8
0
  6
CONTINUOUS
 62
     7
 10
83.6041514155
 20
154.7843100603
 30
0.0
  0
VERTEX
  5
21B
  8
0
  6
CONTINUOUS
 62
     7
 10
87.0353047129
 20
154.7768475587
 30
0.0
  0
VERTEX
  5
21C
  8
0
  6
CONTINUOUS
 62
     7
 10
90.4674474474
 20
154.7748984869
 30
0.0
  0
VERTEX
  5
21D
  8
0
  6
CONTINUOUS
 62
     7
 10
93.8994173285
 20
154.7784628446
 30
0.0
  0
VERTEX
  5
21E
  8
0
  6
CONTINUOUS
 62
     7
 10
97.330058026
 20
154.7875346716
 30
0.0
  0
VERTEX
  5
21F
  8
0
  6
CONTINUOUS
 62
     7
 10
100.7582042691
 20
154.8021199281
 30
0.0
  0
VERTEX
  5
220
  8
0
  6
CONTINUOUS
 62
     7
 10
104.1827086684
 20
154.8222066934
 30
0.0
  0
VERTEX
  5
221
  8
0
  6
CONTINUOUS
 62
     7
 10
107.6024089333
 20
154.847789007
 30
0.0
  0
VERTEX
  5
222
  8
0
  6
CONTINUOUS
 62
     7
 10
111.016151714
 20
154.8788609083
 30
0.0
  0
VERTEX
  5
223
  8
0
  6
CONTINUOUS
 62
     7
 10
114.2437283274
 20
154.9133541162
 30
0.0
  0
VERTEX
  5
224
  8
0
  6
CONTINUOUS
 62
     7
 10
115.2183685776
 20
154.9247505243
 30
0.0
  0
SEQEND
  5
3D7
  8
0
  6
CONTINUOUS
 62
     7
  0
ARC
  5
58
  8
0
  6
CONTINUOUS
 62
     7
 10
64.8726134592
 20
169.7637069794
 30
0.0
 40
14.83229554515648
 50
218.4766896881
 51
269.3847119939
  0
ARC
  5
59
  8
0
  6
CONTINUOUS
 62
     7
 10
115.0601625032
 20
169.7592984404
 30
0.0
 40
14.82858103793293
 50
270.609849047
 51
321.4778706181
  0
LINE
  5
5A
  8
0
  6
CONTINUOUS
 62
     7
 10
124.6443603512
 20
209.9063159998
 30
0.0
 11
124.6443603512
 21
170.0585367258
 31
0.0
  0
LINE
  5
5B
  8
0
  6
CONTINUOUS
 62
     7
 10
55.2868429896
 20
170.0585367258
 30
0.0
 11
55.2868429896
 21
209.9063159998
 31
0.0
  0
ARC
  5
5C
  8
0
  6
CONTINUOUS
 62
     7
 10
114.8890203652
 20
170.0288966826
 30
0.0
 40
15.12949867679743
 50
327.6393595204
 51
0.1103966939
  0
ARC
  5
5D
  8
0
  6
CONTINUOUS
 62
     7
 10
64.869705573
 20
169.9844494283
 30
0.0
 40
14.95596373968492
 50
179.7161729663
 51
212.5693122512
  0
POLYLINE
  5
5E
  8
0
  6
CONTINUOUS
 62
     7
 66
     1
 10
0.0
 20
0.0
 30
0.0
  0
VERTEX
  5
225
  8
0
  6
CONTINUOUS
 62
     7
 10
115.1542011973
 20
160.3043677385
 30
0.0
  0
VERTEX
  5
226
  8
0
  6
CONTINUOUS
 62
     7
 10
113.3679394003
 20
160.2838279779
 30
0.0
  0
VERTEX
  5
227
  8
0
  6
CONTINUOUS
 62
     7
 10
109.967983174
 20
160.2489711816
 30
0.0
  0
VERTEX
  5
228
  8
0
  6
CONTINUOUS
 62
     7
 10
106.5611575123
 20
160.2195741708
 30
0.0
  0
VERTEX
  5
229
  8
0
  6
CONTINUOUS
 62
     7
 10
103.1486574885
 20
160.1956607874
 30
0.0
  0
VERTEX
  5
22A
  8
0
  6
CONTINUOUS
 62
     7
 10
99.7316483733
 20
160.1772310312
 30
0.0
  0
VERTEX
  5
22B
  8
0
  6
CONTINUOUS
 62
     7
 10
96.3112954375
 20
160.1642849023
 30
0.0
  0
VERTEX
  5
22C
  8
0
  6
CONTINUOUS
 62
     7
 10
92.8887728926
 20
160.1568462427
 30
0.0
  0
VERTEX
  5
22D
  8
0
  6
CONTINUOUS
 62
     7
 10
89.4652489897
 20
160.1549031313
 30
0.0
  0
VERTEX
  5
22E
  8
0
  6
CONTINUOUS
 62
     7
 10
86.0418860194
 20
160.1584555681
 30
0.0
  0
VERTEX
  5
22F
  8
0
  6
CONTINUOUS
 62
     7
 10
82.619870114
 20
160.1675035532
 30
0.0
  0
VERTEX
  5
230
  8
0
  6
CONTINUOUS
 62
     7
 10
79.2003576037
 20
160.1820470865
 30
0.0
  0
VERTEX
  5
231
  8
0
  6
CONTINUOUS
 62
     7
 10
75.7845227
 20
160.2020861681
 30
0.0
  0
VERTEX
  5
232
  8
0
  6
CONTINUOUS
 62
     7
 10
72.3735276934
 20
160.227596956
 30
0.0
  0
VERTEX
  5
233
  8
0
  6
CONTINUOUS
 62
     7
 10
68.968552756
 20
160.2585913713
 30
0.0
  0
VERTEX
  5
234
  8
0
  6
CONTINUOUS
 62
     7
 10
65.7493774172
 20
160.2929951723
 30
0.0
  0
VERTEX
  5
235
  8
0
  6
CONTINUOUS
 62
     7
 10
64.7770051237
 20
160.3043677385
 30
0.0
  0
SEQEND
  5
3D6
  8
0
  6
CONTINUOUS
 62
     7
  0
ARC
  5
5F
  8
0
  6
CONTINUOUS
 62
     7
 10
64.9641419745
 20
169.9781781314
 30
0.0
 40
9.67090392501474
 50
179.5278609987
 51
268.8865311481
  0
ARC
  5
60
  8
0
  6
CONTINUOUS
 62
     7
 10
114.9702767598
 20
169.9804251703
 30
0.0
 40
9.67057078427102
 50
271.0898262389
 51
0.454956971
  0
LINE
  5
61
  8
0
  6
CONTINUOUS
 62
     7
 10
251.3656083819
 20
151.2189449842
 30
0.0
 11
248.1620494601
 21
151.2189449842
 31
0.0
  0
LINE
  5
62
  8
0
  6
CONTINUOUS
 62
     7
 10
244.3916146036
 20
150.8189441736
 30
0.0
 11
230.5656019923
 21
150.8189441736
 31
0.0
  0
LINE
  5
63
  8
0
  6
CONTINUOUS
 62
     7
 10
230.5656019923
 20
138.8189436968
 30
0.0
 11
247.9656044718
 21
138.8189436968
 31
0.0
  0
LINE
  5
64
  8
0
  6
CONTINUOUS
 62
     7
 10
131.3656021234
 20
151.2189449842
 30
0.0
 11
127.9656026837
 21
151.2189449842
 31
0.0
  0
LINE
  5
65
  8
0
  6
CONTINUOUS
 62
     7
 10
127.9656026837
 20
150.8189441736
 30
0.0
 11
127.6656020757
 21
150.8189441736
 31
0.0
  0
LINE
  5
66
  8
0
  6
CONTINUOUS
 62
     7
 10
126.6656030294
 20
150.8189441736
 30
0.0
 11
110.5656031843
 21
150.8189441736
 31
0.0
  0
LINE
  5
67
  8
0
  6
CONTINUOUS
 62
     7
 10
110.5656031843
 20
138.8189436968
 30
0.0
 11
127.9656026837
 21
138.8189436968
 31
0.0
  0
LINE
  5
68
  8
0
  6
CONTINUOUS
 62
     7
 10
51.9656006571
 20
151.2189449842
 30
0.0
 11
48.565596747
 21
151.2189449842
 31
0.0
  0
LINE
  5
69
  8
0
  6
CONTINUOUS
 62
     7
 10
51.9656006571
 20
138.8189436968
 30
0.0
 11
69.3656031367
 21
138.8189436968
 31
0.0
  0
LINE
  5
6A
  8
0
  6
CONTINUOUS
 62
     7
 10
69.3656031367
 20
150.8189441736
 30
0.0
 11
53.2656018015
 21
150.8189441736
 31
0.0
  0
LINE
  5
6B
  8
0
  6
CONTINUOUS
 62
     7
 10
52.2656027552
 20
150.8189441736
 30
0.0
 11
51.9656006571
 21
150.8189441736
 31
0.0
  0
LINE
  5
6C
  8
0
  6
CONTINUOUS
 62
     7
 10
171.7691529867
 20
151.2189449842
 30
0.0
 11
168.5656030055
 21
151.2189449842
 31
0.0
  0
LINE
  5
6D
  8
0
  6
CONTINUOUS
 62
     7
 10
171.9656024453
 20
138.8189436968
 30
0.0
 11
189.3656019446
 21
138.8189436968
 31
0.0
  0
LINE
  5
6E
  8
0
  6
CONTINUOUS
 62
     7
 10
189.3656019446
 20
150.8189441736
 30
0.0
 11
175.5381141182
 21
150.8189441736
 31
0.0
  0
LINE
  5
6F
  8
0
  6
CONTINUOUS
 62
     7
 10
71.5513173815
 20
58.218944269
 30
0.0
 11
67.7926723238
 21
58.218944269
 31
0.0
  0
LINE
  5
70
  8
0
  6
CONTINUOUS
 62
     7
 10
67.7926723238
 20
59.4189442794
 30
0.0
 11
71.5513173815
 21
59.4189442794
 31
0.0
  0
LINE
  5
71
  8
0
  6
CONTINUOUS
 62
     7
 10
82.1385328051
 20
58.218944269
 30
0.0
 11
78.3798877474
 21
58.218944269
 31
0.0
  0
LINE
  5
72
  8
0
  6
CONTINUOUS
 62
     7
 10
78.3798877474
 20
59.4189442794
 30
0.0
 11
82.1385328051
 21
59.4189442794
 31
0.0
  0
LINE
  5
73
  8
0
  6
CONTINUOUS
 62
     7
 10
71.5513173815
 20
58.218944269
 30
0.0
 11
78.3798877474
 21
58.218944269
 31
0.0
  0
LINE
  5
74
  8
0
  6
CONTINUOUS
 62
     7
 10
71.5513173815
 20
59.4189442794
 30
0.0
 11
78.3798877474
 21
59.4189442794
 31
0.0
  0
LINE
  5
75
  8
0
  6
CONTINUOUS
 62
     7
 10
221.5513173815
 20
58.218944269
 30
0.0
 11
217.7926723238
 21
58.218944269
 31
0.0
  0
LINE
  5
76
  8
0
  6
CONTINUOUS
 62
     7
 10
217.7926723238
 20
59.4189442794
 30
0.0
 11
221.5513173815
 21
59.4189442794
 31
0.0
  0
LINE
  5
77
  8
0
  6
CONTINUOUS
 62
     7
 10
221.5513173815
 20
58.218944269
 30
0.0
 11
228.3798877474
 21
58.218944269
 31
0.0
  0
LINE
  5
78
  8
0
  6
CONTINUOUS
 62
     7
 10
221.5513173815
 20
59.4189442794
 30
0.0
 11
228.3798877474
 21
59.4189442794
 31
0.0
  0
LINE
  5
79
  8
0
  6
CONTINUOUS
 62
     7
 10
232.1385328051
 20
58.218944269
 30
0.0
 11
228.3798877474
 21
58.218944269
 31
0.0
  0
LINE
  5
7A
  8
0
  6
CONTINUOUS
 62
     7
 10
228.3798877474
 20
59.4189442794
 30
0.0
 11
232.1385328051
 21
59.4189442794
 31
0.0
  0
LINE
  5
7B
  8
0
  6
CONTINUOUS
 62
     7
 10
62.9656020876
 20
58.218944269
 30
0.0
 11
62.9656020876
 21
59.4189442794
 31
0.0
  0
LINE
  5
7C
  8
0
  6
CONTINUOUS
 62
     7
 10
62.9656020876
 20
58.218944269
 30
0.0
 11
67.7926723238
 21
58.218944269
 31
0.0
  0
LINE
  5
7D
  8
0
  6
CONTINUOUS
 62
     7
 10
67.7926723238
 20
59.4189442794
 30
0.0
 11
62.9656020876
 21
59.4189442794
 31
0.0
  0
LINE
  5
7E
  8
0
  6
CONTINUOUS
 62
     7
 10
86.9656030413
 20
58.218944269
 30
0.0
 11
86.9656030413
 21
59.4189442794
 31
0.0
  0
LINE
  5
7F
  8
0
  6
CONTINUOUS
 62
     7
 10
82.1385328051
 20
58.218944269
 30
0.0
 11
86.9656030413
 21
58.218944269
 31
0.0
  0
LINE
  5
80
  8
0
  6
CONTINUOUS
 62
     7
 10
86.9656030413
 20
59.4189442794
 30
0.0
 11
82.1385328051
 21
59.4189442794
 31
0.0
  0
LINE
  5
81
  8
0
  6
CONTINUOUS
 62
     7
 10
212.9656020876
 20
58.218944269
 30
0.0
 11
212.9656020876
 21
59.4189442794
 31
0.0
  0
LINE
  5
82
  8
0
  6
CONTINUOUS
 62
     7
 10
212.9656020876
 20
58.218944269
 30
0.0
 11
217.7926723238
 21
58.218944269
 31
0.0
  0
LINE
  5
83
  8
0
  6
CONTINUOUS
 62
     7
 10
217.7926723238
 20
59.4189442794
 30
0.0
 11
212.9656020876
 21
59.4189442794
 31
0.0
  0
LINE
  5
84
  8
0
  6
CONTINUOUS
 62
     7
 10
236.9656030413
 20
58.218944269
 30
0.0
 11
236.9656030413
 21
59.4189442794
 31
0.0
  0
LINE
  5
85
  8
0
  6
CONTINUOUS
 62
     7
 10
232.1385328051
 20
58.218944269
 30
0.0
 11
236.9656030413
 21
58.218944269
 31
0.0
  0
LINE
  5
86
  8
0
  6
CONTINUOUS
 62
     7
 10
236.9656030413
 20
59.4189442794
 30
0.0
 11
232.1385328051
 21
59.4189442794
 31
0.0
  0
CIRCLE
  5
87
  8
0
  6
CONTINUOUS
 62
     7
 10
172.4656025645
 20
127.618944269
 30
0.0
 40
1.049999999999983
  0
CIRCLE
  5
88
  8
0
  6
CONTINUOUS
 62
     7
 10
127.4656025645
 20
127.618944269
 30
0.0
 40
1.049999999999983
  0
CIRCLE
  5
89
  8
0
  6
CONTINUOUS
 62
     7
 10
52.4656025645
 20
127.618944269
 30
0.0
 40
1.049999999999997
  0
CIRCLE
  5
8A
  8
0
  6
CONTINUOUS
 62
     7
 10
247.4656025645
 20
127.618944269
 30
0.0
 40
1.050000000000011
  0
POLYLINE
  5
8B
  8
0
  6
CONTINUOUS
 62
     7
 66
     1
 10
0.0
 20
0.0
 30
0.0
  0
VERTEX
  5
236
  8
0
  6
CONTINUOUS
 62
     7
 10
69.9656013724
 20
123.4189452703
 30
0.0
  0
VERTEX
  5
237
  8
0
  6
CONTINUOUS
 62
     7
 10
69.9848179098
 20
123.4381618078
 30
0.0
  0
VERTEX
  5
238
  8
0
  6
CONTINUOUS
 62
     7
 10
70.0417224642
 20
123.4950663622
 30
0.0
  0
VERTEX
  5
239
  8
0
  6
CONTINUOUS
 62
     7
 10
70.1341335055
 20
123.5874774034
 30
0.0
  0
VERTEX
  5
23A
  8
0
  6
CONTINUOUS
 62
     7
 10
70.2584985968
 20
123.7118365343
 30
0.0
  0
VERTEX
  5
23B
  8
0
  6
CONTINUOUS
 62
     7
 10
70.4100314852
 20
123.8633753832
 30
0.0
  0
VERTEX
  5
23C
  8
0
  6
CONTINUOUS
 62
     7
 10
70.5829207178
 20
124.0362586553
 30
0.0
  0
VERTEX
  5
23D
  8
0
  6
CONTINUOUS
 62
     7
 10
70.7705144163
 20
124.2238523538
 30
0.0
  0
VERTEX
  5
23E
  8
0
  6
CONTINUOUS
 62
     7
 10
70.9656004187
 20
124.4189443166
 30
0.0
  0
SEQEND
  5
3D5
  8
0
  6
CONTINUOUS
 62
     7
  0
LINE
  5
8C
  8
0
  6
CONTINUOUS
 62
     7
 10
69.9656013724
 20
123.4189452703
 30
0.0
 11
57.237381148
 21
123.4189452703
 31
0.0
  0
LINE
  5
8D
  8
0
  6
CONTINUOUS
 62
     7
 10
49.6938173052
 20
123.4189452703
 30
0.0
 11
46.7656080004
 21
123.4189452703
 31
0.0
  0
POLYLINE
  5
8E
  8
0
  6
CONTINUOUS
 62
     7
 66
     1
 10
0.0
 20
0.0
 30
0.0
  0
VERTEX
  5
23F
  8
0
  6
CONTINUOUS
 62
     7
 10
229.9656037566
 20
123.4189452703
 30
0.0
  0
VERTEX
  5
240
  8
0
  6
CONTINUOUS
 62
     7
 10
229.9463872191
 20
123.4381618078
 30
0.0
  0
VERTEX
  5
241
  8
0
  6
CONTINUOUS
 62
     7
 10
229.8894826647
 20
123.4950663622
 30
0.0
  0
VERTEX
  5
242
  8
0
  6
CONTINUOUS
 62
     7
 10
229.7970716235
 20
123.5874774034
 30
0.0
  0
VERTEX
  5
243
  8
0
  6
CONTINUOUS
 62
     7
 10
229.6727065321
 20
123.7118365343
 30
0.0
  0
VERTEX
  5
244
  8
0
  6
CONTINUOUS
 62
     7
 10
229.5211736437
 20
123.8633753832
 30
0.0
  0
VERTEX
  5
245
  8
0
  6
CONTINUOUS
 62
     7
 10
229.3482844111
 20
124.0362586553
 30
0.0
  0
VERTEX
  5
246
  8
0
  6
CONTINUOUS
 62
     7
 10
229.1606907126
 20
124.2238523538
 30
0.0
  0
VERTEX
  5
247
  8
0
  6
CONTINUOUS
 62
     7
 10
228.9656047102
 20
124.4189443166
 30
0.0
  0
SEQEND
  5
3D4
  8
0
  6
CONTINUOUS
 62
     7
  0
LINE
  5
8F
  8
0
  6
CONTINUOUS
 62
     7
 10
253.1655971285
 20
123.4189452703
 30
0.0
 11
250.2373878237
 21
123.4189452703
 31
0.0
  0
LINE
  5
90
  8
0
  6
CONTINUOUS
 62
     7
 10
242.6938239809
 20
123.4189452703
 30
0.0
 11
229.9656037566
 21
123.4189452703
 31
0.0
  0
LINE
  5
91
  8
0
  6
CONTINUOUS
 62
     7
 10
46.7656080004
 20
133.418941694
 30
0.0
 11
48.565596747
 21
133.418941694
 31
0.0
  0
LINE
  5
92
  8
0
  6
CONTINUOUS
 62
     7
 10
58.3656017062
 20
133.418941694
 30
0.0
 11
121.5656016346
 21
133.418941694
 31
0.0
  0
LINE
  5
93
  8
0
  6
CONTINUOUS
 62
     7
 10
131.3656021234
 20
133.418941694
 30
0.0
 11
168.5656030055
 21
133.418941694
 31
0.0
  0
LINE
  5
94
  8
0
  6
CONTINUOUS
 62
     7
 10
178.3656034943
 20
133.418941694
 30
0.0
 11
241.5656034228
 21
133.418941694
 31
0.0
  0
LINE
  5
95
  8
0
  6
CONTINUOUS
 62
     7
 10
251.3656083819
 20
133.418941694
 30
0.0
 11
253.1655971285
 21
133.418941694
 31
0.0
  0
LINE
  5
96
  8
0
  6
CONTINUOUS
 62
     7
 10
253.5656038996
 20
124.4189443166
 30
0.0
 11
253.5656038996
 21
123.8189460809
 31
0.0
  0
ARC
  5
97
  8
0
  6
CONTINUOUS
 62
     7
 10
253.1656025645
 20
123.818944269
 30
0.0
 40
0.3999999999999915
 50
270.0
 51
0.0
  0
LINE
  5
98
  8
0
  6
CONTINUOUS
 62
     7
 10
69.9656013724
 20
59.4189442794
 30
0.0
 11
69.9656013724
 21
123.4189452703
 31
0.0
  0
LINE
  5
99
  8
0
  6
CONTINUOUS
 62
     7
 10
229.9656037566
 20
123.4189452703
 30
0.0
 11
229.9656037566
 21
59.4189442794
 31
0.0
  0
LINE
  5
9A
  8
0
  6
CONTINUOUS
 62
     7
 10
46.3656012293
 20
123.8189460809
 30
0.0
 11
46.3656012293
 21
124.4189443166
 31
0.0
  0
ARC
  5
9B
  8
0
  6
CONTINUOUS
 62
     7
 10
46.7656025645
 20
123.818944269
 30
0.0
 40
0.3999999999999986
 50
180.0
 51
270.0
  0
LINE
  5
9C
  8
0
  6
CONTINUOUS
 62
     7
 10
219.9656013724
 20
59.4189442794
 30
0.0
 11
219.9656013724
 21
123.4189452703
 31
0.0
  0
POLYLINE
  5
9D
  8
0
  6
CONTINUOUS
 62
     7
 66
     1
 10
0.0
 20
0.0
 30
0.0
  0
VERTEX
  5
248
  8
0
  6
CONTINUOUS
 62
     7
 10
220.9656004187
 20
124.4189443166
 30
0.0
  0
VERTEX
  5
249
  8
0
  6
CONTINUOUS
 62
     7
 10
220.7705144163
 20
124.2238523538
 30
0.0
  0
VERTEX
  5
24A
  8
0
  6
CONTINUOUS
 62
     7
 10
220.5829207178
 20
124.0362586553
 30
0.0
  0
VERTEX
  5
24B
  8
0
  6
CONTINUOUS
 62
     7
 10
220.4100314852
 20
123.8633753832
 30
0.0
  0
VERTEX
  5
24C
  8
0
  6
CONTINUOUS
 62
     7
 10
220.2584985968
 20
123.7118365343
 30
0.0
  0
VERTEX
  5
24D
  8
0
  6
CONTINUOUS
 62
     7
 10
220.1341335055
 20
123.5874774034
 30
0.0
  0
VERTEX
  5
24E
  8
0
  6
CONTINUOUS
 62
     7
 10
220.0417224642
 20
123.4950663622
 30
0.0
  0
VERTEX
  5
24F
  8
0
  6
CONTINUOUS
 62
     7
 10
219.9848179098
 20
123.4381618078
 30
0.0
  0
VERTEX
  5
250
  8
0
  6
CONTINUOUS
 62
     7
 10
219.9656013724
 20
123.4189452703
 30
0.0
  0
SEQEND
  5
3D3
  8
0
  6
CONTINUOUS
 62
     7
  0
ARC
  5
9E
  8
0
  6
CONTINUOUS
 62
     7
 10
253.1656025645
 20
133.018944269
 30
0.0
 40
0.3999999999999773
 50
0.0
 51
90.0
  0
LINE
  5
9F
  8
0
  6
CONTINUOUS
 62
     7
 10
253.5656038996
 20
133.0189468439
 30
0.0
 11
253.5656038996
 21
132.4189426477
 31
0.0
  0
LINE
  5
A0
  8
0
  6
CONTINUOUS
 62
     7
 10
46.3656012293
 20
132.4189426477
 30
0.0
 11
46.3656012293
 21
133.0189468439
 31
0.0
  0
ARC
  5
A1
  8
0
  6
CONTINUOUS
 62
     7
 10
46.7656025645
 20
133.018944269
 30
0.0
 40
0.3999999999999986
 50
90.0
 51
180.0
  0
LINE
  5
A2
  8
0
  6
CONTINUOUS
 62
     7
 10
46.3656012293
 20
124.4189443166
 30
0.0
 11
46.3656012293
 21
132.4189426477
 31
0.0
  0
POLYLINE
  5
A3
  8
0
  6
CONTINUOUS
 62
     7
 66
     1
 10
0.0
 20
0.0
 30
0.0
  0
VERTEX
  5
251
  8
0
  6
CONTINUOUS
 62
     7
 10
78.9656047102
 20
124.4189443166
 30
0.0
  0
VERTEX
  5
252
  8
0
  6
CONTINUOUS
 62
     7
 10
79.1606907126
 20
124.2238523538
 30
0.0
  0
VERTEX
  5
253
  8
0
  6
CONTINUOUS
 62
     7
 10
79.3482844111
 20
124.0362586553
 30
0.0
  0
VERTEX
  5
254
  8
0
  6
CONTINUOUS
 62
     7
 10
79.5211736437
 20
123.8633753832
 30
0.0
  0
VERTEX
  5
255
  8
0
  6
CONTINUOUS
 62
     7
 10
79.6727065321
 20
123.7118365343
 30
0.0
  0
VERTEX
  5
256
  8
0
  6
CONTINUOUS
 62
     7
 10
79.7970716235
 20
123.5874774034
 30
0.0
  0
VERTEX
  5
257
  8
0
  6
CONTINUOUS
 62
     7
 10
79.8894826647
 20
123.4950663622
 30
0.0
  0
VERTEX
  5
258
  8
0
  6
CONTINUOUS
 62
     7
 10
79.9463872191
 20
123.4381618078
 30
0.0
  0
VERTEX
  5
259
  8
0
  6
CONTINUOUS
 62
     7
 10
79.9656037566
 20
123.4189452703
 30
0.0
  0
SEQEND
  5
3D2
  8
0
  6
CONTINUOUS
 62
     7
  0
LINE
  5
A4
  8
0
  6
CONTINUOUS
 62
     7
 10
79.9656037566
 20
123.4189452703
 30
0.0
 11
79.9656037566
 21
59.4189442794
 31
0.0
  0
LINE
  5
A5
  8
0
  6
CONTINUOUS
 62
     7
 10
219.9656013724
 20
123.4189452703
 30
0.0
 11
177.2373829361
 21
123.4189452703
 31
0.0
  0
LINE
  5
A6
  8
0
  6
CONTINUOUS
 62
     7
 10
169.6938220736
 20
123.4189452703
 30
0.0
 11
130.2373830553
 21
123.4189452703
 31
0.0
  0
LINE
  5
A7
  8
0
  6
CONTINUOUS
 62
     7
 10
122.6938221928
 20
123.4189452703
 30
0.0
 11
79.9656037566
 21
123.4189452703
 31
0.0
  0
LINE
  5
A8
  8
0
  6
CONTINUOUS
 62
     7
 10
253.5656038996
 20
132.4189426477
 30
0.0
 11
253.5656038996
 21
124.4189443166
 31
0.0
  0
ARC
  5
A9
  8
0
  6
CONTINUOUS
 62
     7
 10
209.964747823
 20
330.8719057417
 30
0.0
 40
183.3150234218487
 50
277.7930859734
 51
281.5887447119
  0
ARC
  5
AA
  8
0
  6
CONTINUOUS
 62
     7
 10
247.3343591973
 20
148.6594473894
 30
0.0
 40
2.69000000000003
 50
12.4186815058
 51
100.0467259538
  0
ARC
  5
AB
  8
0
  6
CONTINUOUS
 62
     7
 10
209.9823081219
 20
330.7692488431
 30
0.0
 40
188.5909277328755
 50
277.7920278596
 51
281.5897616069
  0
ARC
  5
AC
  8
0
  6
CONTINUOUS
 62
     7
 10
247.3343591973
 20
148.6594473894
 30
0.0
 40
2.690000000000002
 50
281.5900201068
 51
12.4186815058
  0
ARC
  5
AD
  8
0
  6
CONTINUOUS
 62
     7
 10
209.9839280443
 20
330.9748210666
 30
0.0
 40
188.7993511587457
 50
258.4124858811
 51
262.2058979528
  0
ARC
  5
AE
  8
0
  6
CONTINUOUS
 62
     7
 10
172.5968459316
 20
148.6594473894
 30
0.0
 40
2.690000000000008
 50
167.5813184942
 51
258.4099798932
  0
ARC
  5
AF
  8
0
  6
CONTINUOUS
 62
     7
 10
172.5968459316
 20
148.6594473894
 30
0.0
 40
2.690000000000008
 50
80.0567778902
 51
167.5813184942
  0
ARC
  5
B0
  8
0
  6
CONTINUOUS
 62
     7
 10
209.981725468
 20
330.9612381623
 30
0.0
 40
183.4056008712264
 50
258.4122925652
 51
262.2059729998
  0
ARC
  5
B1
  8
0
  6
CONTINUOUS
 62
     7
 10
209.9656025645
 20
330.8669555435
 30
0.0
 40
188.6900000000006
 50
262.2069690737
 51
277.7930309263
  0
ARC
  5
B2
  8
0
  6
CONTINUOUS
 62
     7
 10
209.9656025645
 20
330.8669555435
 30
0.0
 40
183.3100000000006
 50
262.2069690737
 51
277.7930309263
  0
LINE
  5
B3
  8
0
  6
CONTINUOUS
 62
     7
 10
173.2656020995
 20
145.7804145391
 30
0.0
 11
173.2656020995
 21
145.5189468439
 31
0.0
  0
LINE
  5
B4
  8
0
  6
CONTINUOUS
 62
     7
 10
173.2656020995
 20
145.5189468439
 30
0.0
 11
172.2656030532
 21
145.5189468439
 31
0.0
  0
LINE
  5
B5
  8
0
  6
CONTINUOUS
 62
     7
 10
172.2656030532
 20
145.989918905
 30
0.0
 11
172.2656030532
 21
145.5189468439
 31
0.0
  0
LINE
  5
B6
  8
0
  6
CONTINUOUS
 62
     7
 10
246.6656033274
 20
145.5189468439
 30
0.0
 11
247.6656023737
 21
145.5189468439
 31
0.0
  0
LINE
  5
B7
  8
0
  6
CONTINUOUS
 62
     7
 10
246.6656033274
 20
145.7803906973
 30
0.0
 11
246.6656033274
 21
145.5189468439
 31
0.0
  0
LINE
  5
B8
  8
0
  6
CONTINUOUS
 62
     7
 10
247.6656023737
 20
145.989918905
 30
0.0
 11
247.6656023737
 21
145.5189468439
 31
0.0
  0
LINE
  5
B9
  8
0
  6
CONTINUOUS
 62
     7
 10
173.2656020995
 20
145.5189468439
 30
0.0
 11
173.2656020995
 21
138.9600457723
 31
0.0
  0
LINE
  5
BA
  8
0
  6
CONTINUOUS
 62
     7
 10
172.2656030532
 20
145.5189468439
 30
0.0
 11
172.2656030532
 21
138.9600457723
 31
0.0
  0
LINE
  5
BB
  8
0
  6
CONTINUOUS
 62
     7
 10
246.6656033274
 20
145.5189468439
 30
0.0
 11
246.6656033274
 21
138.9600457723
 31
0.0
  0
LINE
  5
BC
  8
0
  6
CONTINUOUS
 62
     7
 10
247.6656023737
 20
145.5189468439
 30
0.0
 11
247.6656023737
 21
138.9600457723
 31
0.0
  0
LINE
  5
BD
  8
0
  6
CONTINUOUS
 62
     7
 10
173.1372867104
 20
151.2946011598
 30
0.0
 11
173.141208696
 21
151.2937964971
 31
0.0
  0
LINE
  5
BE
  8
0
  6
CONTINUOUS
 62
     7
 10
246.7896882769
 20
151.293730932
 30
0.0
 11
246.7939202067
 21
151.2946011598
 31
0.0
  0
LINE
  5
BF
  8
0
  6
CONTINUOUS
 62
     7
 10
126.6656030294
 20
180.742967325
 30
0.0
 11
127.6656020757
 21
180.742967325
 31
0.0
  0
LINE
  5
C0
  8
0
  6
CONTINUOUS
 62
     7
 10
126.6656030294
 20
180.742967325
 30
0.0
 11
126.6656030294
 21
145.596945482
 31
0.0
  0
LINE
  5
C1
  8
0
  6
CONTINUOUS
 62
     7
 10
127.6656020757
 20
180.742967325
 30
0.0
 11
127.6656020757
 21
145.596945482
 31
0.0
  0
LINE
  5
C2
  8
0
  6
CONTINUOUS
 62
     7
 10
53.2656018015
 20
180.742967325
 30
0.0
 11
52.2656027552
 21
180.742967325
 31
0.0
  0
LINE
  5
C3
  8
0
  6
CONTINUOUS
 62
     7
 10
53.2656018015
 20
180.742967325
 30
0.0
 11
53.2656018015
 21
145.596945482
 31
0.0
  0
LINE
  5
C4
  8
0
  6
CONTINUOUS
 62
     7
 10
52.2656027552
 20
180.742967325
 30
0.0
 11
52.2656027552
 21
145.596945482
 31
0.0
  0
ARC
  5
C5
  8
0
  6
CONTINUOUS
 62
     7
 10
63.081714406
 20
213.7379056788
 30
0.0
 40
10.66457967942088
 50
102.987760879
 51
120.0657527315
  0
ARC
  5
C6
  8
0
  6
CONTINUOUS
 62
     7
 10
115.9330672239
 20
211.3761473047
 30
0.0
 40
13.19185546280626
 50
61.3383227431
 51
75.6468881451
  0
ARC
  5
C7
  8
0
  6
CONTINUOUS
 62
     7
 10
52.5963608011
 20
211.122250495
 30
0.0
 40
30.3400423777309
 50
269.3753662162
 51
271.2639334671
  0
ARC
  5
C8
  8
0
  6
CONTINUOUS
 62
     7
 10
127.3348443634
 20
211.1223103004
 30
0.0
 40
30.3401021758843
 50
268.7360683942
 51
270.6246319225
  0
LINE
  5
C9
  8
0
  6
CONTINUOUS
 62
     7
 10
126.6656030294
 20
180.7895900781
 30
0.0
 11
126.6656030294
 21
180.742967325
 31
0.0
  0
LINE
  5
CA
  8
0
  6
CONTINUOUS
 62
     7
 10
127.6656020757
 20
180.7840110834
 30
0.0
 11
127.6656020757
 21
180.742967325
 31
0.0
  0
LINE
  5
CB
  8
0
  6
CONTINUOUS
 62
     7
 10
53.2656018015
 20
180.7895900781
 30
0.0
 11
53.2656018015
 21
180.742967325
 31
0.0
  0
LINE
  5
CC
  8
0
  6
CONTINUOUS
 62
     7
 10
52.2656027552
 20
180.7840110834
 30
0.0
 11
52.2656027552
 21
180.742967325
 31
0.0
  0
LINE
  5
CD
  8
0
  6
CONTINUOUS
 62
     7
 10
251.3656083819
 20
151.2189449842
 30
0.0
 11
251.3656083819
 21
142.0617105539
 31
0.0
  0
LINE
  5
CE
  8
0
  6
CONTINUOUS
 62
     7
 10
247.9656044718
 20
146.0445584829
 30
0.0
 11
247.9656044718
 21
142.0617105539
 31
0.0
  0
LINE
  5
CF
  8
0
  6
CONTINUOUS
 62
     7
 10
230.5656019923
 20
150.8189441736
 30
0.0
 11
230.5656019923
 21
148.7181248243
 31
0.0
  0
LINE
  5
D0
  8
0
  6
CONTINUOUS
 62
     7
 10
230.5656019923
 20
143.3048190649
 30
0.0
 11
230.5656019923
 21
138.8189436968
 31
0.0
  0
CIRCLE
  5
D1
  8
0
  6
CONTINUOUS
 62
     7
 10
247.4656025645
 20
127.618944269
 30
0.0
 40
1.099999999999994
  0
ARC
  5
D2
  8
0
  6
CONTINUOUS
 62
     7
 10
243.5656025645
 20
125.218944269
 30
0.0
 40
2.000000000000014
 50
180.0
 51
270.0
  0
LINE
  5
D3
  8
0
  6
CONTINUOUS
 62
     7
 10
241.5656034228
 20
125.2189459379
 30
0.0
 11
241.5656034228
 21
133.218944269
 31
0.0
  0
ARC
  5
D4
  8
0
  6
CONTINUOUS
 62
     7
 10
249.3656025645
 20
125.218944269
 30
0.0
 40
2.000000000000014
 50
270.0
 51
0.0
  0
LINE
  5
D5
  8
0
  6
CONTINUOUS
 62
     7
 10
249.3656043288
 20
123.2189418848
 30
0.0
 11
243.5656015154
 21
123.2189418848
 31
0.0
  0
LINE
  5
D6
  8
0
  6
CONTINUOUS
 62
     7
 10
251.3656083819
 20
125.2189459379
 30
0.0
 11
251.3656083819
 21
133.218944269
 31
0.0
  0
LINE
  5
D7
  8
0
  6
CONTINUOUS
 62
     7
 10
241.5656034228
 20
133.218944269
 30
0.0
 11
241.5656034228
 21
134.2189433153
 31
0.0
  0
LINE
  5
D8
  8
0
  6
CONTINUOUS
 62
     7
 10
241.5656034228
 20
134.2189433153
 30
0.0
 11
251.3656083819
 21
134.2189433153
 31
0.0
  0
LINE
  5
D9
  8
0
  6
CONTINUOUS
 62
     7
 10
251.3656083819
 20
134.2189433153
 30
0.0
 11
251.3656083819
 21
133.218944269
 31
0.0
  0
LINE
  5
DA
  8
0
  6
CONTINUOUS
 62
     7
 10
251.3656083819
 20
142.0617105539
 30
0.0
 11
251.3656083819
 21
137.7535345132
 31
0.0
  0
LINE
  5
DB
  8
0
  6
CONTINUOUS
 62
     7
 10
247.9656044718
 20
137.7535345132
 30
0.0
 11
247.9656044718
 21
142.0617105539
 31
0.0
  0
LINE
  5
DC
  8
0
  6
CONTINUOUS
 62
     7
 10
251.3656083819
 20
137.7535345132
 30
0.0
 11
251.3656083819
 21
134.2189433153
 31
0.0
  0
LINE
  5
DD
  8
0
  6
CONTINUOUS
 62
     7
 10
247.9656044718
 20
137.7535345132
 30
0.0
 11
247.9656044718
 21
134.2189433153
 31
0.0
  0
LINE
  5
DE
  8
0
  6
CONTINUOUS
 62
     7
 10
131.3656021234
 20
151.2189449842
 30
0.0
 11
131.3656021234
 21
142.0617105539
 31
0.0
  0
LINE
  5
DF
  8
0
  6
CONTINUOUS
 62
     7
 10
127.9656026837
 20
151.2189449842
 30
0.0
 11
127.9656026837
 21
142.0617105539
 31
0.0
  0
LINE
  5
E0
  8
0
  6
CONTINUOUS
 62
     7
 10
110.5656031843
 20
150.8189441736
 30
0.0
 11
110.5656031843
 21
138.8189436968
 31
0.0
  0
CIRCLE
  5
E1
  8
0
  6
CONTINUOUS
 62
     7
 10
127.4656025645
 20
127.618944269
 30
0.0
 40
1.100000000000023
  0
ARC
  5
E2
  8
0
  6
CONTINUOUS
 62
     7
 10
129.3656025645
 20
125.218944269
 30
0.0
 40
2.000000000000014
 50
270.0
 51
0.0
  0
LINE
  5
E3
  8
0
  6
CONTINUOUS
 62
     7
 10
129.3656025406
 20
123.2189418848
 30
0.0
 11
123.5656027075
 21
123.2189418848
 31
0.0
  0
ARC
  5
E4
  8
0
  6
CONTINUOUS
 62
     7
 10
123.5656025645
 20
125.218944269
 30
0.0
 40
2.000000000000014
 50
180.0
 51
270.0
  0
LINE
  5
E5
  8
0
  6
CONTINUOUS
 62
     7
 10
121.5656016346
 20
125.2189459379
 30
0.0
 11
121.5656016346
 21
133.218944269
 31
0.0
  0
LINE
  5
E6
  8
0
  6
CONTINUOUS
 62
     7
 10
131.3656021234
 20
125.2189459379
 30
0.0
 11
131.3656021234
 21
133.218944269
 31
0.0
  0
LINE
  5
E7
  8
0
  6
CONTINUOUS
 62
     7
 10
121.5656016346
 20
133.218944269
 30
0.0
 11
121.5656016346
 21
134.2189433153
 31
0.0
  0
LINE
  5
E8
  8
0
  6
CONTINUOUS
 62
     7
 10
121.5656016346
 20
134.2189433153
 30
0.0
 11
131.3656021234
 21
134.2189433153
 31
0.0
  0
LINE
  5
E9
  8
0
  6
CONTINUOUS
 62
     7
 10
131.3656021234
 20
134.2189433153
 30
0.0
 11
131.3656021234
 21
133.218944269
 31
0.0
  0
LINE
  5
EA
  8
0
  6
CONTINUOUS
 62
     7
 10
131.3656021234
 20
142.0617105539
 30
0.0
 11
131.3656021234
 21
137.7535345132
 31
0.0
  0
LINE
  5
EB
  8
0
  6
CONTINUOUS
 62
     7
 10
127.9656026837
 20
137.7535345132
 30
0.0
 11
127.9656026837
 21
142.0617105539
 31
0.0
  0
LINE
  5
EC
  8
0
  6
CONTINUOUS
 62
     7
 10
131.3656021234
 20
137.7535345132
 30
0.0
 11
131.3656021234
 21
134.2189433153
 31
0.0
  0
LINE
  5
ED
  8
0
  6
CONTINUOUS
 62
     7
 10
127.9656026837
 20
137.7535345132
 30
0.0
 11
127.9656026837
 21
134.2189433153
 31
0.0
  0
LINE
  5
EE
  8
0
  6
CONTINUOUS
 62
     7
 10
48.565596747
 20
151.2189449842
 30
0.0
 11
48.565596747
 21
142.0617105539
 31
0.0
  0
LINE
  5
EF
  8
0
  6
CONTINUOUS
 62
     7
 10
51.9656006571
 20
151.2189449842
 30
0.0
 11
51.9656006571
 21
142.0617105539
 31
0.0
  0
LINE
  5
F0
  8
0
  6
CONTINUOUS
 62
     7
 10
69.3656031367
 20
150.8189441736
 30
0.0
 11
69.3656031367
 21
138.8189436968
 31
0.0
  0
CIRCLE
  5
F1
  8
0
  6
CONTINUOUS
 62
     7
 10
52.4656025645
 20
127.618944269
 30
0.0
 40
1.100000000000001
  0
ARC
  5
F2
  8
0
  6
CONTINUOUS
 62
     7
 10
56.3656025645
 20
125.218944269
 30
0.0
 40
2.000000000000014
 50
270.0
 51
0.0
  0
LINE
  5
F3
  8
0
  6
CONTINUOUS
 62
     7
 10
56.3656036135
 20
123.2189418848
 30
0.0
 11
50.5656008002
 21
123.2189418848
 31
0.0
  0
ARC
  5
F4
  8
0
  6
CONTINUOUS
 62
     7
 10
50.5656025645
 20
125.218944269
 30
0.0
 40
2.000000000000014
 50
180.0
 51
270.0
  0
LINE
  5
F5
  8
0
  6
CONTINUOUS
 62
     7
 10
58.3656017062
 20
133.218944269
 30
0.0
 11
58.3656017062
 21
125.2189459379
 31
0.0
  0
LINE
  5
F6
  8
0
  6
CONTINUOUS
 62
     7
 10
48.565596747
 20
125.2189459379
 30
0.0
 11
48.565596747
 21
133.218944269
 31
0.0
  0
LINE
  5
F7
  8
0
  6
CONTINUOUS
 62
     7
 10
48.565596747
 20
134.2189433153
 30
0.0
 11
58.3656017062
 21
134.2189433153
 31
0.0
  0
LINE
  5
F8
  8
0
  6
CONTINUOUS
 62
     7
 10
58.3656017062
 20
134.2189433153
 30
0.0
 11
58.3656017062
 21
133.218944269
 31
0.0
  0
LINE
  5
F9
  8
0
  6
CONTINUOUS
 62
     7
 10
48.565596747
 20
133.218944269
 30
0.0
 11
48.565596747
 21
134.2189433153
 31
0.0
  0
LINE
  5
FA
  8
0
  6
CONTINUOUS
 62
     7
 10
48.565596747
 20
137.7535345132
 30
0.0
 11
48.565596747
 21
142.0617105539
 31
0.0
  0
LINE
  5
FB
  8
0
  6
CONTINUOUS
 62
     7
 10
51.9656006571
 20
142.0617105539
 30
0.0
 11
51.9656006571
 21
137.7535345132
 31
0.0
  0
LINE
  5
FC
  8
0
  6
CONTINUOUS
 62
     7
 10
48.565596747
 20
137.7535345132
 30
0.0
 11
48.565596747
 21
134.2189433153
 31
0.0
  0
LINE
  5
FD
  8
0
  6
CONTINUOUS
 62
     7
 10
51.9656006571
 20
137.7535345132
 30
0.0
 11
51.9656006571
 21
134.2189433153
 31
0.0
  0
LINE
  5
FE
  8
0
  6
CONTINUOUS
 62
     7
 10
171.9656024453
 20
146.0445584829
 30
0.0
 11
171.9656024453
 21
142.0617105539
 31
0.0
  0
LINE
  5
FF
  8
0
  6
CONTINUOUS
 62
     7
 10
168.5656030055
 20
151.2189449842
 30
0.0
 11
168.5656030055
 21
142.0617105539
 31
0.0
  0
LINE
  5
100
  8
0
  6
CONTINUOUS
 62
     7
 10
189.3656019446
 20
150.8189441736
 30
0.0
 11
189.3656019446
 21
148.7181248243
 31
0.0
  0
LINE
  5
101
  8
0
  6
CONTINUOUS
 62
     7
 10
189.3656019446
 20
143.3048190649
 30
0.0
 11
189.3656019446
 21
138.8189436968
 31
0.0
  0
LINE
  5
102
  8
0
  6
CONTINUOUS
 62
     7
 10
176.3656024214
 20
123.2189418848
 30
0.0
 11
170.5656025883
 21
123.2189418848
 31
0.0
  0
LINE
  5
103
  8
0
  6
CONTINUOUS
 62
     7
 10
178.3656034943
 20
133.218944269
 30
0.0
 11
178.3656034943
 21
125.2189459379
 31
0.0
  0
CIRCLE
  5
104
  8
0
  6
CONTINUOUS
 62
     7
 10
172.4656025645
 20
127.618944269
 30
0.0
 40
1.100000000000023
  0
ARC
  5
105
  8
0
  6
CONTINUOUS
 62
     7
 10
176.3656025645
 20
125.218944269
 30
0.0
 40
2.000000000000014
 50
270.0
 51
0.0
  0
ARC
  5
106
  8
0
  6
CONTINUOUS
 62
     7
 10
170.5656025645
 20
125.218944269
 30
0.0
 40
2.000000000000014
 50
180.0
 51
270.0
  0
LINE
  5
107
  8
0
  6
CONTINUOUS
 62
     7
 10
168.5656030055
 20
125.2189459379
 30
0.0
 11
168.5656030055
 21
133.218944269
 31
0.0
  0
LINE
  5
108
  8
0
  6
CONTINUOUS
 62
     7
 10
168.5656030055
 20
134.2189433153
 30
0.0
 11
178.3656034943
 21
134.2189433153
 31
0.0
  0
LINE
  5
109
  8
0
  6
CONTINUOUS
 62
     7
 10
178.3656034943
 20
134.2189433153
 30
0.0
 11
178.3656034943
 21
133.218944269
 31
0.0
  0
LINE
  5
10A
  8
0
  6
CONTINUOUS
 62
     7
 10
168.5656030055
 20
133.218944269
 30
0.0
 11
168.5656030055
 21
134.2189433153
 31
0.0
  0
LINE
  5
10B
  8
0
  6
CONTINUOUS
 62
     7
 10
168.5656030055
 20
137.7535345132
 30
0.0
 11
168.5656030055
 21
142.0617105539
 31
0.0
  0
LINE
  5
10C
  8
0
  6
CONTINUOUS
 62
     7
 10
171.9656024453
 20
142.0617105539
 30
0.0
 11
171.9656024453
 21
137.7535345132
 31
0.0
  0
LINE
  5
10D
  8
0
  6
CONTINUOUS
 62
     7
 10
168.5656030055
 20
137.7535345132
 30
0.0
 11
168.5656030055
 21
134.2189433153
 31
0.0
  0
LINE
  5
10E
  8
0
  6
CONTINUOUS
 62
     7
 10
171.9656024453
 20
137.7535345132
 30
0.0
 11
171.9656024453
 21
134.2189433153
 31
0.0
  0
POLYLINE
  5
10F
  8
0
  6
CONTINUOUS
 62
     7
 66
     1
 10
0.0
 20
0.0
 30
0.0
  0
VERTEX
  5
25A
  8
0
  6
CONTINUOUS
 62
     7
 10
387.6605085073
 20
146.5876938875
 30
0.0
  0
VERTEX
  5
25B
  8
0
  6
CONTINUOUS
 62
     7
 10
387.6551500498
 20
146.8570413168
 30
0.0
  0
VERTEX
  5
25C
  8
0
  6
CONTINUOUS
 62
     7
 10
387.5879517733
 20
147.2639443452
 30
0.0
  0
VERTEX
  5
25D
  8
0
  6
CONTINUOUS
 62
     7
 10
387.470375651
 20
147.6427557047
 30
0.0
  0
VERTEX
  5
25E
  8
0
  6
CONTINUOUS
 62
     7
 10
387.3112729727
 20
147.9887547071
 30
0.0
  0
VERTEX
  5
25F
  8
0
  6
CONTINUOUS
 62
     7
 10
387.11951887
 20
148.2993783529
 30
0.0
  0
VERTEX
  5
260
  8
0
  6
CONTINUOUS
 62
     7
 10
386.9030467211
 20
148.574716049
 30
0.0
  0
VERTEX
  5
261
  8
0
  6
CONTINUOUS
 62
     7
 10
386.6671374975
 20
148.8178731973
 30
0.0
  0
VERTEX
  5
262
  8
0
  6
CONTINUOUS
 62
     7
 10
386.4125720201
 20
149.0347685392
 30
0.0
  0
VERTEX
  5
263
  8
0
  6
CONTINUOUS
 62
     7
 10
386.1334315477
 20
149.233633476
 30
0.0
  0
VERTEX
  5
264
  8
0
  6
CONTINUOUS
 62
     7
 10
385.8115009008
 20
149.4259597833
 30
0.0
  0
VERTEX
  5
265
  8
0
  6
CONTINUOUS
 62
     7
 10
385.4260674654
 20
149.6184529836
 30
0.0
  0
VERTEX
  5
266
  8
0
  6
CONTINUOUS
 62
     7
 10
384.9144211946
 20
149.829811054
 30
0.0
  0
VERTEX
  5
267
  8
0
  6
CONTINUOUS
 62
     7
 10
384.3399337469
 20
150.0263692911
 30
0.0
  0
VERTEX
  5
268
  8
0
  6
CONTINUOUS
 62
     7
 10
383.7649754225
 20
150.1933099802
 30
0.0
  0
VERTEX
  5
269
  8
0
  6
CONTINUOUS
 62
     7
 10
383.1094435392
 20
150.3573717649
 30
0.0
  0
VERTEX
  5
26A
  8
0
  6
CONTINUOUS
 62
     7
 10
382.4352852045
 20
150.5038501794
 30
0.0
  0
VERTEX
  5
26B
  8
0
  6
CONTINUOUS
 62
     7
 10
381.734990233
 20
150.6370069559
 30
0.0
  0
VERTEX
  5
26C
  8
0
  6
CONTINUOUS
 62
     7
 10
381.0226491629
 20
150.7556678827
 30
0.0
  0
VERTEX
  5
26D
  8
0
  6
CONTINUOUS
 62
     7
 10
380.2592149912
 20
150.8669855173
 30
0.0
  0
VERTEX
  5
26E
  8
0
  6
CONTINUOUS
 62
     7
 10
379.4625929533
 20
150.9681107576
 30
0.0
  0
VERTEX
  5
26F
  8
0
  6
CONTINUOUS
 62
     7
 10
378.6363593279
 20
151.0586263712
 30
0.0
  0
VERTEX
  5
270
  8
0
  6
CONTINUOUS
 62
     7
 10
377.7854255377
 20
151.1378826673
 30
0.0
  0
VERTEX
  5
271
  8
0
  6
CONTINUOUS
 62
     7
 10
376.915519589
 20
151.2051643903
 30
0.0
  0
VERTEX
  5
272
  8
0
  6
CONTINUOUS
 62
     7
 10
376.0327807604
 20
151.2597860868
 30
0.0
  0
VERTEX
  5
273
  8
0
  6
CONTINUOUS
 62
     7
 10
375.1438609301
 20
151.3011695917
 30
0.0
  0
VERTEX
  5
274
  8
0
  6
CONTINUOUS
 62
     7
 10
374.2472819029
 20
151.3295712049
 30
0.0
  0
VERTEX
  5
275
  8
0
  6
CONTINUOUS
 62
     7
 10
373.3320108591
 20
151.3453366335
 30
0.0
  0
VERTEX
  5
276
  8
0
  6
CONTINUOUS
 62
     7
 10
372.6674965559
 20
151.3473095472
 30
0.0
  0
SEQEND
  5
3D1
  8
0
  6
CONTINUOUS
 62
     7
  0
ARC
  5
110
  8
0
  6
CONTINUOUS
 62
     7
 10
332.2641330995
 20
98.0474450792
 30
0.0
 40
53.30199134571531
 50
89.5666054273
 51
98.8213361357
  0
LINE
  5
111
  8
0
  6
CONTINUOUS
 62
     7
 10
372.6674250303
 20
151.3494493539
 30
0.0
 11
332.667421454
 21
151.3494493539
 31
0.0
  0
POLYLINE
  5
112
  8
0
  6
CONTINUOUS
 62
     7
 66
     1
 10
0.0
 20
0.0
 30
0.0
  0
VERTEX
  5
277
  8
0
  6
CONTINUOUS
 62
     7
 10
372.6672939001
 20
145.9678949888
 30
0.0
  0
VERTEX
  5
278
  8
0
  6
CONTINUOUS
 62
     7
 10
373.3952156244
 20
145.9643127496
 30
0.0
  0
VERTEX
  5
279
  8
0
  6
CONTINUOUS
 62
     7
 10
374.2358854948
 20
145.9481122072
 30
0.0
  0
VERTEX
  5
27A
  8
0
  6
CONTINUOUS
 62
     7
 10
375.065170878
 20
145.9199907358
 30
0.0
  0
VERTEX
  5
27B
  8
0
  6
CONTINUOUS
 62
     7
 10
375.8770874678
 20
145.8801509912
 30
0.0
  0
VERTEX
  5
27C
  8
0
  6
CONTINUOUS
 62
     7
 10
376.6661158739
 20
145.8293618734
 30
0.0
  0
VERTEX
  5
27D
  8
0
  6
CONTINUOUS
 62
     7
 10
377.4393609701
 20
145.7677545126
 30
0.0
  0
VERTEX
  5
27E
  8
0
  6
CONTINUOUS
 62
     7
 10
378.1916788755
 20
145.6960441644
 30
0.0
  0
VERTEX
  5
27F
  8
0
  6
CONTINUOUS
 62
     7
 10
378.9141169725
 20
145.6154169614
 30
0.0
  0
VERTEX
  5
280
  8
0
  6
CONTINUOUS
 62
     7
 10
379.596536511
 20
145.5275179918
 30
0.0
  0
VERTEX
  5
281
  8
0
  6
CONTINUOUS
 62
     7
 10
380.2305034338
 20
145.4341532762
 30
0.0
  0
VERTEX
  5
282
  8
0
  6
CONTINUOUS
 62
     7
 10
380.8082095324
 20
145.3374089773
 30
0.0
  0
VERTEX
  5
283
  8
0
  6
CONTINUOUS
 62
     7
 10
381.3268712698
 20
145.2390911157
 30
0.0
  0
VERTEX
  5
284
  8
0
  6
CONTINUOUS
 62
     7
 10
381.8042687117
 20
145.1371016081
 30
0.0
  0
VERTEX
  5
285
  8
0
  6
CONTINUOUS
 62
     7
 10
382.21925413
 20
145.0369956072
 30
0.0
  0
VERTEX
  5
286
  8
0
  6
CONTINUOUS
 62
     7
 10
382.5687519251
 20
144.9415685709
 30
0.0
  0
VERTEX
  5
287
  8
0
  6
CONTINUOUS
 62
     7
 10
382.8473917185
 20
144.8550345476
 30
0.0
  0
VERTEX
  5
288
  8
0
  6
CONTINUOUS
 62
     7
 10
383.0314150988
 20
144.7900952871
 30
0.0
  0
VERTEX
  5
289
  8
0
  6
CONTINUOUS
 62
     7
 10
383.1529608904
 20
144.7415055807
 30
0.0
  0
VERTEX
  5
28A
  8
0
  6
CONTINUOUS
 62
     7
 10
383.216040486
 20
144.7128774698
 30
0.0
  0
VERTEX
  5
28B
  8
0
  6
CONTINUOUS
 62
     7
 10
383.2238904177
 20
144.7089733656
 30
0.0
  0
SEQEND
  5
3D0
  8
0
  6
CONTINUOUS
 62
     7
  0
LINE
  5
113
  8
0
  6
CONTINUOUS
 62
     7
 10
343.6674228846
 20
145.9694447096
 30
0.0
 11
372.6674250303
 21
145.9694447096
 31
0.0
  0
LINE
  5
114
  8
0
  6
CONTINUOUS
 62
     7
 10
343.6674228846
 20
145.8669545229
 30
0.0
 11
376.0821095644
 21
145.8669545229
 31
0.0
  0
ARC
  5
115
  8
0
  6
CONTINUOUS
 62
     7
 10
384.9774227415
 20
144.8669555435
 30
0.0
 40
2.690000000000168
 50
180.0
 51
270.0
  0
ARC
  5
116
  8
0
  6
CONTINUOUS
 62
     7
 10
384.9774227415
 20
144.8669555435
 30
0.0
 40
2.690000000000026
 50
270.0
 51
0.0
  0
POLYLINE
  5
117
  8
0
  6
CONTINUOUS
 62
     7
 66
     1
 10
0.0
 20
0.0
 30
0.0
  0
VERTEX
  5
28C
  8
0
  6
CONTINUOUS
 62
     7
 10
312.877260053
 20
224.6617915208
 30
0.0
  0
VERTEX
  5
28D
  8
0
  6
CONTINUOUS
 62
     7
 10
312.6084710448
 20
224.6799232538
 30
0.0
  0
VERTEX
  5
28E
  8
0
  6
CONTINUOUS
 62
     7
 10
312.1972586004
 20
224.6484520013
 30
0.0
  0
VERTEX
  5
28F
  8
0
  6
CONTINUOUS
 62
     7
 10
311.809643635
 20
224.5643379266
 30
0.0
  0
VERTEX
  5
290
  8
0
  6
CONTINUOUS
 62
     7
 10
311.4510945021
 20
224.4359852846
 30
0.0
  0
VERTEX
  5
291
  8
0
  6
CONTINUOUS
 62
     7
 10
311.1249386309
 20
224.2720367487
 30
0.0
  0
VERTEX
  5
292
  8
0
  6
CONTINUOUS
 62
     7
 10
310.8317836164
 20
224.0803839738
 30
0.0
  0
VERTEX
  5
293
  8
0
  6
CONTINUOUS
 62
     7
 10
310.5689895315
 20
223.8665701921
 30
0.0
  0
VERTEX
  5
294
  8
0
  6
CONTINUOUS
 62
     7
 10
310.3307339339
 20
223.6318709428
 30
0.0
  0
VERTEX
  5
295
  8
0
  6
CONTINUOUS
 62
     7
 10
310.1082934974
 20
223.3711363847
 30
0.0
  0
VERTEX
  5
296
  8
0
  6
CONTINUOUS
 62
     7
 10
309.8886459111
 20
223.0671884592
 30
0.0
  0
VERTEX
  5
297
  8
0
  6
CONTINUOUS
 62
     7
 10
309.6632885723
 20
222.7000000055
 30
0.0
  0
VERTEX
  5
298
  8
0
  6
CONTINUOUS
 62
     7
 10
309.4081423222
 20
222.2087146814
 30
0.0
  0
VERTEX
  5
299
  8
0
  6
CONTINUOUS
 62
     7
 10
309.1622604965
 20
221.653545099
 30
0.0
  0
VERTEX
  5
29A
  8
0
  6
CONTINUOUS
 62
     7
 10
308.9458489767
 20
221.0953356798
 30
0.0
  0
VERTEX
  5
29B
  8
0
  6
CONTINUOUS
 62
     7
 10
308.7252764007
 20
220.4565884645
 30
0.0
  0
VERTEX
  5
29C
  8
0
  6
CONTINUOUS
 62
     7
 10
308.5206001973
 20
219.7977664049
 30
0.0
  0
VERTEX
  5
29D
  8
0
  6
CONTINUOUS
 62
     7
 10
308.3269127155
 20
219.1117407854
 30
0.0
  0
VERTEX
  5
29E
  8
0
  6
CONTINUOUS
 62
     7
 10
308.1466170935
 20
218.4124590929
 30
0.0
  0
VERTEX
  5
29F
  8
0
  6
CONTINUOUS
 62
     7
 10
307.9691906901
 20
217.6616313036
 30
0.0
  0
VERTEX
  5
2A0
  8
0
  6
CONTINUOUS
 62
     7
 10
307.799016938
 20
216.8768527086
 30
0.0
  0
VERTEX
  5
2A1
  8
0
  6
CONTINUOUS
 62
     7
 10
307.6368334854
 20
216.0616519029
 30
0.0
  0
VERTEX
  5
2A2
  8
0
  6
CONTINUOUS
 62
     7
 10
307.4837140773
 20
215.2208568628
 30
0.0
  0
VERTEX
  5
2A3
  8
0
  6
CONTINUOUS
 62
     7
 10
307.3408714239
 20
214.3601300295
 30
0.0
  0
VERTEX
  5
2A4
  8
0
  6
CONTINUOUS
 62
     7
 10
307.2095223446
 20
213.4855153139
 30
0.0
  0
VERTEX
  5
2A5
  8
0
  6
CONTINUOUS
 62
     7
 10
307.0908247469
 20
212.6035811479
 30
0.0
  0
VERTEX
  5
2A6
  8
0
  6
CONTINUOUS
 62
     7
 10
306.9843896641
 20
211.7128850992
 30
0.0
  0
VERTEX
  5
2A7
  8
0
  6
CONTINUOUS
 62
     7
 10
306.888910986
 20
210.802471834
 30
0.0
  0
VERTEX
  5
2A8
  8
0
  6
CONTINUOUS
 62
     7
 10
306.8290321598
 20
210.1406576212
 30
0.0
  0
SEQEND
  5
3CF
  8
0
  6
CONTINUOUS
 62
     7
  0
ARC
  5
118
  8
0
  6
CONTINUOUS
 62
     7
 10
356.4045705773
 20
165.2456567839
 30
0.0
 40
53.30187497097913
 50
174.5666044052
 51
183.8213552243
  0
LINE
  5
119
  8
0
  6
CONTINUOUS
 62
     7
 10
306.8268934241
 20
210.1407649095
 30
0.0
 11
303.3406636654
 21
170.2929856355
 31
0.0
  0
POLYLINE
  5
11A
  8
0
  6
CONTINUOUS
 62
     7
 66
     1
 10
0.0
 20
0.0
 30
0.0
  0
VERTEX
  5
2A9
  8
0
  6
CONTINUOUS
 62
     7
 10
312.1879531978
 20
209.6716048296
 30
0.0
  0
VERTEX
  5
2AA
  8
0
  6
CONTINUOUS
 62
     7
 10
312.2549696802
 20
210.3964449937
 30
0.0
  0
VERTEX
  5
2AB
  8
0
  6
CONTINUOUS
 62
     7
 10
312.344372922
 20
211.2325074251
 30
0.0
  0
VERTEX
  5
2AC
  8
0
  6
CONTINUOUS
 62
     7
 10
312.4446696578
 20
212.0561840112
 30
0.0
  0
VERTEX
  5
2AD
  8
0
  6
CONTINUOUS
 62
     7
 10
312.5551155745
 20
212.8615381296
 30
0.0
  0
VERTEX
  5
2AE
  8
0
  6
CONTINUOUS
 62
     7
 10
312.6744843064
 20
213.6431457574
 30
0.0
  0
VERTEX
  5
2AF
  8
0
  6
CONTINUOUS
 62
     7
 10
312.8032485931
 20
214.4080760057
 30
0.0
  0
VERTEX
  5
2B0
  8
0
  6
CONTINUOUS
 62
     7
 10
312.9402565746
 20
215.1512744005
 30
0.0
  0
VERTEX
  5
2B1
  8
0
  6
CONTINUOUS
 62
     7
 10
313.0835420428
 20
215.8639432962
 30
0.0
  0
VERTEX
  5
2B2
  8
0
  6
CONTINUOUS
 62
     7
 10
313.2305814861
 20
216.5361048753
 30
0.0
  0
VERTEX
  5
2B3
  8
0
  6
CONTINUOUS
 62
     7
 10
313.3788431971
 20
217.159521776
 30
0.0
  0
VERTEX
  5
2B4
  8
0
  6
CONTINUOUS
 62
     7
 10
313.5255734412
 20
217.7266003664
 30
0.0
  0
VERTEX
  5
2B5
  8
0
  6
CONTINUOUS
 62
     7
 10
313.6687195836
 20
218.2347180421
 30
0.0
  0
VERTEX
  5
2B6
  8
0
  6
CONTINUOUS
 62
     7
 10
313.811930546
 20
218.7014104898
 30
0.0
  0
VERTEX
  5
2B7
  8
0
  6
CONTINUOUS
 62
     7
 10
313.9478198229
 20
219.106090265
 30
0.0
  0
VERTEX
  5
2B8
  8
0
  6
CONTINUOUS
 62
     7
 10
314.0733472048
 20
219.4459440286
 30
0.0
  0
VERTEX
  5
2B9
  8
0
  6
CONTINUOUS
 62
     7
 10
314.1838340996
 20
219.7159769113
 30
0.0
  0
VERTEX
  5
2BA
  8
0
  6
CONTINUOUS
 62
     7
 10
314.264569336
 20
219.8936345155
 30
0.0
  0
VERTEX
  5
2BB
  8
0
  6
CONTINUOUS
 62
     7
 10
314.3235675035
 20
220.0104834612
 30
0.0
  0
VERTEX
  5
2BC
  8
0
  6
CONTINUOUS
 62
     7
 10
314.357579404
 20
220.0708391245
 30
0.0
  0
VERTEX
  5
2BD
  8
0
  6
CONTINUOUS
 62
     7
 10
314.3621555506
 20
220.0783135469
 30
0.0
  0
SEQEND
  5
3CE
  8
0
  6
CONTINUOUS
 62
     7
  0
LINE
  5
11B
  8
0
  6
CONTINUOUS
 62
     7
 10
309.6589044644
 20
180.782222944
 30
0.0
 11
312.1864209859
 21
209.67186709
 31
0.0
  0
LINE
  5
11C
  8
0
  6
CONTINUOUS
 62
     7
 10
309.7610062896
 20
180.7732941682
 30
0.0
 11
312.586132714
 21
213.0646349962
 31
0.0
  0
ARC
  5
11D
  8
0
  6
CONTINUOUS
 62
     7
 10
314.3576046362
 20
221.8389408367
 30
0.0
 40
2.690000000000003
 50
355.0
 51
85.0
  0
ARC
  5
11E
  8
0
  6
CONTINUOUS
 62
     7
 10
314.3576046362
 20
221.8389408367
 30
0.0
 40
2.690000000000159
 50
265.0
 51
355.0
  0
ARC
  5
11F
  8
0
  6
CONTINUOUS
 62
     7
 10
303.5674227415
 20
132.418944269
 30
0.0
 40
1.0
 50
90.0
 51
180.0
  0
LINE
  5
120
  8
0
  6
CONTINUOUS
 62
     7
 10
302.567422667
 20
124.4189443166
 30
0.0
 11
302.567422667
 21
132.4189426477
 31
0.0
  0
ARC
  5
121
  8
0
  6
CONTINUOUS
 62
     7
 10
303.5674227415
 20
124.418944269
 30
0.0
 40
1.0
 50
180.0
 51
270.0
  0
LINE
  5
122
  8
0
  6
CONTINUOUS
 62
     7
 10
311.5674226521
 20
123.4189452703
 30
0.0
 11
303.5674228309
 21
123.4189452703
 31
0.0
  0
LINE
  5
123
  8
0
  6
CONTINUOUS
 62
     7
 10
303.5674228309
 20
133.418941694
 30
0.0
 11
311.5674226521
 21
133.418941694
 31
0.0
  0
ARC
  5
124
  8
0
  6
CONTINUOUS
 62
     7
 10
311.5674227415
 20
132.418944269
 30
0.0
 40
1.0
 50
0.0
 51
90.0
  0
ARC
  5
125
  8
0
  6
CONTINUOUS
 62
     7
 10
311.5674227415
 20
124.418944269
 30
0.0
 40
1.0
 50
270.0
 51
0.0
  0
LINE
  5
126
  8
0
  6
CONTINUOUS
 62
     7
 10
312.567422816
 20
132.4189426477
 30
0.0
 11
312.567422816
 21
124.4189443166
 31
0.0
  0
LINE
  5
127
  8
0
  6
CONTINUOUS
 62
     7
 10
295.5674230097
 20
58.218944269
 30
0.0
 11
295.5674230097
 21
59.4189442794
 31
0.0
  0
LINE
  5
128
  8
0
  6
CONTINUOUS
 62
     7
 10
295.5674230097
 20
59.4189442794
 30
0.0
 11
299.5674229203
 21
59.4189442794
 31
0.0
  0
LINE
  5
129
  8
0
  6
CONTINUOUS
 62
     7
 10
299.5674229203
 20
58.218944269
 30
0.0
 11
295.5674230097
 21
58.218944269
 31
0.0
  0
LINE
  5
12A
  8
0
  6
CONTINUOUS
 62
     7
 10
299.5674229203
 20
59.4189442794
 30
0.0
 11
301.5674228756
 21
59.4189442794
 31
0.0
  0
LINE
  5
12B
  8
0
  6
CONTINUOUS
 62
     7
 10
299.5674229203
 20
58.218944269
 30
0.0
 11
301.5674228756
 21
58.218944269
 31
0.0
  0
LINE
  5
12C
  8
0
  6
CONTINUOUS
 62
     7
 10
328.9358443557
 20
59.4189442794
 30
0.0
 11
301.5674228756
 21
59.4189442794
 31
0.0
  0
LINE
  5
12D
  8
0
  6
CONTINUOUS
 62
     7
 10
301.5674228756
 20
58.218944269
 30
0.0
 11
328.9358443557
 21
58.218944269
 31
0.0
  0
LINE
  5
12E
  8
0
  6
CONTINUOUS
 62
     7
 10
331.5674222051
 20
59.4189442794
 30
0.0
 11
331.5674222051
 21
58.218944269
 31
0.0
  0
LINE
  5
12F
  8
0
  6
CONTINUOUS
 62
     7
 10
328.9358443557
 20
59.4189442794
 30
0.0
 11
331.5674222051
 21
59.4189442794
 31
0.0
  0
LINE
  5
130
  8
0
  6
CONTINUOUS
 62
     7
 10
331.5674222051
 20
58.218944269
 30
0.0
 11
328.9358443557
 21
58.218944269
 31
0.0
  0
LINE
  5
131
  8
0
  6
CONTINUOUS
 62
     7
 10
302.567422667
 20
59.4189442794
 30
0.0
 11
302.567422667
 21
123.2189418848
 31
0.0
  0
LINE
  5
132
  8
0
  6
CONTINUOUS
 62
     7
 10
312.567422816
 20
124.4189443166
 30
0.0
 11
312.567422816
 21
59.4189442794
 31
0.0
  0
POLYLINE
  5
133
  8
0
  6
CONTINUOUS
 62
     7
 66
     1
 10
0.0
 20
0.0
 30
0.0
  0
VERTEX
  5
2BE
  8
0
  6
CONTINUOUS
 62
     7
 10
324.6183282672
 20
148.7710358675
 30
0.0
  0
VERTEX
  5
2BF
  8
0
  6
CONTINUOUS
 62
     7
 10
324.7882953821
 20
149.1355063493
 30
0.0
  0
VERTEX
  5
2C0
  8
0
  6
CONTINUOUS
 62
     7
 10
325.0358200608
 20
149.4737507875
 30
0.0
  0
VERTEX
  5
2C1
  8
0
  6
CONTINUOUS
 62
     7
 10
325.4278323589
 20
149.8467685754
 30
0.0
  0
VERTEX
  5
2C2
  8
0
  6
CONTINUOUS
 62
     7
 10
325.8854470192
 20
150.1625599439
 30
0.0
  0
VERTEX
  5
2C3
  8
0
  6
CONTINUOUS
 62
     7
 10
326.5003002225
 20
150.474894243
 30
0.0
  0
VERTEX
  5
2C4
  8
0
  6
CONTINUOUS
 62
     7
 10
327.1558976708
 20
150.718945461
 30
0.0
  0
SEQEND
  5
3CD
  8
0
  6
CONTINUOUS
 62
     7
  0
POLYLINE
  5
134
  8
0
  6
CONTINUOUS
 62
     7
 66
     1
 10
0.0
 20
0.0
 30
0.0
  0
VERTEX
  5
2C5
  8
0
  6
CONTINUOUS
 62
     7
 10
330.4008818208
 20
145.9815146501
 30
0.0
  0
VERTEX
  5
2C6
  8
0
  6
CONTINUOUS
 62
     7
 10
328.3694899617
 20
146.0382821138
 30
0.0
  0
VERTEX
  5
2C7
  8
0
  6
CONTINUOUS
 62
     7
 10
327.2786340652
 20
146.1664142187
 30
0.0
  0
VERTEX
  5
2C8
  8
0
  6
CONTINUOUS
 62
     7
 10
326.2186667858
 20
146.4396597917
 30
0.0
  0
VERTEX
  5
2C9
  8
0
  6
CONTINUOUS
 62
     7
 10
325.5273944674
 20
146.7633368547
 30
0.0
  0
VERTEX
  5
2CA
  8
0
  6
CONTINUOUS
 62
     7
 10
325.2116880356
 20
146.9847621496
 30
0.0
  0
VERTEX
  5
2CB
  8
0
  6
CONTINUOUS
 62
     7
 10
324.9348512827
 20
147.2521724279
 30
0.0
  0
VERTEX
  5
2CC
  8
0
  6
CONTINUOUS
 62
     7
 10
324.6458447514
 20
147.7145852621
 30
0.0
  0
VERTEX
  5
2CD
  8
0
  6
CONTINUOUS
 62
     7
 10
324.5341858803
 20
148.2516111906
 30
0.0
  0
VERTEX
  5
2CE
  8
0
  6
CONTINUOUS
 62
     7
 10
324.6183282672
 20
148.7710358675
 30
0.0
  0
SEQEND
  5
3CC
  8
0
  6
CONTINUOUS
 62
     7
  0
LINE
  5
135
  8
0
  6
CONTINUOUS
 62
     7
 10
332.667421454
 20
145.989918905
 30
0.0
 11
330.4008818208
 21
145.9815146501
 31
0.0
  0
LINE
  5
136
  8
0
  6
CONTINUOUS
 62
     7
 10
343.6674228846
 20
145.989918905
 30
0.0
 11
332.667421454
 21
145.989918905
 31
0.0
  0
LINE
  5
137
  8
0
  6
CONTINUOUS
 62
     7
 10
343.6674228846
 20
145.989918905
 30
0.0
 11
343.6674228846
 21
145.5189468439
 31
0.0
  0
ARC
  5
138
  8
0
  6
CONTINUOUS
 62
     7
 10
304.2734044993
 20
258.8684538697
 30
0.0
 40
120.0000000000006
 50
273.9626587205
 51
289.1646231125
  0
LINE
  5
139
  8
0
  6
CONTINUOUS
 62
     7
 10
313.7542883842
 20
150.718945461
 30
0.0
 11
327.1558976708
 21
150.718945461
 31
0.0
  0
LINE
  5
13A
  8
0
  6
CONTINUOUS
 62
     7
 10
382.2874239622
 20
144.9845196779
 30
0.0
 11
382.2874239622
 21
144.8669554765
 31
0.0
  0
LINE
  5
13B
  8
0
  6
CONTINUOUS
 62
     7
 10
387.6674226461
 20
144.8669554765
 30
0.0
 11
387.6674226461
 21
146.5847911413
 31
0.0
  0
LINE
  5
13C
  8
0
  6
CONTINUOUS
 62
     7
 10
387.6674226461
 20
146.5847911413
 30
0.0
 11
387.6669815718
 21
146.6330470617
 31
0.0
  0
POLYLINE
  5
13D
  8
0
  6
CONTINUOUS
 62
     7
 66
     1
 10
0.0
 20
0.0
 30
0.0
  0
VERTEX
  5
2CF
  8
0
  6
CONTINUOUS
 62
     7
 10
305.2077359496
 20
162.0497943933
 30
0.0
  0
VERTEX
  5
2D0
  8
0
  6
CONTINUOUS
 62
     7
 10
304.8594669415
 20
162.2508766229
 30
0.0
  0
VERTEX
  5
2D1
  8
0
  6
CONTINUOUS
 62
     7
 10
304.5440864725
 20
162.5269414957
 30
0.0
  0
VERTEX
  5
2D2
  8
0
  6
CONTINUOUS
 62
     7
 10
304.2066513537
 20
162.9499675806
 30
0.0
  0
VERTEX
  5
2D3
  8
0
  6
CONTINUOUS
 62
     7
 10
303.9319473295
 20
163.4333731706
 30
0.0
  0
VERTEX
  5
2D4
  8
0
  6
CONTINUOUS
 62
     7
 10
303.6743915616
 20
164.073109823
 30
0.0
  0
VERTEX
  5
2D5
  8
0
  6
CONTINUOUS
 62
     7
 10
303.4884064434
 20
164.747476774
 30
0.0
  0
SEQEND
  5
3CB
  8
0
  6
CONTINUOUS
 62
     7
  0
POLYLINE
  5
13E
  8
0
  6
CONTINUOUS
 62
     7
 66
     1
 10
0.0
 20
0.0
 30
0.0
  0
VERTEX
  5
2D6
  8
0
  6
CONTINUOUS
 62
     7
 10
308.4906274429
 20
167.5672175462
 30
0.0
  0
VERTEX
  5
2D7
  8
0
  6
CONTINUOUS
 62
     7
 10
308.2570273405
 20
165.5485035951
 30
0.0
  0
VERTEX
  5
2D8
  8
0
  6
CONTINUOUS
 62
     7
 10
308.0343096028
 20
164.4729735429
 30
0.0
  0
VERTEX
  5
2D9
  8
0
  6
CONTINUOUS
 62
     7
 10
307.6697199
 20
163.4408475931
 30
0.0
  0
VERTEX
  5
2DA
  8
0
  6
CONTINUOUS
 62
     7
 10
307.2870309674
 20
162.780416208
 30
0.0
  0
VERTEX
  5
2DB
  8
0
  6
CONTINUOUS
 62
     7
 10
307.0389273553
 20
162.4852063234
 30
0.0
  0
VERTEX
  5
2DC
  8
0
  6
CONTINUOUS
 62
     7
 10
306.7484090081
 20
162.2327329691
 30
0.0
  0
VERTEX
  5
2DD
  8
0
  6
CONTINUOUS
 62
     7
 10
306.2625645636
 20
161.9851352747
 30
0.0
  0
VERTEX
  5
2DE
  8
0
  6
CONTINUOUS
 62
     7
 10
305.7178520574
 20
161.9207026537
 30
0.0
  0
VERTEX
  5
2DF
  8
0
  6
CONTINUOUS
 62
     7
 10
305.2077359496
 20
162.0497943933
 30
0.0
  0
SEQEND
  5
3CA
  8
0
  6
CONTINUOUS
 62
     7
  0
LINE
  5
13F
  8
0
  6
CONTINUOUS
 62
     7
 10
308.6797967529
 20
169.8258640344
 30
0.0
 11
308.4906274429
 21
167.5672175462
 31
0.0
  0
LINE
  5
140
  8
0
  6
CONTINUOUS
 62
     7
 10
309.6385099901
 20
180.7840110834
 30
0.0
 11
308.6797967529
 21
169.8258640344
 31
0.0
  0
ARC
  5
141
  8
0
  6
CONTINUOUS
 62
     7
 10
193.7560977765
 20
151.3779110101
 30
0.0
 40
120.0000000000006
 50
357.9188963395
 51
14.1646231125
  0
LINE
  5
142
  8
0
  6
CONTINUOUS
 62
     7
 10
302.0061406283
 20
147.8051008756
 30
0.0
 11
303.4884064434
 21
164.747476774
 31
0.0
  0
LINE
  5
143
  8
0
  6
CONTINUOUS
 62
     7
 10
309.6385099901
 20
180.7840110834
 30
0.0
 11
310.1076931669
 21
180.742967325
 31
0.0
  0
POLYLINE
  5
144
  8
0
  6
CONTINUOUS
 62
     7
 66
     1
 10
0.0
 20
0.0
 30
0.0
  0
VERTEX
  5
2E0
  8
0
  6
CONTINUOUS
 62
     7
 10
314.5920536457
 20
224.5187046106
 30
0.0
  0
VERTEX
  5
2E1
  8
0
  6
CONTINUOUS
 62
     7
 10
314.55707615
 20
224.5217682893
 30
0.0
  0
VERTEX
  5
2E2
  8
0
  6
CONTINUOUS
 62
     7
 10
314.4521578191
 20
224.5309474046
 30
0.0
  0
VERTEX
  5
2E3
  8
0
  6
CONTINUOUS
 62
     7
 10
314.2773381411
 20
224.5462419565
 30
0.0
  0
VERTEX
  5
2E4
  8
0
  6
CONTINUOUS
 62
     7
 10
314.0326826809
 20
224.567640024
 30
0.0
  0
VERTEX
  5
2E5
  8
0
  6
CONTINUOUS
 62
     7
 10
313.718283826
 20
224.595153528
 30
0.0
  0
VERTEX
  5
2E6
  8
0
  6
CONTINUOUS
 62
     7
 10
313.3342604129
 20
224.6287467058
 30
0.0
  0
VERTEX
  5
2E7
  8
0
  6
CONTINUOUS
 62
     7
 10
312.8807577281
 20
224.6684195573
 30
0.0
  0
SEQEND
  5
3C9
  8
0
  6
CONTINUOUS
 62
     7
  0
POLYLINE
  5
145
  8
0
  6
CONTINUOUS
 62
     7
 66
     1
 10
0.0
 20
0.0
 30
0.0
  0
VERTEX
  5
2E8
  8
0
  6
CONTINUOUS
 62
     7
 10
314.0069491206
 20
219.1693427141
 30
0.0
  0
VERTEX
  5
2E9
  8
0
  6
CONTINUOUS
 62
     7
 10
314.0881783305
 20
219.1622378404
 30
0.0
  0
VERTEX
  5
2EA
  8
0
  6
CONTINUOUS
 62
     7
 10
314.1231558262
 20
219.1591741617
 30
0.0
  0
SEQEND
  5
3C8
  8
0
  6
CONTINUOUS
 62
     7
  0
LINE
  5
146
  8
0
  6
CONTINUOUS
 62
     7
 10
312.8807577281
 20
224.6684195573
 30
0.0
 11
312.8326452313
 21
224.6721865709
 31
0.0
  0
LINE
  5
147
  8
0
  6
CONTINUOUS
 62
     7
 10
302.567422667
 20
124.4189443166
 30
0.0
 11
302.567422667
 21
123.2189418848
 31
0.0
  0
LINE
  5
148
  8
0
  6
CONTINUOUS
 62
     7
 10
302.567422667
 20
123.2189418848
 30
0.0
 11
301.7674229084
 21
123.2189418848
 31
0.0
  0
LINE
  5
149
  8
0
  6
CONTINUOUS
 62
     7
 10
301.7674229084
 20
123.2189418848
 30
0.0
 11
301.7674229084
 21
125.2189459379
 31
0.0
  0
LINE
  5
14A
  8
0
  6
CONTINUOUS
 62
     7
 10
312.7674228488
 20
125.2189459379
 30
0.0
 11
312.7674228488
 21
133.0189468439
 31
0.0
  0
ARC
  5
14B
  8
0
  6
CONTINUOUS
 62
     7
 10
312.3674227415
 20
133.018944269
 30
0.0
 40
0.4000000000000341
 50
0.0
 51
90.0
  0
LINE
  5
14C
  8
0
  6
CONTINUOUS
 62
     7
 10
312.3674227832
 20
133.418941694
 30
0.0
 11
311.5674226521
 21
133.418941694
 31
0.0
  0
LINE
  5
14D
  8
0
  6
CONTINUOUS
 62
     7
 10
303.5674228309
 20
133.418941694
 30
0.0
 11
302.9674227326
 21
133.418941694
 31
0.0
  0
ARC
  5
14E
  8
0
  6
CONTINUOUS
 62
     7
 10
302.9674227415
 20
133.018944269
 30
0.0
 40
0.3999999999999773
 50
90.0
 51
180.0
  0
LINE
  5
14F
  8
0
  6
CONTINUOUS
 62
     7
 10
302.567422667
 20
133.0189468439
 30
0.0
 11
302.567422667
 21
132.4189426477
 31
0.0
  0
LINE
  5
150
  8
0
  6
CONTINUOUS
 62
     7
 10
301.7674229084
 20
130.21894713
 30
0.0
 11
299.8195207654
 21
130.21894713
 31
0.0
  0
ARC
  5
151
  8
0
  6
CONTINUOUS
 62
     7
 10
323.3765136506
 20
136.218944269
 30
0.0
 40
24.30909090909085
 50
151.3013359141
 51
194.2894890274
  0
ARC
  5
152
  8
0
  6
CONTINUOUS
 62
     7
 10
322.4674227415
 20
137.7535355759
 30
0.0
 40
10.00000000000004
 50
154.4805415091
 51
180.0
  0
LINE
  5
153
  8
0
  6
CONTINUOUS
 62
     7
 10
312.4674226134
 20
137.7535345132
 30
0.0
 11
312.4674226134
 21
134.2189433153
 31
0.0
  0
LINE
  5
154
  8
0
  6
CONTINUOUS
 62
     7
 10
312.567422816
 20
134.2189433153
 30
0.0
 11
312.4674226134
 21
134.2189433153
 31
0.0
  0
ARC
  5
155
  8
0
  6
CONTINUOUS
 62
     7
 10
312.5674227415
 20
133.218944269
 30
0.0
 40
1.0
 50
0.0
 51
90.0
  0
LINE
  5
156
  8
0
  6
CONTINUOUS
 62
     7
 10
313.5674226074
 20
125.2189459379
 30
0.0
 11
313.5674226074
 21
133.218944269
 31
0.0
  0
ARC
  5
157
  8
0
  6
CONTINUOUS
 62
     7
 10
307.6674227415
 20
144.818944269
 30
0.0
 40
6.399999999999999
 50
334.4805415091
 51
151.3013359141
  0
LINE
  5
158
  8
0
  6
CONTINUOUS
 62
     7
 10
301.7674229084
 20
130.21894713
 30
0.0
 11
301.7674229084
 21
125.2189459379
 31
0.0
  0
LINE
  5
159
  8
0
  6
CONTINUOUS
 62
     7
 10
313.5674226074
 20
123.2189418848
 30
0.0
 11
312.7674228488
 21
123.2189418848
 31
0.0
  0
LINE
  5
15A
  8
0
  6
CONTINUOUS
 62
     7
 10
312.7674228488
 20
123.2189418848
 30
0.0
 11
312.7674228488
 21
125.2189459379
 31
0.0
  0
LINE
  5
15B
  8
0
  6
CONTINUOUS
 62
     7
 10
313.5674226074
 20
125.2189459379
 30
0.0
 11
313.5674226074
 21
123.2189418848
 31
0.0
  0
ARC
  5
15C
  8
0
  6
CONTINUOUS
 62
     7
 10
235.1492631622
 20
-95.6879244594
 30
0.0
 40
14.86825179657051
 50
270.8245082016
 51
0.4742599947
  0
ARC
  5
15D
  8
0
  6
CONTINUOUS
 62
     7
 10
184.7811586515
 20
-95.6913855176
 30
0.0
 40
14.8665825871037
 50
179.5129216844
 51
269.3234116278
  0
ARC
  5
15E
  8
0
  6
CONTINUOUS
 62
     7
 10
235.1381563452
 20
-55.4764139765
 30
0.0
 40
14.87756183396184
 50
359.659777439
 51
32.6991276171
  0
ARC
  5
15F
  8
0
  6
CONTINUOUS
 62
     7
 10
184.8851857905
 20
-55.5090036095
 30
0.0
 40
14.97540184155758
 50
147.3882553947
 51
180.2160357428
  0
ARC
  5
160
  8
0
  6
CONTINUOUS
 62
     7
 10
184.7092802497
 20
-55.2717974875
 30
0.0
 40
14.69880575459136
 50
90.6992125916
 51
141.1138407363
  0
ARC
  5
161
  8
0
  6
CONTINUOUS
 62
     7
 10
235.2249695665
 20
-55.2484362808
 30
0.0
 40
14.67821556751419
 50
38.7741370714
 51
89.763220791
  0
LINE
  5
162
  8
0
  6
CONTINUOUS
 62
     7
 10
169.9068460938
 20
-55.56479224
 30
0.0
 11
169.9068460938
 21
-95.5647958163
 31
0.0
  0
LINE
  5
163
  8
0
  6
CONTINUOUS
 62
     7
 10
250.0243608233
 20
-95.5647958163
 30
0.0
 11
250.0243608233
 21
-55.56479224
 31
0.0
  0
POLYLINE
  5
164
  8
0
  6
CONTINUOUS
 62
     7
 66
     1
 10
0.0
 20
0.0
 30
0.0
  0
VERTEX
  5
2EB
  8
0
  6
CONTINUOUS
 62
     7
 10
115.549698877
 20
-38.20770883
 30
0.0
  0
VERTEX
  5
2EC
  8
0
  6
CONTINUOUS
 62
     7
 10
116.3406554934
 20
-38.0967853311
 30
0.0
  0
VERTEX
  5
2ED
  8
0
  6
CONTINUOUS
 62
     7
 10
117.2411326643
 20
-37.9605604056
 30
0.0
  0
VERTEX
  5
2EE
  8
0
  6
CONTINUOUS
 62
     7
 10
118.1320313689
 20
-37.8156942967
 30
0.0
  0
VERTEX
  5
2EF
  8
0
  6
CONTINUOUS
 62
     7
 10
119.0085027691
 20
-37.6628933194
 30
0.0
  0
VERTEX
  5
2F0
  8
0
  6
CONTINUOUS
 62
     7
 10
119.8562417504
 20
-37.5051526073
 30
0.0
  0
VERTEX
  5
2F1
  8
0
  6
CONTINUOUS
 62
     7
 10
120.688227224
 20
-37.3406937066
 30
0.0
  0
VERTEX
  5
2F2
  8
0
  6
CONTINUOUS
 62
     7
 10
121.5027187344
 20
-37.1700970176
 30
0.0
  0
VERTEX
  5
2F3
  8
0
  6
CONTINUOUS
 62
     7
 10
122.2933743473
 20
-36.9948571268
 30
0.0
  0
VERTEX
  5
2F4
  8
0
  6
CONTINUOUS
 62
     7
 10
123.054048824
 20
-36.8164954427
 30
0.0
  0
VERTEX
  5
2F5
  8
0
  6
CONTINUOUS
 62
     7
 10
123.779079723
 20
-36.6364756319
 30
0.0
  0
VERTEX
  5
2F6
  8
0
  6
CONTINUOUS
 62
     7
 10
124.4636450287
 20
-36.456076214
 30
0.0
  0
VERTEX
  5
2F7
  8
0
  6
CONTINUOUS
 62
     7
 10
125.1026962277
 20
-36.2770272139
 30
0.0
  0
VERTEX
  5
2F8
  8
0
  6
CONTINUOUS
 62
     7
 10
125.6874177929
 20
-36.1026992741
 30
0.0
  0
VERTEX
  5
2F9
  8
0
  6
CONTINUOUS
 62
     7
 10
126.2518588778
 20
-35.9226619545
 30
0.0
  0
VERTEX
  5
2FA
  8
0
  6
CONTINUOUS
 62
     7
 10
126.7809693095
 20
-35.7403715792
 30
0.0
  0
VERTEX
  5
2FB
  8
0
  6
CONTINUOUS
 62
     7
 10
127.2800688025
 20
-35.5520514491
 30
0.0
  0
VERTEX
  5
2FC
  8
0
  6
CONTINUOUS
 62
     7
 10
127.7639109966
 20
-35.3472275379
 30
0.0
  0
VERTEX
  5
2FD
  8
0
  6
CONTINUOUS
 62
     7
 10
128.27867161
 20
-35.089997733
 30
0.0
  0
VERTEX
  5
2FE
  8
0
  6
CONTINUOUS
 62
     7
 10
128.5663131949
 20
-34.9174735788
 30
0.0
  0
VERTEX
  5
2FF
  8
0
  6
CONTINUOUS
 62
     7
 10
128.8023222562
 20
-34.7524715308
 30
0.0
  0
VERTEX
  5
300
  8
0
  6
CONTINUOUS
 62
     7
 10
129.0246028777
 20
-34.5703566167
 30
0.0
  0
VERTEX
  5
301
  8
0
  6
CONTINUOUS
 62
     7
 10
129.2368162748
 20
-34.3634390924
 30
0.0
  0
VERTEX
  5
302
  8
0
  6
CONTINUOUS
 62
     7
 10
129.4399295327
 20
-34.122668365
 30
0.0
  0
VERTEX
  5
303
  8
0
  6
CONTINUOUS
 62
     7
 10
129.6284351822
 20
-33.8422545883
 30
0.0
  0
VERTEX
  5
304
  8
0
  6
CONTINUOUS
 62
     7
 10
129.7914270636
 20
-33.5230461973
 30
0.0
  0
VERTEX
  5
305
  8
0
  6
CONTINUOUS
 62
     7
 10
129.9176756617
 20
-33.1700762454
 30
0.0
  0
VERTEX
  5
306
  8
0
  6
CONTINUOUS
 62
     7
 10
129.997536945
 20
-32.7924497146
 30
0.0
  0
VERTEX
  5
307
  8
0
  6
CONTINUOUS
 62
     7
 10
130.023497748
 20
-32.4177285376
 30
0.0
  0
SEQEND
  5
3C7
  8
0
  6
CONTINUOUS
 62
     7
  0
POLYLINE
  5
165
  8
0
  6
CONTINUOUS
 62
     7
 66
     1
 10
0.0
 20
0.0
 30
0.0
  0
VERTEX
  5
308
  8
0
  6
CONTINUOUS
 62
     7
 10
49.9153558489
 20
-32.4011759553
 30
0.0
  0
VERTEX
  5
309
  8
0
  6
CONTINUOUS
 62
     7
 10
49.9157492396
 20
-32.6124252472
 30
0.0
  0
VERTEX
  5
30A
  8
0
  6
CONTINUOUS
 62
     7
 10
49.9712292429
 20
-32.9957300517
 30
0.0
  0
VERTEX
  5
30B
  8
0
  6
CONTINUOUS
 62
     7
 10
50.0731949087
 20
-33.3519229385
 30
0.0
  0
VERTEX
  5
30C
  8
0
  6
CONTINUOUS
 62
     7
 10
50.2125505682
 20
-33.6756957415
 30
0.0
  0
VERTEX
  5
30D
  8
0
  6
CONTINUOUS
 62
     7
 10
50.3793541666
 20
-33.9632888976
 30
0.0
  0
VERTEX
  5
30E
  8
0
  6
CONTINUOUS
 62
     7
 10
50.5640749213
 20
-34.2139376047
 30
0.0
  0
VERTEX
  5
30F
  8
0
  6
CONTINUOUS
 62
     7
 10
50.7589105841
 20
-34.4298721942
 30
0.0
  0
VERTEX
  5
310
  8
0
  6
CONTINUOUS
 62
     7
 10
50.9603981253
 20
-34.6169540379
 30
0.0
  0
VERTEX
  5
311
  8
0
  6
CONTINUOUS
 62
     7
 10
51.1709634539
 20
-34.7836544457
 30
0.0
  0
VERTEX
  5
312
  8
0
  6
CONTINUOUS
 62
     7
 10
51.3998393294
 20
-34.9398964736
 30
0.0
  0
VERTEX
  5
313
  8
0
  6
CONTINUOUS
 62
     7
 10
51.6693417307
 20
-35.0992707256
 30
0.0
  0
VERTEX
  5
314
  8
0
  6
CONTINUOUS
 62
     7
 10
52.0425383326
 20
-35.2891446743
 30
0.0
  0
VERTEX
  5
315
  8
0
  6
CONTINUOUS
 62
     7
 10
52.5840107676
 20
-35.5245211813
 30
0.0
  0
VERTEX
  5
316
  8
0
  6
CONTINUOUS
 62
     7
 10
53.0776445147
 20
-35.7134060654
 30
0.0
  0
VERTEX
  5
317
  8
0
  6
CONTINUOUS
 62
     7
 10
53.5894695994
 20
-35.8921495918
 30
0.0
  0
VERTEX
  5
318
  8
0
  6
CONTINUOUS
 62
     7
 10
54.1805569407
 20
-36.082819635
 30
0.0
  0
VERTEX
  5
319
  8
0
  6
CONTINUOUS
 62
     7
 10
54.7989730116
 20
-36.2683748546
 30
0.0
  0
VERTEX
  5
31A
  8
0
  6
CONTINUOUS
 62
     7
 10
55.4465834376
 20
-36.4503672067
 30
0.0
  0
VERTEX
  5
31B
  8
0
  6
CONTINUOUS
 62
     7
 10
56.1202053305
 20
-36.6284226719
 30
0.0
  0
VERTEX
  5
31C
  8
0
  6
CONTINUOUS
 62
     7
 10
56.842816281
 20
-36.8085501436
 30
0.0
  0
VERTEX
  5
31D
  8
0
  6
CONTINUOUS
 62
     7
 10
57.6000992533
 20
-36.9867762271
 30
0.0
  0
VERTEX
  5
31E
  8
0
  6
CONTINUOUS
 62
     7
 10
58.3891872641
 20
-37.1622031275
 30
0.0
  0
VERTEX
  5
31F
  8
0
  6
CONTINUOUS
 62
     7
 10
59.2065576788
 20
-37.3337661568
 30
0.0
  0
VERTEX
  5
320
  8
0
  6
CONTINUOUS
 62
     7
 10
60.0482825514
 20
-37.500323886
 30
0.0
  0
VERTEX
  5
321
  8
0
  6
CONTINUOUS
 62
     7
 10
60.9102133986
 20
-37.6607214752
 30
0.0
  0
VERTEX
  5
322
  8
0
  6
CONTINUOUS
 62
     7
 10
61.7878858324
 20
-37.8137943986
 30
0.0
  0
VERTEX
  5
323
  8
0
  6
CONTINUOUS
 62
     7
 10
62.6714472052
 20
-37.9577098134
 30
0.0
  0
VERTEX
  5
324
  8
0
  6
CONTINUOUS
 62
     7
 10
63.5672275301
 20
-38.0935651902
 30
0.0
  0
VERTEX
  5
325
  8
0
  6
CONTINUOUS
 62
     7
 10
64.381468701
 20
-38.2080768886
 30
0.0
  0
SEQEND
  5
3C6
  8
0
  6
CONTINUOUS
 62
     7
  0
ARC
  5
166
  8
0
  6
CONTINUOUS
 62
     7
 10
89.9656031605
 20
149.4476490028
 30
0.0
 40
189.3926361062503
 50
262.2364757407
 51
277.7635242593
  0
POLYLINE
  5
167
  8
0
  6
CONTINUOUS
 62
     7
 66
     1
 10
0.0
 20
0.0
 30
0.0
  0
VERTEX
  5
326
  8
0
  6
CONTINUOUS
 62
     7
 10
125.660251486
 20
-30.3902923082
 30
0.0
  0
VERTEX
  5
327
  8
0
  6
CONTINUOUS
 62
     7
 10
125.6625343438
 20
-30.3889070241
 30
0.0
  0
VERTEX
  5
328
  8
0
  6
CONTINUOUS
 62
     7
 10
125.6255317804
 20
-30.4080279613
 30
0.0
  0
VERTEX
  5
329
  8
0
  6
CONTINUOUS
 62
     7
 10
125.5379710671
 20
-30.4493060769
 30
0.0
  0
VERTEX
  5
32A
  8
0
  6
CONTINUOUS
 62
     7
 10
125.3915448066
 20
-30.5124858522
 30
0.0
  0
VERTEX
  5
32B
  8
0
  6
CONTINUOUS
 62
     7
 10
125.181043553
 20
-30.5960723152
 30
0.0
  0
VERTEX
  5
32C
  8
0
  6
CONTINUOUS
 62
     7
 10
124.9038610932
 20
-30.6979600759
 30
0.0
  0
VERTEX
  5
32D
  8
0
  6
CONTINUOUS
 62
     7
 10
124.5602045533
 20
-30.8155392017
 30
0.0
  0
VERTEX
  5
32E
  8
0
  6
CONTINUOUS
 62
     7
 10
124.1524551388
 20
-30.9460163768
 30
0.0
  0
VERTEX
  5
32F
  8
0
  6
CONTINUOUS
 62
     7
 10
123.6843947645
 20
-31.0866532102
 30
0.0
  0
VERTEX
  5
330
  8
0
  6
CONTINUOUS
 62
     7
 10
123.1605772253
 20
-31.2348915915
 30
0.0
  0
VERTEX
  5
331
  8
0
  6
CONTINUOUS
 62
     7
 10
122.5868884798
 20
-31.3879827689
 30
0.0
  0
VERTEX
  5
332
  8
0
  6
CONTINUOUS
 62
     7
 10
121.9715807911
 20
-31.5429608058
 30
0.0
  0
VERTEX
  5
333
  8
0
  6
CONTINUOUS
 62
     7
 10
121.3123474594
 20
-31.7000533174
 30
0.0
  0
VERTEX
  5
334
  8
0
  6
CONTINUOUS
 62
     7
 10
120.6076208826
 20
-31.8590169493
 30
0.0
  0
VERTEX
  5
335
  8
0
  6
CONTINUOUS
 62
     7
 10
119.8644940134
 20
-32.0175649318
 30
0.0
  0
VERTEX
  5
336
  8
0
  6
CONTINUOUS
 62
     7
 10
119.0906618115
 20
-32.1734493318
 30
0.0
  0
VERTEX
  5
337
  8
0
  6
CONTINUOUS
 62
     7
 10
118.2954613444
 20
-32.3242826107
 30
0.0
  0
VERTEX
  5
338
  8
0
  6
CONTINUOUS
 62
     7
 10
117.4875412461
 20
-32.4680262897
 30
0.0
  0
VERTEX
  5
339
  8
0
  6
CONTINUOUS
 62
     7
 10
116.6732881543
 20
-32.6033569592
 30
0.0
  0
VERTEX
  5
33A
  8
0
  6
CONTINUOUS
 62
     7
 10
115.843925285
 20
-32.7318360749
 30
0.0
  0
VERTEX
  5
33B
  8
0
  6
CONTINUOUS
 62
     7
 10
115.0006208893
 20
-32.8531745541
 30
0.0
  0
VERTEX
  5
33C
  8
0
  6
CONTINUOUS
 62
     7
 10
114.8229096409
 20
-32.8768064919
 30
0.0
  0
SEQEND
  5
3C5
  8
0
  6
CONTINUOUS
 62
     7
  0
POLYLINE
  5
168
  8
0
  6
CONTINUOUS
 62
     7
 66
     1
 10
0.0
 20
0.0
 30
0.0
  0
VERTEX
  5
33D
  8
0
  6
CONTINUOUS
 62
     7
 10
65.1085559603
 20
-32.8770784381
 30
0.0
  0
VERTEX
  5
33E
  8
0
  6
CONTINUOUS
 62
     7
 10
64.4431058642
 20
-32.7843554038
 30
0.0
  0
VERTEX
  5
33F
  8
0
  6
CONTINUOUS
 62
     7
 10
63.5994378802
 20
-32.6574681047
 30
0.0
  0
VERTEX
  5
340
  8
0
  6
CONTINUOUS
 62
     7
 10
62.7639536139
 20
-32.5223821867
 30
0.0
  0
VERTEX
  5
341
  8
0
  6
CONTINUOUS
 62
     7
 10
61.9429651972
 20
-32.3801317904
 30
0.0
  0
VERTEX
  5
342
  8
0
  6
CONTINUOUS
 62
     7
 10
61.1472491499
 20
-32.2330036852
 30
0.0
  0
VERTEX
  5
343
  8
0
  6
CONTINUOUS
 62
     7
 10
60.3719774958
 20
-32.0806292537
 30
0.0
  0
VERTEX
  5
344
  8
0
  6
CONTINUOUS
 62
     7
 10
59.6206371065
 20
-31.9240525085
 30
0.0
  0
VERTEX
  5
345
  8
0
  6
CONTINUOUS
 62
     7
 10
58.898884463
 20
-31.7648196313
 30
0.0
  0
VERTEX
  5
346
  8
0
  6
CONTINUOUS
 62
     7
 10
58.2127038714
 20
-31.6046760138
 30
0.0
  0
VERTEX
  5
347
  8
0
  6
CONTINUOUS
 62
     7
 10
57.5676922079
 20
-31.4454171527
 30
0.0
  0
VERTEX
  5
348
  8
0
  6
CONTINUOUS
 62
     7
 10
56.9692794558
 20
-31.2889495585
 30
0.0
  0
VERTEX
  5
349
  8
0
  6
CONTINUOUS
 62
     7
 10
56.42215054
 20
-31.1371888685
 30
0.0
  0
VERTEX
  5
34A
  8
0
  6
CONTINUOUS
 62
     7
 10
55.9280757185
 20
-30.9915756527
 30
0.0
  0
VERTEX
  5
34B
  8
0
  6
CONTINUOUS
 62
     7
 10
55.4857854124
 20
-30.8526578545
 30
0.0
  0
VERTEX
  5
34C
  8
0
  6
CONTINUOUS
 62
     7
 10
55.1020447489
 20
-30.723578222
 30
0.0
  0
VERTEX
  5
34D
  8
0
  6
CONTINUOUS
 62
     7
 10
54.7839407202
 20
-30.6082167848
 30
0.0
  0
VERTEX
  5
34E
  8
0
  6
CONTINUOUS
 62
     7
 10
54.5610908743
 20
-30.5207094945
 30
0.0
  0
VERTEX
  5
34F
  8
0
  6
CONTINUOUS
 62
     7
 10
54.4030968424
 20
-30.4533170555
 30
0.0
  0
VERTEX
  5
350
  8
0
  6
CONTINUOUS
 62
     7
 10
54.3074015852
 20
-30.4086697939
 30
0.0
  0
VERTEX
  5
351
  8
0
  6
CONTINUOUS
 62
     7
 10
54.2679015871
 20
-30.3884421894
 30
0.0
  0
VERTEX
  5
352
  8
0
  6
CONTINUOUS
 62
     7
 10
54.2706910845
 20
-30.3901352465
 30
0.0
  0
SEQEND
  5
3C4
  8
0
  6
CONTINUOUS
 62
     7
  0
ARC
  5
169
  8
0
  6
CONTINUOUS
 62
     7
 10
89.9656046506
 20
149.4476656771
 30
0.0
 40
184.0126528714485
 50
262.2364825894
 51
277.7635174106
  0
LINE
  5
16A
  8
0
  6
CONTINUOUS
 62
     7
 10
49.9068443056
 20
-28.9177982788
 30
0.0
 11
49.9068443056
 21
-32.4040280375
 31
0.0
  0
LINE
  5
16B
  8
0
  6
CONTINUOUS
 62
     7
 10
130.0243590351
 20
-32.4040280375
 30
0.0
 11
130.0243590351
 21
-28.9177982788
 31
0.0
  0
LINE
  5
16C
  8
0
  6
CONTINUOUS
 62
     7
 10
52.2656027552
 20
-36.6534685436
 30
0.0
 11
53.2656018015
 21
-36.6534685436
 31
0.0
  0
LINE
  5
16D
  8
0
  6
CONTINUOUS
 62
     7
 10
126.6656030294
 20
-36.6534685436
 30
0.0
 11
127.6656020757
 21
-36.6534685436
 31
0.0
  0
POLYLINE
  5
16E
  8
0
  6
CONTINUOUS
 62
     7
 66
     1
 10
0.0
 20
0.0
 30
0.0
  0
VERTEX
  5
353
  8
0
  6
CONTINUOUS
 62
     7
 10
65.1083533045
 20
-27.2458763513
 30
0.0
  0
VERTEX
  5
354
  8
0
  6
CONTINUOUS
 62
     7
 10
64.337671208
 20
-27.14137041
 30
0.0
  0
VERTEX
  5
355
  8
0
  6
CONTINUOUS
 62
     7
 10
63.4619657275
 20
-27.0240036491
 30
0.0
  0
VERTEX
  5
356
  8
0
  6
CONTINUOUS
 62
     7
 10
62.597066569
 20
-26.9094297382
 30
0.0
  0
VERTEX
  5
357
  8
0
  6
CONTINUOUS
 62
     7
 10
61.747187781
 20
-26.7982547823
 30
0.0
  0
VERTEX
  5
358
  8
0
  6
CONTINUOUS
 62
     7
 10
60.9190766093
 20
-26.6916928533
 30
0.0
  0
VERTEX
  5
359
  8
0
  6
CONTINUOUS
 62
     7
 10
60.1057652708
 20
-26.5891780797
 30
0.0
  0
VERTEX
  5
35A
  8
0
  6
CONTINUOUS
 62
     7
 10
59.3086365935
 20
-26.4912908617
 30
0.0
  0
VERTEX
  5
35B
  8
0
  6
CONTINUOUS
 62
     7
 10
58.5344735857
 20
-26.399310464
 30
0.0
  0
VERTEX
  5
35C
  8
0
  6
CONTINUOUS
 62
     7
 10
57.7897671934
 20
-26.3144785258
 30
0.0
  0
VERTEX
  5
35D
  8
0
  6
CONTINUOUS
 62
     7
 10
57.0804182764
 20
-26.2379606906
 30
0.0
  0
VERTEX
  5
35E
  8
0
  6
CONTINUOUS
 62
     7
 10
56.4114634272
 20
-26.1708279792
 30
0.0
  0
VERTEX
  5
35F
  8
0
  6
CONTINUOUS
 62
     7
 10
55.7842318293
 20
-26.1138753686
 30
0.0
  0
VERTEX
  5
360
  8
0
  6
CONTINUOUS
 62
     7
 10
55.1902536627
 20
-26.0671289358
 30
0.0
  0
VERTEX
  5
361
  8
0
  6
CONTINUOUS
 62
     7
 10
54.628265309
 20
-26.0316298995
 30
0.0
  0
VERTEX
  5
362
  8
0
  6
CONTINUOUS
 62
     7
 10
54.0940109965
 20
-26.0089559201
 30
0.0
  0
VERTEX
  5
363
  8
0
  6
CONTINUOUS
 62
     7
 10
53.5750333544
 20
-26.0021762642
 30
0.0
  0
VERTEX
  5
364
  8
0
  6
CONTINUOUS
 62
     7
 10
53.0338410612
 20
-26.0203061345
 30
0.0
  0
VERTEX
  5
365
  8
0
  6
CONTINUOUS
 62
     7
 10
52.6797715899
 20
-26.0537186358
 30
0.0
  0
VERTEX
  5
366
  8
0
  6
CONTINUOUS
 62
     7
 10
52.3807708498
 20
-26.1009914521
 30
0.0
  0
VERTEX
  5
367
  8
0
  6
CONTINUOUS
 62
     7
 10
52.0983044382
 20
-26.1662607733
 30
0.0
  0
VERTEX
  5
368
  8
0
  6
CONTINUOUS
 62
     7
 10
51.8220309492
 20
-26.2537331972
 30
0.0
  0
VERTEX
  5
369
  8
0
  6
CONTINUOUS
 62
     7
 10
51.5437547442
 20
-26.3701239321
 30
0.0
  0
VERTEX
  5
36A
  8
0
  6
CONTINUOUS
 62
     7
 10
51.2609247443
 20
-26.5234602335
 30
0.0
  0
VERTEX
  5
36B
  8
0
  6
CONTINUOUS
 62
     7
 10
50.9784046885
 20
-26.7204889748
 30
0.0
  0
VERTEX
  5
36C
  8
0
  6
CONTINUOUS
 62
     7
 10
50.7077638384
 20
-26.9634151551
 30
0.0
  0
VERTEX
  5
36D
  8
0
  6
CONTINUOUS
 62
     7
 10
50.4613761183
 20
-27.2508529666
 30
0.0
  0
VERTEX
  5
36E
  8
0
  6
CONTINUOUS
 62
     7
 10
50.2511803385
 20
-27.5771852303
 30
0.0
  0
VERTEX
  5
36F
  8
0
  6
CONTINUOUS
 62
     7
 10
50.0862840887
 20
-27.9346625972
 30
0.0
  0
VERTEX
  5
370
  8
0
  6
CONTINUOUS
 62
     7
 10
49.9749604937
 20
-28.3173095155
 30
0.0
  0
SEQEND
  5
3C3
  8
0
  6
CONTINUOUS
 62
     7
  0
POLYLINE
  5
16F
  8
0
  6
CONTINUOUS
 62
     7
 66
     1
 10
0.0
 20
0.0
 30
0.0
  0
VERTEX
  5
371
  8
0
  6
CONTINUOUS
 62
     7
 10
129.9525473591
 20
-28.3181098941
 30
0.0
  0
VERTEX
  5
372
  8
0
  6
CONTINUOUS
 62
     7
 10
129.8642549988
 20
-27.9914464522
 30
0.0
  0
VERTEX
  5
373
  8
0
  6
CONTINUOUS
 62
     7
 10
129.7027189609
 20
-27.6219282019
 30
0.0
  0
VERTEX
  5
374
  8
0
  6
CONTINUOUS
 62
     7
 10
129.4994760629
 20
-27.293129051
 30
0.0
  0
VERTEX
  5
375
  8
0
  6
CONTINUOUS
 62
     7
 10
129.2645652171
 20
-27.0075538847
 30
0.0
  0
VERTEX
  5
376
  8
0
  6
CONTINUOUS
 62
     7
 10
129.0084187266
 20
-26.7664460185
 30
0.0
  0
VERTEX
  5
377
  8
0
  6
CONTINUOUS
 62
     7
 10
128.7415732023
 20
-26.5692559722
 30
0.0
  0
VERTEX
  5
378
  8
0
  6
CONTINUOUS
 62
     7
 10
128.4729052659
 20
-26.4128146413
 30
0.0
  0
VERTEX
  5
379
  8
0
  6
CONTINUOUS
 62
     7
 10
128.2085452553
 20
-26.2919990066
 30
0.0
  0
VERTEX
  5
37A
  8
0
  6
CONTINUOUS
 62
     7
 10
127.9489387151
 20
-26.1999958846
 30
0.0
  0
VERTEX
  5
37B
  8
0
  6
CONTINUOUS
 62
     7
 10
127.6881564733
 20
-26.130056167
 30
0.0
  0
VERTEX
  5
37C
  8
0
  6
CONTINUOUS
 62
     7
 10
127.4121661064
 20
-26.07664668
 30
0.0
  0
VERTEX
  5
37D
  8
0
  6
CONTINUOUS
 62
     7
 10
127.0941395637
 20
-26.036436269
 30
0.0
  0
VERTEX
  5
37E
  8
0
  6
CONTINUOUS
 62
     7
 10
126.718801665
 20
-26.0110867861
 30
0.0
  0
VERTEX
  5
37F
  8
0
  6
CONTINUOUS
 62
     7
 10
126.1195037838
 20
-26.0036283824
 30
0.0
  0
VERTEX
  5
380
  8
0
  6
CONTINUOUS
 62
     7
 10
125.5975563403
 20
-26.0181212518
 30
0.0
  0
VERTEX
  5
381
  8
0
  6
CONTINUOUS
 62
     7
 10
125.0642288801
 20
-26.045900369
 30
0.0
  0
VERTEX
  5
382
  8
0
  6
CONTINUOUS
 62
     7
 10
124.4530532833
 20
-26.0889587644
 30
0.0
  0
VERTEX
  5
383
  8
0
  6
CONTINUOUS
 62
     7
 10
123.8200579163
 20
-26.1427396628
 30
0.0
  0
VERTEX
  5
384
  8
0
  6
CONTINUOUS
 62
     7
 10
123.1638852831
 20
-26.2058281991
 30
0.0
  0
VERTEX
  5
385
  8
0
  6
CONTINUOUS
 62
     7
 10
122.4653963324
 20
-26.2788666132
 30
0.0
  0
VERTEX
  5
386
  8
0
  6
CONTINUOUS
 62
     7
 10
121.7368904826
 20
-26.3599311653
 30
0.0
  0
VERTEX
  5
387
  8
0
  6
CONTINUOUS
 62
     7
 10
120.9763381955
 20
-26.4486899319
 30
0.0
  0
VERTEX
  5
388
  8
0
  6
CONTINUOUS
 62
     7
 10
120.1870832917
 20
-26.5442913118
 30
0.0
  0
VERTEX
  5
389
  8
0
  6
CONTINUOUS
 62
     7
 10
119.3730656382
 20
-26.6458308044
 30
0.0
  0
VERTEX
  5
38A
  8
0
  6
CONTINUOUS
 62
     7
 10
118.5385618683
 20
-26.7523662839
 30
0.0
  0
VERTEX
  5
38B
  8
0
  6
CONTINUOUS
 62
     7
 10
117.6880095478
 20
-26.8629444483
 30
0.0
  0
VERTEX
  5
38C
  8
0
  6
CONTINUOUS
 62
     7
 10
116.828996348
 20
-26.9761742744
 30
0.0
  0
VERTEX
  5
38D
  8
0
  6
CONTINUOUS
 62
     7
 10
115.9614269015
 20
-27.0918706152
 30
0.0
  0
VERTEX
  5
38E
  8
0
  6
CONTINUOUS
 62
     7
 10
115.0869045731
 20
-27.2098591271
 30
0.0
  0
VERTEX
  5
38F
  8
0
  6
CONTINUOUS
 62
     7
 10
114.822730827
 20
-27.2459229174
 30
0.0
  0
SEQEND
  5
3C2
  8
0
  6
CONTINUOUS
 62
     7
  0
LINE
  5
170
  8
0
  6
CONTINUOUS
 62
     7
 10
129.9641747352
 20
-28.3806210104
 30
0.0
 11
129.9542744037
 21
-28.3182751107
 31
0.0
  0
POLYLINE
  5
171
  8
0
  6
CONTINUOUS
 62
     7
 66
     1
 10
0.0
 20
0.0
 30
0.0
  0
VERTEX
  5
390
  8
0
  6
CONTINUOUS
 62
     7
 10
49.97927587
 20
-28.3191149774
 30
0.0
  0
VERTEX
  5
391
  8
0
  6
CONTINUOUS
 62
     7
 10
49.9250952479
 20
-28.5976003576
 30
0.0
  0
VERTEX
  5
392
  8
0
  6
CONTINUOUS
 62
     7
 10
49.9117080447
 20
-28.9166650455
 30
0.0
  0
SEQEND
  5
3C1
  8
0
  6
CONTINUOUS
 62
     7
  0
ARC
  5
172
  8
0
  6
CONTINUOUS
 62
     7
 10
89.9656046506
 20
155.0796730219
 30
0.0
 40
184.0126562297149
 50
262.236482732
 51
277.763517268
  0
LINE
  5
173
  8
0
  6
CONTINUOUS
 62
     7
 10
247.9656044718
 20
-36.964793289
 30
0.0
 11
251.3656083819
 21
-36.964793289
 31
0.0
  0
LINE
  5
174
  8
0
  6
CONTINUOUS
 62
     7
 10
247.9656044718
 20
-24.5647934917
 30
0.0
 11
230.5656019923
 21
-24.5647934917
 31
0.0
  0
LINE
  5
175
  8
0
  6
CONTINUOUS
 62
     7
 10
230.5656019923
 20
-36.564793596
 30
0.0
 11
246.6656033274
 21
-36.564793596
 31
0.0
  0
LINE
  5
176
  8
0
  6
CONTINUOUS
 62
     7
 10
247.6656023737
 20
-36.564793596
 30
0.0
 11
247.9656044718
 21
-36.564793596
 31
0.0
  0
LINE
  5
177
  8
0
  6
CONTINUOUS
 62
     7
 10
251.3656083819
 20
-21.964793438
 30
0.0
 11
247.9656044718
 21
-21.964793438
 31
0.0
  0
LINE
  5
178
  8
0
  6
CONTINUOUS
 62
     7
 10
127.9656026837
 20
-36.964793289
 30
0.0
 11
131.3656021234
 21
-36.964793289
 31
0.0
  0
LINE
  5
179
  8
0
  6
CONTINUOUS
 62
     7
 10
127.9656026837
 20
-24.5647934917
 30
0.0
 11
110.5656031843
 21
-24.5647934917
 31
0.0
  0
LINE
  5
17A
  8
0
  6
CONTINUOUS
 62
     7
 10
124.0510914799
 20
-36.564793596
 30
0.0
 11
126.6656030294
 21
-36.564793596
 31
0.0
  0
LINE
  5
17B
  8
0
  6
CONTINUOUS
 62
     7
 10
127.6656020757
 20
-36.564793596
 30
0.0
 11
127.9656026837
 21
-36.564793596
 31
0.0
  0
LINE
  5
17C
  8
0
  6
CONTINUOUS
 62
     7
 10
131.3656021234
 20
-21.964793438
 30
0.0
 11
127.9656026837
 21
-21.964793438
 31
0.0
  0
LINE
  5
17D
  8
0
  6
CONTINUOUS
 62
     7
 10
48.565596747
 20
-36.964793289
 30
0.0
 11
51.9656006571
 21
-36.964793289
 31
0.0
  0
LINE
  5
17E
  8
0
  6
CONTINUOUS
 62
     7
 10
51.9656006571
 20
-36.564793596
 30
0.0
 11
52.2656027552
 21
-36.564793596
 31
0.0
  0
LINE
  5
17F
  8
0
  6
CONTINUOUS
 62
     7
 10
53.2656018015
 20
-36.564793596
 30
0.0
 11
55.8794800516
 21
-36.564793596
 31
0.0
  0
LINE
  5
180
  8
0
  6
CONTINUOUS
 62
     7
 10
69.3656031367
 20
-24.5647934917
 30
0.0
 11
51.9656006571
 21
-24.5647934917
 31
0.0
  0
LINE
  5
181
  8
0
  6
CONTINUOUS
 62
     7
 10
51.9656006571
 20
-21.964793438
 30
0.0
 11
48.565596747
 21
-21.964793438
 31
0.0
  0
LINE
  5
182
  8
0
  6
CONTINUOUS
 62
     7
 10
168.5656030055
 20
-36.964793289
 30
0.0
 11
171.9656024453
 21
-36.964793289
 31
0.0
  0
LINE
  5
183
  8
0
  6
CONTINUOUS
 62
     7
 10
171.9656024453
 20
-36.564793596
 30
0.0
 11
172.2656030532
 21
-36.564793596
 31
0.0
  0
LINE
  5
184
  8
0
  6
CONTINUOUS
 62
     7
 10
173.2656020995
 20
-36.564793596
 30
0.0
 11
189.3656019446
 21
-36.564793596
 31
0.0
  0
LINE
  5
185
  8
0
  6
CONTINUOUS
 62
     7
 10
189.3656019446
 20
-24.5647934917
 30
0.0
 11
171.9656024453
 21
-24.5647934917
 31
0.0
  0
LINE
  5
186
  8
0
  6
CONTINUOUS
 62
     7
 10
171.9656024453
 20
-21.964793438
 30
0.0
 11
168.5656030055
 21
-21.964793438
 31
0.0
  0
LINE
  5
187
  8
0
  6
CONTINUOUS
 62
     7
 10
46.7656080004
 20
-25.4647934529
 30
0.0
 11
48.565596747
 21
-25.4647934529
 31
0.0
  0
LINE
  5
188
  8
0
  6
CONTINUOUS
 62
     7
 10
69.3656031367
 20
-25.4647934529
 30
0.0
 11
110.5656031843
 21
-25.4647934529
 31
0.0
  0
LINE
  5
189
  8
0
  6
CONTINUOUS
 62
     7
 10
131.3656021234
 20
-25.4647934529
 30
0.0
 11
168.5656030055
 21
-25.4647934529
 31
0.0
  0
LINE
  5
18A
  8
0
  6
CONTINUOUS
 62
     7
 10
189.3656019446
 20
-25.4647934529
 30
0.0
 11
230.5656019923
 21
-25.4647934529
 31
0.0
  0
LINE
  5
18B
  8
0
  6
CONTINUOUS
 62
     7
 10
251.3656083819
 20
-25.4647934529
 30
0.0
 11
253.1655971285
 21
-25.4647934529
 31
0.0
  0
LINE
  5
18C
  8
0
  6
CONTINUOUS
 62
     7
 10
253.5656038996
 20
-25.8647935185
 30
0.0
 11
253.5656038996
 21
-26.4647936169
 31
0.0
  0
ARC
  5
18D
  8
0
  6
CONTINUOUS
 62
     7
 10
253.1656025645
 20
-25.8647935274
 30
0.0
 40
0.3999999999999986
 50
0.0
 51
90.0
  0
LINE
  5
18E
  8
0
  6
CONTINUOUS
 62
     7
 10
46.3656012293
 20
-26.4647936169
 30
0.0
 11
46.3656012293
 21
-25.8647935185
 31
0.0
  0
ARC
  5
18F
  8
0
  6
CONTINUOUS
 62
     7
 10
46.7656025645
 20
-25.8647935274
 30
0.0
 40
0.3999999999999986
 50
90.0
 51
180.0
  0
LINE
  5
190
  8
0
  6
CONTINUOUS
 62
     7
 10
253.5656038996
 20
-26.4647936169
 30
0.0
 11
253.5656038996
 21
-34.464793438
 31
0.0
  0
LINE
  5
191
  8
0
  6
CONTINUOUS
 62
     7
 10
46.3656012293
 20
-34.464793438
 30
0.0
 11
46.3656012293
 21
-26.4647936169
 31
0.0
  0
LINE
  5
192
  8
0
  6
CONTINUOUS
 62
     7
 10
253.1655971285
 20
-35.4647936019
 30
0.0
 11
251.3656083819
 21
-35.4647936019
 31
0.0
  0
LINE
  5
193
  8
0
  6
CONTINUOUS
 62
     7
 10
230.5656019923
 20
-35.4647936019
 30
0.0
 11
189.3656019446
 21
-35.4647936019
 31
0.0
  0
LINE
  5
194
  8
0
  6
CONTINUOUS
 62
     7
 10
168.5656030055
 20
-35.4647936019
 30
0.0
 11
131.3656021234
 21
-35.4647936019
 31
0.0
  0
LINE
  5
195
  8
0
  6
CONTINUOUS
 62
     7
 10
48.565596747
 20
-35.4647936019
 30
0.0
 11
46.7656080004
 21
-35.4647936019
 31
0.0
  0
LINE
  5
196
  8
0
  6
CONTINUOUS
 62
     7
 10
253.5656038996
 20
-34.464793438
 30
0.0
 11
253.5656038996
 21
-35.0647935364
 31
0.0
  0
ARC
  5
197
  8
0
  6
CONTINUOUS
 62
     7
 10
253.1656025645
 20
-35.0647935274
 30
0.0
 40
0.3999999999999986
 50
270.0
 51
0.0
  0
ARC
  5
198
  8
0
  6
CONTINUOUS
 62
     7
 10
46.7656025645
 20
-35.0647935274
 30
0.0
 40
0.3999999999999986
 50
180.0
 51
270.0
  0
LINE
  5
199
  8
0
  6
CONTINUOUS
 62
     7
 10
46.3656012293
 20
-35.0647935364
 30
0.0
 11
46.3656012293
 21
-34.464793438
 31
0.0
  0
ARC
  5
19A
  8
0
  6
CONTINUOUS
 62
     7
 10
232.9656025645
 20
-22.4647935274
 30
0.0
 40
4.000000000000004
 50
0.0
 51
90.0
  0
LINE
  5
19B
  8
0
  6
CONTINUOUS
 62
     7
 10
236.9656030413
 20
-24.4647936616
 30
0.0
 11
236.9656030413
 21
-22.4647937063
 31
0.0
  0
LINE
  5
19C
  8
0
  6
CONTINUOUS
 62
     7
 10
236.9656030413
 20
-24.4647936616
 30
0.0
 11
236.9655374762
 21
-24.5647934917
 31
0.0
  0
ARC
  5
19D
  8
0
  6
CONTINUOUS
 62
     7
 10
156.9656025645
 20
-24.4647935274
 30
0.0
 40
80.00000000000001
 50
348.3806348491
 51
351.3006271703
  0
ARC
  5
19E
  8
0
  6
CONTINUOUS
 62
     7
 10
292.9656025645
 20
-24.4647935274
 30
0.0
 40
80.00000000000003
 50
187.9032077335
 51
191.610065148
  0
LINE
  5
19F
  8
0
  6
CONTINUOUS
 62
     7
 10
212.9718546149
 20
-25.4647934529
 30
0.0
 11
212.9656020876
 21
-24.4647936616
 31
0.0
  0
LINE
  5
1A0
  8
0
  6
CONTINUOUS
 62
     7
 10
212.9656020876
 20
-22.4647937063
 30
0.0
 11
212.9656020876
 21
-24.4647936616
 31
0.0
  0
ARC
  5
1A1
  8
0
  6
CONTINUOUS
 62
     7
 10
216.9656025645
 20
-22.4647935274
 30
0.0
 40
4.000000000000004
 50
90.0
 51
180.0
  0
CIRCLE
  5
1A2
  8
0
  6
CONTINUOUS
 62
     7
 10
232.9656025645
 20
-22.4647935274
 30
0.0
 40
1.5
  0
CIRCLE
  5
1A3
  8
0
  6
CONTINUOUS
 62
     7
 10
216.9656025645
 20
-22.4647935274
 30
0.0
 40
1.500000000000007
  0
LINE
  5
1A4
  8
0
  6
CONTINUOUS
 62
     7
 10
232.9656008955
 20
-18.4647937957
 30
0.0
 11
216.9656042334
 21
-18.4647937957
 31
0.0
  0
ARC
  5
1A5
  8
0
  6
CONTINUOUS
 62
     7
 10
71.551318279
 20
-50.4647935274
 30
0.0
 40
4.000000000000012
 50
200.0051900882
 51
270.0
  0
ARC
  5
1A6
  8
0
  6
CONTINUOUS
 62
     7
 10
142.9656025645
 20
-24.4647935274
 30
0.0
 40
80.0
 50
189.8685553009
 51
200.0051900882
  0
LINE
  5
1A7
  8
0
  6
CONTINUOUS
 62
     7
 10
62.9656676527
 20
-24.5647934917
 30
0.0
 11
62.9656020876
 21
-24.4647936616
 31
0.0
  0
LINE
  5
1A8
  8
0
  6
CONTINUOUS
 62
     7
 10
62.9656020876
 20
-22.4647937063
 30
0.0
 11
62.9656020876
 21
-24.4647936616
 31
0.0
  0
LINE
  5
1A9
  8
0
  6
CONTINUOUS
 62
     7
 10
86.9656030413
 20
-24.4647936616
 30
0.0
 11
86.9656030413
 21
-22.4647937063
 31
0.0
  0
LINE
  5
1AA
  8
0
  6
CONTINUOUS
 62
     7
 10
86.9656030413
 20
-24.4647936616
 30
0.0
 11
86.9593505141
 21
-25.4647934529
 31
0.0
  0
ARC
  5
1AB
  8
0
  6
CONTINUOUS
 62
     7
 10
6.9656025645
 20
-24.4647935274
 30
0.0
 40
80.0
 50
339.9948099118
 51
348.883693452
  0
ARC
  5
1AC
  8
0
  6
CONTINUOUS
 62
     7
 10
78.3798868499
 20
-50.4647935274
 30
0.0
 40
4.0
 50
270.0
 51
339.9948099118
  0
LINE
  5
1AD
  8
0
  6
CONTINUOUS
 62
     7
 10
71.5513173815
 20
-54.464792991
 30
0.0
 11
78.3798877474
 21
-54.464792991
 31
0.0
  0
CIRCLE
  5
1AE
  8
0
  6
CONTINUOUS
 62
     7
 10
66.9656025645
 20
-22.4647935274
 30
0.0
 40
1.500000000000004
  0
CIRCLE
  5
1AF
  8
0
  6
CONTINUOUS
 62
     7
 10
82.9656025645
 20
-22.4647935274
 30
0.0
 40
1.500000000000004
  0
CIRCLE
  5
1B0
  8
0
  6
CONTINUOUS
 62
     7
 10
74.9656025645
 20
-50.4647935274
 30
0.0
 40
1.5
  0
ARC
  5
1B1
  8
0
  6
CONTINUOUS
 62
     7
 10
66.9656025645
 20
-22.4647935274
 30
0.0
 40
4.000000000000007
 50
90.0
 51
180.0
  0
ARC
  5
1B2
  8
0
  6
CONTINUOUS
 62
     7
 10
82.9656025645
 20
-22.4647935274
 30
0.0
 40
4.000000000000004
 50
0.0
 51
90.0
  0
LINE
  5
1B3
  8
0
  6
CONTINUOUS
 62
     7
 10
82.9656008955
 20
-18.4647937957
 30
0.0
 11
66.9656042334
 21
-18.4647937957
 31
0.0
  0
LINE
  5
1B4
  8
0
  6
CONTINUOUS
 62
     7
 10
235.2975312945
 20
-110.5584097746
 30
0.0
 11
235.1862851855
 21
-110.5647934321
 31
0.0
  0
ARC
  5
1B5
  8
0
  6
CONTINUOUS
 62
     7
 10
234.8260233625
 20
-95.6586267776
 30
0.0
 40
10.07562402994018
 50
280.5231071452
 51
0.5335843978
  0
POLYLINE
  5
1B6
  8
0
  6
CONTINUOUS
 62
     7
 66
     1
 10
0.0
 20
0.0
 30
0.0
  0
VERTEX
  5
393
  8
0
  6
CONTINUOUS
 62
     7
 10
173.2656020995
 20
-48.6009983066
 30
0.0
  0
VERTEX
  5
394
  8
0
  6
CONTINUOUS
 62
     7
 10
172.7333028194
 20
-49.2998150829
 30
0.0
  0
VERTEX
  5
395
  8
0
  6
CONTINUOUS
 62
     7
 10
172.2656030532
 20
-50.0532684568
 30
0.0
  0
SEQEND
  5
3C0
  8
0
  6
CONTINUOUS
 62
     7
  0
LINE
  5
1B7
  8
0
  6
CONTINUOUS
 62
     7
 10
184.6213821646
 20
-40.5701329652
 30
0.0
 11
184.7449217316
 21
-40.5647938791
 31
0.0
  0
ARC
  5
1B8
  8
0
  6
CONTINUOUS
 62
     7
 10
185.105182476
 20
-55.4709598925
 30
0.0
 40
10.07562594450491
 50
100.5231161222
 51
180.5335921794
  0
POLYLINE
  5
1B9
  8
0
  6
CONTINUOUS
 62
     7
 66
     1
 10
0.0
 20
0.0
 30
0.0
  0
VERTEX
  5
396
  8
0
  6
CONTINUOUS
 62
     7
 10
246.6656033274
 20
-48.6009983066
 30
0.0
  0
VERTEX
  5
397
  8
0
  6
CONTINUOUS
 62
     7
 10
247.1979026076
 20
-49.2998150829
 30
0.0
  0
VERTEX
  5
398
  8
0
  6
CONTINUOUS
 62
     7
 10
247.6656023737
 20
-50.0532684568
 30
0.0
  0
SEQEND
  5
3BF
  8
0
  6
CONTINUOUS
 62
     7
  0
ARC
  5
1BA
  8
0
  6
CONTINUOUS
 62
     7
 10
234.8437602936
 20
-55.4563518649
 30
0.0
 40
10.05803477123312
 50
359.3822554468
 51
79.5610362516
  0
LINE
  5
1BB
  8
0
  6
CONTINUOUS
 62
     7
 10
184.7449217316
 20
-110.5647934321
 30
0.0
 11
184.6517835137
 21
-110.5595363024
 31
0.0
  0
ARC
  5
1BC
  8
0
  6
CONTINUOUS
 62
     7
 10
185.0874367357
 20
-95.6732389318
 30
0.0
 40
10.05802789364271
 50
179.3822394123
 51
259.5610690447
  0
LINE
  5
1BD
  8
0
  6
CONTINUOUS
 62
     7
 10
175.0299934622
 20
-55.56479224
 30
0.0
 11
175.0299934622
 21
-95.5647958163
 31
0.0
  0
LINE
  5
1BE
  8
0
  6
CONTINUOUS
 62
     7
 10
244.9012104746
 20
-95.5647958163
 30
0.0
 11
244.9012104746
 21
-55.56479224
 31
0.0
  0
LINE
  5
1BF
  8
0
  6
CONTINUOUS
 62
     7
 10
172.2656030532
 20
-31.655664714
 30
0.0
 11
172.2656030532
 21
-50.0532684568
 31
0.0
  0
LINE
  5
1C0
  8
0
  6
CONTINUOUS
 62
     7
 10
173.2656020995
 20
-31.655664714
 30
0.0
 11
173.2656020995
 21
-48.6009983066
 31
0.0
  0
LINE
  5
1C1
  8
0
  6
CONTINUOUS
 62
     7
 10
247.6656023737
 20
-31.655664714
 30
0.0
 11
247.6656023737
 21
-50.0532684568
 31
0.0
  0
LINE
  5
1C2
  8
0
  6
CONTINUOUS
 62
     7
 10
246.6656033274
 20
-31.655664714
 30
0.0
 11
246.6656033274
 21
-48.6009983066
 31
0.0
  0
LINE
  5
1C3
  8
0
  6
CONTINUOUS
 62
     7
 10
183.2650486704
 20
-105.56479224
 30
0.0
 11
236.6661552664
 21
-105.56479224
 31
0.0
  0
LINE
  5
1C4
  8
0
  6
CONTINUOUS
 62
     7
 10
183.2650486704
 20
-45.564792836
 30
0.0
 11
236.6661552664
 21
-45.564792836
 31
0.0
  0
LINE
  5
1C5
  8
0
  6
CONTINUOUS
 62
     7
 10
184.7449217316
 20
-40.5647938791
 30
0.0
 11
235.1862851855
 21
-40.5647938791
 31
0.0
  0
LINE
  5
1C6
  8
0
  6
CONTINUOUS
 62
     7
 10
235.1862851855
 20
-110.5647934321
 30
0.0
 11
184.7449217316
 21
-110.5647934321
 31
0.0
  0
LINE
  5
1C7
  8
0
  6
CONTINUOUS
 62
     7
 10
55.0299946543
 20
-27.775040986
 30
0.0
 11
55.0299946543
 21
-30.6974493386
 31
0.0
  0
POLYLINE
  5
1C8
  8
0
  6
CONTINUOUS
 62
     7
 66
     1
 10
0.0
 20
0.0
 30
0.0
  0
VERTEX
  5
399
  8
0
  6
CONTINUOUS
 62
     7
 10
63.2650498625
 20
-28.2944654766
 30
0.0
  0
VERTEX
  5
39A
  8
0
  6
CONTINUOUS
 62
     7
 10
62.1838931319
 20
-28.1556945014
 30
0.0
  0
VERTEX
  5
39B
  8
0
  6
CONTINUOUS
 62
     7
 10
61.1351076838
 20
-28.0261521879
 30
0.0
  0
VERTEX
  5
39C
  8
0
  6
CONTINUOUS
 62
     7
 10
60.1382676836
 20
-27.9089662898
 30
0.0
  0
VERTEX
  5
39D
  8
0
  6
CONTINUOUS
 62
     7
 10
59.2033449885
 20
-27.8062255773
 30
0.0
  0
VERTEX
  5
39E
  8
0
  6
CONTINUOUS
 62
     7
 10
58.3380285975
 20
-27.7197224739
 30
0.0
  0
VERTEX
  5
39F
  8
0
  6
CONTINUOUS
 62
     7
 10
57.5580183741
 20
-27.6520866621
 30
0.0
  0
VERTEX
  5
3A0
  8
0
  6
CONTINUOUS
 62
     7
 10
56.8677310225
 20
-27.6050772238
 30
0.0
  0
VERTEX
  5
3A1
  8
0
  6
CONTINUOUS
 62
     7
 10
56.2765363928
 20
-27.5802859757
 30
0.0
  0
VERTEX
  5
3A2
  8
0
  6
CONTINUOUS
 62
     7
 10
55.7948593375
 20
-27.5791000295
 30
0.0
  0
VERTEX
  5
3A3
  8
0
  6
CONTINUOUS
 62
     7
 10
55.4253165003
 20
-27.603094438
 30
0.0
  0
VERTEX
  5
3A4
  8
0
  6
CONTINUOUS
 62
     7
 10
55.174523997
 20
-27.6524061057
 30
0.0
  0
VERTEX
  5
3A5
  8
0
  6
CONTINUOUS
 62
     7
 10
55.0468746897
 20
-27.7265783119
 30
0.0
  0
VERTEX
  5
3A6
  8
0
  6
CONTINUOUS
 62
     7
 10
55.0299946543
 20
-27.775040986
 30
0.0
  0
SEQEND
  5
3BE
  8
0
  6
CONTINUOUS
 62
     7
  0
ARC
  5
1C9
  8
0
  6
CONTINUOUS
 62
     7
 10
89.9656031605
 20
154.8649590114
 30
0.0
 40
185.0953654881206
 50
261.7059781721
 51
278.2940218279
  0
POLYLINE
  5
1CA
  8
0
  6
CONTINUOUS
 62
     7
 66
     1
 10
0.0
 20
0.0
 30
0.0
  0
VERTEX
  5
3A7
  8
0
  6
CONTINUOUS
 62
     7
 10
124.9012116667
 20
-27.775040986
 30
0.0
  0
VERTEX
  5
3A8
  8
0
  6
CONTINUOUS
 62
     7
 10
124.8371247526
 20
-27.6873843464
 30
0.0
  0
VERTEX
  5
3A9
  8
0
  6
CONTINUOUS
 62
     7
 10
124.6471051451
 20
-27.6246748585
 30
0.0
  0
VERTEX
  5
3AA
  8
0
  6
CONTINUOUS
 62
     7
 10
124.3345205065
 20
-27.5877361837
 30
0.0
  0
VERTEX
  5
3AB
  8
0
  6
CONTINUOUS
 62
     7
 10
123.9004526612
 20
-27.5767959374
 30
0.0
  0
VERTEX
  5
3AC
  8
0
  6
CONTINUOUS
 62
     7
 10
123.3502064225
 20
-27.5907288957
 30
0.0
  0
VERTEX
  5
3AD
  8
0
  6
CONTINUOUS
 62
     7
 10
122.6937715288
 20
-27.6283487398
 30
0.0
  0
VERTEX
  5
3AE
  8
0
  6
CONTINUOUS
 62
     7
 10
121.9404045817
 20
-27.6881767157
 30
0.0
  0
VERTEX
  5
3AF
  8
0
  6
CONTINUOUS
 62
     7
 10
121.0945908305
 20
-27.7683742064
 30
0.0
  0
VERTEX
  5
3B0
  8
0
  6
CONTINUOUS
 62
     7
 10
120.1721135851
 20
-27.8663154412
 30
0.0
  0
VERTEX
  5
3B1
  8
0
  6
CONTINUOUS
 62
     7
 10
119.1902969357
 20
-27.9790313634
 30
0.0
  0
VERTEX
  5
3B2
  8
0
  6
CONTINUOUS
 62
     7
 10
118.1508187529
 20
-28.1052022892
 30
0.0
  0
VERTEX
  5
3B3
  8
0
  6
CONTINUOUS
 62
     7
 10
117.0733426091
 20
-28.2416460756
 30
0.0
  0
VERTEX
  5
3B4
  8
0
  6
CONTINUOUS
 62
     7
 10
116.6661564585
 20
-28.2944654766
 30
0.0
  0
SEQEND
  5
3BD
  8
0
  6
CONTINUOUS
 62
     7
  0
LINE
  5
1CB
  8
0
  6
CONTINUOUS
 62
     7
 10
124.9012116667
 20
-30.6988662993
 30
0.0
 11
124.9012116667
 21
-27.775040986
 31
0.0
  0
POLYLINE
  5
1CC
  8
0
  6
CONTINUOUS
 62
     7
 66
     1
 10
0.0
 20
0.0
 30
0.0
  0
VERTEX
  5
3B5
  8
0
  6
CONTINUOUS
 62
     7
 10
49.9697868105
 20
-28.3415049035
 30
0.0
  0
VERTEX
  5
3B6
  8
0
  6
CONTINUOUS
 62
     7
 10
49.9090615984
 20
-28.8090111408
 30
0.0
  0
VERTEX
  5
3B7
  8
0
  6
CONTINUOUS
 62
     7
 10
49.9068443056
 20
-28.9177982788
 30
0.0
  0
SEQEND
  5
3BC
  8
0
  6
CONTINUOUS
 62
     7
  0
POLYLINE
  5
1CD
  8
0
  6
CONTINUOUS
 62
     7
 66
     1
 10
0.0
 20
0.0
 30
0.0
  0
VERTEX
  5
3B8
  8
0
  6
CONTINUOUS
 62
     7
 10
130.0243590351
 20
-28.9177982788
 30
0.0
  0
VERTEX
  5
3B9
  8
0
  6
CONTINUOUS
 62
     7
 10
130.0221417424
 20
-28.8090111408
 30
0.0
  0
VERTEX
  5
3BA
  8
0
  6
CONTINUOUS
 62
     7
 10
129.9614195105
 20
-28.3415049035
 30
0.0
  0
SEQEND
  5
3BB
  8
0
  6
CONTINUOUS
 62
     7
  0
LINE
  5
1CE
  8
0
  6
CONTINUOUS
 62
     7
 10
53.2656018015
 20
-35.8101287577
 30
0.0
 11
53.2656018015
 21
-36.6534685436
 31
0.0
  0
LINE
  5
1CF
  8
0
  6
CONTINUOUS
 62
     7
 10
52.2656027552
 20
-35.4012401495
 30
0.0
 11
52.2656027552
 21
-36.6534685436
 31
0.0
  0
LINE
  5
1D0
  8
0
  6
CONTINUOUS
 62
     7
 10
126.6656030294
 20
-35.8111345861
 30
0.0
 11
126.6656030294
 21
-36.6534685436
 31
0.0
  0
LINE
  5
1D1
  8
0
  6
CONTINUOUS
 62
     7
 10
127.6656020757
 20
-35.4043615702
 30
0.0
 11
127.6656020757
 21
-36.6534685436
 31
0.0
  0
LINE
  5
1D2
  8
0
  6
CONTINUOUS
 62
     7
 10
126.6656030294
 20
-24.7823206428
 30
0.0
 11
126.6656030294
 21
-26.010424802
 31
0.0
  0
LINE
  5
1D3
  8
0
  6
CONTINUOUS
 62
     7
 10
127.6656020757
 20
-24.7823206428
 30
0.0
 11
127.6656020757
 21
-26.1256916169
 31
0.0
  0
LINE
  5
1D4
  8
0
  6
CONTINUOUS
 62
     7
 10
53.2656018015
 20
-24.7823206428
 30
0.0
 11
53.2656018015
 21
-26.012542257
 31
0.0
  0
LINE
  5
1D5
  8
0
  6
CONTINUOUS
 62
     7
 10
52.2656027552
 20
-24.7823206428
 30
0.0
 11
52.2656027552
 21
-26.1276034358
 31
0.0
  0
LINE
  5
1D6
  8
0
  6
CONTINUOUS
 62
     7
 10
247.9656044718
 20
-24.9509865138
 30
0.0
 11
247.9656044718
 21
-36.964793289
 31
0.0
  0
LINE
  5
1D7
  8
0
  6
CONTINUOUS
 62
     7
 10
251.3656083819
 20
-24.9509865138
 30
0.0
 11
251.3656083819
 21
-36.964793289
 31
0.0
  0
LINE
  5
1D8
  8
0
  6
CONTINUOUS
 62
     7
 10
230.5656019923
 20
-24.5647934917
 30
0.0
 11
230.5656019923
 21
-36.564793596
 31
0.0
  0
LINE
  5
1D9
  8
0
  6
CONTINUOUS
 62
     7
 10
247.9656044718
 20
-21.964793438
 30
0.0
 11
247.9656044718
 21
-24.9509865138
 31
0.0
  0
LINE
  5
1DA
  8
0
  6
CONTINUOUS
 62
     7
 10
251.3656083819
 20
-21.964793438
 30
0.0
 11
251.3656083819
 21
-24.9509865138
 31
0.0
  0
LINE
  5
1DB
  8
0
  6
CONTINUOUS
 62
     7
 10
131.3656021234
 20
-24.9509865138
 30
0.0
 11
131.3656021234
 21
-36.964793289
 31
0.0
  0
LINE
  5
1DC
  8
0
  6
CONTINUOUS
 62
     7
 10
127.9656026837
 20
-24.9509865138
 30
0.0
 11
127.9656026837
 21
-26.1819107178
 31
0.0
  0
LINE
  5
1DD
  8
0
  6
CONTINUOUS
 62
     7
 10
127.9656026837
 20
-35.2504314575
 30
0.0
 11
127.9656026837
 21
-36.964793289
 31
0.0
  0
LINE
  5
1DE
  8
0
  6
CONTINUOUS
 62
     7
 10
110.5656031843
 20
-24.5647934917
 30
0.0
 11
110.5656031843
 21
-27.7687888313
 31
0.0
  0
LINE
  5
1DF
  8
0
  6
CONTINUOUS
 62
     7
 10
131.3656021234
 20
-21.964793438
 30
0.0
 11
131.3656021234
 21
-24.9509865138
 31
0.0
  0
LINE
  5
1E0
  8
0
  6
CONTINUOUS
 62
     7
 10
127.9656026837
 20
-21.964793438
 30
0.0
 11
127.9656026837
 21
-24.9509865138
 31
0.0
  0
LINE
  5
1E1
  8
0
  6
CONTINUOUS
 62
     7
 10
51.9656006571
 20
-24.9509865138
 30
0.0
 11
51.9656006571
 21
-26.184293786
 31
0.0
  0
LINE
  5
1E2
  8
0
  6
CONTINUOUS
 62
     7
 10
51.9656006571
 20
-35.2544316742
 30
0.0
 11
51.9656006571
 21
-36.964793289
 31
0.0
  0
LINE
  5
1E3
  8
0
  6
CONTINUOUS
 62
     7
 10
48.565596747
 20
-24.9509865138
 30
0.0
 11
48.565596747
 21
-36.964793289
 31
0.0
  0
LINE
  5
1E4
  8
0
  6
CONTINUOUS
 62
     7
 10
69.3656031367
 20
-24.5647934917
 30
0.0
 11
69.3656031367
 21
-27.7712396997
 31
0.0
  0
LINE
  5
1E5
  8
0
  6
CONTINUOUS
 62
     7
 10
51.9656006571
 20
-21.964793438
 30
0.0
 11
51.9656006571
 21
-24.9509865138
 31
0.0
  0
LINE
  5
1E6
  8
0
  6
CONTINUOUS
 62
     7
 10
48.565596747
 20
-21.964793438
 30
0.0
 11
48.565596747
 21
-24.9509865138
 31
0.0
  0
LINE
  5
1E7
  8
0
  6
CONTINUOUS
 62
     7
 10
171.9656024453
 20
-24.9509865138
 30
0.0
 11
171.9656024453
 21
-36.964793289
 31
0.0
  0
LINE
  5
1E8
  8
0
  6
CONTINUOUS
 62
     7
 10
168.5656030055
 20
-24.9509865138
 30
0.0
 11
168.5656030055
 21
-36.964793289
 31
0.0
  0
LINE
  5
1E9
  8
0
  6
CONTINUOUS
 62
     7
 10
189.3656019446
 20
-24.5647934917
 30
0.0
 11
189.3656019446
 21
-36.564793596
 31
0.0
  0
LINE
  5
1EA
  8
0
  6
CONTINUOUS
 62
     7
 10
171.9656024453
 20
-21.964793438
 30
0.0
 11
171.9656024453
 21
-24.9509865138
 31
0.0
  0
LINE
  5
1EB
  8
0
  6
CONTINUOUS
 62
     7
 10
168.5656030055
 20
-21.964793438
 30
0.0
 11
168.5656030055
 21
-24.9509865138
 31
0.0
  0
ENDSEC
  0
EOF
